999
Erzeugt mit innoplus bad 
0
SECTION
2
HEADER
9
$ACADVER
1
AC1009
9
$DWGCODEPAGE
3
ISO8859-1
0
ENDSEC
0
SECTION
2
TABLES
0
TABLE
2
LAYER
70
1
0
LAYER
2
0
70
0
62
7
6
CONTINUOUS
0
ENDTAB
0
ENDSEC
0
SECTION
2
ENTITIES
0
LINE
8
0
6
CONTINUOUS
10
-7.500020
20
74.494370
30
0.0
11
-7.500020
21
-74.494350
31
0.0
0
LINE
8
0
6
CONTINUOUS
10
12.000000
20
-74.988860
30
0.0
11
12.000000
21
74.988870
31
0.0
0
LINE
8
0
6
CONTINUOUS
10
-7.500020
20
75.799220
30
0.0
11
-7.500020
21
74.494370
31
0.0
0
LINE
8
0
6
CONTINUOUS
10
12.000000
20
74.988870
30
0.0
11
12.000000
21
76.293110
31
0.0
0
LINE
8
0
6
CONTINUOUS
10
-7.500020
20
75.799220
30
0.0
11
-6.500370
21
75.824540
31
0.0
0
LINE
8
0
6
CONTINUOUS
10
-7.500020
20
76.934500
30
0.0
11
-7.500020
21
75.799220
31
0.0
0
LINE
8
0
6
CONTINUOUS
10
11.000350
20
76.267780
30
0.0
11
12.000000
21
76.293110
31
0.0
0
LINE
8
0
6
CONTINUOUS
10
12.000000
20
76.293110
30
0.0
11
12.000000
21
77.428900
31
0.0
0
LINE
8
0
6
CONTINUOUS
10
-7.500020
20
76.934500
30
0.0
11
-6.500370
21
76.959840
31
0.0
0
LINE
8
0
6
CONTINUOUS
10
-7.500020
20
77.595380
30
0.0
11
-7.500020
21
76.934500
31
0.0
0
LINE
8
0
6
CONTINUOUS
10
11.000350
20
77.403550
30
0.0
11
12.000000
21
77.428900
31
0.0
0
LINE
8
0
6
CONTINUOUS
10
12.000000
20
77.428900
30
0.0
11
12.000000
21
78.089700
31
0.0
0
LINE
8
0
6
CONTINUOUS
10
-6.500370
20
77.776830
30
0.0
11
-7.500020
21
77.751480
31
0.0
0
LINE
8
0
6
CONTINUOUS
10
-7.500020
20
77.595380
30
0.0
11
-6.500370
21
77.620720
31
0.0
0
LINE
8
0
6
CONTINUOUS
10
-7.500020
20
77.751480
30
0.0
11
-7.500020
21
77.595380
31
0.0
0
LINE
8
0
6
CONTINUOUS
10
11.000360
20
78.064360
30
0.0
11
12.000000
21
78.089700
31
0.0
0
LINE
8
0
6
CONTINUOUS
10
12.000000
20
78.245990
30
0.0
11
11.000360
21
78.220640
31
0.0
0
LINE
8
0
6
CONTINUOUS
10
12.000000
20
78.089700
30
0.0
11
12.000000
21
78.245990
31
0.0
0
LINE
8
0
6
CONTINUOUS
10
-7.500020
20
-77.751480
30
0.0
11
-6.500370
21
-77.776820
31
0.0
0
LINE
8
0
6
CONTINUOUS
10
-7.500020
20
-77.595200
30
0.0
11
-7.500020
21
-77.751480
31
0.0
0
LINE
8
0
6
CONTINUOUS
10
11.000350
20
-78.220630
30
0.0
11
12.000000
21
-78.245970
31
0.0
0
LINE
8
0
6
CONTINUOUS
10
12.000000
20
-78.245970
30
0.0
11
12.000000
21
-78.089870
31
0.0
0
LINE
8
0
6
CONTINUOUS
10
-7.500020
20
-77.595200
30
0.0
11
-6.500370
21
-77.620550
31
0.0
0
LINE
8
0
6
CONTINUOUS
10
-7.500020
20
-76.934390
30
0.0
11
-7.500020
21
-77.595200
31
0.0
0
LINE
8
0
6
CONTINUOUS
10
11.000350
20
-78.064510
30
0.0
11
12.000000
21
-78.089870
31
0.0
0
LINE
8
0
6
CONTINUOUS
10
12.000000
20
-78.089870
30
0.0
11
12.000000
21
-77.428990
31
0.0
0
LINE
8
0
6
CONTINUOUS
10
-7.500020
20
-76.934390
30
0.0
11
-6.500370
21
-76.959740
31
0.0
0
LINE
8
0
6
CONTINUOUS
10
-7.500020
20
-75.798590
30
0.0
11
-7.500020
21
-76.934390
31
0.0
0
LINE
8
0
6
CONTINUOUS
10
11.000350
20
-77.403640
30
0.0
11
12.000000
21
-77.428990
31
0.0
0
LINE
8
0
6
CONTINUOUS
10
12.000000
20
-77.428990
30
0.0
11
12.000000
21
-76.293710
31
0.0
0
LINE
8
0
6
CONTINUOUS
10
-7.500020
20
-75.798590
30
0.0
11
-6.500370
21
-75.823980
31
0.0
0
LINE
8
0
6
CONTINUOUS
10
-7.500020
20
-74.494350
30
0.0
11
-7.500020
21
-75.798590
31
0.0
0
LINE
8
0
6
CONTINUOUS
10
11.000350
20
-76.268330
30
0.0
11
12.000000
21
-76.293710
31
0.0
0
LINE
8
0
6
CONTINUOUS
10
12.000000
20
-76.293710
30
0.0
11
12.000000
21
-74.988860
31
0.0
0
LINE
8
0
6
CONTINUOUS
10
11.000350
20
77.403550
30
0.0
11
-6.500370
21
76.959840
31
0.0
0
LINE
8
0
6
CONTINUOUS
10
-6.500370
20
77.620720
30
0.0
11
11.000360
21
78.064360
31
0.0
0
LINE
8
0
6
CONTINUOUS
10
11.000360
20
78.220640
30
0.0
11
-6.500370
21
77.776830
31
0.0
0
LINE
8
0
6
CONTINUOUS
10
11.000350
20
76.267780
30
0.0
11
-6.500370
21
75.824540
31
0.0
0
LINE
8
0
6
CONTINUOUS
10
-6.500370
20
-77.776820
30
0.0
11
11.000350
21
-78.220630
31
0.0
0
LINE
8
0
6
CONTINUOUS
10
11.000350
20
-78.064510
30
0.0
11
-6.500370
21
-77.620550
31
0.0
0
LINE
8
0
6
CONTINUOUS
10
-6.500370
20
-76.959740
30
0.0
11
11.000350
21
-77.403640
31
0.0
0
LINE
8
0
6
CONTINUOUS
10
11.000350
20
-76.268330
30
0.0
11
-6.500370
21
-75.823980
31
0.0
0
LINE
8
0
6
CONTINUOUS
10
-8.500010
20
76.054410
30
0.0
11
-11.500000
21
76.053940
31
0.0
0
LINE
8
0
6
CONTINUOUS
10
-11.500000
20
77.185740
30
0.0
11
-8.500010
21
77.185820
31
0.0
0
LINE
8
0
6
CONTINUOUS
10
-11.500000
20
-76.054430
30
0.0
11
-8.500010
21
-76.053960
31
0.0
0
LINE
8
0
6
CONTINUOUS
10
-11.500000
20
-77.185840
30
0.0
11
-8.500010
21
-77.185760
31
0.0
0
LINE
8
0
6
CONTINUOUS
10
-11.500000
20
-77.844420
30
0.0
11
-8.500010
21
-77.844280
31
0.0
0
LINE
8
0
6
CONTINUOUS
10
-8.500010
20
77.844400
30
0.0
11
-11.500000
21
77.844260
31
0.0
0
LINE
8
0
6
CONTINUOUS
10
-12.000000
20
77.844230
30
0.0
11
-12.000000
21
77.999980
31
0.0
0
LINE
8
0
6
CONTINUOUS
10
-8.000010
20
77.999980
30
0.0
11
-8.000010
21
77.844410
31
0.0
0
LINE
8
0
6
CONTINUOUS
10
-12.000000
20
77.844230
30
0.0
11
-11.500000
21
77.844260
31
0.0
0
LINE
8
0
6
CONTINUOUS
10
-12.000000
20
77.185730
30
0.0
11
-12.000000
21
77.844230
31
0.0
0
LINE
8
0
6
CONTINUOUS
10
-8.500010
20
77.844400
30
0.0
11
-8.000010
21
77.844410
31
0.0
0
LINE
8
0
6
CONTINUOUS
10
-8.000010
20
77.844410
30
0.0
11
-8.000010
21
77.185830
31
0.0
0
LINE
8
0
6
CONTINUOUS
10
-12.000000
20
77.185730
30
0.0
11
-11.500000
21
77.185740
31
0.0
0
LINE
8
0
6
CONTINUOUS
10
-12.000000
20
76.053870
30
0.0
11
-12.000000
21
77.185730
31
0.0
0
LINE
8
0
6
CONTINUOUS
10
-8.500010
20
77.185820
30
0.0
11
-8.000010
21
77.185830
31
0.0
0
LINE
8
0
6
CONTINUOUS
10
-8.000010
20
77.185830
30
0.0
11
-8.000010
21
76.054490
31
0.0
0
LINE
8
0
6
CONTINUOUS
10
-12.000000
20
76.053870
30
0.0
11
-11.500000
21
76.053940
31
0.0
0
LINE
8
0
6
CONTINUOUS
10
-12.000000
20
74.754150
30
0.0
11
-12.000000
21
76.053870
31
0.0
0
LINE
8
0
6
CONTINUOUS
10
-8.500010
20
76.054410
30
0.0
11
-8.000010
21
76.054490
31
0.0
0
LINE
8
0
6
CONTINUOUS
10
-8.000010
20
76.054490
30
0.0
11
-8.000010
21
74.754150
31
0.0
0
LINE
8
0
6
CONTINUOUS
10
-8.000010
20
-77.844250
30
0.0
11
-8.000010
21
-78.000000
31
0.0
0
LINE
8
0
6
CONTINUOUS
10
-12.000000
20
-78.000000
30
0.0
11
-12.000000
21
-77.844430
31
0.0
0
LINE
8
0
6
CONTINUOUS
10
-8.000010
20
-77.844250
30
0.0
11
-8.500010
21
-77.844280
31
0.0
0
LINE
8
0
6
CONTINUOUS
10
-8.000010
20
-77.185750
30
0.0
11
-8.000010
21
-77.844250
31
0.0
0
LINE
8
0
6
CONTINUOUS
10
-11.500000
20
-77.844420
30
0.0
11
-12.000000
21
-77.844430
31
0.0
0
LINE
8
0
6
CONTINUOUS
10
-12.000000
20
-77.844430
30
0.0
11
-12.000000
21
-77.185850
31
0.0
0
LINE
8
0
6
CONTINUOUS
10
-8.000010
20
-77.185750
30
0.0
11
-8.500010
21
-77.185760
31
0.0
0
LINE
8
0
6
CONTINUOUS
10
-8.000010
20
-76.053890
30
0.0
11
-8.000010
21
-77.185750
31
0.0
0
LINE
8
0
6
CONTINUOUS
10
-11.500000
20
-77.185840
30
0.0
11
-12.000000
21
-77.185850
31
0.0
0
LINE
8
0
6
CONTINUOUS
10
-12.000000
20
-77.185850
30
0.0
11
-12.000000
21
-76.054510
31
0.0
0
LINE
8
0
6
CONTINUOUS
10
-8.000010
20
-76.053890
30
0.0
11
-8.500010
21
-76.053960
31
0.0
0
LINE
8
0
6
CONTINUOUS
10
-8.000010
20
-74.754170
30
0.0
11
-8.000010
21
-76.053890
31
0.0
0
LINE
8
0
6
CONTINUOUS
10
-11.500000
20
-76.054430
30
0.0
11
-12.000000
21
-76.054510
31
0.0
0
LINE
8
0
6
CONTINUOUS
10
-12.000000
20
-76.054510
30
0.0
11
-12.000000
21
-74.754170
31
0.0
0
LINE
8
0
6
CONTINUOUS
10
-12.000000
20
-0.000010
30
0.0
11
-12.000000
21
-74.754170
31
0.0
0
LINE
8
0
6
CONTINUOUS
10
-8.000010
20
-0.000010
30
0.0
11
-8.000010
21
-74.754170
31
0.0
0
LINE
8
0
6
CONTINUOUS
10
-8.000010
20
-0.000010
30
0.0
11
-8.000010
21
74.754150
31
0.0
0
LINE
8
0
6
CONTINUOUS
10
-12.000000
20
-0.000010
30
0.0
11
-12.000000
21
74.754150
31
0.0
0
LINE
8
0
6
CONTINUOUS
10
-8.000010
20
3.425050
30
0.0
11
-8.000010
21
6.741070
31
0.0
0
LINE
8
0
6
CONTINUOUS
10
-8.000010
20
13.159420
30
0.0
11
-8.000010
21
13.669930
31
0.0
0
LINE
8
0
6
CONTINUOUS
10
-8.000010
20
9.632490
30
0.0
11
-8.000010
21
11.799770
31
0.0
0
LINE
8
0
6
CONTINUOUS
10
-8.000010
20
6.741070
30
0.0
11
-8.000010
21
9.632490
31
0.0
0
LINE
8
0
6
CONTINUOUS
10
-8.000010
20
-0.145980
30
0.0
11
-8.000010
21
3.425050
31
0.0
0
LINE
8
0
6
CONTINUOUS
10
-12.000000
20
13.159420
30
0.0
11
-12.000000
21
13.669930
31
0.0
0
LINE
8
0
6
CONTINUOUS
10
-12.000000
20
6.741070
30
0.0
11
-12.000000
21
9.632490
31
0.0
0
LINE
8
0
6
CONTINUOUS
10
-12.000000
20
11.799770
30
0.0
11
-12.000000
21
13.159420
31
0.0
0
LINE
8
0
6
CONTINUOUS
10
-12.000000
20
3.425050
30
0.0
11
-12.000000
21
6.741070
31
0.0
0
LINE
8
0
6
CONTINUOUS
10
-12.000000
20
-0.145980
30
0.0
11
-12.000000
21
3.425050
31
0.0
0
LINE
8
0
6
CONTINUOUS
10
-12.000000
20
9.632490
30
0.0
11
-12.000000
21
11.799770
31
0.0
0
LINE
8
0
6
CONTINUOUS
10
-8.000010
20
11.799770
30
0.0
11
-8.000010
21
13.159420
31
0.0
0
LINE
8
0
6
CONTINUOUS
10
-8.000010
20
6.741070
30
0.0
11
-8.000010
21
3.425050
31
0.0
0
LINE
8
0
6
CONTINUOUS
10
-8.000010
20
13.669930
30
0.0
11
-8.000010
21
13.159420
31
0.0
0
LINE
8
0
6
CONTINUOUS
10
-11.211590
20
13.669930
30
0.0
11
-8.000010
21
13.669930
31
0.0
0
LINE
8
0
6
CONTINUOUS
10
-8.000010
20
11.799770
30
0.0
11
-8.000010
21
9.632490
31
0.0
0
LINE
8
0
6
CONTINUOUS
10
-8.000010
20
9.632490
30
0.0
11
-8.000010
21
6.741070
31
0.0
0
LINE
8
0
6
CONTINUOUS
10
-8.000010
20
3.425050
30
0.0
11
-8.000010
21
-0.145980
31
0.0
0
LINE
8
0
6
CONTINUOUS
10
-8.000010
20
3.425050
30
0.0
11
-8.000010
21
6.741070
31
0.0
0
LINE
8
0
6
CONTINUOUS
10
-12.000000
20
13.669930
30
0.0
11
-11.211590
21
13.669930
31
0.0
0
LINE
8
0
6
CONTINUOUS
10
-12.000000
20
13.669930
30
0.0
11
-12.000000
21
13.159420
31
0.0
0
LINE
8
0
6
CONTINUOUS
10
-12.000000
20
9.632490
30
0.0
11
-12.000000
21
6.741070
31
0.0
0
LINE
8
0
6
CONTINUOUS
10
-12.000000
20
13.159420
30
0.0
11
-12.000000
21
11.799770
31
0.0
0
LINE
8
0
6
CONTINUOUS
10
-12.000000
20
6.741070
30
0.0
11
-12.000000
21
3.425050
31
0.0
0
LINE
8
0
6
CONTINUOUS
10
-12.000000
20
3.425050
30
0.0
11
-12.000000
21
-0.145980
31
0.0
0
LINE
8
0
6
CONTINUOUS
10
-12.000000
20
11.799770
30
0.0
11
-12.000000
21
9.632490
31
0.0
0
LINE
8
0
6
CONTINUOUS
10
-8.000010
20
13.159420
30
0.0
11
-8.000010
21
11.799770
31
0.0
0
LINE
8
0
6
CONTINUOUS
10
-8.000010
20
13.159420
30
0.0
11
-8.000010
21
13.669930
31
0.0
0
LINE
8
0
6
CONTINUOUS
10
-8.000010
20
9.632490
30
0.0
11
-8.000010
21
11.799770
31
0.0
0
LINE
8
0
6
CONTINUOUS
10
-8.000010
20
6.741070
30
0.0
11
-8.000010
21
9.632490
31
0.0
0
LINE
8
0
6
CONTINUOUS
10
-8.000010
20
-0.145980
30
0.0
11
-8.000010
21
3.425050
31
0.0
0
LINE
8
0
6
CONTINUOUS
10
-12.000000
20
13.159420
30
0.0
11
-12.000000
21
13.669930
31
0.0
0
LINE
8
0
6
CONTINUOUS
10
-12.000000
20
6.741070
30
0.0
11
-12.000000
21
9.632490
31
0.0
0
LINE
8
0
6
CONTINUOUS
10
-12.000000
20
11.799770
30
0.0
11
-12.000000
21
13.159420
31
0.0
0
LINE
8
0
6
CONTINUOUS
10
-12.000000
20
3.425050
30
0.0
11
-12.000000
21
6.741070
31
0.0
0
LINE
8
0
6
CONTINUOUS
10
-12.000000
20
-0.145980
30
0.0
11
-12.000000
21
3.425050
31
0.0
0
LINE
8
0
6
CONTINUOUS
10
-12.000000
20
9.632490
30
0.0
11
-12.000000
21
11.799770
31
0.0
0
LINE
8
0
6
CONTINUOUS
10
-8.000010
20
11.799770
30
0.0
11
-8.000010
21
13.159420
31
0.0
0
LINE
8
0
6
CONTINUOUS
10
-8.000010
20
-7.033030
30
0.0
11
-8.000010
21
-3.717010
31
0.0
0
LINE
8
0
6
CONTINUOUS
10
-8.000010
20
-13.961890
30
0.0
11
-8.000010
21
-13.451380
31
0.0
0
LINE
8
0
6
CONTINUOUS
10
-8.000010
20
-12.091730
30
0.0
11
-8.000010
21
-9.924450
31
0.0
0
LINE
8
0
6
CONTINUOUS
10
-8.000010
20
-9.924450
30
0.0
11
-8.000010
21
-7.033030
31
0.0
0
LINE
8
0
6
CONTINUOUS
10
-8.000010
20
-3.717010
30
0.0
11
-8.000010
21
-0.145980
31
0.0
0
LINE
8
0
6
CONTINUOUS
10
-12.000000
20
-13.961890
30
0.0
11
-12.000000
21
-13.451380
31
0.0
0
LINE
8
0
6
CONTINUOUS
10
-12.000000
20
-9.924450
30
0.0
11
-12.000000
21
-7.033030
31
0.0
0
LINE
8
0
6
CONTINUOUS
10
-12.000000
20
-13.451380
30
0.0
11
-12.000000
21
-12.091730
31
0.0
0
LINE
8
0
6
CONTINUOUS
10
-12.000000
20
-7.033030
30
0.0
11
-12.000000
21
-3.717010
31
0.0
0
LINE
8
0
6
CONTINUOUS
10
-12.000000
20
-3.717010
30
0.0
11
-12.000000
21
-0.145980
31
0.0
0
LINE
8
0
6
CONTINUOUS
10
-12.000000
20
-12.091730
30
0.0
11
-12.000000
21
-9.924450
31
0.0
0
LINE
8
0
6
CONTINUOUS
10
-8.000010
20
-13.451380
30
0.0
11
-8.000010
21
-12.091730
31
0.0
0
LINE
8
0
6
CONTINUOUS
10
-8.000010
20
-3.717010
30
0.0
11
-8.000010
21
-7.033030
31
0.0
0
LINE
8
0
6
CONTINUOUS
10
-8.000010
20
-13.961890
30
0.0
11
-11.211590
21
-13.961890
31
0.0
0
LINE
8
0
6
CONTINUOUS
10
-8.000010
20
-13.451380
30
0.0
11
-8.000010
21
-13.961890
31
0.0
0
LINE
8
0
6
CONTINUOUS
10
-8.000010
20
-9.924450
30
0.0
11
-8.000010
21
-12.091730
31
0.0
0
LINE
8
0
6
CONTINUOUS
10
-8.000010
20
-7.033030
30
0.0
11
-8.000010
21
-9.924450
31
0.0
0
LINE
8
0
6
CONTINUOUS
10
-8.000010
20
-0.145980
30
0.0
11
-8.000010
21
-3.717010
31
0.0
0
LINE
8
0
6
CONTINUOUS
10
-8.000010
20
-7.033030
30
0.0
11
-8.000010
21
-3.717010
31
0.0
0
LINE
8
0
6
CONTINUOUS
10
-11.211590
20
-13.961890
30
0.0
11
-12.000000
21
-13.961890
31
0.0
0
LINE
8
0
6
CONTINUOUS
10
-12.000000
20
-13.451380
30
0.0
11
-12.000000
21
-13.961890
31
0.0
0
LINE
8
0
6
CONTINUOUS
10
-12.000000
20
-7.033030
30
0.0
11
-12.000000
21
-9.924450
31
0.0
0
LINE
8
0
6
CONTINUOUS
10
-12.000000
20
-12.091730
30
0.0
11
-12.000000
21
-13.451380
31
0.0
0
LINE
8
0
6
CONTINUOUS
10
-12.000000
20
-3.717010
30
0.0
11
-12.000000
21
-7.033030
31
0.0
0
LINE
8
0
6
CONTINUOUS
10
-12.000000
20
-0.145980
30
0.0
11
-12.000000
21
-3.717010
31
0.0
0
LINE
8
0
6
CONTINUOUS
10
-12.000000
20
-9.924450
30
0.0
11
-12.000000
21
-12.091730
31
0.0
0
LINE
8
0
6
CONTINUOUS
10
-8.000010
20
-12.091730
30
0.0
11
-8.000010
21
-13.451380
31
0.0
0
LINE
8
0
6
CONTINUOUS
10
-8.000010
20
-13.961890
30
0.0
11
-8.000010
21
-13.451380
31
0.0
0
LINE
8
0
6
CONTINUOUS
10
-8.000010
20
-12.091730
30
0.0
11
-8.000010
21
-9.924450
31
0.0
0
LINE
8
0
6
CONTINUOUS
10
-8.000010
20
-9.924450
30
0.0
11
-8.000010
21
-7.033030
31
0.0
0
LINE
8
0
6
CONTINUOUS
10
-8.000010
20
-3.717010
30
0.0
11
-8.000010
21
-0.145980
31
0.0
0
LINE
8
0
6
CONTINUOUS
10
-12.000000
20
-13.961890
30
0.0
11
-12.000000
21
-13.451380
31
0.0
0
LINE
8
0
6
CONTINUOUS
10
-12.000000
20
-9.924450
30
0.0
11
-12.000000
21
-7.033030
31
0.0
0
LINE
8
0
6
CONTINUOUS
10
-12.000000
20
-13.451380
30
0.0
11
-12.000000
21
-12.091730
31
0.0
0
LINE
8
0
6
CONTINUOUS
10
-12.000000
20
-7.033030
30
0.0
11
-12.000000
21
-3.717010
31
0.0
0
LINE
8
0
6
CONTINUOUS
10
-12.000000
20
-3.717010
30
0.0
11
-12.000000
21
-0.145980
31
0.0
0
LINE
8
0
6
CONTINUOUS
10
-12.000000
20
-12.091730
30
0.0
11
-12.000000
21
-9.924450
31
0.0
0
LINE
8
0
6
CONTINUOUS
10
-8.000010
20
-13.451380
30
0.0
11
-8.000010
21
-12.091730
31
0.0
0
LINE
8
0
6
CONTINUOUS
10
-8.500010
20
77.185820
30
0.0
11
-11.500000
21
77.185740
31
0.0
0
LINE
8
0
6
CONTINUOUS
10
-11.500000
20
76.053940
30
0.0
11
-8.500010
21
76.054410
31
0.0
0
LINE
8
0
6
CONTINUOUS
10
-8.500010
20
-76.053960
30
0.0
11
-11.500000
21
-76.054430
31
0.0
0
LINE
8
0
6
CONTINUOUS
10
-8.500010
20
-77.185760
30
0.0
11
-11.500000
21
-77.185840
31
0.0
0
LINE
8
0
6
CONTINUOUS
10
-8.500010
20
-77.844280
30
0.0
11
-11.500000
21
-77.844420
31
0.0
0
LINE
8
0
6
CONTINUOUS
10
-11.500000
20
77.844260
30
0.0
11
-8.500010
21
77.844400
31
0.0
0
LINE
8
0
6
CONTINUOUS
10
-8.500010
20
-78.000000
30
0.0
11
-11.500000
21
-78.000000
31
0.0
0
LINE
8
0
6
CONTINUOUS
10
-11.500000
20
77.999980
30
0.0
11
-8.500010
21
77.999980
31
0.0
0
LINE
8
0
6
CONTINUOUS
10
-12.000000
20
77.999980
30
0.0
11
-12.000000
21
77.844230
31
0.0
0
LINE
8
0
6
CONTINUOUS
10
-8.000010
20
77.844410
30
0.0
11
-8.000010
21
77.999980
31
0.0
0
LINE
8
0
6
CONTINUOUS
10
-12.000000
20
77.844230
30
0.0
11
-12.000000
21
77.185730
31
0.0
0
LINE
8
0
6
CONTINUOUS
10
-11.500000
20
77.844260
30
0.0
11
-12.000000
21
77.844230
31
0.0
0
LINE
8
0
6
CONTINUOUS
10
-8.000010
20
77.185830
30
0.0
11
-8.000010
21
77.844410
31
0.0
0
LINE
8
0
6
CONTINUOUS
10
-8.000010
20
77.844410
30
0.0
11
-8.500010
21
77.844400
31
0.0
0
LINE
8
0
6
CONTINUOUS
10
-12.000000
20
77.185730
30
0.0
11
-12.000000
21
76.053870
31
0.0
0
LINE
8
0
6
CONTINUOUS
10
-11.500000
20
77.185740
30
0.0
11
-12.000000
21
77.185730
31
0.0
0
LINE
8
0
6
CONTINUOUS
10
-8.000010
20
76.054490
30
0.0
11
-8.000010
21
77.185830
31
0.0
0
LINE
8
0
6
CONTINUOUS
10
-8.000010
20
77.185830
30
0.0
11
-8.500010
21
77.185820
31
0.0
0
LINE
8
0
6
CONTINUOUS
10
-12.000000
20
76.053870
30
0.0
11
-12.000000
21
74.754150
31
0.0
0
LINE
8
0
6
CONTINUOUS
10
-11.500000
20
76.053940
30
0.0
11
-12.000000
21
76.053870
31
0.0
0
LINE
8
0
6
CONTINUOUS
10
-8.000010
20
74.754150
30
0.0
11
-8.000010
21
76.054490
31
0.0
0
LINE
8
0
6
CONTINUOUS
10
-8.000010
20
76.054490
30
0.0
11
-8.500010
21
76.054410
31
0.0
0
LINE
8
0
6
CONTINUOUS
10
-8.000010
20
-78.000000
30
0.0
11
-8.000010
21
-77.844250
31
0.0
0
LINE
8
0
6
CONTINUOUS
10
-12.000000
20
-77.844430
30
0.0
11
-12.000000
21
-78.000000
31
0.0
0
LINE
8
0
6
CONTINUOUS
10
-8.000010
20
-77.844250
30
0.0
11
-8.000010
21
-77.185750
31
0.0
0
LINE
8
0
6
CONTINUOUS
10
-8.500010
20
-77.844280
30
0.0
11
-8.000010
21
-77.844250
31
0.0
0
LINE
8
0
6
CONTINUOUS
10
-12.000000
20
-77.185850
30
0.0
11
-12.000000
21
-77.844430
31
0.0
0
LINE
8
0
6
CONTINUOUS
10
-12.000000
20
-77.844430
30
0.0
11
-11.500000
21
-77.844420
31
0.0
0
LINE
8
0
6
CONTINUOUS
10
-8.000010
20
-77.185750
30
0.0
11
-8.000010
21
-76.053890
31
0.0
0
LINE
8
0
6
CONTINUOUS
10
-8.500010
20
-77.185760
30
0.0
11
-8.000010
21
-77.185750
31
0.0
0
LINE
8
0
6
CONTINUOUS
10
-12.000000
20
-76.054510
30
0.0
11
-12.000000
21
-77.185850
31
0.0
0
LINE
8
0
6
CONTINUOUS
10
-12.000000
20
-77.185850
30
0.0
11
-11.500000
21
-77.185840
31
0.0
0
LINE
8
0
6
CONTINUOUS
10
-8.000010
20
-76.053890
30
0.0
11
-8.000010
21
-74.754170
31
0.0
0
LINE
8
0
6
CONTINUOUS
10
-8.500010
20
-76.053960
30
0.0
11
-8.000010
21
-76.053890
31
0.0
0
LINE
8
0
6
CONTINUOUS
10
-12.000000
20
-74.754170
30
0.0
11
-12.000000
21
-76.054510
31
0.0
0
LINE
8
0
6
CONTINUOUS
10
-12.000000
20
-76.054510
30
0.0
11
-11.500000
21
-76.054430
31
0.0
0
LINE
8
0
6
CONTINUOUS
10
-12.000000
20
77.999980
30
0.0
11
-11.500000
21
77.999980
31
0.0
0
LINE
8
0
6
CONTINUOUS
10
-12.000000
20
-74.754170
30
0.0
11
-12.000000
21
-0.000010
31
0.0
0
LINE
8
0
6
CONTINUOUS
10
-8.500010
20
77.999980
30
0.0
11
-8.000010
21
77.999980
31
0.0
0
LINE
8
0
6
CONTINUOUS
10
-8.000010
20
-74.754170
30
0.0
11
-8.000010
21
-0.000010
31
0.0
0
LINE
8
0
6
CONTINUOUS
10
-8.000010
20
74.754150
30
0.0
11
-8.000010
21
-0.000010
31
0.0
0
LINE
8
0
6
CONTINUOUS
10
-12.000000
20
74.754150
30
0.0
11
-12.000000
21
-0.000010
31
0.0
0
LINE
8
0
6
CONTINUOUS
10
-8.000010
20
6.741070
30
0.0
11
-8.000010
21
3.425050
31
0.0
0
LINE
8
0
6
CONTINUOUS
10
-8.000010
20
13.669930
30
0.0
11
-8.000010
21
13.159420
31
0.0
0
LINE
8
0
6
CONTINUOUS
10
-8.000010
20
11.799770
30
0.0
11
-8.000010
21
9.632490
31
0.0
0
LINE
8
0
6
CONTINUOUS
10
-8.000010
20
9.632490
30
0.0
11
-8.000010
21
6.741070
31
0.0
0
LINE
8
0
6
CONTINUOUS
10
-8.000010
20
3.425050
30
0.0
11
-8.000010
21
-0.145980
31
0.0
0
LINE
8
0
6
CONTINUOUS
10
-12.000000
20
13.669930
30
0.0
11
-12.000000
21
13.159420
31
0.0
0
LINE
8
0
6
CONTINUOUS
10
-12.000000
20
9.632490
30
0.0
11
-12.000000
21
6.741070
31
0.0
0
LINE
8
0
6
CONTINUOUS
10
-12.000000
20
13.159420
30
0.0
11
-12.000000
21
11.799770
31
0.0
0
LINE
8
0
6
CONTINUOUS
10
-12.000000
20
6.741070
30
0.0
11
-12.000000
21
3.425050
31
0.0
0
LINE
8
0
6
CONTINUOUS
10
-12.000000
20
3.425050
30
0.0
11
-12.000000
21
-0.145980
31
0.0
0
LINE
8
0
6
CONTINUOUS
10
-12.000000
20
11.799770
30
0.0
11
-12.000000
21
9.632490
31
0.0
0
LINE
8
0
6
CONTINUOUS
10
-8.000010
20
13.159420
30
0.0
11
-8.000010
21
11.799770
31
0.0
0
LINE
8
0
6
CONTINUOUS
10
-8.000010
20
3.425050
30
0.0
11
-8.000010
21
6.741070
31
0.0
0
LINE
8
0
6
CONTINUOUS
10
-8.000010
20
13.669930
30
0.0
11
-11.211590
21
13.669930
31
0.0
0
LINE
8
0
6
CONTINUOUS
10
-8.000010
20
13.159420
30
0.0
11
-8.000010
21
13.669930
31
0.0
0
LINE
8
0
6
CONTINUOUS
10
-8.000010
20
9.632490
30
0.0
11
-8.000010
21
11.799770
31
0.0
0
LINE
8
0
6
CONTINUOUS
10
-8.000010
20
6.741070
30
0.0
11
-8.000010
21
9.632490
31
0.0
0
LINE
8
0
6
CONTINUOUS
10
-8.000010
20
-0.145980
30
0.0
11
-8.000010
21
3.425050
31
0.0
0
LINE
8
0
6
CONTINUOUS
10
-8.000010
20
6.741070
30
0.0
11
-8.000010
21
3.425050
31
0.0
0
LINE
8
0
6
CONTINUOUS
10
-11.211590
20
13.669930
30
0.0
11
-12.000000
21
13.669930
31
0.0
0
LINE
8
0
6
CONTINUOUS
10
-12.000000
20
13.159420
30
0.0
11
-12.000000
21
13.669930
31
0.0
0
LINE
8
0
6
CONTINUOUS
10
-12.000000
20
6.741070
30
0.0
11
-12.000000
21
9.632490
31
0.0
0
LINE
8
0
6
CONTINUOUS
10
-12.000000
20
11.799770
30
0.0
11
-12.000000
21
13.159420
31
0.0
0
LINE
8
0
6
CONTINUOUS
10
-12.000000
20
3.425050
30
0.0
11
-12.000000
21
6.741070
31
0.0
0
LINE
8
0
6
CONTINUOUS
10
-12.000000
20
-0.145980
30
0.0
11
-12.000000
21
3.425050
31
0.0
0
LINE
8
0
6
CONTINUOUS
10
-12.000000
20
9.632490
30
0.0
11
-12.000000
21
11.799770
31
0.0
0
LINE
8
0
6
CONTINUOUS
10
-8.000010
20
11.799770
30
0.0
11
-8.000010
21
13.159420
31
0.0
0
LINE
8
0
6
CONTINUOUS
10
-8.000010
20
13.669930
30
0.0
11
-8.000010
21
13.159420
31
0.0
0
LINE
8
0
6
CONTINUOUS
10
-11.211590
20
13.669930
30
0.0
11
-8.000010
21
13.669930
31
0.0
0
LINE
8
0
6
CONTINUOUS
10
-8.000010
20
11.799770
30
0.0
11
-8.000010
21
9.632490
31
0.0
0
LINE
8
0
6
CONTINUOUS
10
-8.000010
20
9.632490
30
0.0
11
-8.000010
21
6.741070
31
0.0
0
LINE
8
0
6
CONTINUOUS
10
-8.000010
20
3.425050
30
0.0
11
-8.000010
21
-0.145980
31
0.0
0
LINE
8
0
6
CONTINUOUS
10
-12.000000
20
13.669930
30
0.0
11
-11.211590
21
13.669930
31
0.0
0
LINE
8
0
6
CONTINUOUS
10
-12.000000
20
13.669930
30
0.0
11
-12.000000
21
13.159420
31
0.0
0
LINE
8
0
6
CONTINUOUS
10
-12.000000
20
9.632490
30
0.0
11
-12.000000
21
6.741070
31
0.0
0
LINE
8
0
6
CONTINUOUS
10
-12.000000
20
13.159420
30
0.0
11
-12.000000
21
11.799770
31
0.0
0
LINE
8
0
6
CONTINUOUS
10
-12.000000
20
6.741070
30
0.0
11
-12.000000
21
3.425050
31
0.0
0
LINE
8
0
6
CONTINUOUS
10
-12.000000
20
3.425050
30
0.0
11
-12.000000
21
-0.145980
31
0.0
0
LINE
8
0
6
CONTINUOUS
10
-12.000000
20
11.799770
30
0.0
11
-12.000000
21
9.632490
31
0.0
0
LINE
8
0
6
CONTINUOUS
10
-8.000010
20
13.159420
30
0.0
11
-8.000010
21
11.799770
31
0.0
0
LINE
8
0
6
CONTINUOUS
10
-8.000010
20
-3.717010
30
0.0
11
-8.000010
21
-7.033030
31
0.0
0
LINE
8
0
6
CONTINUOUS
10
-8.000010
20
-13.451380
30
0.0
11
-8.000010
21
-13.961890
31
0.0
0
LINE
8
0
6
CONTINUOUS
10
-8.000010
20
-9.924450
30
0.0
11
-8.000010
21
-12.091730
31
0.0
0
LINE
8
0
6
CONTINUOUS
10
-8.000010
20
-7.033030
30
0.0
11
-8.000010
21
-9.924450
31
0.0
0
LINE
8
0
6
CONTINUOUS
10
-8.000010
20
-0.145980
30
0.0
11
-8.000010
21
-3.717010
31
0.0
0
LINE
8
0
6
CONTINUOUS
10
-12.000000
20
-13.451380
30
0.0
11
-12.000000
21
-13.961890
31
0.0
0
LINE
8
0
6
CONTINUOUS
10
-12.000000
20
-7.033030
30
0.0
11
-12.000000
21
-9.924450
31
0.0
0
LINE
8
0
6
CONTINUOUS
10
-12.000000
20
-12.091730
30
0.0
11
-12.000000
21
-13.451380
31
0.0
0
LINE
8
0
6
CONTINUOUS
10
-12.000000
20
-3.717010
30
0.0
11
-12.000000
21
-7.033030
31
0.0
0
LINE
8
0
6
CONTINUOUS
10
-12.000000
20
-0.145980
30
0.0
11
-12.000000
21
-3.717010
31
0.0
0
LINE
8
0
6
CONTINUOUS
10
-12.000000
20
-9.924450
30
0.0
11
-12.000000
21
-12.091730
31
0.0
0
LINE
8
0
6
CONTINUOUS
10
-8.000010
20
-12.091730
30
0.0
11
-8.000010
21
-13.451380
31
0.0
0
LINE
8
0
6
CONTINUOUS
10
-8.000010
20
-7.033030
30
0.0
11
-8.000010
21
-3.717010
31
0.0
0
LINE
8
0
6
CONTINUOUS
10
-8.000010
20
-13.961890
30
0.0
11
-8.000010
21
-13.451380
31
0.0
0
LINE
8
0
6
CONTINUOUS
10
-11.211590
20
-13.961890
30
0.0
11
-8.000010
21
-13.961890
31
0.0
0
LINE
8
0
6
CONTINUOUS
10
-8.000010
20
-12.091730
30
0.0
11
-8.000010
21
-9.924450
31
0.0
0
LINE
8
0
6
CONTINUOUS
10
-8.000010
20
-9.924450
30
0.0
11
-8.000010
21
-7.033030
31
0.0
0
LINE
8
0
6
CONTINUOUS
10
-8.000010
20
-3.717010
30
0.0
11
-8.000010
21
-0.145980
31
0.0
0
LINE
8
0
6
CONTINUOUS
10
-8.000010
20
-3.717010
30
0.0
11
-8.000010
21
-7.033030
31
0.0
0
LINE
8
0
6
CONTINUOUS
10
-12.000000
20
-13.961890
30
0.0
11
-11.211590
21
-13.961890
31
0.0
0
LINE
8
0
6
CONTINUOUS
10
-12.000000
20
-13.961890
30
0.0
11
-12.000000
21
-13.451380
31
0.0
0
LINE
8
0
6
CONTINUOUS
10
-12.000000
20
-9.924450
30
0.0
11
-12.000000
21
-7.033030
31
0.0
0
LINE
8
0
6
CONTINUOUS
10
-12.000000
20
-13.451380
30
0.0
11
-12.000000
21
-12.091730
31
0.0
0
LINE
8
0
6
CONTINUOUS
10
-12.000000
20
-7.033030
30
0.0
11
-12.000000
21
-3.717010
31
0.0
0
LINE
8
0
6
CONTINUOUS
10
-12.000000
20
-3.717010
30
0.0
11
-12.000000
21
-0.145980
31
0.0
0
LINE
8
0
6
CONTINUOUS
10
-12.000000
20
-12.091730
30
0.0
11
-12.000000
21
-9.924450
31
0.0
0
LINE
8
0
6
CONTINUOUS
10
-8.000010
20
-13.451380
30
0.0
11
-8.000010
21
-12.091730
31
0.0
0
LINE
8
0
6
CONTINUOUS
10
-8.000010
20
-13.961890
30
0.0
11
-11.211590
21
-13.961890
31
0.0
0
LINE
8
0
6
CONTINUOUS
10
-8.000010
20
-13.451380
30
0.0
11
-8.000010
21
-13.961890
31
0.0
0
LINE
8
0
6
CONTINUOUS
10
-8.000010
20
-9.924450
30
0.0
11
-8.000010
21
-12.091730
31
0.0
0
LINE
8
0
6
CONTINUOUS
10
-8.000010
20
-7.033030
30
0.0
11
-8.000010
21
-9.924450
31
0.0
0
LINE
8
0
6
CONTINUOUS
10
-8.000010
20
-0.145980
30
0.0
11
-8.000010
21
-3.717010
31
0.0
0
LINE
8
0
6
CONTINUOUS
10
-11.211590
20
-13.961890
30
0.0
11
-12.000000
21
-13.961890
31
0.0
0
LINE
8
0
6
CONTINUOUS
10
-12.000000
20
-13.451380
30
0.0
11
-12.000000
21
-13.961890
31
0.0
0
LINE
8
0
6
CONTINUOUS
10
-12.000000
20
-7.033030
30
0.0
11
-12.000000
21
-9.924450
31
0.0
0
LINE
8
0
6
CONTINUOUS
10
-12.000000
20
-12.091730
30
0.0
11
-12.000000
21
-13.451380
31
0.0
0
LINE
8
0
6
CONTINUOUS
10
-12.000000
20
-3.717010
30
0.0
11
-12.000000
21
-7.033030
31
0.0
0
LINE
8
0
6
CONTINUOUS
10
-12.000000
20
-0.145980
30
0.0
11
-12.000000
21
-3.717010
31
0.0
0
LINE
8
0
6
CONTINUOUS
10
-12.000000
20
-9.924450
30
0.0
11
-12.000000
21
-12.091730
31
0.0
0
LINE
8
0
6
CONTINUOUS
10
-8.000010
20
-12.091730
30
0.0
11
-8.000010
21
-13.451380
31
0.0
0
LINE
8
0
6
CONTINUOUS
10
-11.500000
20
-78.000000
30
0.0
11
-12.000000
21
-78.000000
31
0.0
0
LINE
8
0
6
CONTINUOUS
10
-8.000010
20
-78.000000
30
0.0
11
-8.500010
21
-78.000000
31
0.0
0
LINE
8
0
6
CONTINUOUS
10
-8.000010
20
3.371480
30
0.0
11
-8.000010
21
-0.145980
31
0.0
0
LINE
8
0
6
CONTINUOUS
10
-8.000010
20
11.620580
30
0.0
11
-8.000010
21
9.485820
31
0.0
0
LINE
8
0
6
CONTINUOUS
10
-8.000010
20
12.959840
30
0.0
11
-8.000010
21
11.620580
31
0.0
0
LINE
8
0
6
CONTINUOUS
10
-8.000010
20
9.485820
30
0.0
11
-8.000010
21
6.637770
31
0.0
0
LINE
8
0
6
CONTINUOUS
10
-8.000010
20
13.462700
30
0.0
11
-8.000010
21
12.959840
31
0.0
0
LINE
8
0
6
CONTINUOUS
10
-8.000010
20
6.637770
30
0.0
11
-8.000010
21
3.371480
31
0.0
0
LINE
8
0
6
CONTINUOUS
10
-12.000000
20
3.371480
30
0.0
11
-12.000000
21
6.637770
31
0.0
0
LINE
8
0
6
CONTINUOUS
10
-12.000000
20
11.620580
30
0.0
11
-12.000000
21
12.959840
31
0.0
0
LINE
8
0
6
CONTINUOUS
10
-12.000000
20
6.637770
30
0.0
11
-12.000000
21
9.485820
31
0.0
0
LINE
8
0
6
CONTINUOUS
10
-12.000000
20
9.485820
30
0.0
11
-12.000000
21
11.620580
31
0.0
0
LINE
8
0
6
CONTINUOUS
10
-12.000000
20
12.959840
30
0.0
11
-12.000000
21
13.462700
31
0.0
0
LINE
8
0
6
CONTINUOUS
10
-12.000000
20
-0.145980
30
0.0
11
-12.000000
21
3.371480
31
0.0
0
LINE
8
0
6
CONTINUOUS
10
-8.000010
20
-0.145980
30
0.0
11
-8.000010
21
3.371480
31
0.0
0
LINE
8
0
6
CONTINUOUS
10
-8.000010
20
9.485820
30
0.0
11
-8.000010
21
11.620580
31
0.0
0
LINE
8
0
6
CONTINUOUS
10
-8.000010
20
11.620580
30
0.0
11
-8.000010
21
12.959840
31
0.0
0
LINE
8
0
6
CONTINUOUS
10
-8.000010
20
6.637770
30
0.0
11
-8.000010
21
9.485820
31
0.0
0
LINE
8
0
6
CONTINUOUS
10
-8.000010
20
13.462700
30
0.0
11
-11.211590
21
13.462700
31
0.0
0
LINE
8
0
6
CONTINUOUS
10
-8.000010
20
12.959840
30
0.0
11
-8.000010
21
13.462700
31
0.0
0
LINE
8
0
6
CONTINUOUS
10
-8.000010
20
3.371480
30
0.0
11
-8.000010
21
6.637770
31
0.0
0
LINE
8
0
6
CONTINUOUS
10
-12.000000
20
6.637770
30
0.0
11
-12.000000
21
3.371480
31
0.0
0
LINE
8
0
6
CONTINUOUS
10
-12.000000
20
12.959840
30
0.0
11
-12.000000
21
11.620580
31
0.0
0
LINE
8
0
6
CONTINUOUS
10
-12.000000
20
9.485820
30
0.0
11
-12.000000
21
6.637770
31
0.0
0
LINE
8
0
6
CONTINUOUS
10
-12.000000
20
11.620580
30
0.0
11
-12.000000
21
9.485820
31
0.0
0
LINE
8
0
6
CONTINUOUS
10
-11.211590
20
13.462700
30
0.0
11
-12.000000
21
13.462700
31
0.0
0
LINE
8
0
6
CONTINUOUS
10
-12.000000
20
13.462700
30
0.0
11
-12.000000
21
12.959840
31
0.0
0
LINE
8
0
6
CONTINUOUS
10
-12.000000
20
3.371480
30
0.0
11
-12.000000
21
-0.145980
31
0.0
0
LINE
8
0
6
CONTINUOUS
10
-8.000010
20
-0.145980
30
0.0
11
-8.000010
21
-3.663440
31
0.0
0
LINE
8
0
6
CONTINUOUS
10
-8.000010
20
-9.777780
30
0.0
11
-8.000010
21
-11.912540
31
0.0
0
LINE
8
0
6
CONTINUOUS
10
-8.000010
20
-11.912540
30
0.0
11
-8.000010
21
-13.251800
31
0.0
0
LINE
8
0
6
CONTINUOUS
10
-8.000010
20
-6.929730
30
0.0
11
-8.000010
21
-9.777780
31
0.0
0
LINE
8
0
6
CONTINUOUS
10
-8.000010
20
-13.251800
30
0.0
11
-8.000010
21
-13.754660
31
0.0
0
LINE
8
0
6
CONTINUOUS
10
-8.000010
20
-3.663440
30
0.0
11
-8.000010
21
-6.929730
31
0.0
0
LINE
8
0
6
CONTINUOUS
10
-12.000000
20
-6.929730
30
0.0
11
-12.000000
21
-3.663440
31
0.0
0
LINE
8
0
6
CONTINUOUS
10
-12.000000
20
-13.251800
30
0.0
11
-12.000000
21
-11.912540
31
0.0
0
LINE
8
0
6
CONTINUOUS
10
-12.000000
20
-9.777780
30
0.0
11
-12.000000
21
-6.929730
31
0.0
0
LINE
8
0
6
CONTINUOUS
10
-12.000000
20
-11.912540
30
0.0
11
-12.000000
21
-9.777780
31
0.0
0
LINE
8
0
6
CONTINUOUS
10
-12.000000
20
-13.754660
30
0.0
11
-12.000000
21
-13.251800
31
0.0
0
LINE
8
0
6
CONTINUOUS
10
-12.000000
20
-3.663440
30
0.0
11
-12.000000
21
-0.145980
31
0.0
0
LINE
8
0
6
CONTINUOUS
10
-8.000010
20
-3.663440
30
0.0
11
-8.000010
21
-0.145980
31
0.0
0
LINE
8
0
6
CONTINUOUS
10
-8.000010
20
-11.912540
30
0.0
11
-8.000010
21
-9.777780
31
0.0
0
LINE
8
0
6
CONTINUOUS
10
-8.000010
20
-13.251800
30
0.0
11
-8.000010
21
-11.912540
31
0.0
0
LINE
8
0
6
CONTINUOUS
10
-8.000010
20
-9.777780
30
0.0
11
-8.000010
21
-6.929730
31
0.0
0
LINE
8
0
6
CONTINUOUS
10
-8.000010
20
-13.754660
30
0.0
11
-8.000010
21
-13.251800
31
0.0
0
LINE
8
0
6
CONTINUOUS
10
-11.211590
20
-13.754660
30
0.0
11
-8.000010
21
-13.754660
31
0.0
0
LINE
8
0
6
CONTINUOUS
10
-8.000010
20
-6.929730
30
0.0
11
-8.000010
21
-3.663440
31
0.0
0
LINE
8
0
6
CONTINUOUS
10
-12.000000
20
-3.663440
30
0.0
11
-12.000000
21
-6.929730
31
0.0
0
LINE
8
0
6
CONTINUOUS
10
-12.000000
20
-11.912540
30
0.0
11
-12.000000
21
-13.251800
31
0.0
0
LINE
8
0
6
CONTINUOUS
10
-12.000000
20
-6.929730
30
0.0
11
-12.000000
21
-9.777780
31
0.0
0
LINE
8
0
6
CONTINUOUS
10
-12.000000
20
-9.777780
30
0.0
11
-12.000000
21
-11.912540
31
0.0
0
LINE
8
0
6
CONTINUOUS
10
-12.000000
20
-13.251800
30
0.0
11
-12.000000
21
-13.754660
31
0.0
0
LINE
8
0
6
CONTINUOUS
10
-12.000000
20
-13.754660
30
0.0
11
-11.211590
21
-13.754660
31
0.0
0
LINE
8
0
6
CONTINUOUS
10
-12.000000
20
-0.145980
30
0.0
11
-12.000000
21
-3.663440
31
0.0
0
LINE
8
0
6
CONTINUOUS
10
-8.000010
20
3.371480
30
0.0
11
-8.000010
21
-0.145980
31
0.0
0
LINE
8
0
6
CONTINUOUS
10
-8.000010
20
11.620580
30
0.0
11
-8.000010
21
9.485820
31
0.0
0
LINE
8
0
6
CONTINUOUS
10
-8.000010
20
12.959840
30
0.0
11
-8.000010
21
11.620580
31
0.0
0
LINE
8
0
6
CONTINUOUS
10
-8.000010
20
9.485820
30
0.0
11
-8.000010
21
6.637770
31
0.0
0
LINE
8
0
6
CONTINUOUS
10
-8.000010
20
13.462700
30
0.0
11
-8.000010
21
12.959840
31
0.0
0
LINE
8
0
6
CONTINUOUS
10
-8.000010
20
6.637770
30
0.0
11
-8.000010
21
3.371480
31
0.0
0
LINE
8
0
6
CONTINUOUS
10
-12.000000
20
3.371480
30
0.0
11
-12.000000
21
6.637770
31
0.0
0
LINE
8
0
6
CONTINUOUS
10
-12.000000
20
11.620580
30
0.0
11
-12.000000
21
12.959840
31
0.0
0
LINE
8
0
6
CONTINUOUS
10
-12.000000
20
6.637770
30
0.0
11
-12.000000
21
9.485820
31
0.0
0
LINE
8
0
6
CONTINUOUS
10
-12.000000
20
9.485820
30
0.0
11
-12.000000
21
11.620580
31
0.0
0
LINE
8
0
6
CONTINUOUS
10
-12.000000
20
12.959840
30
0.0
11
-12.000000
21
13.462700
31
0.0
0
LINE
8
0
6
CONTINUOUS
10
-12.000000
20
-0.145980
30
0.0
11
-12.000000
21
3.371480
31
0.0
0
LINE
8
0
6
CONTINUOUS
10
-8.000010
20
-0.145980
30
0.0
11
-8.000010
21
3.371480
31
0.0
0
LINE
8
0
6
CONTINUOUS
10
-8.000010
20
9.485820
30
0.0
11
-8.000010
21
11.620580
31
0.0
0
LINE
8
0
6
CONTINUOUS
10
-8.000010
20
11.620580
30
0.0
11
-8.000010
21
12.959840
31
0.0
0
LINE
8
0
6
CONTINUOUS
10
-8.000010
20
6.637770
30
0.0
11
-8.000010
21
9.485820
31
0.0
0
LINE
8
0
6
CONTINUOUS
10
-8.000010
20
13.462700
30
0.0
11
-11.211590
21
13.462700
31
0.0
0
LINE
8
0
6
CONTINUOUS
10
-8.000010
20
12.959840
30
0.0
11
-8.000010
21
13.462700
31
0.0
0
LINE
8
0
6
CONTINUOUS
10
-8.000010
20
3.371480
30
0.0
11
-8.000010
21
6.637770
31
0.0
0
LINE
8
0
6
CONTINUOUS
10
-12.000000
20
6.637770
30
0.0
11
-12.000000
21
3.371480
31
0.0
0
LINE
8
0
6
CONTINUOUS
10
-12.000000
20
12.959840
30
0.0
11
-12.000000
21
11.620580
31
0.0
0
LINE
8
0
6
CONTINUOUS
10
-12.000000
20
9.485820
30
0.0
11
-12.000000
21
6.637770
31
0.0
0
LINE
8
0
6
CONTINUOUS
10
-12.000000
20
11.620580
30
0.0
11
-12.000000
21
9.485820
31
0.0
0
LINE
8
0
6
CONTINUOUS
10
-11.211590
20
13.462700
30
0.0
11
-12.000000
21
13.462700
31
0.0
0
LINE
8
0
6
CONTINUOUS
10
-12.000000
20
13.462700
30
0.0
11
-12.000000
21
12.959840
31
0.0
0
LINE
8
0
6
CONTINUOUS
10
-12.000000
20
3.371480
30
0.0
11
-12.000000
21
-0.145980
31
0.0
0
LINE
8
0
6
CONTINUOUS
10
-8.000010
20
-0.145980
30
0.0
11
-8.000010
21
-3.663440
31
0.0
0
LINE
8
0
6
CONTINUOUS
10
-8.000010
20
-9.777780
30
0.0
11
-8.000010
21
-11.912540
31
0.0
0
LINE
8
0
6
CONTINUOUS
10
-8.000010
20
-11.912540
30
0.0
11
-8.000010
21
-13.251800
31
0.0
0
LINE
8
0
6
CONTINUOUS
10
-8.000010
20
-6.929730
30
0.0
11
-8.000010
21
-9.777780
31
0.0
0
LINE
8
0
6
CONTINUOUS
10
-8.000010
20
-13.251800
30
0.0
11
-8.000010
21
-13.754660
31
0.0
0
LINE
8
0
6
CONTINUOUS
10
-8.000010
20
-3.663440
30
0.0
11
-8.000010
21
-6.929730
31
0.0
0
LINE
8
0
6
CONTINUOUS
10
-12.000000
20
-6.929730
30
0.0
11
-12.000000
21
-3.663440
31
0.0
0
LINE
8
0
6
CONTINUOUS
10
-12.000000
20
-13.251800
30
0.0
11
-12.000000
21
-11.912540
31
0.0
0
LINE
8
0
6
CONTINUOUS
10
-12.000000
20
-9.777780
30
0.0
11
-12.000000
21
-6.929730
31
0.0
0
LINE
8
0
6
CONTINUOUS
10
-12.000000
20
-11.912540
30
0.0
11
-12.000000
21
-9.777780
31
0.0
0
LINE
8
0
6
CONTINUOUS
10
-12.000000
20
-13.754660
30
0.0
11
-12.000000
21
-13.251800
31
0.0
0
LINE
8
0
6
CONTINUOUS
10
-12.000000
20
-3.663440
30
0.0
11
-12.000000
21
-0.145980
31
0.0
0
LINE
8
0
6
CONTINUOUS
10
-8.000010
20
-3.663440
30
0.0
11
-8.000010
21
-0.145980
31
0.0
0
LINE
8
0
6
CONTINUOUS
10
-8.000010
20
-11.912540
30
0.0
11
-8.000010
21
-9.777780
31
0.0
0
LINE
8
0
6
CONTINUOUS
10
-8.000010
20
-13.251800
30
0.0
11
-8.000010
21
-11.912540
31
0.0
0
LINE
8
0
6
CONTINUOUS
10
-8.000010
20
-9.777780
30
0.0
11
-8.000010
21
-6.929730
31
0.0
0
LINE
8
0
6
CONTINUOUS
10
-8.000010
20
-13.754660
30
0.0
11
-8.000010
21
-13.251800
31
0.0
0
LINE
8
0
6
CONTINUOUS
10
-11.211590
20
-13.754660
30
0.0
11
-8.000010
21
-13.754660
31
0.0
0
LINE
8
0
6
CONTINUOUS
10
-8.000010
20
-6.929730
30
0.0
11
-8.000010
21
-3.663440
31
0.0
0
LINE
8
0
6
CONTINUOUS
10
-12.000000
20
-3.663440
30
0.0
11
-12.000000
21
-6.929730
31
0.0
0
LINE
8
0
6
CONTINUOUS
10
-12.000000
20
-11.912540
30
0.0
11
-12.000000
21
-13.251800
31
0.0
0
LINE
8
0
6
CONTINUOUS
10
-12.000000
20
-6.929730
30
0.0
11
-12.000000
21
-9.777780
31
0.0
0
LINE
8
0
6
CONTINUOUS
10
-12.000000
20
-9.777780
30
0.0
11
-12.000000
21
-11.912540
31
0.0
0
LINE
8
0
6
CONTINUOUS
10
-12.000000
20
-13.251800
30
0.0
11
-12.000000
21
-13.754660
31
0.0
0
LINE
8
0
6
CONTINUOUS
10
-12.000000
20
-13.754660
30
0.0
11
-11.211590
21
-13.754660
31
0.0
0
LINE
8
0
6
CONTINUOUS
10
-12.000000
20
-0.145980
30
0.0
11
-12.000000
21
-3.663440
31
0.0
0
LINE
8
0
6
CONTINUOUS
10
-8.000010
20
3.371480
30
0.0
11
-8.000010
21
-0.145980
31
0.0
0
LINE
8
0
6
CONTINUOUS
10
-8.000010
20
11.620580
30
0.0
11
-8.000010
21
9.485820
31
0.0
0
LINE
8
0
6
CONTINUOUS
10
-8.000010
20
12.959840
30
0.0
11
-8.000010
21
11.620580
31
0.0
0
LINE
8
0
6
CONTINUOUS
10
-8.000010
20
9.485820
30
0.0
11
-8.000010
21
6.637770
31
0.0
0
LINE
8
0
6
CONTINUOUS
10
-8.000010
20
13.462700
30
0.0
11
-8.000010
21
12.959840
31
0.0
0
LINE
8
0
6
CONTINUOUS
10
-8.000010
20
6.637770
30
0.0
11
-8.000010
21
3.371480
31
0.0
0
LINE
8
0
6
CONTINUOUS
10
-12.000000
20
3.371480
30
0.0
11
-12.000000
21
6.637770
31
0.0
0
LINE
8
0
6
CONTINUOUS
10
-12.000000
20
11.620580
30
0.0
11
-12.000000
21
12.959840
31
0.0
0
LINE
8
0
6
CONTINUOUS
10
-12.000000
20
6.637770
30
0.0
11
-12.000000
21
9.485820
31
0.0
0
LINE
8
0
6
CONTINUOUS
10
-12.000000
20
9.485820
30
0.0
11
-12.000000
21
11.620580
31
0.0
0
LINE
8
0
6
CONTINUOUS
10
-12.000000
20
12.959840
30
0.0
11
-12.000000
21
13.462700
31
0.0
0
LINE
8
0
6
CONTINUOUS
10
-12.000000
20
-0.145980
30
0.0
11
-12.000000
21
3.371480
31
0.0
0
LINE
8
0
6
CONTINUOUS
10
-8.000010
20
-0.145980
30
0.0
11
-8.000010
21
3.371480
31
0.0
0
LINE
8
0
6
CONTINUOUS
10
-8.000010
20
9.485820
30
0.0
11
-8.000010
21
11.620580
31
0.0
0
LINE
8
0
6
CONTINUOUS
10
-8.000010
20
11.620580
30
0.0
11
-8.000010
21
12.959840
31
0.0
0
LINE
8
0
6
CONTINUOUS
10
-8.000010
20
6.637770
30
0.0
11
-8.000010
21
9.485820
31
0.0
0
LINE
8
0
6
CONTINUOUS
10
-8.000010
20
13.462700
30
0.0
11
-11.211590
21
13.462700
31
0.0
0
LINE
8
0
6
CONTINUOUS
10
-8.000010
20
12.959840
30
0.0
11
-8.000010
21
13.462700
31
0.0
0
LINE
8
0
6
CONTINUOUS
10
-8.000010
20
3.371480
30
0.0
11
-8.000010
21
6.637770
31
0.0
0
LINE
8
0
6
CONTINUOUS
10
-12.000000
20
6.637770
30
0.0
11
-12.000000
21
3.371480
31
0.0
0
LINE
8
0
6
CONTINUOUS
10
-12.000000
20
12.959840
30
0.0
11
-12.000000
21
11.620580
31
0.0
0
LINE
8
0
6
CONTINUOUS
10
-12.000000
20
9.485820
30
0.0
11
-12.000000
21
6.637770
31
0.0
0
LINE
8
0
6
CONTINUOUS
10
-12.000000
20
11.620580
30
0.0
11
-12.000000
21
9.485820
31
0.0
0
LINE
8
0
6
CONTINUOUS
10
-11.211590
20
13.462700
30
0.0
11
-12.000000
21
13.462700
31
0.0
0
LINE
8
0
6
CONTINUOUS
10
-12.000000
20
13.462700
30
0.0
11
-12.000000
21
12.959840
31
0.0
0
LINE
8
0
6
CONTINUOUS
10
-12.000000
20
3.371480
30
0.0
11
-12.000000
21
-0.145980
31
0.0
0
LINE
8
0
6
CONTINUOUS
10
-8.000010
20
-0.145980
30
0.0
11
-8.000010
21
-3.663440
31
0.0
0
LINE
8
0
6
CONTINUOUS
10
-8.000010
20
-9.777780
30
0.0
11
-8.000010
21
-11.912540
31
0.0
0
LINE
8
0
6
CONTINUOUS
10
-8.000010
20
-11.912540
30
0.0
11
-8.000010
21
-13.251800
31
0.0
0
LINE
8
0
6
CONTINUOUS
10
-8.000010
20
-6.929730
30
0.0
11
-8.000010
21
-9.777780
31
0.0
0
LINE
8
0
6
CONTINUOUS
10
-8.000010
20
-13.251800
30
0.0
11
-8.000010
21
-13.754660
31
0.0
0
LINE
8
0
6
CONTINUOUS
10
-8.000010
20
-3.663440
30
0.0
11
-8.000010
21
-6.929730
31
0.0
0
LINE
8
0
6
CONTINUOUS
10
-12.000000
20
-6.929730
30
0.0
11
-12.000000
21
-3.663440
31
0.0
0
LINE
8
0
6
CONTINUOUS
10
-12.000000
20
-13.251800
30
0.0
11
-12.000000
21
-11.912540
31
0.0
0
LINE
8
0
6
CONTINUOUS
10
-12.000000
20
-9.777780
30
0.0
11
-12.000000
21
-6.929730
31
0.0
0
LINE
8
0
6
CONTINUOUS
10
-12.000000
20
-11.912540
30
0.0
11
-12.000000
21
-9.777780
31
0.0
0
LINE
8
0
6
CONTINUOUS
10
-12.000000
20
-13.754660
30
0.0
11
-12.000000
21
-13.251800
31
0.0
0
LINE
8
0
6
CONTINUOUS
10
-12.000000
20
-3.663440
30
0.0
11
-12.000000
21
-0.145980
31
0.0
0
LINE
8
0
6
CONTINUOUS
10
-8.000010
20
-3.663440
30
0.0
11
-8.000010
21
-0.145980
31
0.0
0
LINE
8
0
6
CONTINUOUS
10
-8.000010
20
-11.912540
30
0.0
11
-8.000010
21
-9.777780
31
0.0
0
LINE
8
0
6
CONTINUOUS
10
-8.000010
20
-13.251800
30
0.0
11
-8.000010
21
-11.912540
31
0.0
0
LINE
8
0
6
CONTINUOUS
10
-8.000010
20
-9.777780
30
0.0
11
-8.000010
21
-6.929730
31
0.0
0
LINE
8
0
6
CONTINUOUS
10
-8.000010
20
-13.754660
30
0.0
11
-8.000010
21
-13.251800
31
0.0
0
LINE
8
0
6
CONTINUOUS
10
-11.211590
20
-13.754660
30
0.0
11
-8.000010
21
-13.754660
31
0.0
0
LINE
8
0
6
CONTINUOUS
10
-8.000010
20
-6.929730
30
0.0
11
-8.000010
21
-3.663440
31
0.0
0
LINE
8
0
6
CONTINUOUS
10
-12.000000
20
-3.663440
30
0.0
11
-12.000000
21
-6.929730
31
0.0
0
LINE
8
0
6
CONTINUOUS
10
-12.000000
20
-11.912540
30
0.0
11
-12.000000
21
-13.251800
31
0.0
0
LINE
8
0
6
CONTINUOUS
10
-12.000000
20
-6.929730
30
0.0
11
-12.000000
21
-9.777780
31
0.0
0
LINE
8
0
6
CONTINUOUS
10
-12.000000
20
-9.777780
30
0.0
11
-12.000000
21
-11.912540
31
0.0
0
LINE
8
0
6
CONTINUOUS
10
-12.000000
20
-13.251800
30
0.0
11
-12.000000
21
-13.754660
31
0.0
0
LINE
8
0
6
CONTINUOUS
10
-12.000000
20
-13.754660
30
0.0
11
-11.211590
21
-13.754660
31
0.0
0
LINE
8
0
6
CONTINUOUS
10
-12.000000
20
-0.145980
30
0.0
11
-12.000000
21
-3.663440
31
0.0
0
LINE
8
0
6
CONTINUOUS
10
-7.756960
20
-77.999970
30
0.0
11
-7.756960
21
-77.844410
31
0.0
0
LINE
8
0
6
CONTINUOUS
10
-7.756960
20
-77.844260
30
0.0
11
-7.756960
21
-78.000010
31
0.0
0
LINE
8
0
6
CONTINUOUS
10
-7.756960
20
-77.185760
30
0.0
11
-7.756960
21
-77.844260
31
0.0
0
LINE
8
0
6
CONTINUOUS
10
-7.756960
20
-76.053900
30
0.0
11
-7.756960
21
-77.185760
31
0.0
0
LINE
8
0
6
CONTINUOUS
10
-7.756960
20
-74.754180
30
0.0
11
-7.756960
21
-76.053900
31
0.0
0
LINE
8
0
6
CONTINUOUS
10
-7.756960
20
74.754140
30
0.0
11
-7.756960
21
-74.754180
31
0.0
0
LINE
8
0
6
CONTINUOUS
10
-7.756960
20
76.054480
30
0.0
11
-7.756960
21
74.754140
31
0.0
0
LINE
8
0
6
CONTINUOUS
10
-7.756960
20
77.185830
30
0.0
11
-7.756960
21
76.054480
31
0.0
0
LINE
8
0
6
CONTINUOUS
10
-7.756960
20
77.844400
30
0.0
11
-7.756960
21
77.185830
31
0.0
0
LINE
8
0
6
CONTINUOUS
10
-7.756960
20
77.999970
30
0.0
11
-7.756960
21
77.844400
31
0.0
0
LINE
8
0
6
CONTINUOUS
10
-7.756960
20
77.844260
30
0.0
11
-7.756960
21
78.000010
31
0.0
0
LINE
8
0
6
CONTINUOUS
10
-7.756960
20
77.185750
30
0.0
11
-7.756960
21
77.844260
31
0.0
0
LINE
8
0
6
CONTINUOUS
10
-7.756960
20
76.053890
30
0.0
11
-7.756960
21
77.185750
31
0.0
0
LINE
8
0
6
CONTINUOUS
10
-7.756960
20
74.754180
30
0.0
11
-7.756960
21
76.053890
31
0.0
0
LINE
8
0
6
CONTINUOUS
10
-7.756960
20
-74.754140
30
0.0
11
-7.756960
21
74.754180
31
0.0
0
LINE
8
0
6
CONTINUOUS
10
-7.756960
20
-76.054480
30
0.0
11
-7.756960
21
-74.754140
31
0.0
0
LINE
8
0
6
CONTINUOUS
10
-7.756960
20
-77.185830
30
0.0
11
-7.756960
21
-76.054480
31
0.0
0
LINE
8
0
6
CONTINUOUS
10
-7.756960
20
-77.844410
30
0.0
11
-7.756960
21
-77.185830
31
0.0
0
ENDSEC
0
EOF
