999
Erzeugt mit innoplus bad 
0
SECTION
2
HEADER
9
$ACADVER
1
AC1009
9
$DWGCODEPAGE
3
ISO8859-1
0
ENDSEC
0
SECTION
2
TABLES
0
TABLE
2
LAYER
70
1
0
LAYER
2
0
70
0
62
7
6
CONTINUOUS
0
ENDTAB
0
ENDSEC
0
SECTION
2
ENTITIES
0
LINE
8
0
6
CONTINUOUS
10
-2.374780
20
-59.749110
30
0.0
11
-4.158080
21
-59.749110
31
0.0
0
LINE
8
0
6
CONTINUOUS
10
-2.408140
20
-59.443030
30
0.0
11
-2.408142
21
-57.394857
31
0.0
0
LINE
8
0
6
CONTINUOUS
10
0.061260
20
-59.996040
30
0.0
11
2.281580
21
-59.996040
31
0.0
0
LINE
8
0
6
CONTINUOUS
10
-4.379400
20
-59.996040
30
0.0
11
-3.784470
21
-59.996040
31
0.0
0
LINE
8
0
6
CONTINUOUS
10
-4.628480
20
-59.929880
30
0.0
11
-4.379400
21
-59.996040
31
0.0
0
LINE
8
0
6
CONTINUOUS
10
5.000060
20
-59.443030
30
0.0
11
5.000060
21
-57.102756
31
0.0
0
LINE
8
0
6
CONTINUOUS
10
4.338388
20
-57.177311
30
0.0
11
4.338390
21
-59.443030
31
0.0
0
LINE
8
0
6
CONTINUOUS
10
5.000060
20
-59.502160
30
0.0
11
5.000060
21
-59.443030
31
0.0
0
LINE
8
0
6
CONTINUOUS
10
4.338390
20
-59.443030
30
0.0
11
4.338390
21
-59.502160
31
0.0
0
LINE
8
0
6
CONTINUOUS
10
-4.628480
20
-59.929880
30
0.0
11
-4.000180
21
-59.929880
31
0.0
0
LINE
8
0
6
CONTINUOUS
10
-4.810810
20
-59.749110
30
0.0
11
-4.628480
21
-59.929880
31
0.0
0
LINE
8
0
6
CONTINUOUS
10
4.933320
20
-59.749100
30
0.0
11
5.000060
21
-59.502160
31
0.0
0
LINE
8
0
6
CONTINUOUS
10
-4.158080
20
-59.749110
30
0.0
11
-4.215870
21
-59.502160
31
0.0
0
LINE
8
0
6
CONTINUOUS
10
-4.810810
20
-59.749110
30
0.0
11
-4.158080
21
-59.749110
31
0.0
0
LINE
8
0
6
CONTINUOUS
10
-4.877550
20
-59.502150
30
0.0
11
-4.810810
21
-59.749110
31
0.0
0
LINE
8
0
6
CONTINUOUS
10
-3.784470
20
-59.996040
30
0.0
11
-2.159080
21
-59.996040
31
0.0
0
LINE
8
0
6
CONTINUOUS
10
-2.283610
20
-59.929890
30
0.0
11
-4.000180
21
-59.929880
31
0.0
0
LINE
8
0
6
CONTINUOUS
10
4.501920
20
-59.996050
30
0.0
11
4.750990
21
-59.929880
31
0.0
0
LINE
8
0
6
CONTINUOUS
10
3.906990
20
-59.996050
30
0.0
11
4.501920
21
-59.996050
31
0.0
0
LINE
8
0
6
CONTINUOUS
10
0.061260
20
-59.749110
30
0.0
11
0.061260
21
-59.502160
31
0.0
0
LINE
8
0
6
CONTINUOUS
10
-2.408140
20
-59.502160
30
0.0
11
-2.374780
21
-59.749110
31
0.0
0
LINE
8
0
6
CONTINUOUS
10
2.530660
20
-59.502160
30
0.0
11
2.530660
21
-59.443040
31
0.0
0
LINE
8
0
6
CONTINUOUS
10
-4.215870
20
-59.502160
30
0.0
11
-4.215870
21
-59.443030
31
0.0
0
LINE
8
0
6
CONTINUOUS
10
-4.877550
20
-59.443030
30
0.0
11
-4.877550
21
-59.502150
31
0.0
0
LINE
8
0
6
CONTINUOUS
10
0.061258
20
-57.659243
30
0.0
11
0.061260
21
-59.443030
31
0.0
0
LINE
8
0
6
CONTINUOUS
10
2.530660
20
-59.443040
30
0.0
11
2.530660
21
-57.380999
31
0.0
0
LINE
8
0
6
CONTINUOUS
10
-4.215870
20
-59.443030
30
0.0
11
-4.215872
21
-57.191171
31
0.0
0
LINE
8
0
6
CONTINUOUS
10
-4.877550
20
-57.116616
30
0.0
11
-4.877550
21
-59.443030
31
0.0
0
LINE
8
0
6
CONTINUOUS
10
0.061260
20
-59.749110
30
0.0
11
-2.374780
21
-59.749110
31
0.0
0
LINE
8
0
6
CONTINUOUS
10
-2.159080
20
-59.996040
30
0.0
11
0.061260
21
-59.996040
31
0.0
0
LINE
8
0
6
CONTINUOUS
10
0.061260
20
-59.929880
30
0.0
11
-2.283610
21
-59.929890
31
0.0
0
LINE
8
0
6
CONTINUOUS
10
4.280590
20
-59.749110
30
0.0
11
4.338390
21
-59.502160
31
0.0
0
LINE
8
0
6
CONTINUOUS
10
2.497290
20
-59.749110
30
0.0
11
4.280590
21
-59.749110
31
0.0
0
LINE
8
0
6
CONTINUOUS
10
2.530660
20
-59.502160
30
0.0
11
2.497290
21
-59.749110
31
0.0
0
LINE
8
0
6
CONTINUOUS
10
4.933320
20
-59.749100
30
0.0
11
4.280590
21
-59.749110
31
0.0
0
LINE
8
0
6
CONTINUOUS
10
4.750990
20
-59.929880
30
0.0
11
4.933320
21
-59.749100
31
0.0
0
LINE
8
0
6
CONTINUOUS
10
4.122680
20
-59.929880
30
0.0
11
4.750990
21
-59.929880
31
0.0
0
LINE
8
0
6
CONTINUOUS
10
4.122680
20
-59.929880
30
0.0
11
2.406130
21
-59.929880
31
0.0
0
LINE
8
0
6
CONTINUOUS
10
0.061260
20
-59.929880
30
0.0
11
2.406130
21
-59.929880
31
0.0
0
LINE
8
0
6
CONTINUOUS
10
2.497290
20
-59.749110
30
0.0
11
0.061260
21
-59.749110
31
0.0
0
LINE
8
0
6
CONTINUOUS
10
-2.408140
20
-59.443030
30
0.0
11
-2.408140
21
-59.502160
31
0.0
0
LINE
8
0
6
CONTINUOUS
10
0.061260
20
-59.502160
30
0.0
11
0.061260
21
-59.443030
31
0.0
0
LINE
8
0
6
CONTINUOUS
10
3.445980
20
0.668230
30
0.0
11
3.306420
21
1.639130
31
0.0
0
LINE
8
0
6
CONTINUOUS
10
3.306420
20
1.639130
30
0.0
11
2.898880
21
2.531390
31
0.0
0
LINE
8
0
6
CONTINUOUS
10
2.898880
20
2.531390
30
0.0
11
2.256600
21
3.272680
31
0.0
0
LINE
8
0
6
CONTINUOUS
10
0.490240
20
4.079380
30
0.0
11
-0.000250
21
4.079380
31
0.0
0
LINE
8
0
6
CONTINUOUS
10
2.256600
20
3.272680
30
0.0
11
1.431420
21
3.803040
31
0.0
0
LINE
8
0
6
CONTINUOUS
10
1.431420
20
3.803040
30
0.0
11
0.490240
21
4.079380
31
0.0
0
LINE
8
0
6
CONTINUOUS
10
3.445980
20
-9.557589
30
0.0
11
3.445980
21
0.668230
31
0.0
0
LINE
8
0
6
CONTINUOUS
10
2.498270
20
0.600460
30
0.0
11
2.387750
21
1.369370
31
0.0
0
LINE
8
0
6
CONTINUOUS
10
2.387750
20
1.369370
30
0.0
11
2.093430
21
2.013750
31
0.0
0
LINE
8
0
6
CONTINUOUS
10
2.093430
20
2.013750
30
0.0
11
1.629570
21
2.549110
31
0.0
0
LINE
8
0
6
CONTINUOUS
10
0.353990
20
3.131650
30
0.0
11
-0.000250
21
3.131660
31
0.0
0
LINE
8
0
6
CONTINUOUS
10
1.629570
20
2.549110
30
0.0
11
1.033670
21
2.932100
31
0.0
0
LINE
8
0
6
CONTINUOUS
10
1.033670
20
2.932100
30
0.0
11
0.353990
21
3.131650
31
0.0
0
LINE
8
0
6
CONTINUOUS
10
2.498230
20
-11.368400
30
0.0
11
2.498270
21
0.600460
31
0.0
0
LINE
8
0
6
CONTINUOUS
10
2.393530
20
-11.357710
30
0.0
11
2.498230
21
-11.368400
31
0.0
0
LINE
8
0
6
CONTINUOUS
10
-0.000260
20
-11.087780
30
0.0
11
2.393530
21
-11.357710
31
0.0
0
LINE
8
0
6
CONTINUOUS
10
-3.306920
20
1.639130
30
0.0
11
-3.446480
21
0.668230
31
0.0
0
LINE
8
0
6
CONTINUOUS
10
-2.899380
20
2.531390
30
0.0
11
-3.306920
21
1.639130
31
0.0
0
LINE
8
0
6
CONTINUOUS
10
-2.257100
20
3.272680
30
0.0
11
-2.899380
21
2.531390
31
0.0
0
LINE
8
0
6
CONTINUOUS
10
-0.000250
20
4.079380
30
0.0
11
-0.490740
21
4.079380
31
0.0
0
LINE
8
0
6
CONTINUOUS
10
-1.431920
20
3.803040
30
0.0
11
-2.257100
21
3.272680
31
0.0
0
LINE
8
0
6
CONTINUOUS
10
-0.490740
20
4.079380
30
0.0
11
-1.431920
21
3.803040
31
0.0
0
LINE
8
0
6
CONTINUOUS
10
-3.446480
20
0.668230
30
0.0
11
-3.446488
21
-9.557590
31
0.0
0
LINE
8
0
6
CONTINUOUS
10
-2.388250
20
1.369370
30
0.0
11
-2.498770
21
0.600460
31
0.0
0
LINE
8
0
6
CONTINUOUS
10
-2.093930
20
2.013750
30
0.0
11
-2.388250
21
1.369370
31
0.0
0
LINE
8
0
6
CONTINUOUS
10
-1.630070
20
2.549110
30
0.0
11
-2.093930
21
2.013750
31
0.0
0
LINE
8
0
6
CONTINUOUS
10
-0.000250
20
3.131660
30
0.0
11
-0.354490
21
3.131650
31
0.0
0
LINE
8
0
6
CONTINUOUS
10
-1.034170
20
2.932100
30
0.0
11
-1.630070
21
2.549110
31
0.0
0
LINE
8
0
6
CONTINUOUS
10
-0.354490
20
3.131650
30
0.0
11
-1.034170
21
2.932100
31
0.0
0
LINE
8
0
6
CONTINUOUS
10
-2.498740
20
-11.368390
30
0.0
11
-2.394040
21
-11.357710
31
0.0
0
LINE
8
0
6
CONTINUOUS
10
-2.498770
20
0.600460
30
0.0
11
-2.498743
21
-10.227144
31
0.0
0
LINE
8
0
6
CONTINUOUS
10
-2.498743
20
-10.227144
30
0.0
11
-2.498740
21
-11.368390
31
0.0
0
LINE
8
0
6
CONTINUOUS
10
-2.394040
20
-11.357710
30
0.0
11
-0.000260
21
-11.087780
31
0.0
0
LINE
8
0
6
CONTINUOUS
10
5.221520
20
-10.539420
30
0.0
11
-0.000270
21
-9.951090
31
0.0
0
LINE
8
0
6
CONTINUOUS
10
10.181530
20
-12.274980
30
0.0
11
5.221520
21
-10.539420
31
0.0
0
LINE
8
0
6
CONTINUOUS
10
14.630950
20
-15.070740
30
0.0
11
10.181530
21
-12.274980
31
0.0
0
LINE
8
0
6
CONTINUOUS
10
18.346700
20
-18.786480
30
0.0
11
14.630950
21
-15.070740
31
0.0
0
LINE
8
0
6
CONTINUOUS
10
21.142470
20
-23.235900
30
0.0
11
18.346700
21
-18.786480
31
0.0
0
LINE
8
0
6
CONTINUOUS
10
22.878060
20
-28.195860
30
0.0
11
21.142470
21
-23.235900
31
0.0
0
LINE
8
0
6
CONTINUOUS
10
23.466410
20
-33.417680
30
0.0
11
22.878060
21
-28.195860
31
0.0
0
LINE
8
0
6
CONTINUOUS
10
22.878080
20
-38.639520
30
0.0
11
23.466410
21
-33.417680
31
0.0
0
LINE
8
0
6
CONTINUOUS
10
21.142520
20
-43.599500
30
0.0
11
22.878080
21
-38.639520
31
0.0
0
LINE
8
0
6
CONTINUOUS
10
18.346760
20
-48.048940
30
0.0
11
21.142520
21
-43.599500
31
0.0
0
LINE
8
0
6
CONTINUOUS
10
14.631010
20
-51.764670
30
0.0
11
18.346760
21
-48.048940
31
0.0
0
LINE
8
0
6
CONTINUOUS
10
5.221610
20
-56.296020
30
0.0
11
10.181610
21
-54.560450
31
0.0
0
LINE
8
0
6
CONTINUOUS
10
-0.000220
20
-56.884390
30
0.0
11
5.221610
21
-56.296020
31
0.0
0
LINE
8
0
6
CONTINUOUS
10
-5.222030
20
-56.296030
30
0.0
11
-0.000220
21
-56.884390
31
0.0
0
LINE
8
0
6
CONTINUOUS
10
-10.182020
20
-54.560470
30
0.0
11
-5.222030
21
-56.296030
31
0.0
0
LINE
8
0
6
CONTINUOUS
10
-18.347190
20
-48.048960
30
0.0
11
-14.631450
21
-51.764720
31
0.0
0
LINE
8
0
6
CONTINUOUS
10
-21.142940
20
-43.599540
30
0.0
11
-18.347190
21
-48.048960
31
0.0
0
LINE
8
0
6
CONTINUOUS
10
-22.878520
20
-38.639580
30
0.0
11
-21.142940
21
-43.599540
31
0.0
0
LINE
8
0
6
CONTINUOUS
10
-23.466870
20
-33.417750
30
0.0
11
-22.878520
21
-38.639580
31
0.0
0
LINE
8
0
6
CONTINUOUS
10
-22.878520
20
-28.195920
30
0.0
11
-23.466870
21
-33.417750
31
0.0
0
LINE
8
0
6
CONTINUOUS
10
-21.142970
20
-23.235950
30
0.0
11
-22.878520
21
-28.195920
31
0.0
0
LINE
8
0
6
CONTINUOUS
10
-18.347230
20
-18.786540
30
0.0
11
-21.142970
21
-23.235950
31
0.0
0
LINE
8
0
6
CONTINUOUS
10
-14.631480
20
-15.070790
30
0.0
11
-18.347230
21
-18.786540
31
0.0
0
LINE
8
0
6
CONTINUOUS
10
-10.182060
20
-12.275010
30
0.0
11
-14.631480
21
-15.070790
31
0.0
0
LINE
8
0
6
CONTINUOUS
10
-5.222080
20
-10.539430
30
0.0
11
-10.182060
21
-12.275010
31
0.0
0
LINE
8
0
6
CONTINUOUS
10
-0.000270
20
-9.951090
30
0.0
11
-5.222080
21
-10.539430
31
0.0
0
LINE
8
0
6
CONTINUOUS
10
5.395490
20
-9.777240
30
0.0
11
3.445980
21
-9.557589
31
0.0
0
LINE
8
0
6
CONTINUOUS
10
5.374400
20
-9.869660
30
0.0
11
3.445980
21
-9.652390
31
0.0
0
LINE
8
0
6
CONTINUOUS
10
2.857849
20
-9.870953
30
0.0
11
5.311020
21
-10.147350
31
0.0
0
LINE
8
0
6
CONTINUOUS
10
10.520730
20
-11.570630
30
0.0
11
5.395490
21
-9.777240
31
0.0
0
LINE
8
0
6
CONTINUOUS
10
10.479590
20
-11.656040
30
0.0
11
5.374400
21
-9.869660
31
0.0
0
LINE
8
0
6
CONTINUOUS
10
5.311020
20
-10.147350
30
0.0
11
10.356020
21
-11.912660
31
0.0
0
LINE
8
0
6
CONTINUOUS
10
15.118360
20
-14.459520
30
0.0
11
10.520730
21
-11.570630
31
0.0
0
LINE
8
0
6
CONTINUOUS
10
15.059280
20
-14.533650
30
0.0
11
10.479590
21
-11.656040
31
0.0
0
LINE
8
0
6
CONTINUOUS
10
10.356020
20
-11.912660
30
0.0
11
14.881690
21
-14.756320
31
0.0
0
LINE
8
0
6
CONTINUOUS
10
18.957930
20
-18.299050
30
0.0
11
15.118360
21
-14.459520
31
0.0
0
LINE
8
0
6
CONTINUOUS
10
18.883820
20
-18.358170
30
0.0
11
15.059280
21
-14.533650
31
0.0
0
LINE
8
0
6
CONTINUOUS
10
14.881690
20
-14.756320
30
0.0
11
18.661130
21
-18.535730
31
0.0
0
LINE
8
0
6
CONTINUOUS
10
21.846830
20
-22.896690
30
0.0
11
18.957930
21
-18.299050
31
0.0
0
LINE
8
0
6
CONTINUOUS
10
21.761400
20
-22.937820
30
0.0
11
18.883820
21
-18.358170
31
0.0
0
LINE
8
0
6
CONTINUOUS
10
18.661130
20
-18.535730
30
0.0
11
21.504800
21
-23.061420
31
0.0
0
LINE
8
0
6
CONTINUOUS
10
23.640250
20
-28.021920
30
0.0
11
21.846830
21
-22.896690
31
0.0
0
LINE
8
0
6
CONTINUOUS
10
23.547780
20
-28.043010
30
0.0
11
21.761400
21
-22.937820
31
0.0
0
LINE
8
0
6
CONTINUOUS
10
21.504800
20
-23.061420
30
0.0
11
23.270120
21
-28.106390
31
0.0
0
LINE
8
0
6
CONTINUOUS
10
24.248200
20
-33.417680
30
0.0
11
23.640250
21
-28.021920
31
0.0
0
LINE
8
0
6
CONTINUOUS
10
24.153410
20
-33.417680
30
0.0
11
23.547780
21
-28.043010
31
0.0
0
LINE
8
0
6
CONTINUOUS
10
23.270120
20
-28.106390
30
0.0
11
23.868570
21
-33.417680
31
0.0
0
LINE
8
0
6
CONTINUOUS
10
23.640250
20
-38.813480
30
0.0
11
24.248200
21
-33.417680
31
0.0
0
LINE
8
0
6
CONTINUOUS
10
23.547840
20
-38.792380
30
0.0
11
24.153410
21
-33.417680
31
0.0
0
LINE
8
0
6
CONTINUOUS
10
23.868570
20
-33.417680
30
0.0
11
23.270150
21
-38.729000
31
0.0
0
LINE
8
0
6
CONTINUOUS
10
21.846860
20
-43.938700
30
0.0
11
23.640250
21
-38.813480
31
0.0
0
LINE
8
0
6
CONTINUOUS
10
21.761460
20
-43.897560
30
0.0
11
23.547840
21
-38.792380
31
0.0
0
LINE
8
0
6
CONTINUOUS
10
23.270150
20
-38.729000
30
0.0
11
21.504850
21
-43.773990
31
0.0
0
LINE
8
0
6
CONTINUOUS
10
18.957960
20
-48.536350
30
0.0
11
21.846860
21
-43.938700
31
0.0
0
LINE
8
0
6
CONTINUOUS
10
18.883850
20
-48.477250
30
0.0
11
21.761460
21
-43.897560
31
0.0
0
LINE
8
0
6
CONTINUOUS
10
21.504850
20
-43.773990
30
0.0
11
18.661170
21
-48.299670
31
0.0
0
LINE
8
0
6
CONTINUOUS
10
15.118440
20
-52.375900
30
0.0
11
18.957960
21
-48.536350
31
0.0
0
LINE
8
0
6
CONTINUOUS
10
15.059330
20
-52.301770
30
0.0
11
18.883850
21
-48.477250
31
0.0
0
LINE
8
0
6
CONTINUOUS
10
18.661170
20
-48.299670
30
0.0
11
14.881750
21
-52.079100
31
0.0
0
LINE
8
0
6
CONTINUOUS
10
15.059330
20
-52.301770
30
0.0
11
10.479650
21
-55.179390
31
0.0
0
LINE
8
0
6
CONTINUOUS
10
10.520800
20
-55.264810
30
0.0
11
15.118440
21
-52.375900
31
0.0
0
LINE
8
0
6
CONTINUOUS
10
5.395580
20
-57.058190
30
0.0
11
10.520800
21
-55.264810
31
0.0
0
LINE
8
0
6
CONTINUOUS
10
5.374470
20
-56.965780
30
0.0
11
10.479650
21
-55.179390
31
0.0
0
LINE
8
0
6
CONTINUOUS
10
10.356090
20
-54.922770
30
0.0
11
5.311090
21
-56.688090
31
0.0
0
LINE
8
0
6
CONTINUOUS
10
-0.000220
20
-57.666170
30
0.0
11
5.395580
21
-57.058190
31
0.0
0
LINE
8
0
6
CONTINUOUS
10
-0.000220
20
-57.571370
30
0.0
11
5.374470
21
-56.965780
31
0.0
0
LINE
8
0
6
CONTINUOUS
10
5.311090
20
-56.688090
30
0.0
11
-0.000220
21
-57.286540
31
0.0
0
LINE
8
0
6
CONTINUOUS
10
-5.396000
20
-57.058200
30
0.0
11
-0.000220
21
-57.666170
31
0.0
0
LINE
8
0
6
CONTINUOUS
10
-5.374890
20
-56.965780
30
0.0
11
-0.000220
21
-57.571370
31
0.0
0
LINE
8
0
6
CONTINUOUS
10
-0.000220
20
-57.286540
30
0.0
11
-5.311520
21
-56.688110
31
0.0
0
LINE
8
0
6
CONTINUOUS
10
-10.521230
20
-55.264830
30
0.0
11
-5.396000
21
-57.058200
31
0.0
0
LINE
8
0
6
CONTINUOUS
10
-10.480080
20
-55.179410
30
0.0
11
-5.374890
21
-56.965780
31
0.0
0
LINE
8
0
6
CONTINUOUS
10
-5.311520
20
-56.688110
30
0.0
11
-10.356500
21
-54.922780
31
0.0
0
LINE
8
0
6
CONTINUOUS
10
-10.480080
20
-55.179410
30
0.0
11
-15.059770
21
-52.301820
31
0.0
0
LINE
8
0
6
CONTINUOUS
10
-15.118870
20
-52.375940
30
0.0
11
-10.521230
21
-55.264830
31
0.0
0
LINE
8
0
6
CONTINUOUS
10
-18.958420
20
-48.536400
30
0.0
11
-15.118870
21
-52.375940
31
0.0
0
LINE
8
0
6
CONTINUOUS
10
-18.884290
20
-48.477290
30
0.0
11
-15.059770
21
-52.301820
31
0.0
0
LINE
8
0
6
CONTINUOUS
10
-14.882180
20
-52.079140
30
0.0
11
-18.661610
21
-48.299700
31
0.0
0
LINE
8
0
6
CONTINUOUS
10
-21.847300
20
-43.938740
30
0.0
11
-18.958420
21
-48.536400
31
0.0
0
LINE
8
0
6
CONTINUOUS
10
-21.761890
20
-43.897610
30
0.0
11
-18.884290
21
-48.477290
31
0.0
0
LINE
8
0
6
CONTINUOUS
10
-18.661610
20
-48.299700
30
0.0
11
-21.505280
21
-43.774040
31
0.0
0
LINE
8
0
6
CONTINUOUS
10
-23.640710
20
-38.813550
30
0.0
11
-21.847300
21
-43.938740
31
0.0
0
LINE
8
0
6
CONTINUOUS
10
-23.548280
20
-38.792440
30
0.0
11
-21.761890
21
-43.897610
31
0.0
0
LINE
8
0
6
CONTINUOUS
10
-21.505280
20
-43.774040
30
0.0
11
-23.270600
21
-38.729060
31
0.0
0
LINE
8
0
6
CONTINUOUS
10
-24.248650
20
-33.417750
30
0.0
11
-23.640710
21
-38.813550
31
0.0
0
LINE
8
0
6
CONTINUOUS
10
-24.153860
20
-33.417750
30
0.0
11
-23.548280
21
-38.792440
31
0.0
0
LINE
8
0
6
CONTINUOUS
10
-23.270600
20
-38.729060
30
0.0
11
-23.869040
21
-33.417750
31
0.0
0
LINE
8
0
6
CONTINUOUS
10
-23.640720
20
-28.021960
30
0.0
11
-24.248650
21
-33.417750
31
0.0
0
LINE
8
0
6
CONTINUOUS
10
-23.548290
20
-28.043060
30
0.0
11
-24.153860
21
-33.417750
31
0.0
0
LINE
8
0
6
CONTINUOUS
10
-23.869040
20
-33.417750
30
0.0
11
-23.270610
21
-28.106430
31
0.0
0
LINE
8
0
6
CONTINUOUS
10
-21.847320
20
-22.896760
30
0.0
11
-23.640720
21
-28.021960
31
0.0
0
LINE
8
0
6
CONTINUOUS
10
-21.761900
20
-22.937880
30
0.0
11
-23.548290
21
-28.043060
31
0.0
0
LINE
8
0
6
CONTINUOUS
10
-23.270610
20
-28.106430
30
0.0
11
-21.505290
21
-23.061460
31
0.0
0
LINE
8
0
6
CONTINUOUS
10
-18.958430
20
-18.299110
30
0.0
11
-21.847320
21
-22.896760
31
0.0
0
LINE
8
0
6
CONTINUOUS
10
-18.884330
20
-18.358210
30
0.0
11
-21.761900
21
-22.937880
31
0.0
0
LINE
8
0
6
CONTINUOUS
10
-21.505290
20
-23.061460
30
0.0
11
-18.661650
21
-18.535800
31
0.0
0
LINE
8
0
6
CONTINUOUS
10
-15.118910
20
-14.459570
30
0.0
11
-18.958430
21
-18.299110
31
0.0
0
LINE
8
0
6
CONTINUOUS
10
-15.059780
20
-14.533690
30
0.0
11
-18.884330
21
-18.358210
31
0.0
0
LINE
8
0
6
CONTINUOUS
10
-18.661650
20
-18.535800
30
0.0
11
-14.882210
21
-14.756370
31
0.0
0
LINE
8
0
6
CONTINUOUS
10
-10.521260
20
-11.570660
30
0.0
11
-15.118910
21
-14.459570
31
0.0
0
LINE
8
0
6
CONTINUOUS
10
-10.480140
20
-11.656080
30
0.0
11
-15.059780
21
-14.533690
31
0.0
0
LINE
8
0
6
CONTINUOUS
10
-14.882210
20
-14.756370
30
0.0
11
-10.356560
21
-11.912690
31
0.0
0
LINE
8
0
6
CONTINUOUS
10
-5.396050
20
-9.777250
30
0.0
11
-10.521260
21
-11.570660
31
0.0
0
LINE
8
0
6
CONTINUOUS
10
-5.374960
20
-9.869690
30
0.0
11
-10.480140
21
-11.656080
31
0.0
0
LINE
8
0
6
CONTINUOUS
10
-10.356560
20
-11.912690
30
0.0
11
-5.311570
21
-10.147370
31
0.0
0
LINE
8
0
6
CONTINUOUS
10
-3.446488
20
-9.557590
30
0.0
11
-5.396050
21
-9.777250
31
0.0
0
LINE
8
0
6
CONTINUOUS
10
-3.446489
20
-9.652404
30
0.0
11
-5.374960
21
-9.869690
31
0.0
0
LINE
8
0
6
CONTINUOUS
10
-5.311570
20
-10.147370
30
0.0
11
-2.858367
21
-9.870960
31
0.0
0
LINE
8
0
6
CONTINUOUS
10
14.631010
20
-51.764670
30
0.0
11
10.181610
21
-54.560450
31
0.0
0
LINE
8
0
6
CONTINUOUS
10
10.356090
20
-54.922770
30
0.0
11
14.881750
21
-52.079100
31
0.0
0
LINE
8
0
6
CONTINUOUS
10
-10.182020
20
-54.560470
30
0.0
11
-14.631450
21
-51.764720
31
0.0
0
LINE
8
0
6
CONTINUOUS
10
-14.882180
20
-52.079140
30
0.0
11
-10.356500
21
-54.922780
31
0.0
0
LINE
8
0
6
CONTINUOUS
10
78.100020
20
-74.988860
30
0.0
11
78.099990
21
74.988870
31
0.0
0
LINE
8
0
6
CONTINUOUS
10
74.842880
20
78.245990
30
0.0
11
-74.842900
21
78.245970
31
0.0
0
LINE
8
0
6
CONTINUOUS
10
-78.100020
20
74.988860
30
0.0
11
-78.099990
21
-74.988880
31
0.0
0
LINE
8
0
6
CONTINUOUS
10
-74.842880
20
-78.245990
30
0.0
11
74.842900
21
-78.245970
31
0.0
0
LINE
8
0
6
CONTINUOUS
10
78.099990
20
74.988870
30
0.0
11
77.943890
21
76.293110
31
0.0
0
LINE
8
0
6
CONTINUOUS
10
77.943890
20
76.293110
30
0.0
11
77.283010
21
77.428900
31
0.0
0
LINE
8
0
6
CONTINUOUS
10
77.283010
20
77.428900
30
0.0
11
76.147730
21
78.089700
31
0.0
0
LINE
8
0
6
CONTINUOUS
10
76.147730
20
78.089700
30
0.0
11
74.842880
21
78.245990
31
0.0
0
LINE
8
0
6
CONTINUOUS
10
-77.943740
20
76.293710
30
0.0
11
-78.100020
21
74.988860
31
0.0
0
LINE
8
0
6
CONTINUOUS
10
-77.282930
20
77.428990
30
0.0
11
-77.943740
21
76.293710
31
0.0
0
LINE
8
0
6
CONTINUOUS
10
-76.147140
20
78.089870
30
0.0
11
-77.282930
21
77.428990
31
0.0
0
LINE
8
0
6
CONTINUOUS
10
-74.842900
20
78.245970
30
0.0
11
-76.147140
21
78.089870
31
0.0
0
LINE
8
0
6
CONTINUOUS
10
-76.147730
20
-78.089710
30
0.0
11
-74.842880
21
-78.245990
31
0.0
0
LINE
8
0
6
CONTINUOUS
10
-77.283010
20
-77.428900
30
0.0
11
-76.147730
21
-78.089710
31
0.0
0
LINE
8
0
6
CONTINUOUS
10
-77.943890
20
-76.293110
30
0.0
11
-77.283010
21
-77.428900
31
0.0
0
LINE
8
0
6
CONTINUOUS
10
-78.099990
20
-74.988880
30
0.0
11
-77.943890
21
-76.293110
31
0.0
0
LINE
8
0
6
CONTINUOUS
10
74.842900
20
-78.245970
30
0.0
11
76.147140
21
-78.089870
31
0.0
0
LINE
8
0
6
CONTINUOUS
10
76.147140
20
-78.089870
30
0.0
11
77.282930
21
-77.428990
31
0.0
0
LINE
8
0
6
CONTINUOUS
10
77.282930
20
-77.428990
30
0.0
11
77.943730
21
-76.293710
31
0.0
0
LINE
8
0
6
CONTINUOUS
10
77.943730
20
-76.293710
30
0.0
11
78.100020
21
-74.988860
31
0.0
0
LINE
8
0
6
CONTINUOUS
10
74.748110
20
-77.999970
30
0.0
11
76.050260
21
-77.844410
31
0.0
0
LINE
8
0
6
CONTINUOUS
10
-74.748060
20
-78.000010
30
0.0
11
74.748110
21
-77.999970
31
0.0
0
LINE
8
0
6
CONTINUOUS
10
-76.050830
20
-77.844260
30
0.0
11
-74.748060
21
-78.000010
31
0.0
0
LINE
8
0
6
CONTINUOUS
10
-77.184290
20
-77.185760
30
0.0
11
-76.050830
21
-77.844260
31
0.0
0
LINE
8
0
6
CONTINUOUS
10
-77.844110
20
-76.053900
30
0.0
11
-77.184290
21
-77.185760
31
0.0
0
LINE
8
0
6
CONTINUOUS
10
-77.999960
20
-74.754180
30
0.0
11
-77.844110
21
-76.053900
31
0.0
0
LINE
8
0
6
CONTINUOUS
10
-78.000010
20
74.754140
30
0.0
11
-77.999960
21
-74.754180
31
0.0
0
LINE
8
0
6
CONTINUOUS
10
-77.843980
20
76.054480
30
0.0
11
-78.000010
21
74.754140
31
0.0
0
LINE
8
0
6
CONTINUOUS
10
-77.184240
20
77.185830
30
0.0
11
-77.843980
21
76.054480
31
0.0
0
LINE
8
0
6
CONTINUOUS
10
-76.050260
20
77.844400
30
0.0
11
-77.184240
21
77.185830
31
0.0
0
LINE
8
0
6
CONTINUOUS
10
-74.748110
20
77.999970
30
0.0
11
-76.050260
21
77.844400
31
0.0
0
LINE
8
0
6
CONTINUOUS
10
74.748060
20
78.000010
30
0.0
11
-74.748110
21
77.999970
31
0.0
0
LINE
8
0
6
CONTINUOUS
10
76.050830
20
77.844260
30
0.0
11
74.748060
21
78.000010
31
0.0
0
LINE
8
0
6
CONTINUOUS
10
77.184290
20
77.185750
30
0.0
11
76.050830
21
77.844260
31
0.0
0
LINE
8
0
6
CONTINUOUS
10
77.844100
20
76.053890
30
0.0
11
77.184290
21
77.185750
31
0.0
0
LINE
8
0
6
CONTINUOUS
10
77.999960
20
74.754180
30
0.0
11
77.844100
21
76.053890
31
0.0
0
LINE
8
0
6
CONTINUOUS
10
78.000010
20
-74.754140
30
0.0
11
77.999960
21
74.754180
31
0.0
0
LINE
8
0
6
CONTINUOUS
10
77.843980
20
-76.054480
30
0.0
11
78.000010
21
-74.754140
31
0.0
0
LINE
8
0
6
CONTINUOUS
10
77.184240
20
-77.185830
30
0.0
11
77.843980
21
-76.054480
31
0.0
0
LINE
8
0
6
CONTINUOUS
10
76.050260
20
-77.844410
30
0.0
11
77.184240
21
-77.185830
31
0.0
0
LINE
8
0
6
CONTINUOUS
10
11.766200
20
26.962050
30
0.0
11
13.106060
21
30.228340
31
0.0
0
LINE
8
0
6
CONTINUOUS
10
13.106060
20
30.228340
30
0.0
11
13.609130
21
33.745800
31
0.0
0
LINE
8
0
6
CONTINUOUS
10
6.783370
20
21.979650
30
0.0
11
9.631420
21
24.114020
31
0.0
0
LINE
8
0
6
CONTINUOUS
10
3.517290
20
20.639780
30
0.0
11
6.783370
21
21.979650
31
0.0
0
LINE
8
0
6
CONTINUOUS
10
13.609130
20
33.745800
30
0.0
11
13.106060
21
37.263270
31
0.0
0
LINE
8
0
6
CONTINUOUS
10
9.631420
20
43.377600
30
0.0
11
6.783370
21
45.512370
31
0.0
0
LINE
8
0
6
CONTINUOUS
10
6.783370
20
45.512370
30
0.0
11
3.517290
21
46.851620
31
0.0
0
LINE
8
0
6
CONTINUOUS
10
11.766200
20
40.529550
30
0.0
11
9.631420
21
43.377600
31
0.0
0
LINE
8
0
6
CONTINUOUS
10
3.517290
20
46.851620
30
0.0
11
0.000030
21
47.354480
31
0.0
0
LINE
8
0
6
CONTINUOUS
10
9.631420
20
24.114020
30
0.0
11
11.766200
21
26.962050
31
0.0
0
LINE
8
0
6
CONTINUOUS
10
13.106060
20
37.263270
30
0.0
11
11.766200
21
40.529550
31
0.0
0
LINE
8
0
6
CONTINUOUS
10
0.000030
20
20.136710
30
0.0
11
3.517290
21
20.639780
31
0.0
0
LINE
8
0
6
CONTINUOUS
10
13.106060
20
30.228340
30
0.0
11
11.766200
21
26.962050
31
0.0
0
LINE
8
0
6
CONTINUOUS
10
13.609130
20
33.745800
30
0.0
11
13.106060
21
30.228340
31
0.0
0
LINE
8
0
6
CONTINUOUS
10
9.631420
20
24.114020
30
0.0
11
6.783370
21
21.979650
31
0.0
0
LINE
8
0
6
CONTINUOUS
10
6.783370
20
21.979650
30
0.0
11
3.517290
21
20.639780
31
0.0
0
LINE
8
0
6
CONTINUOUS
10
13.106060
20
37.263270
30
0.0
11
13.609130
21
33.745800
31
0.0
0
LINE
8
0
6
CONTINUOUS
10
6.783370
20
45.512370
30
0.0
11
9.631420
21
43.377600
31
0.0
0
LINE
8
0
6
CONTINUOUS
10
3.517290
20
46.851620
30
0.0
11
6.783370
21
45.512370
31
0.0
0
LINE
8
0
6
CONTINUOUS
10
9.631420
20
43.377600
30
0.0
11
11.766200
21
40.529550
31
0.0
0
LINE
8
0
6
CONTINUOUS
10
0.000030
20
47.354480
30
0.0
11
3.517290
21
46.851620
31
0.0
0
LINE
8
0
6
CONTINUOUS
10
11.766200
20
26.962050
30
0.0
11
9.631420
21
24.114020
31
0.0
0
LINE
8
0
6
CONTINUOUS
10
11.766200
20
40.529550
30
0.0
11
13.106060
21
37.263270
31
0.0
0
LINE
8
0
6
CONTINUOUS
10
3.517290
20
20.639780
30
0.0
11
0.000030
21
20.136710
31
0.0
0
LINE
8
0
6
CONTINUOUS
10
-13.106000
20
30.228340
30
0.0
11
-11.766140
21
26.962050
31
0.0
0
LINE
8
0
6
CONTINUOUS
10
-13.609060
20
33.745800
30
0.0
11
-13.106000
21
30.228340
31
0.0
0
LINE
8
0
6
CONTINUOUS
10
-9.631350
20
24.114010
30
0.0
11
-6.783310
21
21.979650
31
0.0
0
LINE
8
0
6
CONTINUOUS
10
-6.783310
20
21.979650
30
0.0
11
-3.517220
21
20.639780
31
0.0
0
LINE
8
0
6
CONTINUOUS
10
-13.106000
20
37.263270
30
0.0
11
-13.609060
21
33.745800
31
0.0
0
LINE
8
0
6
CONTINUOUS
10
-6.783310
20
45.512370
30
0.0
11
-9.631350
21
43.377600
31
0.0
0
LINE
8
0
6
CONTINUOUS
10
-3.517230
20
46.851620
30
0.0
11
-6.783310
21
45.512370
31
0.0
0
LINE
8
0
6
CONTINUOUS
10
-9.631350
20
43.377600
30
0.0
11
-11.766130
21
40.529550
31
0.0
0
LINE
8
0
6
CONTINUOUS
10
0.000030
20
47.354480
30
0.0
11
-3.517230
21
46.851620
31
0.0
0
LINE
8
0
6
CONTINUOUS
10
-11.766140
20
26.962050
30
0.0
11
-9.631350
21
24.114010
31
0.0
0
LINE
8
0
6
CONTINUOUS
10
-11.766130
20
40.529550
30
0.0
11
-13.106000
21
37.263270
31
0.0
0
LINE
8
0
6
CONTINUOUS
10
-3.517220
20
20.639780
30
0.0
11
0.000030
21
20.136710
31
0.0
0
LINE
8
0
6
CONTINUOUS
10
-11.766140
20
26.962050
30
0.0
11
-13.106000
21
30.228340
31
0.0
0
LINE
8
0
6
CONTINUOUS
10
-13.106000
20
30.228340
30
0.0
11
-13.609060
21
33.745800
31
0.0
0
LINE
8
0
6
CONTINUOUS
10
-6.783310
20
21.979650
30
0.0
11
-9.631350
21
24.114010
31
0.0
0
LINE
8
0
6
CONTINUOUS
10
-3.517220
20
20.639780
30
0.0
11
-6.783310
21
21.979650
31
0.0
0
LINE
8
0
6
CONTINUOUS
10
-13.609060
20
33.745800
30
0.0
11
-13.106000
21
37.263270
31
0.0
0
LINE
8
0
6
CONTINUOUS
10
-9.631350
20
43.377600
30
0.0
11
-6.783310
21
45.512370
31
0.0
0
LINE
8
0
6
CONTINUOUS
10
-6.783310
20
45.512370
30
0.0
11
-3.517230
21
46.851620
31
0.0
0
LINE
8
0
6
CONTINUOUS
10
-11.766130
20
40.529550
30
0.0
11
-9.631350
21
43.377600
31
0.0
0
LINE
8
0
6
CONTINUOUS
10
-3.517230
20
46.851620
30
0.0
11
0.000030
21
47.354480
31
0.0
0
LINE
8
0
6
CONTINUOUS
10
-9.631350
20
24.114010
30
0.0
11
-11.766140
21
26.962050
31
0.0
0
LINE
8
0
6
CONTINUOUS
10
-13.106000
20
37.263270
30
0.0
11
-11.766130
21
40.529550
31
0.0
0
LINE
8
0
6
CONTINUOUS
10
0.000030
20
20.136710
30
0.0
11
-3.517220
21
20.639780
31
0.0
0
LINE
8
0
6
CONTINUOUS
10
3.570850
20
47.051210
30
0.0
11
6.886680
21
45.691540
31
0.0
0
LINE
8
0
6
CONTINUOUS
10
3.570850
20
20.440190
30
0.0
11
0.000030
21
19.929460
31
0.0
0
LINE
8
0
6
CONTINUOUS
10
13.305650
20
37.316830
30
0.0
11
13.816370
21
33.745800
31
0.0
0
LINE
8
0
6
CONTINUOUS
10
9.778090
20
43.524280
30
0.0
11
11.945370
21
40.632860
31
0.0
0
LINE
8
0
6
CONTINUOUS
10
6.886680
20
45.691540
30
0.0
11
9.778090
21
43.524280
31
0.0
0
LINE
8
0
6
CONTINUOUS
10
13.305650
20
30.174780
30
0.0
11
11.945370
21
26.858750
31
0.0
0
LINE
8
0
6
CONTINUOUS
10
0.000030
20
47.561720
30
0.0
11
3.570850
21
47.051210
31
0.0
0
LINE
8
0
6
CONTINUOUS
10
13.816370
20
33.745800
30
0.0
11
13.305650
21
30.174780
31
0.0
0
LINE
8
0
6
CONTINUOUS
10
11.945370
20
40.632860
30
0.0
11
13.305650
21
37.316830
31
0.0
0
LINE
8
0
6
CONTINUOUS
10
11.945370
20
26.858750
30
0.0
11
9.778090
21
23.967340
31
0.0
0
LINE
8
0
6
CONTINUOUS
10
9.778090
20
23.967340
30
0.0
11
6.886670
21
21.800470
31
0.0
0
LINE
8
0
6
CONTINUOUS
10
6.886670
20
21.800470
30
0.0
11
3.570850
21
20.440190
31
0.0
0
LINE
8
0
6
CONTINUOUS
10
11.945370
20
26.858750
30
0.0
11
9.778090
21
23.967340
31
0.0
0
LINE
8
0
6
CONTINUOUS
10
0.000030
20
47.561720
30
0.0
11
3.570850
21
47.051210
31
0.0
0
LINE
8
0
6
CONTINUOUS
10
9.778090
20
43.524280
30
0.0
11
11.945370
21
40.632860
31
0.0
0
LINE
8
0
6
CONTINUOUS
10
3.570850
20
47.051210
30
0.0
11
6.886680
21
45.691540
31
0.0
0
LINE
8
0
6
CONTINUOUS
10
6.886670
20
21.800470
30
0.0
11
3.570850
21
20.440190
31
0.0
0
LINE
8
0
6
CONTINUOUS
10
11.945370
20
40.632860
30
0.0
11
13.305650
21
37.316830
31
0.0
0
LINE
8
0
6
CONTINUOUS
10
13.305650
20
30.174780
30
0.0
11
11.945370
21
26.858750
31
0.0
0
LINE
8
0
6
CONTINUOUS
10
13.305650
20
37.316830
30
0.0
11
13.816370
21
33.745800
31
0.0
0
LINE
8
0
6
CONTINUOUS
10
3.570850
20
20.440190
30
0.0
11
0.000030
21
19.929460
31
0.0
0
LINE
8
0
6
CONTINUOUS
10
9.778090
20
23.967340
30
0.0
11
6.886670
21
21.800470
31
0.0
0
LINE
8
0
6
CONTINUOUS
10
13.816370
20
33.745800
30
0.0
11
13.305650
21
30.174780
31
0.0
0
LINE
8
0
6
CONTINUOUS
10
6.886680
20
45.691540
30
0.0
11
9.778090
21
43.524280
31
0.0
0
LINE
8
0
6
CONTINUOUS
10
-74.748080
20
-78.000000
30
0.0
11
-0.000000
21
-77.999990
31
0.0
0
LINE
8
0
6
CONTINUOUS
10
76.050860
20
-77.844230
30
0.0
11
74.748090
21
-77.999980
31
0.0
0
LINE
8
0
6
CONTINUOUS
10
74.748090
20
-77.999980
30
0.0
11
76.050240
21
-77.844410
31
0.0
0
LINE
8
0
6
CONTINUOUS
10
77.184320
20
-77.185730
30
0.0
11
76.050860
21
-77.844230
31
0.0
0
LINE
8
0
6
CONTINUOUS
10
76.050240
20
-77.844410
30
0.0
11
77.184220
21
-77.185830
31
0.0
0
LINE
8
0
6
CONTINUOUS
10
77.844140
20
-76.053870
30
0.0
11
77.184320
21
-77.185730
31
0.0
0
LINE
8
0
6
CONTINUOUS
10
77.184220
20
-77.185830
30
0.0
11
77.843960
21
-76.054490
31
0.0
0
LINE
8
0
6
CONTINUOUS
10
77.999990
20
-74.754150
30
0.0
11
77.844140
21
-76.053870
31
0.0
0
LINE
8
0
6
CONTINUOUS
10
77.843960
20
-76.054490
30
0.0
11
77.999990
21
-74.754150
31
0.0
0
LINE
8
0
6
CONTINUOUS
10
76.050830
20
77.844250
30
0.0
11
74.748060
21
78.000000
31
0.0
0
LINE
8
0
6
CONTINUOUS
10
74.748060
20
78.000000
30
0.0
11
76.050210
21
77.844430
31
0.0
0
LINE
8
0
6
CONTINUOUS
10
77.184290
20
77.185750
30
0.0
11
76.050830
21
77.844250
31
0.0
0
LINE
8
0
6
CONTINUOUS
10
76.050210
20
77.844430
30
0.0
11
77.184190
21
77.185850
31
0.0
0
LINE
8
0
6
CONTINUOUS
10
77.844100
20
76.053890
30
0.0
11
77.184290
21
77.185750
31
0.0
0
LINE
8
0
6
CONTINUOUS
10
77.184190
20
77.185850
30
0.0
11
77.843920
21
76.054510
31
0.0
0
LINE
8
0
6
CONTINUOUS
10
77.999960
20
74.754170
30
0.0
11
77.844100
21
76.053890
31
0.0
0
LINE
8
0
6
CONTINUOUS
10
77.843920
20
76.054510
30
0.0
11
77.999960
21
74.754170
31
0.0
0
LINE
8
0
6
CONTINUOUS
10
-77.843980
20
76.054490
30
0.0
11
-78.000010
21
74.754150
31
0.0
0
LINE
8
0
6
CONTINUOUS
10
-78.000010
20
74.754150
30
0.0
11
-77.844160
21
76.053870
31
0.0
0
LINE
8
0
6
CONTINUOUS
10
-77.184240
20
77.185840
30
0.0
11
-77.843980
21
76.054490
31
0.0
0
LINE
8
0
6
CONTINUOUS
10
-77.844160
20
76.053870
30
0.0
11
-77.184340
21
77.185730
31
0.0
0
LINE
8
0
6
CONTINUOUS
10
-76.050260
20
77.844420
30
0.0
11
-77.184240
21
77.185840
31
0.0
0
LINE
8
0
6
CONTINUOUS
10
-77.184340
20
77.185730
30
0.0
11
-76.050880
21
77.844230
31
0.0
0
LINE
8
0
6
CONTINUOUS
10
-74.748110
20
77.999980
30
0.0
11
-76.050260
21
77.844420
31
0.0
0
LINE
8
0
6
CONTINUOUS
10
-76.050880
20
77.844230
30
0.0
11
-74.748110
21
77.999980
31
0.0
0
LINE
8
0
6
CONTINUOUS
10
-76.050850
20
-77.844250
30
0.0
11
-74.748080
21
-78.000000
31
0.0
0
LINE
8
0
6
CONTINUOUS
10
-74.748080
20
-78.000000
30
0.0
11
-76.050230
21
-77.844430
31
0.0
0
LINE
8
0
6
CONTINUOUS
10
-77.184310
20
-77.185740
30
0.0
11
-76.050850
21
-77.844250
31
0.0
0
LINE
8
0
6
CONTINUOUS
10
-76.050230
20
-77.844430
30
0.0
11
-77.184210
21
-77.185850
31
0.0
0
LINE
8
0
6
CONTINUOUS
10
-77.844120
20
-76.053890
30
0.0
11
-77.184310
21
-77.185740
31
0.0
0
LINE
8
0
6
CONTINUOUS
10
-77.184210
20
-77.185850
30
0.0
11
-77.843940
21
-76.054510
31
0.0
0
LINE
8
0
6
CONTINUOUS
10
-77.999980
20
-74.754170
30
0.0
11
-77.844120
21
-76.053890
31
0.0
0
LINE
8
0
6
CONTINUOUS
10
-77.843940
20
-76.054510
30
0.0
11
-77.999980
21
-74.754170
31
0.0
0
LINE
8
0
6
CONTINUOUS
10
-78.000000
20
-0.000010
30
0.0
11
-78.000010
21
74.754150
31
0.0
0
LINE
8
0
6
CONTINUOUS
10
-77.999990
20
-0.000010
30
0.0
11
-77.999980
21
-74.754170
31
0.0
0
LINE
8
0
6
CONTINUOUS
10
-0.000000
20
-77.999990
30
0.0
11
74.748090
21
-77.999980
31
0.0
0
LINE
8
0
6
CONTINUOUS
10
77.999980
20
0.000010
30
0.0
11
77.999960
21
74.754170
31
0.0
0
LINE
8
0
6
CONTINUOUS
10
-0.000020
20
77.999990
30
0.0
11
-74.748110
21
77.999980
31
0.0
0
LINE
8
0
6
CONTINUOUS
10
-0.000000
20
-77.999990
30
0.0
11
74.748090
21
-77.999980
31
0.0
0
LINE
8
0
6
CONTINUOUS
10
-0.000020
20
77.999990
30
0.0
11
-74.748110
21
77.999980
31
0.0
0
LINE
8
0
6
CONTINUOUS
10
77.999970
20
0.000010
30
0.0
11
77.999960
21
74.754170
31
0.0
0
LINE
8
0
6
CONTINUOUS
10
-0.000020
20
77.999990
30
0.0
11
74.748060
21
78.000000
31
0.0
0
LINE
8
0
6
CONTINUOUS
10
-0.000020
20
77.999990
30
0.0
11
74.748060
21
78.000000
31
0.0
0
LINE
8
0
6
CONTINUOUS
10
-0.000000
20
-77.999990
30
0.0
11
-74.748080
21
-78.000000
31
0.0
0
LINE
8
0
6
CONTINUOUS
10
77.999970
20
0.000010
30
0.0
11
77.999990
21
-74.754150
31
0.0
0
LINE
8
0
6
CONTINUOUS
10
77.999980
20
0.000010
30
0.0
11
77.999990
21
-74.754150
31
0.0
0
LINE
8
0
6
CONTINUOUS
10
-77.999990
20
-0.000010
30
0.0
11
-78.000010
21
74.754150
31
0.0
0
LINE
8
0
6
CONTINUOUS
10
-78.000000
20
-0.000010
30
0.0
11
-77.999980
21
-74.754170
31
0.0
0
LINE
8
0
6
CONTINUOUS
10
-6.886670
20
45.691540
30
0.0
11
-3.570840
21
47.051210
31
0.0
0
LINE
8
0
6
CONTINUOUS
10
-13.816350
20
33.745800
30
0.0
11
-13.305640
21
37.316830
31
0.0
0
LINE
8
0
6
CONTINUOUS
10
-11.945360
20
40.632860
30
0.0
11
-9.778080
21
43.524280
31
0.0
0
LINE
8
0
6
CONTINUOUS
10
-9.778080
20
43.524280
30
0.0
11
-6.886670
21
45.691540
31
0.0
0
LINE
8
0
6
CONTINUOUS
10
-11.945360
20
26.858750
30
0.0
11
-13.305640
21
30.174780
31
0.0
0
LINE
8
0
6
CONTINUOUS
10
-13.305640
20
30.174780
30
0.0
11
-13.816350
21
33.745800
31
0.0
0
LINE
8
0
6
CONTINUOUS
10
-13.305640
20
37.316830
30
0.0
11
-11.945360
21
40.632860
31
0.0
0
LINE
8
0
6
CONTINUOUS
10
-9.778080
20
23.967340
30
0.0
11
-11.945360
21
26.858750
31
0.0
0
LINE
8
0
6
CONTINUOUS
10
-6.886650
20
21.800470
30
0.0
11
-9.778080
21
23.967340
31
0.0
0
LINE
8
0
6
CONTINUOUS
10
-3.570840
20
20.440190
30
0.0
11
-6.886650
21
21.800470
31
0.0
0
LINE
8
0
6
CONTINUOUS
10
-9.778080
20
23.967340
30
0.0
11
-11.945360
21
26.858750
31
0.0
0
LINE
8
0
6
CONTINUOUS
10
-11.945360
20
40.632860
30
0.0
11
-9.778080
21
43.524280
31
0.0
0
LINE
8
0
6
CONTINUOUS
10
-6.886670
20
45.691540
30
0.0
11
-3.570840
21
47.051210
31
0.0
0
LINE
8
0
6
CONTINUOUS
10
-3.570840
20
20.440190
30
0.0
11
-6.886650
21
21.800470
31
0.0
0
LINE
8
0
6
CONTINUOUS
10
-13.305640
20
37.316830
30
0.0
11
-11.945360
21
40.632860
31
0.0
0
LINE
8
0
6
CONTINUOUS
10
-11.945360
20
26.858750
30
0.0
11
-13.305640
21
30.174780
31
0.0
0
LINE
8
0
6
CONTINUOUS
10
-13.816350
20
33.745800
30
0.0
11
-13.305640
21
37.316830
31
0.0
0
LINE
8
0
6
CONTINUOUS
10
-6.886650
20
21.800470
30
0.0
11
-9.778080
21
23.967340
31
0.0
0
LINE
8
0
6
CONTINUOUS
10
-13.305640
20
30.174780
30
0.0
11
-13.816350
21
33.745800
31
0.0
0
LINE
8
0
6
CONTINUOUS
10
-9.778080
20
43.524280
30
0.0
11
-6.886670
21
45.691540
31
0.0
0
LINE
8
0
6
CONTINUOUS
10
0.000030
20
19.929460
30
0.0
11
-3.570840
21
20.440190
31
0.0
0
LINE
8
0
6
CONTINUOUS
10
-3.570840
20
47.051210
30
0.0
11
0.000030
21
47.561720
31
0.0
0
LINE
8
0
6
CONTINUOUS
10
-3.570840
20
47.051210
30
0.0
11
0.000030
21
47.561720
31
0.0
0
LINE
8
0
6
CONTINUOUS
10
0.000030
20
19.929460
30
0.0
11
-3.570840
21
20.440190
31
0.0
0
ENDSEC
0
EOF
