999
Erzeugt mit innoplus bad 
0
SECTION
2
HEADER
9
$ACADVER
1
AC1009
9
$DWGCODEPAGE
3
ISO8859-1
0
ENDSEC
0
SECTION
2
TABLES
0
TABLE
2
LAYER
70
1
0
LAYER
2
0
70
0
62
7
6
CONTINUOUS
0
ENDTAB
0
ENDSEC
0
SECTION
2
ENTITIES
0
LINE
8
0
6
CONTINUOUS
10
3.446200
20
-41.778135
30
0.0
11
3.446200
21
-41.701305
31
0.0
0
LINE
8
0
6
CONTINUOUS
10
3.244050
20
-59.497345
30
0.0
11
3.446200
21
-59.103285
31
0.0
0
LINE
8
0
6
CONTINUOUS
10
2.915990
20
-59.806955
30
0.0
11
3.244050
21
-59.497345
31
0.0
0
LINE
8
0
6
CONTINUOUS
10
2.498490
20
-59.997755
30
0.0
11
2.915990
21
-59.806955
31
0.0
0
LINE
8
0
6
CONTINUOUS
10
2.387960
20
-59.997755
30
0.0
11
2.498490
21
-59.997755
31
0.0
0
LINE
8
0
6
CONTINUOUS
10
2.093640
20
-59.997755
30
0.0
11
2.387960
21
-59.997755
31
0.0
0
LINE
8
0
6
CONTINUOUS
10
1.629790
20
-59.997755
30
0.0
11
2.093640
21
-59.997755
31
0.0
0
LINE
8
0
6
CONTINUOUS
10
-0.000030
20
-59.997755
30
0.0
11
0.354210
21
-59.997755
31
0.0
0
LINE
8
0
6
CONTINUOUS
10
1.033890
20
-59.997755
30
0.0
11
1.629790
21
-59.997755
31
0.0
0
LINE
8
0
6
CONTINUOUS
10
0.354210
20
-59.997755
30
0.0
11
1.033890
21
-59.997755
31
0.0
0
LINE
8
0
6
CONTINUOUS
10
2.915990
20
-40.997635
30
0.0
11
2.498490
21
-40.806835
31
0.0
0
LINE
8
0
6
CONTINUOUS
10
2.498490
20
-40.806835
30
0.0
11
2.387960
21
-40.806835
31
0.0
0
LINE
8
0
6
CONTINUOUS
10
3.244050
20
-41.307255
30
0.0
11
2.915990
21
-40.997635
31
0.0
0
LINE
8
0
6
CONTINUOUS
10
3.446200
20
-41.701305
30
0.0
11
3.244050
21
-41.307255
31
0.0
0
LINE
8
0
6
CONTINUOUS
10
3.306640
20
-41.701305
30
0.0
11
3.446200
21
-41.701305
31
0.0
0
LINE
8
0
6
CONTINUOUS
10
2.899100
20
-41.701305
30
0.0
11
3.306640
21
-41.701305
31
0.0
0
LINE
8
0
6
CONTINUOUS
10
2.387960
20
-40.806835
30
0.0
11
2.093640
21
-40.806835
31
0.0
0
LINE
8
0
6
CONTINUOUS
10
2.256820
20
-41.701305
30
0.0
11
2.899100
21
-41.701305
31
0.0
0
LINE
8
0
6
CONTINUOUS
10
2.093640
20
-40.806835
30
0.0
11
1.629790
21
-40.806835
31
0.0
0
LINE
8
0
6
CONTINUOUS
10
0.354210
20
-40.806835
30
0.0
11
-0.000030
21
-40.806835
31
0.0
0
LINE
8
0
6
CONTINUOUS
10
1.431640
20
-41.701305
30
0.0
11
2.256820
21
-41.701305
31
0.0
0
LINE
8
0
6
CONTINUOUS
10
1.629790
20
-40.806835
30
0.0
11
1.033890
21
-40.806835
31
0.0
0
LINE
8
0
6
CONTINUOUS
10
0.490460
20
-41.701305
30
0.0
11
1.431640
21
-41.701305
31
0.0
0
LINE
8
0
6
CONTINUOUS
10
1.033890
20
-40.806835
30
0.0
11
0.354210
21
-40.806835
31
0.0
0
LINE
8
0
6
CONTINUOUS
10
0.490460
20
-59.103285
30
0.0
11
1.431640
21
-59.103285
31
0.0
0
LINE
8
0
6
CONTINUOUS
10
1.431640
20
-59.103285
30
0.0
11
2.256820
21
-59.103285
31
0.0
0
LINE
8
0
6
CONTINUOUS
10
2.899100
20
-59.103285
30
0.0
11
3.306640
21
-59.103285
31
0.0
0
LINE
8
0
6
CONTINUOUS
10
2.256820
20
-59.103285
30
0.0
11
2.899100
21
-59.103285
31
0.0
0
LINE
8
0
6
CONTINUOUS
10
3.446200
20
-59.103285
30
0.0
11
3.446200
21
-58.908485
31
0.0
0
LINE
8
0
6
CONTINUOUS
10
3.306640
20
-59.103285
30
0.0
11
3.446200
21
-59.103285
31
0.0
0
LINE
8
0
6
CONTINUOUS
10
3.446200
20
-58.908485
30
0.0
11
3.446200
21
-41.778135
31
0.0
0
LINE
8
0
6
CONTINUOUS
10
0.490460
20
-41.701305
30
0.0
11
-0.000030
21
-41.701305
31
0.0
0
LINE
8
0
6
CONTINUOUS
10
-0.000030
20
-59.103285
30
0.0
11
0.490460
21
-59.103285
31
0.0
0
LINE
8
0
6
CONTINUOUS
10
-3.446260
20
-41.701305
30
0.0
11
-3.446260
21
-41.778135
31
0.0
0
LINE
8
0
6
CONTINUOUS
10
-3.244110
20
-59.497345
30
0.0
11
-2.916060
21
-59.806955
31
0.0
0
LINE
8
0
6
CONTINUOUS
10
-2.498550
20
-59.997755
30
0.0
11
-2.388030
21
-59.997755
31
0.0
0
LINE
8
0
6
CONTINUOUS
10
-2.916060
20
-59.806955
30
0.0
11
-2.498550
21
-59.997755
31
0.0
0
LINE
8
0
6
CONTINUOUS
10
-2.388030
20
-59.997755
30
0.0
11
-2.093710
21
-59.997755
31
0.0
0
LINE
8
0
6
CONTINUOUS
10
-2.093710
20
-59.997755
30
0.0
11
-1.629850
21
-59.997755
31
0.0
0
LINE
8
0
6
CONTINUOUS
10
-0.354270
20
-59.997755
30
0.0
11
-0.000030
21
-59.997755
31
0.0
0
LINE
8
0
6
CONTINUOUS
10
-1.629850
20
-59.997755
30
0.0
11
-1.033950
21
-59.997755
31
0.0
0
LINE
8
0
6
CONTINUOUS
10
-1.033950
20
-59.997755
30
0.0
11
-0.354270
21
-59.997755
31
0.0
0
LINE
8
0
6
CONTINUOUS
10
-2.388030
20
-40.806835
30
0.0
11
-2.498550
21
-40.806835
31
0.0
0
LINE
8
0
6
CONTINUOUS
10
-2.498550
20
-40.806835
30
0.0
11
-2.916060
21
-40.997635
31
0.0
0
LINE
8
0
6
CONTINUOUS
10
-2.916060
20
-40.997635
30
0.0
11
-3.244110
21
-41.307255
31
0.0
0
LINE
8
0
6
CONTINUOUS
10
-3.446260
20
-41.701305
30
0.0
11
-3.306700
21
-41.701305
31
0.0
0
LINE
8
0
6
CONTINUOUS
10
-3.244110
20
-41.307255
30
0.0
11
-3.446260
21
-41.701305
31
0.0
0
LINE
8
0
6
CONTINUOUS
10
-3.306700
20
-41.701305
30
0.0
11
-2.899160
21
-41.701305
31
0.0
0
LINE
8
0
6
CONTINUOUS
10
-2.093710
20
-40.806835
30
0.0
11
-2.388030
21
-40.806835
31
0.0
0
LINE
8
0
6
CONTINUOUS
10
-2.899160
20
-41.701305
30
0.0
11
-2.256880
21
-41.701305
31
0.0
0
LINE
8
0
6
CONTINUOUS
10
-1.629850
20
-40.806835
30
0.0
11
-2.093710
21
-40.806835
31
0.0
0
LINE
8
0
6
CONTINUOUS
10
-0.000030
20
-40.806835
30
0.0
11
-0.354270
21
-40.806835
31
0.0
0
LINE
8
0
6
CONTINUOUS
10
-2.256880
20
-41.701305
30
0.0
11
-1.431700
21
-41.701305
31
0.0
0
LINE
8
0
6
CONTINUOUS
10
-1.033950
20
-40.806835
30
0.0
11
-1.629850
21
-40.806835
31
0.0
0
LINE
8
0
6
CONTINUOUS
10
-1.431700
20
-41.701305
30
0.0
11
-0.490520
21
-41.701305
31
0.0
0
LINE
8
0
6
CONTINUOUS
10
-0.354270
20
-40.806835
30
0.0
11
-1.033950
21
-40.806835
31
0.0
0
LINE
8
0
6
CONTINUOUS
10
-1.431700
20
-59.103285
30
0.0
11
-0.490520
21
-59.103285
31
0.0
0
LINE
8
0
6
CONTINUOUS
10
-2.256880
20
-59.103285
30
0.0
11
-1.431700
21
-59.103285
31
0.0
0
LINE
8
0
6
CONTINUOUS
10
-3.306700
20
-59.103285
30
0.0
11
-2.899160
21
-59.103285
31
0.0
0
LINE
8
0
6
CONTINUOUS
10
-2.899160
20
-59.103285
30
0.0
11
-2.256880
21
-59.103285
31
0.0
0
LINE
8
0
6
CONTINUOUS
10
-3.446260
20
-59.103285
30
0.0
11
-3.306700
21
-59.103285
31
0.0
0
LINE
8
0
6
CONTINUOUS
10
-3.446260
20
-41.778135
30
0.0
11
-3.446260
21
-58.908485
31
0.0
0
LINE
8
0
6
CONTINUOUS
10
-0.000030
20
-41.701305
30
0.0
11
-0.490520
21
-41.701305
31
0.0
0
LINE
8
0
6
CONTINUOUS
10
-0.490520
20
-59.103285
30
0.0
11
-0.000030
21
-59.103285
31
0.0
0
LINE
8
0
6
CONTINUOUS
10
-0.000060
20
-60.000025
30
0.0
11
5.221740
21
-60.000025
31
0.0
0
LINE
8
0
6
CONTINUOUS
10
5.221740
20
-60.000025
30
0.0
11
10.181750
21
-60.000005
31
0.0
0
LINE
8
0
6
CONTINUOUS
10
10.181750
20
-60.000005
30
0.0
11
14.631170
21
-60.000005
31
0.0
0
LINE
8
0
6
CONTINUOUS
10
14.631170
20
-60.000005
30
0.0
11
18.346920
21
-59.999995
31
0.0
0
LINE
8
0
6
CONTINUOUS
10
18.346920
20
-59.999995
30
0.0
11
21.142690
21
-59.999995
31
0.0
0
LINE
8
0
6
CONTINUOUS
10
21.142690
20
-59.999995
30
0.0
11
22.878270
21
-59.999995
31
0.0
0
LINE
8
0
6
CONTINUOUS
10
23.466620
20
-59.999995
30
0.0
11
23.868790
21
-59.833385
31
0.0
0
LINE
8
0
6
CONTINUOUS
10
22.878270
20
-59.999995
30
0.0
11
23.466620
21
-59.999995
31
0.0
0
LINE
8
0
6
CONTINUOUS
10
-23.868820
20
-59.833395
30
0.0
11
-23.466650
21
-59.999995
31
0.0
0
LINE
8
0
6
CONTINUOUS
10
-23.466650
20
-59.999995
30
0.0
11
-22.878310
21
-59.999995
31
0.0
0
LINE
8
0
6
CONTINUOUS
10
-22.878310
20
-59.999995
30
0.0
11
-21.142760
21
-59.999995
31
0.0
0
LINE
8
0
6
CONTINUOUS
10
-21.142760
20
-59.999995
30
0.0
11
-18.347020
21
-59.999995
31
0.0
0
LINE
8
0
6
CONTINUOUS
10
-18.347020
20
-59.999995
30
0.0
11
-14.631260
21
-59.999995
31
0.0
0
LINE
8
0
6
CONTINUOUS
10
-14.631260
20
-59.999995
30
0.0
11
-10.181840
21
-59.999995
31
0.0
0
LINE
8
0
6
CONTINUOUS
10
-10.181840
20
-59.999995
30
0.0
11
-5.221860
21
-60.000005
31
0.0
0
LINE
8
0
6
CONTINUOUS
10
-5.221860
20
-60.000005
30
0.0
11
-0.000060
21
-60.000025
31
0.0
0
LINE
8
0
6
CONTINUOUS
10
19.914860
20
-23.059625
30
0.0
11
21.549660
21
-23.059625
31
0.0
0
LINE
8
0
6
CONTINUOUS
10
22.103850
20
-23.059615
30
0.0
11
22.103850
21
-22.432315
31
0.0
0
LINE
8
0
6
CONTINUOUS
10
24.248420
20
-58.875815
30
0.0
11
24.248420
21
-23.302605
31
0.0
0
LINE
8
0
6
CONTINUOUS
10
-24.248460
20
-23.302605
30
0.0
11
-24.248440
21
-58.875825
31
0.0
0
LINE
8
0
6
CONTINUOUS
10
-0.000040
20
-23.059645
30
0.0
11
5.289250
21
-23.059645
31
0.0
0
LINE
8
0
6
CONTINUOUS
10
21.416040
20
-23.059625
30
0.0
11
19.914860
21
-23.059625
31
0.0
0
LINE
8
0
6
CONTINUOUS
10
19.914860
20
-23.059625
30
0.0
11
17.281430
21
-23.059635
31
0.0
0
LINE
8
0
6
CONTINUOUS
10
23.770060
20
-23.059615
30
0.0
11
22.103850
21
-23.059615
31
0.0
0
LINE
8
0
6
CONTINUOUS
10
21.549660
20
-23.059625
30
0.0
11
23.174070
21
-23.059625
31
0.0
0
LINE
8
0
6
CONTINUOUS
10
22.103850
20
-23.059615
30
0.0
11
21.549660
21
-23.059625
31
0.0
0
LINE
8
0
6
CONTINUOUS
10
-23.174130
20
-23.059625
30
0.0
11
-21.549700
21
-23.059625
31
0.0
0
LINE
8
0
6
CONTINUOUS
10
-22.103880
20
-23.059615
30
0.0
11
-23.770080
21
-23.059615
31
0.0
0
LINE
8
0
6
CONTINUOUS
10
-19.914920
20
-23.059625
30
0.0
11
-21.416120
21
-23.059625
31
0.0
0
LINE
8
0
6
CONTINUOUS
10
-17.281530
20
-23.059635
30
0.0
11
-19.914920
21
-23.059625
31
0.0
0
LINE
8
0
6
CONTINUOUS
10
-5.289370
20
-23.059645
30
0.0
11
-0.000040
21
-23.059645
31
0.0
0
LINE
8
0
6
CONTINUOUS
10
-0.000040
20
-23.059645
30
0.0
11
-4.918630
21
-23.059635
31
0.0
0
LINE
8
0
6
CONTINUOUS
10
5.395710
20
-23.059645
30
0.0
11
-0.000040
21
-23.059645
31
0.0
0
LINE
8
0
6
CONTINUOUS
10
-5.395810
20
-23.059645
30
0.0
11
-10.521060
21
-23.059635
31
0.0
0
LINE
8
0
6
CONTINUOUS
10
-21.847100
20
-23.059625
30
0.0
11
-23.640500
21
-23.059625
31
0.0
0
LINE
8
0
6
CONTINUOUS
10
24.248420
20
-23.302605
30
0.0
11
24.248420
21
-23.059615
31
0.0
0
LINE
8
0
6
CONTINUOUS
10
15.118580
20
-23.059635
30
0.0
11
10.520920
21
-23.059635
31
0.0
0
LINE
8
0
6
CONTINUOUS
10
18.958120
20
-23.059635
30
0.0
11
15.118580
21
-23.059635
31
0.0
0
LINE
8
0
6
CONTINUOUS
10
-0.000040
20
-23.059645
30
0.0
11
-5.395810
21
-23.059645
31
0.0
0
LINE
8
0
6
CONTINUOUS
10
-15.118690
20
-23.059635
30
0.0
11
-18.958220
21
-23.059635
31
0.0
0
LINE
8
0
6
CONTINUOUS
10
-24.248460
20
-23.059615
30
0.0
11
-24.248460
21
-23.302605
31
0.0
0
LINE
8
0
6
CONTINUOUS
10
-10.521060
20
-23.059635
30
0.0
11
-15.118690
21
-23.059635
31
0.0
0
LINE
8
0
6
CONTINUOUS
10
23.640440
20
-23.059625
30
0.0
11
21.847050
21
-23.059625
31
0.0
0
LINE
8
0
6
CONTINUOUS
10
10.520920
20
-23.059635
30
0.0
11
5.395710
21
-23.059645
31
0.0
0
LINE
8
0
6
CONTINUOUS
10
10.479810
20
-59.541875
30
0.0
11
5.374620
21
-59.541875
31
0.0
0
LINE
8
0
6
CONTINUOUS
10
5.311240
20
-59.833415
30
0.0
11
10.356240
21
-59.833415
31
0.0
0
LINE
8
0
6
CONTINUOUS
10
15.059500
20
-59.541875
30
0.0
11
10.479810
21
-59.541875
31
0.0
0
LINE
8
0
6
CONTINUOUS
10
10.356240
20
-59.833415
30
0.0
11
14.881910
21
-59.833395
31
0.0
0
LINE
8
0
6
CONTINUOUS
10
18.884030
20
-59.541875
30
0.0
11
15.059500
21
-59.541875
31
0.0
0
LINE
8
0
6
CONTINUOUS
10
14.881910
20
-59.833395
30
0.0
11
18.661340
21
-59.833395
31
0.0
0
LINE
8
0
6
CONTINUOUS
10
21.761610
20
-59.541875
30
0.0
11
18.884030
21
-59.541875
31
0.0
0
LINE
8
0
6
CONTINUOUS
10
18.661340
20
-59.833395
30
0.0
11
21.505010
21
-59.833395
31
0.0
0
LINE
8
0
6
CONTINUOUS
10
23.547990
20
-59.541855
30
0.0
11
21.761610
21
-59.541875
31
0.0
0
LINE
8
0
6
CONTINUOUS
10
21.505010
20
-59.833395
30
0.0
11
23.270330
21
-59.833385
31
0.0
0
LINE
8
0
6
CONTINUOUS
10
24.153630
20
-59.541845
30
0.0
11
24.248420
21
-59.164425
31
0.0
0
LINE
8
0
6
CONTINUOUS
10
24.153630
20
-59.541845
30
0.0
11
23.547990
21
-59.541855
31
0.0
0
LINE
8
0
6
CONTINUOUS
10
23.868790
20
-59.833385
30
0.0
11
24.153630
21
-59.541845
31
0.0
0
LINE
8
0
6
CONTINUOUS
10
23.270330
20
-59.833385
30
0.0
11
23.868790
21
-59.833385
31
0.0
0
LINE
8
0
6
CONTINUOUS
10
-24.248440
20
-59.164445
30
0.0
11
-24.153650
21
-59.541865
31
0.0
0
LINE
8
0
6
CONTINUOUS
10
-24.153650
20
-59.541865
30
0.0
11
-23.868820
21
-59.833395
31
0.0
0
LINE
8
0
6
CONTINUOUS
10
-23.548070
20
-59.541865
30
0.0
11
-24.153650
21
-59.541865
31
0.0
0
LINE
8
0
6
CONTINUOUS
10
-23.868820
20
-59.833395
30
0.0
11
-23.270390
21
-59.833395
31
0.0
0
LINE
8
0
6
CONTINUOUS
10
-21.761680
20
-59.541875
30
0.0
11
-23.548070
21
-59.541865
31
0.0
0
LINE
8
0
6
CONTINUOUS
10
-23.270390
20
-59.833395
30
0.0
11
-21.505080
21
-59.833395
31
0.0
0
LINE
8
0
6
CONTINUOUS
10
-18.884110
20
-59.541875
30
0.0
11
-21.761680
21
-59.541875
31
0.0
0
LINE
8
0
6
CONTINUOUS
10
-21.505080
20
-59.833395
30
0.0
11
-18.661430
21
-59.833395
31
0.0
0
LINE
8
0
6
CONTINUOUS
10
-15.059570
20
-59.541875
30
0.0
11
-18.884110
21
-59.541875
31
0.0
0
LINE
8
0
6
CONTINUOUS
10
-18.661430
20
-59.833395
30
0.0
11
-14.882000
21
-59.833395
31
0.0
0
LINE
8
0
6
CONTINUOUS
10
-10.479920
20
-59.541875
30
0.0
11
-15.059570
21
-59.541875
31
0.0
0
LINE
8
0
6
CONTINUOUS
10
-14.882000
20
-59.833395
30
0.0
11
-10.356340
21
-59.833415
31
0.0
0
LINE
8
0
6
CONTINUOUS
10
-5.374740
20
-59.541875
30
0.0
11
-10.479920
21
-59.541875
31
0.0
0
LINE
8
0
6
CONTINUOUS
10
-10.356340
20
-59.833415
30
0.0
11
-5.311350
21
-59.833415
31
0.0
0
LINE
8
0
6
CONTINUOUS
10
21.847050
20
-23.059625
30
0.0
11
21.416040
21
-23.059625
31
0.0
0
LINE
8
0
6
CONTINUOUS
10
18.958120
20
-23.059635
30
0.0
11
21.847050
21
-23.059625
31
0.0
0
LINE
8
0
6
CONTINUOUS
10
24.248420
20
-23.059615
30
0.0
11
23.770060
21
-23.059615
31
0.0
0
LINE
8
0
6
CONTINUOUS
10
23.640440
20
-23.059625
30
0.0
11
24.248420
21
-23.059615
31
0.0
0
LINE
8
0
6
CONTINUOUS
10
23.174070
20
-23.059625
30
0.0
11
23.640440
21
-23.059625
31
0.0
0
LINE
8
0
6
CONTINUOUS
10
-23.640500
20
-23.059625
30
0.0
11
-23.174130
21
-23.059625
31
0.0
0
LINE
8
0
6
CONTINUOUS
10
-24.248460
20
-23.059615
30
0.0
11
-23.640500
21
-23.059625
31
0.0
0
LINE
8
0
6
CONTINUOUS
10
-23.770080
20
-23.059615
30
0.0
11
-24.248460
21
-23.059615
31
0.0
0
LINE
8
0
6
CONTINUOUS
10
-21.847100
20
-23.059625
30
0.0
11
-18.958220
21
-23.059635
31
0.0
0
LINE
8
0
6
CONTINUOUS
10
-21.416120
20
-23.059625
30
0.0
11
-21.847100
21
-23.059625
31
0.0
0
LINE
8
0
6
CONTINUOUS
10
24.248420
20
-59.164425
30
0.0
11
24.248420
21
-58.875815
31
0.0
0
LINE
8
0
6
CONTINUOUS
10
-24.248440
20
-58.875825
30
0.0
11
-24.248440
21
-59.164445
31
0.0
0
LINE
8
0
6
CONTINUOUS
10
-0.000040
20
-23.059645
30
0.0
11
4.918490
21
-23.059635
31
0.0
0
LINE
8
0
6
CONTINUOUS
10
-21.549700
20
-23.059625
30
0.0
11
-19.914920
21
-23.059625
31
0.0
0
LINE
8
0
6
CONTINUOUS
10
-22.103880
20
-23.059615
30
0.0
11
-21.549700
21
-23.059625
31
0.0
0
LINE
8
0
6
CONTINUOUS
10
-22.103880
20
-22.432315
30
0.0
11
-22.103880
21
-23.059615
31
0.0
0
LINE
8
0
6
CONTINUOUS
10
18.959540
20
-22.432305
30
0.0
11
21.848690
21
-22.432305
31
0.0
0
LINE
8
0
6
CONTINUOUS
10
24.250230
20
-22.432285
30
0.0
11
24.250230
21
-21.999275
31
0.0
0
LINE
8
0
6
CONTINUOUS
10
23.642230
20
-22.432295
30
0.0
11
24.250230
21
-22.432285
31
0.0
0
LINE
8
0
6
CONTINUOUS
10
21.848690
20
-22.432305
30
0.0
11
23.642230
21
-22.432295
31
0.0
0
LINE
8
0
6
CONTINUOUS
10
-10.521840
20
-22.432305
30
0.0
11
-5.396240
21
-22.432305
31
0.0
0
LINE
8
0
6
CONTINUOUS
10
-18.959640
20
-22.432305
30
0.0
11
-15.119820
21
-22.432305
31
0.0
0
LINE
8
0
6
CONTINUOUS
10
-23.642260
20
-22.432295
30
0.0
11
-21.848740
21
-22.432305
31
0.0
0
LINE
8
0
6
CONTINUOUS
10
15.119710
20
-22.432305
30
0.0
11
18.959540
21
-22.432305
31
0.0
0
LINE
8
0
6
CONTINUOUS
10
-21.848740
20
-22.432305
30
0.0
11
-18.959640
21
-22.432305
31
0.0
0
LINE
8
0
6
CONTINUOUS
10
5.396100
20
-22.432305
30
0.0
11
10.521720
21
-22.432305
31
0.0
0
LINE
8
0
6
CONTINUOUS
10
-0.000040
20
-22.432315
30
0.0
11
5.396100
21
-22.432305
31
0.0
0
LINE
8
0
6
CONTINUOUS
10
10.521720
20
-22.432305
30
0.0
11
15.119710
21
-22.432305
31
0.0
0
LINE
8
0
6
CONTINUOUS
10
-15.119820
20
-22.432305
30
0.0
11
-10.521840
21
-22.432305
31
0.0
0
LINE
8
0
6
CONTINUOUS
10
-5.396240
20
-22.432305
30
0.0
11
-0.000040
21
-22.432315
31
0.0
0
LINE
8
0
6
CONTINUOUS
10
-24.250260
20
-21.999275
30
0.0
11
-24.250260
21
-22.432285
31
0.0
0
LINE
8
0
6
CONTINUOUS
10
-24.250260
20
-22.432285
30
0.0
11
-23.642260
21
-22.432295
31
0.0
0
LINE
8
0
6
CONTINUOUS
10
21.848690
20
-8.000005
30
0.0
11
18.959540
21
-8.000005
31
0.0
0
LINE
8
0
6
CONTINUOUS
10
24.250230
20
-7.999995
30
0.0
11
23.642230
21
-7.999995
31
0.0
0
LINE
8
0
6
CONTINUOUS
10
24.250230
20
-21.999275
30
0.0
11
24.250230
21
-11.999995
31
0.0
0
LINE
8
0
6
CONTINUOUS
10
24.250230
20
-11.999995
30
0.0
11
24.250230
21
-8.000005
31
0.0
0
LINE
8
0
6
CONTINUOUS
10
23.642230
20
-7.999995
30
0.0
11
21.848690
21
-8.000005
31
0.0
0
LINE
8
0
6
CONTINUOUS
10
-5.396240
20
-8.000015
30
0.0
11
-10.521840
21
-8.000015
31
0.0
0
LINE
8
0
6
CONTINUOUS
10
-15.119820
20
-8.000015
30
0.0
11
-18.959640
21
-8.000005
31
0.0
0
LINE
8
0
6
CONTINUOUS
10
-21.848740
20
-8.000005
30
0.0
11
-23.642260
21
-7.999995
31
0.0
0
LINE
8
0
6
CONTINUOUS
10
18.959540
20
-8.000005
30
0.0
11
15.119710
21
-8.000015
31
0.0
0
LINE
8
0
6
CONTINUOUS
10
-18.959640
20
-8.000005
30
0.0
11
-21.848740
21
-8.000005
31
0.0
0
LINE
8
0
6
CONTINUOUS
10
10.521720
20
-8.000015
30
0.0
11
5.396100
21
-8.000015
31
0.0
0
LINE
8
0
6
CONTINUOUS
10
5.396100
20
-8.000015
30
0.0
11
-0.000040
21
-8.000025
31
0.0
0
LINE
8
0
6
CONTINUOUS
10
15.119710
20
-8.000015
30
0.0
11
10.521720
21
-8.000015
31
0.0
0
LINE
8
0
6
CONTINUOUS
10
-10.521840
20
-8.000015
30
0.0
11
-15.119820
21
-8.000015
31
0.0
0
LINE
8
0
6
CONTINUOUS
10
-0.000040
20
-8.000025
30
0.0
11
-5.396240
21
-8.000015
31
0.0
0
LINE
8
0
6
CONTINUOUS
10
-24.250260
20
-7.999995
30
0.0
11
-24.250260
21
-11.999995
31
0.0
0
LINE
8
0
6
CONTINUOUS
10
-24.250260
20
-11.999995
30
0.0
11
-24.250260
21
-21.999275
31
0.0
0
LINE
8
0
6
CONTINUOUS
10
-23.642260
20
-7.999995
30
0.0
11
-24.250260
21
-7.999995
31
0.0
0
LINE
8
0
6
CONTINUOUS
10
-74.348400
20
-7.500015
30
0.0
11
74.348370
21
-7.500015
31
0.0
0
LINE
8
0
6
CONTINUOUS
10
74.842880
20
12.000005
30
0.0
11
-74.842900
21
12.000005
31
0.0
0
LINE
8
0
6
CONTINUOUS
10
77.605490
20
-7.500015
30
0.0
11
77.630840
21
-6.500365
31
0.0
0
LINE
8
0
6
CONTINUOUS
10
77.449220
20
-7.500015
30
0.0
11
77.605490
21
-7.500015
31
0.0
0
LINE
8
0
6
CONTINUOUS
10
78.074650
20
11.000355
30
0.0
11
78.099990
21
12.000005
31
0.0
0
LINE
8
0
6
CONTINUOUS
10
78.099990
20
12.000005
30
0.0
11
77.943890
21
12.000005
31
0.0
0
LINE
8
0
6
CONTINUOUS
10
77.449220
20
-7.500015
30
0.0
11
77.474570
21
-6.500365
31
0.0
0
LINE
8
0
6
CONTINUOUS
10
76.788410
20
-7.500015
30
0.0
11
77.449220
21
-7.500015
31
0.0
0
LINE
8
0
6
CONTINUOUS
10
77.918530
20
11.000355
30
0.0
11
77.943890
21
12.000005
31
0.0
0
LINE
8
0
6
CONTINUOUS
10
77.943890
20
12.000005
30
0.0
11
77.283010
21
12.000005
31
0.0
0
LINE
8
0
6
CONTINUOUS
10
76.788410
20
-7.500015
30
0.0
11
76.813760
21
-6.500365
31
0.0
0
LINE
8
0
6
CONTINUOUS
10
75.652610
20
-7.500015
30
0.0
11
76.788410
21
-7.500015
31
0.0
0
LINE
8
0
6
CONTINUOUS
10
77.257660
20
11.000355
30
0.0
11
77.283010
21
12.000005
31
0.0
0
LINE
8
0
6
CONTINUOUS
10
77.283010
20
12.000005
30
0.0
11
76.147730
21
12.000005
31
0.0
0
LINE
8
0
6
CONTINUOUS
10
75.652610
20
-7.500015
30
0.0
11
75.678000
21
-6.500365
31
0.0
0
LINE
8
0
6
CONTINUOUS
10
74.348370
20
-7.500015
30
0.0
11
75.652610
21
-7.500015
31
0.0
0
LINE
8
0
6
CONTINUOUS
10
76.122350
20
11.000365
30
0.0
11
76.147730
21
12.000005
31
0.0
0
LINE
8
0
6
CONTINUOUS
10
76.147730
20
12.000005
30
0.0
11
74.842880
21
12.000005
31
0.0
0
LINE
8
0
6
CONTINUOUS
10
-78.100020
20
12.000005
30
0.0
11
-78.074670
21
11.000355
31
0.0
0
LINE
8
0
6
CONTINUOUS
10
-77.943740
20
12.000005
30
0.0
11
-78.100020
21
12.000005
31
0.0
0
LINE
8
0
6
CONTINUOUS
10
-77.630860
20
-6.500365
30
0.0
11
-77.605510
21
-7.500015
31
0.0
0
LINE
8
0
6
CONTINUOUS
10
-77.605510
20
-7.500015
30
0.0
11
-77.449410
21
-7.500015
31
0.0
0
LINE
8
0
6
CONTINUOUS
10
-77.943740
20
12.000005
30
0.0
11
-77.918400
21
11.000365
31
0.0
0
LINE
8
0
6
CONTINUOUS
10
-77.282930
20
12.000005
30
0.0
11
-77.943740
21
12.000005
31
0.0
0
LINE
8
0
6
CONTINUOUS
10
-77.474750
20
-6.500365
30
0.0
11
-77.449410
21
-7.500015
31
0.0
0
LINE
8
0
6
CONTINUOUS
10
-77.449410
20
-7.500015
30
0.0
11
-76.788530
21
-7.500015
31
0.0
0
LINE
8
0
6
CONTINUOUS
10
-77.282930
20
12.000005
30
0.0
11
-77.257590
21
11.000365
31
0.0
0
LINE
8
0
6
CONTINUOUS
10
-76.147140
20
12.000005
30
0.0
11
-77.282930
21
12.000005
31
0.0
0
LINE
8
0
6
CONTINUOUS
10
-76.813870
20
-6.500365
30
0.0
11
-76.788530
21
-7.500015
31
0.0
0
LINE
8
0
6
CONTINUOUS
10
-76.788530
20
-7.500015
30
0.0
11
-75.653250
21
-7.500015
31
0.0
0
LINE
8
0
6
CONTINUOUS
10
-76.147140
20
12.000005
30
0.0
11
-76.121820
21
11.000365
31
0.0
0
LINE
8
0
6
CONTINUOUS
10
-74.842900
20
12.000005
30
0.0
11
-76.147140
21
12.000005
31
0.0
0
LINE
8
0
6
CONTINUOUS
10
-75.678570
20
-6.500365
30
0.0
11
-75.653250
21
-7.500015
31
0.0
0
LINE
8
0
6
CONTINUOUS
10
-75.653250
20
-7.500015
30
0.0
11
-74.348400
21
-7.500015
31
0.0
0
LINE
8
0
6
CONTINUOUS
10
77.257660
20
11.000355
30
0.0
11
76.813760
21
-6.500365
31
0.0
0
LINE
8
0
6
CONTINUOUS
10
-75.678570
20
-6.500365
30
0.0
11
-76.121820
21
11.000365
31
0.0
0
LINE
8
0
6
CONTINUOUS
10
-76.813870
20
-6.500365
30
0.0
11
-77.257590
21
11.000365
31
0.0
0
LINE
8
0
6
CONTINUOUS
10
-78.074670
20
11.000355
30
0.0
11
-77.630860
21
-6.500365
31
0.0
0
LINE
8
0
6
CONTINUOUS
10
-77.474750
20
-6.500365
30
0.0
11
-77.918400
21
11.000365
31
0.0
0
LINE
8
0
6
CONTINUOUS
10
75.678000
20
-6.500365
30
0.0
11
76.122350
21
11.000365
31
0.0
0
LINE
8
0
6
CONTINUOUS
10
77.630840
20
-6.500365
30
0.0
11
78.074650
21
11.000355
31
0.0
0
LINE
8
0
6
CONTINUOUS
10
77.918530
20
11.000355
30
0.0
11
77.474570
21
-6.500365
31
0.0
0
LINE
8
0
6
CONTINUOUS
10
-24.250260
20
-11.999995
30
0.0
11
-74.718340
21
-11.999995
31
0.0
0
LINE
8
0
6
CONTINUOUS
10
74.748070
20
-8.000005
30
0.0
11
-0.000010
21
-8.000005
31
0.0
0
LINE
8
0
6
CONTINUOUS
10
-77.844000
20
-8.500005
30
0.0
11
-77.844130
21
-11.499995
31
0.0
0
LINE
8
0
6
CONTINUOUS
10
-77.184320
20
-11.499995
30
0.0
11
-77.184240
21
-8.500005
31
0.0
0
LINE
8
0
6
CONTINUOUS
10
-77.843960
20
-11.499995
30
0.0
11
-77.844100
21
-8.500005
31
0.0
0
LINE
8
0
6
CONTINUOUS
10
-77.184210
20
-11.499995
30
0.0
11
-77.184290
21
-8.500005
31
0.0
0
LINE
8
0
6
CONTINUOUS
10
-76.050300
20
-11.499995
30
0.0
11
-76.050760
21
-8.500005
31
0.0
0
LINE
8
0
6
CONTINUOUS
10
-76.050320
20
-8.500005
30
0.0
11
-76.050790
21
-11.499995
31
0.0
0
LINE
8
0
6
CONTINUOUS
10
77.184320
20
-11.499995
30
0.0
11
77.184240
21
-8.500005
31
0.0
0
LINE
8
0
6
CONTINUOUS
10
77.843990
20
-8.500005
30
0.0
11
77.844130
21
-11.499995
31
0.0
0
LINE
8
0
6
CONTINUOUS
10
77.843960
20
-11.499995
30
0.0
11
77.844100
21
-8.500005
31
0.0
0
LINE
8
0
6
CONTINUOUS
10
76.050320
20
-8.500005
30
0.0
11
76.050790
21
-11.499995
31
0.0
0
LINE
8
0
6
CONTINUOUS
10
77.184210
20
-11.499995
30
0.0
11
77.184290
21
-8.500005
31
0.0
0
LINE
8
0
6
CONTINUOUS
10
76.050760
20
-8.500005
30
0.0
11
76.050300
21
-11.499995
31
0.0
0
LINE
8
0
6
CONTINUOUS
10
-75.888930
20
-11.999995
30
0.0
11
-74.718340
21
-11.999995
31
0.0
0
LINE
8
0
6
CONTINUOUS
10
-76.050870
20
-11.999995
30
0.0
11
-74.748100
21
-11.999995
31
0.0
0
LINE
8
0
6
CONTINUOUS
10
-74.748100
20
-8.000005
30
0.0
11
-76.050250
21
-8.000005
31
0.0
0
LINE
8
0
6
CONTINUOUS
10
-76.050870
20
-11.999995
30
0.0
11
-76.050790
21
-11.499995
31
0.0
0
LINE
8
0
6
CONTINUOUS
10
-77.184330
20
-11.999995
30
0.0
11
-76.050870
21
-11.999995
31
0.0
0
LINE
8
0
6
CONTINUOUS
10
-76.050320
20
-8.500005
30
0.0
11
-76.050250
21
-8.000005
31
0.0
0
LINE
8
0
6
CONTINUOUS
10
-76.050250
20
-8.000005
30
0.0
11
-77.184230
21
-8.000005
31
0.0
0
LINE
8
0
6
CONTINUOUS
10
-77.184330
20
-11.999995
30
0.0
11
-77.184320
21
-11.499995
31
0.0
0
LINE
8
0
6
CONTINUOUS
10
-77.844150
20
-11.999995
30
0.0
11
-77.184330
21
-11.999995
31
0.0
0
LINE
8
0
6
CONTINUOUS
10
-77.184240
20
-8.500005
30
0.0
11
-77.184230
21
-8.000005
31
0.0
0
LINE
8
0
6
CONTINUOUS
10
-77.184230
20
-8.000005
30
0.0
11
-77.843970
21
-8.000005
31
0.0
0
LINE
8
0
6
CONTINUOUS
10
-77.844150
20
-11.999995
30
0.0
11
-77.844130
21
-11.499995
31
0.0
0
LINE
8
0
6
CONTINUOUS
10
-78.000000
20
-11.999995
30
0.0
11
-77.844150
21
-11.999995
31
0.0
0
LINE
8
0
6
CONTINUOUS
10
-77.844000
20
-8.500005
30
0.0
11
-77.843970
21
-8.000005
31
0.0
0
LINE
8
0
6
CONTINUOUS
10
-77.843970
20
-8.000005
30
0.0
11
-78.000000
21
-8.000005
31
0.0
0
LINE
8
0
6
CONTINUOUS
10
-76.050840
20
-8.000005
30
0.0
11
-74.748070
21
-8.000005
31
0.0
0
LINE
8
0
6
CONTINUOUS
10
-74.748070
20
-11.999995
30
0.0
11
-76.050220
21
-11.999995
31
0.0
0
LINE
8
0
6
CONTINUOUS
10
-76.050840
20
-8.000005
30
0.0
11
-76.050760
21
-8.500005
31
0.0
0
LINE
8
0
6
CONTINUOUS
10
-77.184300
20
-8.000005
30
0.0
11
-76.050840
21
-8.000005
31
0.0
0
LINE
8
0
6
CONTINUOUS
10
-76.050300
20
-11.499995
30
0.0
11
-76.050220
21
-11.999995
31
0.0
0
LINE
8
0
6
CONTINUOUS
10
-76.050220
20
-11.999995
30
0.0
11
-77.184200
21
-11.999995
31
0.0
0
LINE
8
0
6
CONTINUOUS
10
-77.184300
20
-8.000005
30
0.0
11
-77.184290
21
-8.500005
31
0.0
0
LINE
8
0
6
CONTINUOUS
10
-77.844110
20
-8.000005
30
0.0
11
-77.184300
21
-8.000005
31
0.0
0
LINE
8
0
6
CONTINUOUS
10
-77.184210
20
-11.499995
30
0.0
11
-77.184200
21
-11.999995
31
0.0
0
LINE
8
0
6
CONTINUOUS
10
-77.184200
20
-11.999995
30
0.0
11
-77.843930
21
-11.999995
31
0.0
0
LINE
8
0
6
CONTINUOUS
10
-77.844110
20
-8.000005
30
0.0
11
-77.844100
21
-8.500005
31
0.0
0
LINE
8
0
6
CONTINUOUS
10
-77.999970
20
-8.000005
30
0.0
11
-77.844110
21
-8.000005
31
0.0
0
LINE
8
0
6
CONTINUOUS
10
-77.843960
20
-11.499995
30
0.0
11
-77.843930
21
-11.999995
31
0.0
0
LINE
8
0
6
CONTINUOUS
10
-77.843930
20
-11.999995
30
0.0
11
-77.999970
21
-11.999995
31
0.0
0
LINE
8
0
6
CONTINUOUS
10
77.843970
20
-8.000005
30
0.0
11
78.000000
21
-8.000005
31
0.0
0
LINE
8
0
6
CONTINUOUS
10
78.000000
20
-11.999995
30
0.0
11
77.844150
21
-11.999995
31
0.0
0
LINE
8
0
6
CONTINUOUS
10
77.843970
20
-8.000005
30
0.0
11
77.843990
21
-8.500005
31
0.0
0
LINE
8
0
6
CONTINUOUS
10
77.184230
20
-8.000005
30
0.0
11
77.843970
21
-8.000005
31
0.0
0
LINE
8
0
6
CONTINUOUS
10
77.844130
20
-11.499995
30
0.0
11
77.844150
21
-11.999995
31
0.0
0
LINE
8
0
6
CONTINUOUS
10
77.844150
20
-11.999995
30
0.0
11
77.184330
21
-11.999995
31
0.0
0
LINE
8
0
6
CONTINUOUS
10
77.184230
20
-8.000005
30
0.0
11
77.184240
21
-8.500005
31
0.0
0
LINE
8
0
6
CONTINUOUS
10
76.050250
20
-8.000005
30
0.0
11
77.184230
21
-8.000005
31
0.0
0
LINE
8
0
6
CONTINUOUS
10
77.184320
20
-11.499995
30
0.0
11
77.184330
21
-11.999995
31
0.0
0
LINE
8
0
6
CONTINUOUS
10
77.184330
20
-11.999995
30
0.0
11
76.050870
21
-11.999995
31
0.0
0
LINE
8
0
6
CONTINUOUS
10
76.050250
20
-8.000005
30
0.0
11
76.050320
21
-8.500005
31
0.0
0
LINE
8
0
6
CONTINUOUS
10
74.748100
20
-8.000005
30
0.0
11
76.050250
21
-8.000005
31
0.0
0
LINE
8
0
6
CONTINUOUS
10
76.050790
20
-11.499995
30
0.0
11
76.050870
21
-11.999995
31
0.0
0
LINE
8
0
6
CONTINUOUS
10
76.050870
20
-11.999995
30
0.0
11
74.748100
21
-11.999995
31
0.0
0
LINE
8
0
6
CONTINUOUS
10
76.050840
20
-8.000005
30
0.0
11
74.748070
21
-8.000005
31
0.0
0
LINE
8
0
6
CONTINUOUS
10
74.748070
20
-11.999995
30
0.0
11
76.050220
21
-11.999995
31
0.0
0
LINE
8
0
6
CONTINUOUS
10
76.050840
20
-8.000005
30
0.0
11
76.050760
21
-8.500005
31
0.0
0
LINE
8
0
6
CONTINUOUS
10
77.184300
20
-8.000005
30
0.0
11
76.050840
21
-8.000005
31
0.0
0
LINE
8
0
6
CONTINUOUS
10
76.050300
20
-11.499995
30
0.0
11
76.050220
21
-11.999995
31
0.0
0
LINE
8
0
6
CONTINUOUS
10
76.050220
20
-11.999995
30
0.0
11
77.184200
21
-11.999995
31
0.0
0
LINE
8
0
6
CONTINUOUS
10
77.184300
20
-8.000005
30
0.0
11
77.184290
21
-8.500005
31
0.0
0
LINE
8
0
6
CONTINUOUS
10
77.844110
20
-8.000005
30
0.0
11
77.184300
21
-8.000005
31
0.0
0
LINE
8
0
6
CONTINUOUS
10
77.184210
20
-11.499995
30
0.0
11
77.184200
21
-11.999995
31
0.0
0
LINE
8
0
6
CONTINUOUS
10
77.184200
20
-11.999995
30
0.0
11
77.843930
21
-11.999995
31
0.0
0
LINE
8
0
6
CONTINUOUS
10
77.844110
20
-8.000005
30
0.0
11
77.844100
21
-8.500005
31
0.0
0
LINE
8
0
6
CONTINUOUS
10
77.999970
20
-8.000005
30
0.0
11
77.844110
21
-8.000005
31
0.0
0
LINE
8
0
6
CONTINUOUS
10
77.843960
20
-11.499995
30
0.0
11
77.843930
21
-11.999995
31
0.0
0
LINE
8
0
6
CONTINUOUS
10
77.843930
20
-11.999995
30
0.0
11
77.999970
21
-11.999995
31
0.0
0
LINE
8
0
6
CONTINUOUS
10
77.999970
20
-8.000005
30
0.0
11
77.999970
21
-8.500005
31
0.0
0
LINE
8
0
6
CONTINUOUS
10
-0.000010
20
-11.999995
30
0.0
11
-74.748100
21
-11.999995
31
0.0
0
LINE
8
0
6
CONTINUOUS
10
24.250230
20
-11.999995
30
0.0
11
74.748100
21
-11.999995
31
0.0
0
LINE
8
0
6
CONTINUOUS
10
-0.000010
20
-8.000005
30
0.0
11
-74.748100
21
-8.000005
31
0.0
0
LINE
8
0
6
CONTINUOUS
10
0.000010
20
-8.000005
30
0.0
11
74.748100
21
-8.000005
31
0.0
0
LINE
8
0
6
CONTINUOUS
10
0.000010
20
-8.000005
30
0.0
11
-74.748070
21
-8.000005
31
0.0
0
LINE
8
0
6
CONTINUOUS
10
-24.250260
20
-11.999995
30
0.0
11
-74.748070
21
-11.999995
31
0.0
0
LINE
8
0
6
CONTINUOUS
10
-0.000010
20
-11.999995
30
0.0
11
74.748070
21
-11.999995
31
0.0
0
LINE
8
0
6
CONTINUOUS
10
-78.000000
20
-8.500005
30
0.0
11
-78.000000
21
-8.000005
31
0.0
0
LINE
8
0
6
CONTINUOUS
10
-78.000000
20
-11.999995
30
0.0
11
-78.000000
21
-11.499995
31
0.0
0
LINE
8
0
6
CONTINUOUS
10
-78.000000
20
-11.499995
30
0.0
11
-78.000000
21
-8.500005
31
0.0
0
LINE
8
0
6
CONTINUOUS
10
77.999970
20
-11.499995
30
0.0
11
77.999970
21
-11.999995
31
0.0
0
LINE
8
0
6
CONTINUOUS
10
77.999970
20
-8.500005
30
0.0
11
77.999970
21
-11.499995
31
0.0
0
LINE
8
0
6
CONTINUOUS
10
-24.250260
20
-12.000003
30
0.0
11
-75.888930
21
-11.999995
31
0.0
0
LINE
8
0
6
CONTINUOUS
10
75.888340
20
-11.999995
30
0.0
11
74.718290
21
-11.999995
31
0.0
0
LINE
8
0
6
CONTINUOUS
10
74.718290
20
-11.999995
30
0.0
11
24.250230
21
-11.999995
31
0.0
0
LINE
8
0
6
CONTINUOUS
10
75.888340
20
-11.999995
30
0.0
11
24.250230
21
-12.000003
31
0.0
0
LINE
8
0
6
CONTINUOUS
10
74.748110
20
-7.756955
30
0.0
11
76.050260
21
-7.756955
31
0.0
0
LINE
8
0
6
CONTINUOUS
10
-74.748060
20
-7.756955
30
0.0
11
74.748110
21
-7.756955
31
0.0
0
LINE
8
0
6
CONTINUOUS
10
-76.050830
20
-7.756955
30
0.0
11
-74.748060
21
-7.756955
31
0.0
0
LINE
8
0
6
CONTINUOUS
10
-77.184290
20
-7.756955
30
0.0
11
-76.050830
21
-7.756955
31
0.0
0
LINE
8
0
6
CONTINUOUS
10
-77.844110
20
-7.756955
30
0.0
11
-77.184290
21
-7.756955
31
0.0
0
LINE
8
0
6
CONTINUOUS
10
-77.999960
20
-7.756955
30
0.0
11
-77.844110
21
-7.756955
31
0.0
0
LINE
8
0
6
CONTINUOUS
10
-77.843980
20
-7.756955
30
0.0
11
-78.000010
21
-7.756955
31
0.0
0
LINE
8
0
6
CONTINUOUS
10
-77.184240
20
-7.756955
30
0.0
11
-77.843980
21
-7.756955
31
0.0
0
LINE
8
0
6
CONTINUOUS
10
-76.050260
20
-7.756955
30
0.0
11
-77.184240
21
-7.756955
31
0.0
0
LINE
8
0
6
CONTINUOUS
10
-74.748110
20
-7.756955
30
0.0
11
-76.050260
21
-7.756955
31
0.0
0
LINE
8
0
6
CONTINUOUS
10
74.748060
20
-7.756955
30
0.0
11
-74.748110
21
-7.756955
31
0.0
0
LINE
8
0
6
CONTINUOUS
10
76.050830
20
-7.756955
30
0.0
11
74.748060
21
-7.756955
31
0.0
0
LINE
8
0
6
CONTINUOUS
10
77.184290
20
-7.756955
30
0.0
11
76.050830
21
-7.756955
31
0.0
0
LINE
8
0
6
CONTINUOUS
10
77.844100
20
-7.756955
30
0.0
11
77.184290
21
-7.756955
31
0.0
0
LINE
8
0
6
CONTINUOUS
10
77.999960
20
-7.756955
30
0.0
11
77.844100
21
-7.756955
31
0.0
0
LINE
8
0
6
CONTINUOUS
10
77.843980
20
-7.756955
30
0.0
11
78.000010
21
-7.756955
31
0.0
0
LINE
8
0
6
CONTINUOUS
10
77.184240
20
-7.756955
30
0.0
11
77.843980
21
-7.756955
31
0.0
0
LINE
8
0
6
CONTINUOUS
10
76.050260
20
-7.756955
30
0.0
11
77.184240
21
-7.756955
31
0.0
0
LINE
8
0
6
CONTINUOUS
10
-23.642260
20
-11.999995
30
0.0
11
-21.848740
21
-11.999995
31
0.0
0
LINE
8
0
6
CONTINUOUS
10
-24.250260
20
-11.999995
30
0.0
11
-23.642260
21
-11.999995
31
0.0
0
LINE
8
0
6
CONTINUOUS
10
-18.959640
20
-11.999995
30
0.0
11
-15.119820
21
-11.999995
31
0.0
0
LINE
8
0
6
CONTINUOUS
10
-10.521840
20
-11.999995
30
0.0
11
-5.396240
21
-11.999995
31
0.0
0
LINE
8
0
6
CONTINUOUS
10
-21.848740
20
-11.999995
30
0.0
11
-18.959640
21
-11.999995
31
0.0
0
LINE
8
0
6
CONTINUOUS
10
-15.119820
20
-11.999995
30
0.0
11
-10.521840
21
-11.999995
31
0.0
0
LINE
8
0
6
CONTINUOUS
10
-5.396240
20
-11.999995
30
0.0
11
-0.000040
21
-11.999995
31
0.0
0
ENDSEC
0
EOF
