999
Erzeugt mit innoplus bad 
0
SECTION
2
HEADER
9
$ACADVER
1
AC1009
9
$DWGCODEPAGE
3
ISO8859-1
0
ENDSEC
0
SECTION
2
TABLES
0
TABLE
2
LAYER
70
1
0
LAYER
2
0
70
0
62
7
6
CONTINUOUS
0
ENDTAB
0
ENDSEC
0
SECTION
2
ENTITIES
0
LINE
8
0
6
CONTINUOUS
10
-2.374560
20
-1.348370
30
0.0
11
-4.157860
21
-1.348370
31
0.0
0
LINE
8
0
6
CONTINUOUS
10
-2.407920
20
-1.042290
30
0.0
11
-2.407922
21
1.275266
31
0.0
0
LINE
8
0
6
CONTINUOUS
10
0.061480
20
-1.595310
30
0.0
11
2.281800
21
-1.595310
31
0.0
0
LINE
8
0
6
CONTINUOUS
10
-4.379180
20
-1.595300
30
0.0
11
-3.784250
21
-1.595300
31
0.0
0
LINE
8
0
6
CONTINUOUS
10
-4.628260
20
-1.529140
30
0.0
11
-4.379180
21
-1.595300
31
0.0
0
LINE
8
0
6
CONTINUOUS
10
5.000280
20
-1.042290
30
0.0
11
5.000280
21
1.567362
31
0.0
0
LINE
8
0
6
CONTINUOUS
10
4.338608
20
1.494589
30
0.0
11
4.338610
21
-1.042290
31
0.0
0
LINE
8
0
6
CONTINUOUS
10
5.000280
20
-1.101420
30
0.0
11
5.000280
21
-1.042290
31
0.0
0
LINE
8
0
6
CONTINUOUS
10
4.338610
20
-1.042290
30
0.0
11
4.338610
21
-1.101420
31
0.0
0
LINE
8
0
6
CONTINUOUS
10
-4.628260
20
-1.529140
30
0.0
11
-3.999960
21
-1.529140
31
0.0
0
LINE
8
0
6
CONTINUOUS
10
-4.810600
20
-1.348370
30
0.0
11
-4.628260
21
-1.529140
31
0.0
0
LINE
8
0
6
CONTINUOUS
10
4.933540
20
-1.348360
30
0.0
11
5.000280
21
-1.101420
31
0.0
0
LINE
8
0
6
CONTINUOUS
10
-4.157860
20
-1.348370
30
0.0
11
-4.215650
21
-1.101420
31
0.0
0
LINE
8
0
6
CONTINUOUS
10
-4.810600
20
-1.348370
30
0.0
11
-4.157860
21
-1.348370
31
0.0
0
LINE
8
0
6
CONTINUOUS
10
-4.877330
20
-1.101410
30
0.0
11
-4.810600
21
-1.348370
31
0.0
0
LINE
8
0
6
CONTINUOUS
10
-3.784250
20
-1.595300
30
0.0
11
-2.158860
21
-1.595310
31
0.0
0
LINE
8
0
6
CONTINUOUS
10
-2.283390
20
-1.529150
30
0.0
11
-3.999960
21
-1.529140
31
0.0
0
LINE
8
0
6
CONTINUOUS
10
4.502140
20
-1.595310
30
0.0
11
4.751210
21
-1.529140
31
0.0
0
LINE
8
0
6
CONTINUOUS
10
3.907210
20
-1.595310
30
0.0
11
4.502140
21
-1.595310
31
0.0
0
LINE
8
0
6
CONTINUOUS
10
0.061480
20
-1.348370
30
0.0
11
0.061480
21
-1.101430
31
0.0
0
LINE
8
0
6
CONTINUOUS
10
-2.407920
20
-1.101430
30
0.0
11
-2.374560
21
-1.348370
31
0.0
0
LINE
8
0
6
CONTINUOUS
10
2.530880
20
-1.101420
30
0.0
11
2.530880
21
-1.042300
31
0.0
0
LINE
8
0
6
CONTINUOUS
10
-4.215650
20
-1.101420
30
0.0
11
-4.215650
21
-1.042290
31
0.0
0
LINE
8
0
6
CONTINUOUS
10
-4.877330
20
-1.042290
30
0.0
11
-4.877330
21
-1.101410
31
0.0
0
LINE
8
0
6
CONTINUOUS
10
0.061478
20
1.012657
30
0.0
11
0.061480
21
-1.042290
31
0.0
0
LINE
8
0
6
CONTINUOUS
10
2.530880
20
-1.042300
30
0.0
11
2.530878
21
1.289129
31
0.0
0
LINE
8
0
6
CONTINUOUS
10
-4.215650
20
-1.042290
30
0.0
11
-4.215652
21
1.478940
31
0.0
0
LINE
8
0
6
CONTINUOUS
10
-4.877330
20
1.555283
30
0.0
11
-4.877330
21
-1.042290
31
0.0
0
LINE
8
0
6
CONTINUOUS
10
0.061480
20
-1.348370
30
0.0
11
-2.374560
21
-1.348370
31
0.0
0
LINE
8
0
6
CONTINUOUS
10
-2.158860
20
-1.595310
30
0.0
11
0.061480
21
-1.595310
31
0.0
0
LINE
8
0
6
CONTINUOUS
10
0.061480
20
-1.529140
30
0.0
11
-2.283390
21
-1.529150
31
0.0
0
LINE
8
0
6
CONTINUOUS
10
4.280810
20
-1.348370
30
0.0
11
4.338610
21
-1.101420
31
0.0
0
LINE
8
0
6
CONTINUOUS
10
2.497510
20
-1.348370
30
0.0
11
4.280810
21
-1.348370
31
0.0
0
LINE
8
0
6
CONTINUOUS
10
2.530880
20
-1.101420
30
0.0
11
2.497510
21
-1.348370
31
0.0
0
LINE
8
0
6
CONTINUOUS
10
4.933540
20
-1.348360
30
0.0
11
4.280810
21
-1.348370
31
0.0
0
LINE
8
0
6
CONTINUOUS
10
4.751210
20
-1.529140
30
0.0
11
4.933540
21
-1.348360
31
0.0
0
LINE
8
0
6
CONTINUOUS
10
4.122900
20
-1.529140
30
0.0
11
4.751210
21
-1.529140
31
0.0
0
LINE
8
0
6
CONTINUOUS
10
2.281800
20
-1.595310
30
0.0
11
3.907210
21
-1.595310
31
0.0
0
LINE
8
0
6
CONTINUOUS
10
4.122900
20
-1.529140
30
0.0
11
2.406350
21
-1.529140
31
0.0
0
LINE
8
0
6
CONTINUOUS
10
0.061480
20
-1.529140
30
0.0
11
2.406350
21
-1.529140
31
0.0
0
LINE
8
0
6
CONTINUOUS
10
2.497510
20
-1.348370
30
0.0
11
0.061480
21
-1.348370
31
0.0
0
LINE
8
0
6
CONTINUOUS
10
-2.407920
20
-1.042290
30
0.0
11
-2.407920
21
-1.101430
31
0.0
0
LINE
8
0
6
CONTINUOUS
10
0.061480
20
-1.101430
30
0.0
11
0.061480
21
-1.042290
31
0.0
0
LINE
8
0
6
CONTINUOUS
10
3.446200
20
59.340130
30
0.0
11
3.306640
21
60.311030
31
0.0
0
LINE
8
0
6
CONTINUOUS
10
3.306640
20
60.311030
30
0.0
11
2.899100
21
61.203290
31
0.0
0
LINE
8
0
6
CONTINUOUS
10
2.899100
20
61.203290
30
0.0
11
2.256820
21
61.944580
31
0.0
0
LINE
8
0
6
CONTINUOUS
10
0.490460
20
62.751280
30
0.0
11
-0.000030
21
62.751280
31
0.0
0
LINE
8
0
6
CONTINUOUS
10
2.256820
20
61.944580
30
0.0
11
1.431640
21
62.474940
31
0.0
0
LINE
8
0
6
CONTINUOUS
10
1.431640
20
62.474940
30
0.0
11
0.490460
21
62.751280
31
0.0
0
LINE
8
0
6
CONTINUOUS
10
3.446200
20
49.114314
30
0.0
11
3.446200
21
59.340130
31
0.0
0
LINE
8
0
6
CONTINUOUS
10
2.498490
20
59.272360
30
0.0
11
2.387960
21
60.041270
31
0.0
0
LINE
8
0
6
CONTINUOUS
10
2.387960
20
60.041270
30
0.0
11
2.093640
21
60.685650
31
0.0
0
LINE
8
0
6
CONTINUOUS
10
2.093640
20
60.685650
30
0.0
11
1.629790
21
61.221010
31
0.0
0
LINE
8
0
6
CONTINUOUS
10
0.354210
20
61.803550
30
0.0
11
-0.000030
21
61.803560
31
0.0
0
LINE
8
0
6
CONTINUOUS
10
1.629790
20
61.221010
30
0.0
11
1.033890
21
61.604000
31
0.0
0
LINE
8
0
6
CONTINUOUS
10
1.033890
20
61.604000
30
0.0
11
0.354210
21
61.803550
31
0.0
0
LINE
8
0
6
CONTINUOUS
10
2.498450
20
47.303500
30
0.0
11
2.498490
21
59.272360
31
0.0
0
LINE
8
0
6
CONTINUOUS
10
2.393750
20
47.314190
30
0.0
11
2.498450
21
47.303500
31
0.0
0
LINE
8
0
6
CONTINUOUS
10
-0.000040
20
47.584120
30
0.0
11
2.393750
21
47.314190
31
0.0
0
LINE
8
0
6
CONTINUOUS
10
-3.306700
20
60.311040
30
0.0
11
-3.446260
21
59.340130
31
0.0
0
LINE
8
0
6
CONTINUOUS
10
-2.899160
20
61.203290
30
0.0
11
-3.306700
21
60.311040
31
0.0
0
LINE
8
0
6
CONTINUOUS
10
-2.256880
20
61.944580
30
0.0
11
-2.899160
21
61.203290
31
0.0
0
LINE
8
0
6
CONTINUOUS
10
-0.000030
20
62.751280
30
0.0
11
-0.490520
21
62.751280
31
0.0
0
LINE
8
0
6
CONTINUOUS
10
-1.431700
20
62.474940
30
0.0
11
-2.256880
21
61.944580
31
0.0
0
LINE
8
0
6
CONTINUOUS
10
-0.490520
20
62.751280
30
0.0
11
-1.431700
21
62.474940
31
0.0
0
LINE
8
0
6
CONTINUOUS
10
-3.446260
20
59.340130
30
0.0
11
-3.446277
21
49.116147
31
0.0
0
LINE
8
0
6
CONTINUOUS
10
-2.388030
20
60.041270
30
0.0
11
-2.498550
21
59.272360
31
0.0
0
LINE
8
0
6
CONTINUOUS
10
-2.093710
20
60.685650
30
0.0
11
-2.388030
21
60.041270
31
0.0
0
LINE
8
0
6
CONTINUOUS
10
-1.629850
20
61.221010
30
0.0
11
-2.093710
21
60.685650
31
0.0
0
LINE
8
0
6
CONTINUOUS
10
-0.000030
20
61.803560
30
0.0
11
-0.354270
21
61.803550
31
0.0
0
LINE
8
0
6
CONTINUOUS
10
-1.033950
20
61.604000
30
0.0
11
-1.629850
21
61.221010
31
0.0
0
LINE
8
0
6
CONTINUOUS
10
-0.354270
20
61.803550
30
0.0
11
-1.033950
21
61.604000
31
0.0
0
LINE
8
0
6
CONTINUOUS
10
-2.498520
20
47.303510
30
0.0
11
-2.393830
21
47.314190
31
0.0
0
LINE
8
0
6
CONTINUOUS
10
-2.498550
20
59.272360
30
0.0
11
-2.498520
21
47.303510
31
0.0
0
LINE
8
0
6
CONTINUOUS
10
-2.393830
20
47.314190
30
0.0
11
-0.000040
21
47.584120
31
0.0
0
LINE
8
0
6
CONTINUOUS
10
5.221740
20
48.132490
30
0.0
11
-0.000060
21
48.720810
31
0.0
0
LINE
8
0
6
CONTINUOUS
10
10.181750
20
46.396920
30
0.0
11
5.221740
21
48.132490
31
0.0
0
LINE
8
0
6
CONTINUOUS
10
14.631170
20
43.601160
30
0.0
11
10.181750
21
46.396920
31
0.0
0
LINE
8
0
6
CONTINUOUS
10
18.346920
20
39.885420
30
0.0
11
14.631170
21
43.601160
31
0.0
0
LINE
8
0
6
CONTINUOUS
10
21.142690
20
35.436000
30
0.0
11
18.346920
21
39.885420
31
0.0
0
LINE
8
0
6
CONTINUOUS
10
22.878270
20
30.476040
30
0.0
11
21.142690
21
35.436000
31
0.0
0
LINE
8
0
6
CONTINUOUS
10
23.466620
20
25.254220
30
0.0
11
22.878270
21
30.476040
31
0.0
0
LINE
8
0
6
CONTINUOUS
10
22.878290
20
20.032380
30
0.0
11
23.466620
21
25.254220
31
0.0
0
LINE
8
0
6
CONTINUOUS
10
21.142740
20
15.072400
30
0.0
11
22.878290
21
20.032380
31
0.0
0
LINE
8
0
6
CONTINUOUS
10
18.346970
20
10.622970
30
0.0
11
21.142740
21
15.072400
31
0.0
0
LINE
8
0
6
CONTINUOUS
10
14.631220
20
6.907230
30
0.0
11
18.346970
21
10.622970
31
0.0
0
LINE
8
0
6
CONTINUOUS
10
5.221830
20
2.375880
30
0.0
11
10.181830
21
4.111450
31
0.0
0
LINE
8
0
6
CONTINUOUS
10
-0.000000
20
1.787510
30
0.0
11
5.221830
21
2.375880
31
0.0
0
LINE
8
0
6
CONTINUOUS
10
-5.221820
20
2.375870
30
0.0
11
-0.000000
21
1.787510
31
0.0
0
LINE
8
0
6
CONTINUOUS
10
-10.181800
20
4.111430
30
0.0
11
-5.221820
21
2.375870
31
0.0
0
LINE
8
0
6
CONTINUOUS
10
-18.346980
20
10.622940
30
0.0
11
-14.631230
21
6.907190
31
0.0
0
LINE
8
0
6
CONTINUOUS
10
-21.142720
20
15.072360
30
0.0
11
-18.346980
21
10.622940
31
0.0
0
LINE
8
0
6
CONTINUOUS
10
-22.878300
20
20.032320
30
0.0
11
-21.142720
21
15.072360
31
0.0
0
LINE
8
0
6
CONTINUOUS
10
-23.466650
20
25.254150
30
0.0
11
-22.878300
21
20.032320
31
0.0
0
LINE
8
0
6
CONTINUOUS
10
-22.878310
20
30.475980
30
0.0
11
-23.466650
21
25.254150
31
0.0
0
LINE
8
0
6
CONTINUOUS
10
-21.142760
20
35.435950
30
0.0
11
-22.878310
21
30.475980
31
0.0
0
LINE
8
0
6
CONTINUOUS
10
-18.347020
20
39.885360
30
0.0
11
-21.142760
21
35.435950
31
0.0
0
LINE
8
0
6
CONTINUOUS
10
-14.631260
20
43.601110
30
0.0
11
-18.347020
21
39.885360
31
0.0
0
LINE
8
0
6
CONTINUOUS
10
-10.181840
20
46.396890
30
0.0
11
-14.631260
21
43.601110
31
0.0
0
LINE
8
0
6
CONTINUOUS
10
-5.221860
20
48.132470
30
0.0
11
-10.181840
21
46.396890
31
0.0
0
LINE
8
0
6
CONTINUOUS
10
-0.000060
20
48.720810
30
0.0
11
-5.221860
21
48.132470
31
0.0
0
LINE
8
0
6
CONTINUOUS
10
5.395710
20
48.894660
30
0.0
11
3.446200
21
49.114314
31
0.0
0
LINE
8
0
6
CONTINUOUS
10
5.374620
20
48.802240
30
0.0
11
3.446200
21
49.019513
31
0.0
0
LINE
8
0
6
CONTINUOUS
10
3.446200
20
48.734689
30
0.0
11
5.311240
21
48.524560
31
0.0
0
LINE
8
0
6
CONTINUOUS
10
10.520940
20
47.101270
30
0.0
11
5.395710
21
48.894660
31
0.0
0
LINE
8
0
6
CONTINUOUS
10
10.479810
20
47.015860
30
0.0
11
5.374620
21
48.802240
31
0.0
0
LINE
8
0
6
CONTINUOUS
10
5.311240
20
48.524560
30
0.0
11
10.356240
21
46.759240
31
0.0
0
LINE
8
0
6
CONTINUOUS
10
15.118580
20
44.212380
30
0.0
11
10.520940
21
47.101270
31
0.0
0
LINE
8
0
6
CONTINUOUS
10
15.059500
20
44.138250
30
0.0
11
10.479810
21
47.015860
31
0.0
0
LINE
8
0
6
CONTINUOUS
10
10.356240
20
46.759240
30
0.0
11
14.881910
21
43.915580
31
0.0
0
LINE
8
0
6
CONTINUOUS
10
18.958140
20
40.372850
30
0.0
11
15.118580
21
44.212380
31
0.0
0
LINE
8
0
6
CONTINUOUS
10
18.884030
20
40.313730
30
0.0
11
15.059500
21
44.138250
31
0.0
0
LINE
8
0
6
CONTINUOUS
10
14.881910
20
43.915580
30
0.0
11
18.661340
21
40.136170
31
0.0
0
LINE
8
0
6
CONTINUOUS
10
21.847050
20
35.775210
30
0.0
11
18.958140
21
40.372850
31
0.0
0
LINE
8
0
6
CONTINUOUS
10
21.761610
20
35.734080
30
0.0
11
18.884030
21
40.313730
31
0.0
0
LINE
8
0
6
CONTINUOUS
10
18.661340
20
40.136170
30
0.0
11
21.505010
21
35.610480
31
0.0
0
LINE
8
0
6
CONTINUOUS
10
23.640460
20
30.649990
30
0.0
11
21.847050
21
35.775210
31
0.0
0
LINE
8
0
6
CONTINUOUS
10
23.547990
20
30.628890
30
0.0
11
21.761610
21
35.734080
31
0.0
0
LINE
8
0
6
CONTINUOUS
10
21.505010
20
35.610480
30
0.0
11
23.270330
21
30.565520
31
0.0
0
LINE
8
0
6
CONTINUOUS
10
24.248420
20
25.254220
30
0.0
11
23.640460
21
30.649990
31
0.0
0
LINE
8
0
6
CONTINUOUS
10
24.153630
20
25.254220
30
0.0
11
23.547990
21
30.628890
31
0.0
0
LINE
8
0
6
CONTINUOUS
10
23.270330
20
30.565520
30
0.0
11
23.868790
21
25.254220
31
0.0
0
LINE
8
0
6
CONTINUOUS
10
23.640470
20
19.858430
30
0.0
11
24.248420
21
25.254220
31
0.0
0
LINE
8
0
6
CONTINUOUS
10
23.548050
20
19.879530
30
0.0
11
24.153630
21
25.254220
31
0.0
0
LINE
8
0
6
CONTINUOUS
10
23.868790
20
25.254220
30
0.0
11
23.270370
21
19.942900
31
0.0
0
LINE
8
0
6
CONTINUOUS
10
21.847080
20
14.733210
30
0.0
11
23.640470
21
19.858430
31
0.0
0
LINE
8
0
6
CONTINUOUS
10
21.761680
20
14.774340
30
0.0
11
23.548050
21
19.879530
31
0.0
0
LINE
8
0
6
CONTINUOUS
10
23.270370
20
19.942900
30
0.0
11
21.505070
21
14.897920
31
0.0
0
LINE
8
0
6
CONTINUOUS
10
18.958180
20
10.135550
30
0.0
11
21.847080
21
14.733210
31
0.0
0
LINE
8
0
6
CONTINUOUS
10
18.884070
20
10.194650
30
0.0
11
21.761680
21
14.774340
31
0.0
0
LINE
8
0
6
CONTINUOUS
10
21.505070
20
14.897920
30
0.0
11
18.661390
21
10.372240
31
0.0
0
LINE
8
0
6
CONTINUOUS
10
15.118660
20
6.296000
30
0.0
11
18.958180
21
10.135550
31
0.0
0
LINE
8
0
6
CONTINUOUS
10
15.059550
20
6.370130
30
0.0
11
18.884070
21
10.194650
31
0.0
0
LINE
8
0
6
CONTINUOUS
10
18.661390
20
10.372240
30
0.0
11
14.881970
21
6.592810
31
0.0
0
LINE
8
0
6
CONTINUOUS
10
15.059550
20
6.370130
30
0.0
11
10.479870
21
3.492510
31
0.0
0
LINE
8
0
6
CONTINUOUS
10
10.521020
20
3.407100
30
0.0
11
15.118660
21
6.296000
31
0.0
0
LINE
8
0
6
CONTINUOUS
10
5.395800
20
1.613710
30
0.0
11
10.521020
21
3.407100
31
0.0
0
LINE
8
0
6
CONTINUOUS
10
5.374690
20
1.706120
30
0.0
11
10.479870
21
3.492510
31
0.0
0
LINE
8
0
6
CONTINUOUS
10
10.356310
20
3.749130
30
0.0
11
5.311310
21
1.983810
31
0.0
0
LINE
8
0
6
CONTINUOUS
10
-0.000000
20
1.005730
30
0.0
11
5.395800
21
1.613710
31
0.0
0
LINE
8
0
6
CONTINUOUS
10
-0.000000
20
1.100520
30
0.0
11
5.374690
21
1.706120
31
0.0
0
LINE
8
0
6
CONTINUOUS
10
5.311310
20
1.983810
30
0.0
11
-0.000000
21
1.385360
31
0.0
0
LINE
8
0
6
CONTINUOUS
10
-5.395790
20
1.613700
30
0.0
11
-0.000000
21
1.005730
31
0.0
0
LINE
8
0
6
CONTINUOUS
10
-5.374680
20
1.706120
30
0.0
11
-0.000000
21
1.100520
31
0.0
0
LINE
8
0
6
CONTINUOUS
10
-0.000000
20
1.385360
30
0.0
11
-5.311300
21
1.983790
31
0.0
0
LINE
8
0
6
CONTINUOUS
10
-10.521010
20
3.407070
30
0.0
11
-5.395790
21
1.613700
31
0.0
0
LINE
8
0
6
CONTINUOUS
10
-10.479860
20
3.492490
30
0.0
11
-5.374680
21
1.706120
31
0.0
0
LINE
8
0
6
CONTINUOUS
10
-5.311300
20
1.983790
30
0.0
11
-10.356280
21
3.749120
31
0.0
0
LINE
8
0
6
CONTINUOUS
10
-10.479860
20
3.492490
30
0.0
11
-15.059560
21
6.370080
31
0.0
0
LINE
8
0
6
CONTINUOUS
10
-15.118650
20
6.295970
30
0.0
11
-10.521010
21
3.407070
31
0.0
0
LINE
8
0
6
CONTINUOUS
10
-18.958200
20
10.135510
30
0.0
11
-15.118650
21
6.295970
31
0.0
0
LINE
8
0
6
CONTINUOUS
10
-18.884080
20
10.194610
30
0.0
11
-15.059560
21
6.370080
31
0.0
0
LINE
8
0
6
CONTINUOUS
10
-14.881970
20
6.592760
30
0.0
11
-18.661400
21
10.372190
31
0.0
0
LINE
8
0
6
CONTINUOUS
10
-21.847090
20
14.733160
30
0.0
11
-18.958200
21
10.135510
31
0.0
0
LINE
8
0
6
CONTINUOUS
10
-21.761670
20
14.774290
30
0.0
11
-18.884080
21
10.194610
31
0.0
0
LINE
8
0
6
CONTINUOUS
10
-18.661400
20
10.372190
30
0.0
11
-21.505060
21
14.897860
31
0.0
0
LINE
8
0
6
CONTINUOUS
10
-23.640490
20
19.858350
30
0.0
11
-21.847090
21
14.733160
31
0.0
0
LINE
8
0
6
CONTINUOUS
10
-23.548070
20
19.879460
30
0.0
11
-21.761670
21
14.774290
31
0.0
0
LINE
8
0
6
CONTINUOUS
10
-21.505060
20
14.897860
30
0.0
11
-23.270380
21
19.942840
31
0.0
0
LINE
8
0
6
CONTINUOUS
10
-24.248440
20
25.254150
30
0.0
11
-23.640490
21
19.858350
31
0.0
0
LINE
8
0
6
CONTINUOUS
10
-24.153650
20
25.254150
30
0.0
11
-23.548070
21
19.879460
31
0.0
0
LINE
8
0
6
CONTINUOUS
10
-23.270380
20
19.942840
30
0.0
11
-23.868820
21
25.254150
31
0.0
0
LINE
8
0
6
CONTINUOUS
10
-23.640500
20
30.649940
30
0.0
11
-24.248440
21
25.254150
31
0.0
0
LINE
8
0
6
CONTINUOUS
10
-23.548070
20
30.628840
30
0.0
11
-24.153650
21
25.254150
31
0.0
0
LINE
8
0
6
CONTINUOUS
10
-23.868820
20
25.254150
30
0.0
11
-23.270390
21
30.565470
31
0.0
0
LINE
8
0
6
CONTINUOUS
10
-21.847100
20
35.775150
30
0.0
11
-23.640500
21
30.649940
31
0.0
0
LINE
8
0
6
CONTINUOUS
10
-21.761680
20
35.734020
30
0.0
11
-23.548070
21
30.628840
31
0.0
0
LINE
8
0
6
CONTINUOUS
10
-23.270390
20
30.565470
30
0.0
11
-21.505080
21
35.610440
31
0.0
0
LINE
8
0
6
CONTINUOUS
10
-18.958220
20
40.372790
30
0.0
11
-21.847100
21
35.775150
31
0.0
0
LINE
8
0
6
CONTINUOUS
10
-18.884110
20
40.313700
30
0.0
11
-21.761680
21
35.734020
31
0.0
0
LINE
8
0
6
CONTINUOUS
10
-21.505080
20
35.610440
30
0.0
11
-18.661430
21
40.136100
31
0.0
0
LINE
8
0
6
CONTINUOUS
10
-15.118690
20
44.212330
30
0.0
11
-18.958220
21
40.372790
31
0.0
0
LINE
8
0
6
CONTINUOUS
10
-15.059570
20
44.138210
30
0.0
11
-18.884110
21
40.313700
31
0.0
0
LINE
8
0
6
CONTINUOUS
10
-18.661430
20
40.136100
30
0.0
11
-14.882000
21
43.915530
31
0.0
0
LINE
8
0
6
CONTINUOUS
10
-10.521040
20
47.101240
30
0.0
11
-15.118690
21
44.212330
31
0.0
0
LINE
8
0
6
CONTINUOUS
10
-10.479920
20
47.015820
30
0.0
11
-15.059570
21
44.138210
31
0.0
0
LINE
8
0
6
CONTINUOUS
10
-14.882000
20
43.915530
30
0.0
11
-10.356340
21
46.759210
31
0.0
0
LINE
8
0
6
CONTINUOUS
10
-5.395830
20
48.894650
30
0.0
11
-10.521040
21
47.101240
31
0.0
0
LINE
8
0
6
CONTINUOUS
10
-5.374740
20
48.802210
30
0.0
11
-10.479920
21
47.015820
31
0.0
0
LINE
8
0
6
CONTINUOUS
10
-10.356340
20
46.759210
30
0.0
11
-5.311350
21
48.524540
31
0.0
0
LINE
8
0
6
CONTINUOUS
10
-3.446277
20
49.114313
30
0.0
11
-5.395830
21
48.894650
31
0.0
0
LINE
8
0
6
CONTINUOUS
10
-3.446277
20
49.019499
30
0.0
11
-5.374740
21
48.802210
31
0.0
0
LINE
8
0
6
CONTINUOUS
10
-5.311350
20
48.524540
30
0.0
11
-3.446277
21
48.734680
31
0.0
0
LINE
8
0
6
CONTINUOUS
10
14.631220
20
6.907230
30
0.0
11
10.181830
21
4.111450
31
0.0
0
LINE
8
0
6
CONTINUOUS
10
10.356310
20
3.749130
30
0.0
11
14.881970
21
6.592810
31
0.0
0
LINE
8
0
6
CONTINUOUS
10
-10.181800
20
4.111430
30
0.0
11
-14.631230
21
6.907190
31
0.0
0
LINE
8
0
6
CONTINUOUS
10
-14.881970
20
6.592760
30
0.0
11
-10.356280
21
3.749120
31
0.0
0
LINE
8
0
6
CONTINUOUS
10
78.100020
20
-74.988860
30
0.0
11
78.099990
21
74.988870
31
0.0
0
LINE
8
0
6
CONTINUOUS
10
74.842880
20
78.245990
30
0.0
11
-74.842900
21
78.245970
31
0.0
0
LINE
8
0
6
CONTINUOUS
10
-78.100020
20
74.988860
30
0.0
11
-78.099990
21
-74.988880
31
0.0
0
LINE
8
0
6
CONTINUOUS
10
-74.842880
20
-78.245990
30
0.0
11
74.842900
21
-78.245970
31
0.0
0
LINE
8
0
6
CONTINUOUS
10
78.099990
20
74.988870
30
0.0
11
77.943890
21
76.293110
31
0.0
0
LINE
8
0
6
CONTINUOUS
10
77.943890
20
76.293110
30
0.0
11
77.283010
21
77.428900
31
0.0
0
LINE
8
0
6
CONTINUOUS
10
77.283010
20
77.428900
30
0.0
11
76.147730
21
78.089700
31
0.0
0
LINE
8
0
6
CONTINUOUS
10
76.147730
20
78.089700
30
0.0
11
74.842880
21
78.245990
31
0.0
0
LINE
8
0
6
CONTINUOUS
10
-77.943740
20
76.293710
30
0.0
11
-78.100020
21
74.988860
31
0.0
0
LINE
8
0
6
CONTINUOUS
10
-77.282930
20
77.428990
30
0.0
11
-77.943740
21
76.293710
31
0.0
0
LINE
8
0
6
CONTINUOUS
10
-76.147140
20
78.089870
30
0.0
11
-77.282930
21
77.428990
31
0.0
0
LINE
8
0
6
CONTINUOUS
10
-74.842900
20
78.245970
30
0.0
11
-76.147140
21
78.089870
31
0.0
0
LINE
8
0
6
CONTINUOUS
10
-76.147730
20
-78.089710
30
0.0
11
-74.842880
21
-78.245990
31
0.0
0
LINE
8
0
6
CONTINUOUS
10
-77.283010
20
-77.428900
30
0.0
11
-76.147730
21
-78.089710
31
0.0
0
LINE
8
0
6
CONTINUOUS
10
-77.943890
20
-76.293110
30
0.0
11
-77.283010
21
-77.428900
31
0.0
0
LINE
8
0
6
CONTINUOUS
10
-78.099990
20
-74.988880
30
0.0
11
-77.943890
21
-76.293110
31
0.0
0
LINE
8
0
6
CONTINUOUS
10
74.842900
20
-78.245970
30
0.0
11
76.147140
21
-78.089870
31
0.0
0
LINE
8
0
6
CONTINUOUS
10
76.147140
20
-78.089870
30
0.0
11
77.282930
21
-77.428990
31
0.0
0
LINE
8
0
6
CONTINUOUS
10
77.282930
20
-77.428990
30
0.0
11
77.943730
21
-76.293710
31
0.0
0
LINE
8
0
6
CONTINUOUS
10
77.943730
20
-76.293710
30
0.0
11
78.100020
21
-74.988860
31
0.0
0
LINE
8
0
6
CONTINUOUS
10
-3.570860
20
-47.051210
30
0.0
11
-6.886690
21
-45.691540
31
0.0
0
LINE
8
0
6
CONTINUOUS
10
-3.570860
20
-20.440190
30
0.0
11
-0.000040
21
-19.929460
31
0.0
0
LINE
8
0
6
CONTINUOUS
10
-13.305660
20
-37.316830
30
0.0
11
-13.816380
21
-33.745800
31
0.0
0
LINE
8
0
6
CONTINUOUS
10
-9.778100
20
-43.524280
30
0.0
11
-11.945380
21
-40.632860
31
0.0
0
LINE
8
0
6
CONTINUOUS
10
-6.886690
20
-45.691540
30
0.0
11
-9.778100
21
-43.524280
31
0.0
0
LINE
8
0
6
CONTINUOUS
10
-13.305660
20
-30.174780
30
0.0
11
-11.945380
21
-26.858750
31
0.0
0
LINE
8
0
6
CONTINUOUS
10
-0.000040
20
-47.561720
30
0.0
11
-3.570860
21
-47.051210
31
0.0
0
LINE
8
0
6
CONTINUOUS
10
-13.816380
20
-33.745800
30
0.0
11
-13.305660
21
-30.174780
31
0.0
0
LINE
8
0
6
CONTINUOUS
10
-11.945380
20
-40.632860
30
0.0
11
-13.305660
21
-37.316830
31
0.0
0
LINE
8
0
6
CONTINUOUS
10
-11.945380
20
-26.858750
30
0.0
11
-9.778100
21
-23.967340
31
0.0
0
LINE
8
0
6
CONTINUOUS
10
-9.778100
20
-23.967340
30
0.0
11
-6.886680
21
-21.800470
31
0.0
0
LINE
8
0
6
CONTINUOUS
10
-6.886680
20
-21.800470
30
0.0
11
-3.570860
21
-20.440190
31
0.0
0
LINE
8
0
6
CONTINUOUS
10
-11.945380
20
-26.858750
30
0.0
11
-9.778100
21
-23.967340
31
0.0
0
LINE
8
0
6
CONTINUOUS
10
-0.000040
20
-47.561720
30
0.0
11
-3.570860
21
-47.051210
31
0.0
0
LINE
8
0
6
CONTINUOUS
10
-9.778100
20
-43.524280
30
0.0
11
-11.945380
21
-40.632860
31
0.0
0
LINE
8
0
6
CONTINUOUS
10
-3.570860
20
-47.051210
30
0.0
11
-6.886690
21
-45.691540
31
0.0
0
LINE
8
0
6
CONTINUOUS
10
-6.886680
20
-21.800470
30
0.0
11
-3.570860
21
-20.440190
31
0.0
0
LINE
8
0
6
CONTINUOUS
10
-11.945380
20
-40.632860
30
0.0
11
-13.305660
21
-37.316830
31
0.0
0
LINE
8
0
6
CONTINUOUS
10
-13.305660
20
-30.174780
30
0.0
11
-11.945380
21
-26.858750
31
0.0
0
LINE
8
0
6
CONTINUOUS
10
-13.305660
20
-37.316830
30
0.0
11
-13.816380
21
-33.745800
31
0.0
0
LINE
8
0
6
CONTINUOUS
10
-3.570860
20
-20.440190
30
0.0
11
-0.000040
21
-19.929460
31
0.0
0
LINE
8
0
6
CONTINUOUS
10
-9.778100
20
-23.967340
30
0.0
11
-6.886680
21
-21.800470
31
0.0
0
LINE
8
0
6
CONTINUOUS
10
-13.816380
20
-33.745800
30
0.0
11
-13.305660
21
-30.174780
31
0.0
0
LINE
8
0
6
CONTINUOUS
10
-6.886690
20
-45.691540
30
0.0
11
-9.778100
21
-43.524280
31
0.0
0
LINE
8
0
6
CONTINUOUS
10
74.748070
20
78.000000
30
0.0
11
-0.000010
21
77.999990
31
0.0
0
LINE
8
0
6
CONTINUOUS
10
-76.050870
20
77.844230
30
0.0
11
-74.748100
21
77.999980
31
0.0
0
LINE
8
0
6
CONTINUOUS
10
-74.748100
20
77.999980
30
0.0
11
-76.050250
21
77.844410
31
0.0
0
LINE
8
0
6
CONTINUOUS
10
-77.184330
20
77.185730
30
0.0
11
-76.050870
21
77.844230
31
0.0
0
LINE
8
0
6
CONTINUOUS
10
-76.050250
20
77.844410
30
0.0
11
-77.184230
21
77.185830
31
0.0
0
LINE
8
0
6
CONTINUOUS
10
-77.844150
20
76.053870
30
0.0
11
-77.184330
21
77.185730
31
0.0
0
LINE
8
0
6
CONTINUOUS
10
-77.184230
20
77.185830
30
0.0
11
-77.843970
21
76.054490
31
0.0
0
LINE
8
0
6
CONTINUOUS
10
-78.000000
20
74.754150
30
0.0
11
-77.844150
21
76.053870
31
0.0
0
LINE
8
0
6
CONTINUOUS
10
-77.843970
20
76.054490
30
0.0
11
-78.000000
21
74.754150
31
0.0
0
LINE
8
0
6
CONTINUOUS
10
-76.050840
20
-77.844250
30
0.0
11
-74.748070
21
-78.000000
31
0.0
0
LINE
8
0
6
CONTINUOUS
10
-74.748070
20
-78.000000
30
0.0
11
-76.050220
21
-77.844430
31
0.0
0
LINE
8
0
6
CONTINUOUS
10
-77.184300
20
-77.185750
30
0.0
11
-76.050840
21
-77.844250
31
0.0
0
LINE
8
0
6
CONTINUOUS
10
-76.050220
20
-77.844430
30
0.0
11
-77.184200
21
-77.185850
31
0.0
0
LINE
8
0
6
CONTINUOUS
10
-77.844110
20
-76.053890
30
0.0
11
-77.184300
21
-77.185750
31
0.0
0
LINE
8
0
6
CONTINUOUS
10
-77.184200
20
-77.185850
30
0.0
11
-77.843930
21
-76.054510
31
0.0
0
LINE
8
0
6
CONTINUOUS
10
-77.999970
20
-74.754170
30
0.0
11
-77.844110
21
-76.053890
31
0.0
0
LINE
8
0
6
CONTINUOUS
10
-77.843930
20
-76.054510
30
0.0
11
-77.999970
21
-74.754170
31
0.0
0
LINE
8
0
6
CONTINUOUS
10
77.843970
20
-76.054490
30
0.0
11
78.000000
21
-74.754150
31
0.0
0
LINE
8
0
6
CONTINUOUS
10
78.000000
20
-74.754150
30
0.0
11
77.844150
21
-76.053870
31
0.0
0
LINE
8
0
6
CONTINUOUS
10
77.184230
20
-77.185840
30
0.0
11
77.843970
21
-76.054490
31
0.0
0
LINE
8
0
6
CONTINUOUS
10
77.844150
20
-76.053870
30
0.0
11
77.184330
21
-77.185730
31
0.0
0
LINE
8
0
6
CONTINUOUS
10
76.050250
20
-77.844420
30
0.0
11
77.184230
21
-77.185840
31
0.0
0
LINE
8
0
6
CONTINUOUS
10
77.184330
20
-77.185730
30
0.0
11
76.050870
21
-77.844230
31
0.0
0
LINE
8
0
6
CONTINUOUS
10
74.748100
20
-77.999980
30
0.0
11
76.050250
21
-77.844420
31
0.0
0
LINE
8
0
6
CONTINUOUS
10
76.050870
20
-77.844230
30
0.0
11
74.748100
21
-77.999980
31
0.0
0
LINE
8
0
6
CONTINUOUS
10
76.050840
20
77.844250
30
0.0
11
74.748070
21
78.000000
31
0.0
0
LINE
8
0
6
CONTINUOUS
10
74.748070
20
78.000000
30
0.0
11
76.050220
21
77.844430
31
0.0
0
LINE
8
0
6
CONTINUOUS
10
77.184300
20
77.185740
30
0.0
11
76.050840
21
77.844250
31
0.0
0
LINE
8
0
6
CONTINUOUS
10
76.050220
20
77.844430
30
0.0
11
77.184200
21
77.185850
31
0.0
0
LINE
8
0
6
CONTINUOUS
10
77.844110
20
76.053890
30
0.0
11
77.184300
21
77.185740
31
0.0
0
LINE
8
0
6
CONTINUOUS
10
77.184200
20
77.185850
30
0.0
11
77.843930
21
76.054510
31
0.0
0
LINE
8
0
6
CONTINUOUS
10
77.999970
20
74.754170
30
0.0
11
77.844110
21
76.053890
31
0.0
0
LINE
8
0
6
CONTINUOUS
10
77.843930
20
76.054510
30
0.0
11
77.999970
21
74.754170
31
0.0
0
LINE
8
0
6
CONTINUOUS
10
77.999990
20
0.000010
30
0.0
11
78.000000
21
-74.754150
31
0.0
0
LINE
8
0
6
CONTINUOUS
10
77.999980
20
0.000010
30
0.0
11
77.999970
21
74.754170
31
0.0
0
LINE
8
0
6
CONTINUOUS
10
-0.000010
20
77.999990
30
0.0
11
-74.748100
21
77.999980
31
0.0
0
LINE
8
0
6
CONTINUOUS
10
-77.999990
20
-0.000010
30
0.0
11
-77.999970
21
-74.754170
31
0.0
0
LINE
8
0
6
CONTINUOUS
10
0.000010
20
-77.999990
30
0.0
11
74.748100
21
-77.999980
31
0.0
0
LINE
8
0
6
CONTINUOUS
10
-0.000010
20
77.999990
30
0.0
11
-74.748100
21
77.999980
31
0.0
0
LINE
8
0
6
CONTINUOUS
10
0.000010
20
-77.999990
30
0.0
11
74.748100
21
-77.999980
31
0.0
0
LINE
8
0
6
CONTINUOUS
10
-77.999980
20
-0.000010
30
0.0
11
-77.999970
21
-74.754170
31
0.0
0
LINE
8
0
6
CONTINUOUS
10
0.000010
20
-77.999990
30
0.0
11
-74.748070
21
-78.000000
31
0.0
0
LINE
8
0
6
CONTINUOUS
10
0.000010
20
-77.999990
30
0.0
11
-74.748070
21
-78.000000
31
0.0
0
LINE
8
0
6
CONTINUOUS
10
-0.000010
20
77.999990
30
0.0
11
74.748070
21
78.000000
31
0.0
0
LINE
8
0
6
CONTINUOUS
10
-77.999980
20
-0.000010
30
0.0
11
-78.000000
21
74.754150
31
0.0
0
LINE
8
0
6
CONTINUOUS
10
-77.999990
20
-0.000010
30
0.0
11
-78.000000
21
74.754150
31
0.0
0
LINE
8
0
6
CONTINUOUS
10
77.999980
20
0.000010
30
0.0
11
78.000000
21
-74.754150
31
0.0
0
LINE
8
0
6
CONTINUOUS
10
77.999990
20
0.000010
30
0.0
11
77.999970
21
74.754170
31
0.0
0
LINE
8
0
6
CONTINUOUS
10
6.886660
20
-45.691540
30
0.0
11
3.570830
21
-47.051210
31
0.0
0
LINE
8
0
6
CONTINUOUS
10
13.816340
20
-33.745800
30
0.0
11
13.305630
21
-37.316830
31
0.0
0
LINE
8
0
6
CONTINUOUS
10
11.945350
20
-40.632860
30
0.0
11
9.778070
21
-43.524280
31
0.0
0
LINE
8
0
6
CONTINUOUS
10
9.778070
20
-43.524280
30
0.0
11
6.886660
21
-45.691540
31
0.0
0
LINE
8
0
6
CONTINUOUS
10
11.945350
20
-26.858750
30
0.0
11
13.305630
21
-30.174780
31
0.0
0
LINE
8
0
6
CONTINUOUS
10
13.305630
20
-30.174780
30
0.0
11
13.816340
21
-33.745800
31
0.0
0
LINE
8
0
6
CONTINUOUS
10
13.305630
20
-37.316830
30
0.0
11
11.945350
21
-40.632860
31
0.0
0
LINE
8
0
6
CONTINUOUS
10
9.778070
20
-23.967340
30
0.0
11
11.945350
21
-26.858750
31
0.0
0
LINE
8
0
6
CONTINUOUS
10
6.886640
20
-21.800470
30
0.0
11
9.778070
21
-23.967340
31
0.0
0
LINE
8
0
6
CONTINUOUS
10
3.570830
20
-20.440190
30
0.0
11
6.886640
21
-21.800470
31
0.0
0
LINE
8
0
6
CONTINUOUS
10
9.778070
20
-23.967340
30
0.0
11
11.945350
21
-26.858750
31
0.0
0
LINE
8
0
6
CONTINUOUS
10
11.945350
20
-40.632860
30
0.0
11
9.778070
21
-43.524280
31
0.0
0
LINE
8
0
6
CONTINUOUS
10
6.886660
20
-45.691540
30
0.0
11
3.570830
21
-47.051210
31
0.0
0
LINE
8
0
6
CONTINUOUS
10
3.570830
20
-20.440190
30
0.0
11
6.886640
21
-21.800470
31
0.0
0
LINE
8
0
6
CONTINUOUS
10
13.305630
20
-37.316830
30
0.0
11
11.945350
21
-40.632860
31
0.0
0
LINE
8
0
6
CONTINUOUS
10
11.945350
20
-26.858750
30
0.0
11
13.305630
21
-30.174780
31
0.0
0
LINE
8
0
6
CONTINUOUS
10
13.816340
20
-33.745800
30
0.0
11
13.305630
21
-37.316830
31
0.0
0
LINE
8
0
6
CONTINUOUS
10
6.886640
20
-21.800470
30
0.0
11
9.778070
21
-23.967340
31
0.0
0
LINE
8
0
6
CONTINUOUS
10
13.305630
20
-30.174780
30
0.0
11
13.816340
21
-33.745800
31
0.0
0
LINE
8
0
6
CONTINUOUS
10
9.778070
20
-43.524280
30
0.0
11
6.886660
21
-45.691540
31
0.0
0
LINE
8
0
6
CONTINUOUS
10
-0.000040
20
-19.929460
30
0.0
11
3.570830
21
-20.440190
31
0.0
0
LINE
8
0
6
CONTINUOUS
10
3.570830
20
-47.051210
30
0.0
11
-0.000040
21
-47.561720
31
0.0
0
LINE
8
0
6
CONTINUOUS
10
3.570830
20
-47.051210
30
0.0
11
-0.000040
21
-47.561720
31
0.0
0
LINE
8
0
6
CONTINUOUS
10
-0.000040
20
-19.929460
30
0.0
11
3.570830
21
-20.440190
31
0.0
0
LINE
8
0
6
CONTINUOUS
10
-11.766210
20
-26.962050
30
0.0
11
-13.106070
21
-30.228340
31
0.0
0
LINE
8
0
6
CONTINUOUS
10
-13.106070
20
-30.228340
30
0.0
11
-13.609140
21
-33.745800
31
0.0
0
LINE
8
0
6
CONTINUOUS
10
-6.783380
20
-21.979650
30
0.0
11
-9.631430
21
-24.114020
31
0.0
0
LINE
8
0
6
CONTINUOUS
10
-3.517300
20
-20.639780
30
0.0
11
-6.783380
21
-21.979650
31
0.0
0
LINE
8
0
6
CONTINUOUS
10
-13.609140
20
-33.745800
30
0.0
11
-13.106070
21
-37.263270
31
0.0
0
LINE
8
0
6
CONTINUOUS
10
-9.631430
20
-43.377600
30
0.0
11
-6.783380
21
-45.512370
31
0.0
0
LINE
8
0
6
CONTINUOUS
10
-6.783380
20
-45.512370
30
0.0
11
-3.517300
21
-46.851620
31
0.0
0
LINE
8
0
6
CONTINUOUS
10
-11.766210
20
-40.529550
30
0.0
11
-9.631430
21
-43.377600
31
0.0
0
LINE
8
0
6
CONTINUOUS
10
-3.517300
20
-46.851620
30
0.0
11
-0.000040
21
-47.354480
31
0.0
0
LINE
8
0
6
CONTINUOUS
10
-9.631430
20
-24.114020
30
0.0
11
-11.766210
21
-26.962050
31
0.0
0
LINE
8
0
6
CONTINUOUS
10
-13.106070
20
-37.263270
30
0.0
11
-11.766210
21
-40.529550
31
0.0
0
LINE
8
0
6
CONTINUOUS
10
-0.000040
20
-20.136710
30
0.0
11
-3.517300
21
-20.639780
31
0.0
0
LINE
8
0
6
CONTINUOUS
10
-13.106070
20
-30.228340
30
0.0
11
-11.766210
21
-26.962050
31
0.0
0
LINE
8
0
6
CONTINUOUS
10
-13.609140
20
-33.745800
30
0.0
11
-13.106070
21
-30.228340
31
0.0
0
LINE
8
0
6
CONTINUOUS
10
-9.631430
20
-24.114020
30
0.0
11
-6.783380
21
-21.979650
31
0.0
0
LINE
8
0
6
CONTINUOUS
10
-6.783380
20
-21.979650
30
0.0
11
-3.517300
21
-20.639780
31
0.0
0
LINE
8
0
6
CONTINUOUS
10
-13.106070
20
-37.263270
30
0.0
11
-13.609140
21
-33.745800
31
0.0
0
LINE
8
0
6
CONTINUOUS
10
-6.783380
20
-45.512370
30
0.0
11
-9.631430
21
-43.377600
31
0.0
0
LINE
8
0
6
CONTINUOUS
10
-3.517300
20
-46.851620
30
0.0
11
-6.783380
21
-45.512370
31
0.0
0
LINE
8
0
6
CONTINUOUS
10
-9.631430
20
-43.377600
30
0.0
11
-11.766210
21
-40.529550
31
0.0
0
LINE
8
0
6
CONTINUOUS
10
-0.000040
20
-47.354480
30
0.0
11
-3.517300
21
-46.851620
31
0.0
0
LINE
8
0
6
CONTINUOUS
10
-11.766210
20
-26.962050
30
0.0
11
-9.631430
21
-24.114020
31
0.0
0
LINE
8
0
6
CONTINUOUS
10
-11.766210
20
-40.529550
30
0.0
11
-13.106070
21
-37.263270
31
0.0
0
LINE
8
0
6
CONTINUOUS
10
-3.517300
20
-20.639780
30
0.0
11
-0.000040
21
-20.136710
31
0.0
0
LINE
8
0
6
CONTINUOUS
10
13.105990
20
-30.228340
30
0.0
11
11.766130
21
-26.962050
31
0.0
0
LINE
8
0
6
CONTINUOUS
10
13.609050
20
-33.745800
30
0.0
11
13.105990
21
-30.228340
31
0.0
0
LINE
8
0
6
CONTINUOUS
10
9.631340
20
-24.114010
30
0.0
11
6.783300
21
-21.979650
31
0.0
0
LINE
8
0
6
CONTINUOUS
10
6.783300
20
-21.979650
30
0.0
11
3.517210
21
-20.639780
31
0.0
0
LINE
8
0
6
CONTINUOUS
10
13.105990
20
-37.263270
30
0.0
11
13.609050
21
-33.745800
31
0.0
0
LINE
8
0
6
CONTINUOUS
10
6.783300
20
-45.512370
30
0.0
11
9.631340
21
-43.377600
31
0.0
0
LINE
8
0
6
CONTINUOUS
10
3.517220
20
-46.851620
30
0.0
11
6.783300
21
-45.512370
31
0.0
0
LINE
8
0
6
CONTINUOUS
10
9.631340
20
-43.377600
30
0.0
11
11.766120
21
-40.529550
31
0.0
0
LINE
8
0
6
CONTINUOUS
10
-0.000040
20
-47.354480
30
0.0
11
3.517220
21
-46.851620
31
0.0
0
LINE
8
0
6
CONTINUOUS
10
11.766130
20
-26.962050
30
0.0
11
9.631340
21
-24.114010
31
0.0
0
LINE
8
0
6
CONTINUOUS
10
11.766120
20
-40.529550
30
0.0
11
13.105990
21
-37.263270
31
0.0
0
LINE
8
0
6
CONTINUOUS
10
3.517210
20
-20.639780
30
0.0
11
-0.000040
21
-20.136710
31
0.0
0
LINE
8
0
6
CONTINUOUS
10
11.766130
20
-26.962050
30
0.0
11
13.105990
21
-30.228340
31
0.0
0
LINE
8
0
6
CONTINUOUS
10
13.105990
20
-30.228340
30
0.0
11
13.609050
21
-33.745800
31
0.0
0
LINE
8
0
6
CONTINUOUS
10
6.783300
20
-21.979650
30
0.0
11
9.631340
21
-24.114010
31
0.0
0
LINE
8
0
6
CONTINUOUS
10
3.517210
20
-20.639780
30
0.0
11
6.783300
21
-21.979650
31
0.0
0
LINE
8
0
6
CONTINUOUS
10
13.609050
20
-33.745800
30
0.0
11
13.105990
21
-37.263270
31
0.0
0
LINE
8
0
6
CONTINUOUS
10
9.631340
20
-43.377600
30
0.0
11
6.783300
21
-45.512370
31
0.0
0
LINE
8
0
6
CONTINUOUS
10
6.783300
20
-45.512370
30
0.0
11
3.517220
21
-46.851620
31
0.0
0
LINE
8
0
6
CONTINUOUS
10
11.766120
20
-40.529550
30
0.0
11
9.631340
21
-43.377600
31
0.0
0
LINE
8
0
6
CONTINUOUS
10
3.517220
20
-46.851620
30
0.0
11
-0.000040
21
-47.354480
31
0.0
0
LINE
8
0
6
CONTINUOUS
10
9.631340
20
-24.114010
30
0.0
11
11.766130
21
-26.962050
31
0.0
0
LINE
8
0
6
CONTINUOUS
10
13.105990
20
-37.263270
30
0.0
11
11.766120
21
-40.529550
31
0.0
0
LINE
8
0
6
CONTINUOUS
10
-0.000040
20
-20.136710
30
0.0
11
3.517210
21
-20.639780
31
0.0
0
LINE
8
0
6
CONTINUOUS
10
74.748110
20
-77.999970
30
0.0
11
76.050260
21
-77.844410
31
0.0
0
LINE
8
0
6
CONTINUOUS
10
-74.748060
20
-78.000010
30
0.0
11
74.748110
21
-77.999970
31
0.0
0
LINE
8
0
6
CONTINUOUS
10
-76.050830
20
-77.844260
30
0.0
11
-74.748060
21
-78.000010
31
0.0
0
LINE
8
0
6
CONTINUOUS
10
-77.184290
20
-77.185760
30
0.0
11
-76.050830
21
-77.844260
31
0.0
0
LINE
8
0
6
CONTINUOUS
10
-77.844110
20
-76.053900
30
0.0
11
-77.184290
21
-77.185760
31
0.0
0
LINE
8
0
6
CONTINUOUS
10
-77.999960
20
-74.754180
30
0.0
11
-77.844110
21
-76.053900
31
0.0
0
LINE
8
0
6
CONTINUOUS
10
-78.000010
20
74.754140
30
0.0
11
-77.999960
21
-74.754180
31
0.0
0
LINE
8
0
6
CONTINUOUS
10
-77.843980
20
76.054480
30
0.0
11
-78.000010
21
74.754140
31
0.0
0
LINE
8
0
6
CONTINUOUS
10
-77.184240
20
77.185830
30
0.0
11
-77.843980
21
76.054480
31
0.0
0
LINE
8
0
6
CONTINUOUS
10
-76.050260
20
77.844400
30
0.0
11
-77.184240
21
77.185830
31
0.0
0
LINE
8
0
6
CONTINUOUS
10
-74.748110
20
77.999970
30
0.0
11
-76.050260
21
77.844400
31
0.0
0
LINE
8
0
6
CONTINUOUS
10
74.748060
20
78.000010
30
0.0
11
-74.748110
21
77.999970
31
0.0
0
LINE
8
0
6
CONTINUOUS
10
76.050830
20
77.844260
30
0.0
11
74.748060
21
78.000010
31
0.0
0
LINE
8
0
6
CONTINUOUS
10
77.184290
20
77.185750
30
0.0
11
76.050830
21
77.844260
31
0.0
0
LINE
8
0
6
CONTINUOUS
10
77.844100
20
76.053890
30
0.0
11
77.184290
21
77.185750
31
0.0
0
LINE
8
0
6
CONTINUOUS
10
77.999960
20
74.754180
30
0.0
11
77.844100
21
76.053890
31
0.0
0
LINE
8
0
6
CONTINUOUS
10
78.000010
20
-74.754140
30
0.0
11
77.999960
21
74.754180
31
0.0
0
LINE
8
0
6
CONTINUOUS
10
77.843980
20
-76.054480
30
0.0
11
78.000010
21
-74.754140
31
0.0
0
LINE
8
0
6
CONTINUOUS
10
77.184240
20
-77.185830
30
0.0
11
77.843980
21
-76.054480
31
0.0
0
LINE
8
0
6
CONTINUOUS
10
76.050260
20
-77.844410
30
0.0
11
77.184240
21
-77.185830
31
0.0
0
ENDSEC
0
EOF
