999
Erzeugt mit innoplus bad 
0
SECTION
2
HEADER
9
$ACADVER
1
AC1009
9
$DWGCODEPAGE
3
ISO8859-1
0
ENDSEC
0
SECTION
2
TABLES
0
TABLE
2
LAYER
70
1
0
LAYER
2
0
70
0
62
7
6
CONTINUOUS
0
ENDTAB
0
ENDSEC
0
SECTION
2
ENTITIES
0
LINE
8
0
6
CONTINUOUS
10
197.274919
20
16.841583
30
0.0
11
197.302531
21
17.186529
31
0.0
0
LINE
8
0
6
CONTINUOUS
10
178.487101
20
-70.863716
30
0.0
11
181.225310
21
-69.785386
31
0.0
0
LINE
8
0
6
CONTINUOUS
10
181.225310
20
-69.908662
30
0.0
11
178.487101
21
-70.933867
31
0.0
0
LINE
8
0
6
CONTINUOUS
10
192.445098
20
-60.979359
30
0.0
11
191.463398
21
-61.956470
31
0.0
0
LINE
8
0
6
CONTINUOUS
10
188.575202
20
-64.113140
30
0.0
11
191.463398
21
-61.886319
31
0.0
0
LINE
8
0
6
CONTINUOUS
10
184.975229
20
-66.657618
30
0.0
11
188.575202
21
-64.113140
31
0.0
0
LINE
8
0
6
CONTINUOUS
10
191.463398
20
-61.956470
30
0.0
11
188.575202
21
-64.236386
31
0.0
0
LINE
8
0
6
CONTINUOUS
10
192.445098
20
-60.979359
30
0.0
11
192.445098
21
-10.926242
31
0.0
0
LINE
8
0
6
CONTINUOUS
10
191.463398
20
-61.886319
30
0.0
11
192.445098
21
-60.979359
31
0.0
0
LINE
8
0
6
CONTINUOUS
10
177.449377
20
-71.000000
30
0.0
11
178.487101
21
-70.863716
31
0.0
0
LINE
8
0
6
CONTINUOUS
10
188.575202
20
-64.236386
30
0.0
11
184.975229
21
-66.800937
31
0.0
0
LINE
8
0
6
CONTINUOUS
10
184.975229
20
-66.800937
30
0.0
11
181.225310
21
-69.908662
31
0.0
0
LINE
8
0
6
CONTINUOUS
10
181.225310
20
-69.785386
30
0.0
11
184.975229
21
-66.657618
31
0.0
0
LINE
8
0
6
CONTINUOUS
10
197.274919
20
16.841583
30
0.0
11
195.089223
21
-10.459284
31
0.0
0
LINE
8
0
6
CONTINUOUS
10
174.805252
20
-10.459284
30
0.0
11
172.619556
21
16.841583
31
0.0
0
LINE
8
0
6
CONTINUOUS
10
172.591944
20
17.186529
30
0.0
11
172.619556
21
16.841583
31
0.0
0
LINE
8
0
6
CONTINUOUS
10
195.089223
20
-10.459284
30
0.0
11
195.056122
21
-10.872897
31
0.0
0
LINE
8
0
6
CONTINUOUS
10
174.838372
20
-10.872897
30
0.0
11
174.805252
21
-10.459284
31
0.0
0
LINE
8
0
6
CONTINUOUS
10
177.449377
20
-71.000000
30
0.0
11
177.449377
21
-10.872997
31
0.0
0
LINE
8
0
6
CONTINUOUS
10
178.487101
20
-70.933867
30
0.0
11
177.449377
21
-71.000000
31
0.0
0
LINE
8
0
6
CONTINUOUS
10
174.370956
20
17.448334
30
0.0
11
172.709690
21
17.396623
31
0.0
0
LINE
8
0
6
CONTINUOUS
10
178.828474
20
17.485926
30
0.0
11
174.370956
21
17.448334
31
0.0
0
LINE
8
0
6
CONTINUOUS
10
184.947237
20
17.499956
30
0.0
11
178.828474
21
17.485926
31
0.0
0
LINE
8
0
6
CONTINUOUS
10
191.066041
20
17.485926
30
0.0
11
184.947237
21
17.499956
31
0.0
0
LINE
8
0
6
CONTINUOUS
10
172.591944
20
17.186529
30
0.0
11
172.709690
21
17.396623
31
0.0
0
LINE
8
0
6
CONTINUOUS
10
195.523559
20
17.448334
30
0.0
11
191.066041
21
17.485926
31
0.0
0
LINE
8
0
6
CONTINUOUS
10
197.184805
20
17.396623
30
0.0
11
195.523559
21
17.448334
31
0.0
0
LINE
8
0
6
CONTINUOUS
10
197.302531
20
17.186529
30
0.0
11
197.184805
21
17.396623
31
0.0
0
LINE
8
0
6
CONTINUOUS
10
196.279643
20
17.365075
30
0.0
11
196.279643
21
20.696037
31
0.0
0
LINE
8
0
6
CONTINUOUS
10
173.614832
20
20.696149
30
0.0
11
173.614832
21
17.365075
31
0.0
0
LINE
8
0
6
CONTINUOUS
10
193.708277
20
-10.915590
30
0.0
11
195.056122
21
-10.872897
31
0.0
0
LINE
8
0
6
CONTINUOUS
10
193.708277
20
-10.830195
30
0.0
11
190.001685
21
-10.798837
31
0.0
0
LINE
8
0
6
CONTINUOUS
10
195.056122
20
-10.872897
30
0.0
11
193.708277
21
-10.830195
31
0.0
0
LINE
8
0
6
CONTINUOUS
10
176.186238
20
-10.830195
30
0.0
11
174.838372
21
-10.872897
31
0.0
0
LINE
8
0
6
CONTINUOUS
10
176.186238
20
-10.915590
30
0.0
11
177.449377
21
-10.926242
31
0.0
0
LINE
8
0
6
CONTINUOUS
10
179.892830
20
-10.798837
30
0.0
11
176.186238
21
-10.830195
31
0.0
0
LINE
8
0
6
CONTINUOUS
10
190.001685
20
-10.798837
30
0.0
11
184.947237
21
-10.787413
31
0.0
0
LINE
8
0
6
CONTINUOUS
10
174.838372
20
-10.872897
30
0.0
11
176.186238
21
-10.915590
31
0.0
0
LINE
8
0
6
CONTINUOUS
10
184.947237
20
-10.787413
30
0.0
11
179.892830
21
-10.798837
31
0.0
0
LINE
8
0
6
CONTINUOUS
10
192.445098
20
-10.926242
30
0.0
11
193.708277
21
-10.915590
31
0.0
0
LINE
8
0
6
CONTINUOUS
10
348.227928
20
67.092397
30
0.0
11
-348.226859
21
67.092397
31
0.0
0
LINE
8
0
6
CONTINUOUS
10
349.800700
20
67.092397
30
0.0
11
349.464645
21
67.092397
31
0.0
0
LINE
8
0
6
CONTINUOUS
10
349.417129
20
71.000000
30
0.0
11
349.778356
21
71.000000
31
0.0
0
LINE
8
0
6
CONTINUOUS
10
340.027069
20
67.092397
30
0.0
11
343.105910
21
67.092397
31
0.0
0
LINE
8
0
6
CONTINUOUS
10
343.105910
20
67.092397
30
0.0
11
345.880009
21
67.092397
31
0.0
0
LINE
8
0
6
CONTINUOUS
10
345.880009
20
67.092397
30
0.0
11
348.082600
21
67.092397
31
0.0
0
LINE
8
0
6
CONTINUOUS
10
348.082600
20
67.092397
30
0.0
11
349.496486
21
67.092397
31
0.0
0
LINE
8
0
6
CONTINUOUS
10
348.890549
20
67.092397
30
0.0
11
348.227928
21
67.092397
31
0.0
0
LINE
8
0
6
CONTINUOUS
10
349.464645
20
67.092397
30
0.0
11
348.890549
21
67.092397
31
0.0
0
LINE
8
0
6
CONTINUOUS
10
345.880009
20
71.000000
30
0.0
11
343.103891
21
71.000000
31
0.0
0
LINE
8
0
6
CONTINUOUS
10
343.103891
20
71.000000
30
0.0
11
340.027069
21
71.000000
31
0.0
0
LINE
8
0
6
CONTINUOUS
10
350.482305
20
69.046279
30
0.0
11
350.084019
21
67.483171
31
0.0
0
LINE
8
0
6
CONTINUOUS
10
348.082600
20
71.000000
30
0.0
11
345.880009
21
71.000000
31
0.0
0
LINE
8
0
6
CONTINUOUS
10
349.984437
20
67.092397
30
0.0
11
349.800700
21
67.092397
31
0.0
0
LINE
8
0
6
CONTINUOUS
10
348.858319
20
71.000000
30
0.0
11
349.417129
21
71.000000
31
0.0
0
LINE
8
0
6
CONTINUOUS
10
349.984437
20
67.092397
30
0.0
11
350.084019
21
67.483171
31
0.0
0
LINE
8
0
6
CONTINUOUS
10
349.496486
20
67.092397
30
0.0
11
349.984437
21
67.092397
31
0.0
0
LINE
8
0
6
CONTINUOUS
10
350.482305
20
69.046279
30
0.0
11
350.059116
21
70.706937
31
0.0
0
LINE
8
0
6
CONTINUOUS
10
349.496486
20
71.000000
30
0.0
11
348.082600
21
71.000000
31
0.0
0
LINE
8
0
6
CONTINUOUS
10
349.778356
20
71.000000
30
0.0
11
349.979449
21
71.000000
31
0.0
0
LINE
8
0
6
CONTINUOUS
10
349.984437
20
71.000000
30
0.0
11
349.496486
21
71.000000
31
0.0
0
LINE
8
0
6
CONTINUOUS
10
350.059116
20
70.706937
30
0.0
11
349.984437
21
71.000000
31
0.0
0
LINE
8
0
6
CONTINUOUS
10
348.226939
20
71.000000
30
0.0
11
348.858319
21
71.000000
31
0.0
0
LINE
8
0
6
CONTINUOUS
10
-349.463576
20
67.092397
30
0.0
11
-349.799630
21
67.092397
31
0.0
0
LINE
8
0
6
CONTINUOUS
10
-349.777286
20
71.000000
30
0.0
11
-349.416019
21
71.000000
31
0.0
0
LINE
8
0
6
CONTINUOUS
10
-340.025999
20
67.092397
30
0.0
11
340.027069
21
67.092397
31
0.0
0
LINE
8
0
6
CONTINUOUS
10
-343.104801
20
67.092397
30
0.0
11
-340.025999
21
67.092397
31
0.0
0
LINE
8
0
6
CONTINUOUS
10
-345.878939
20
67.092397
30
0.0
11
-343.104801
21
67.092397
31
0.0
0
LINE
8
0
6
CONTINUOUS
10
-348.081490
20
67.092397
30
0.0
11
-345.878939
21
67.092397
31
0.0
0
LINE
8
0
6
CONTINUOUS
10
-349.495417
20
67.092397
30
0.0
11
-348.081490
21
67.092397
31
0.0
0
LINE
8
0
6
CONTINUOUS
10
-348.226859
20
67.092397
30
0.0
11
-348.889480
21
67.092397
31
0.0
0
LINE
8
0
6
CONTINUOUS
10
-348.889480
20
67.092397
30
0.0
11
-349.463576
21
67.092397
31
0.0
0
LINE
8
0
6
CONTINUOUS
10
-343.102821
20
71.000000
30
0.0
11
-345.878939
21
71.000000
31
0.0
0
LINE
8
0
6
CONTINUOUS
10
-340.025999
20
71.000000
30
0.0
11
-343.102821
21
71.000000
31
0.0
0
LINE
8
0
6
CONTINUOUS
10
-350.082949
20
67.483171
30
0.0
11
-350.481235
21
69.046279
31
0.0
0
LINE
8
0
6
CONTINUOUS
10
-345.878939
20
71.000000
30
0.0
11
-348.081490
21
71.000000
31
0.0
0
LINE
8
0
6
CONTINUOUS
10
-349.799630
20
67.092397
30
0.0
11
-349.983367
21
67.092397
31
0.0
0
LINE
8
0
6
CONTINUOUS
10
-349.416019
20
71.000000
30
0.0
11
-348.857249
21
71.000000
31
0.0
0
LINE
8
0
6
CONTINUOUS
10
-349.983367
20
67.092397
30
0.0
11
-349.495417
21
67.092397
31
0.0
0
LINE
8
0
6
CONTINUOUS
10
-350.082949
20
67.483171
30
0.0
11
-349.983367
21
67.092397
31
0.0
0
LINE
8
0
6
CONTINUOUS
10
-350.058046
20
70.706937
30
0.0
11
-350.481235
21
69.046279
31
0.0
0
LINE
8
0
6
CONTINUOUS
10
-348.225869
20
71.000000
30
0.0
11
348.226939
21
71.000000
31
0.0
0
LINE
8
0
6
CONTINUOUS
10
-348.081490
20
71.000000
30
0.0
11
-349.495417
21
71.000000
31
0.0
0
LINE
8
0
6
CONTINUOUS
10
340.027069
20
71.000000
30
0.0
11
-340.025999
21
71.000000
31
0.0
0
LINE
8
0
6
CONTINUOUS
10
-349.978379
20
71.000000
30
0.0
11
-349.777286
21
71.000000
31
0.0
0
LINE
8
0
6
CONTINUOUS
10
-349.983367
20
71.000000
30
0.0
11
-350.058046
21
70.706937
31
0.0
0
LINE
8
0
6
CONTINUOUS
10
-349.495417
20
71.000000
30
0.0
11
-349.983367
21
71.000000
31
0.0
0
LINE
8
0
6
CONTINUOUS
10
-348.857249
20
71.000000
30
0.0
11
-348.225869
21
71.000000
31
0.0
0
LINE
8
0
6
CONTINUOUS
10
272.314344
20
26.615080
30
0.0
11
273.145716
21
32.617299
31
0.0
0
LINE
8
0
6
CONTINUOUS
10
255.916553
20
10.176423
30
0.0
11
261.488613
21
12.454815
31
0.0
0
LINE
8
0
6
CONTINUOUS
10
255.916553
20
55.058176
30
0.0
11
249.928792
21
55.891165
31
0.0
0
LINE
8
0
6
CONTINUOUS
10
261.488613
20
52.779783
30
0.0
11
255.916553
21
55.058176
31
0.0
0
LINE
8
0
6
CONTINUOUS
10
266.327692
20
16.178631
30
0.0
11
270.042392
21
21.029342
31
0.0
0
LINE
8
0
6
CONTINUOUS
10
261.488613
20
12.454815
30
0.0
11
266.327692
21
16.178631
31
0.0
0
LINE
8
0
6
CONTINUOUS
10
238.368961
20
12.454815
30
0.0
11
243.941001
21
10.176423
31
0.0
0
LINE
8
0
6
CONTINUOUS
10
229.815143
20
21.029342
30
0.0
11
233.529872
21
16.178631
31
0.0
0
LINE
8
0
6
CONTINUOUS
10
227.543211
20
26.615080
30
0.0
11
229.815143
21
21.029342
31
0.0
0
LINE
8
0
6
CONTINUOUS
10
233.529872
20
16.178631
30
0.0
11
238.368961
21
12.454815
31
0.0
0
LINE
8
0
6
CONTINUOUS
10
226.711838
20
32.617299
30
0.0
11
227.543211
21
26.615080
31
0.0
0
LINE
8
0
6
CONTINUOUS
10
233.529872
20
49.055957
30
0.0
11
229.815143
21
44.205236
31
0.0
0
LINE
8
0
6
CONTINUOUS
10
227.543211
20
38.619518
30
0.0
11
226.711838
21
32.617299
31
0.0
0
LINE
8
0
6
CONTINUOUS
10
266.327692
20
49.055957
30
0.0
11
261.488613
21
52.779783
31
0.0
0
LINE
8
0
6
CONTINUOUS
10
243.941001
20
55.058176
30
0.0
11
238.368961
21
52.779783
31
0.0
0
LINE
8
0
6
CONTINUOUS
10
249.928792
20
55.891165
30
0.0
11
243.941001
21
55.058176
31
0.0
0
LINE
8
0
6
CONTINUOUS
10
270.042392
20
44.205236
30
0.0
11
266.327692
21
49.055957
31
0.0
0
LINE
8
0
6
CONTINUOUS
10
273.145716
20
32.617299
30
0.0
11
272.314344
21
38.619518
31
0.0
0
LINE
8
0
6
CONTINUOUS
10
243.941001
20
10.176423
30
0.0
11
244.930229
21
10.038806
31
0.0
0
LINE
8
0
6
CONTINUOUS
10
270.042392
20
21.029342
30
0.0
11
272.314344
21
26.615080
31
0.0
0
LINE
8
0
6
CONTINUOUS
10
254.927376
20
10.038813
30
0.0
11
255.916553
21
10.176423
31
0.0
0
LINE
8
0
6
CONTINUOUS
10
229.815143
20
44.205236
30
0.0
11
227.543211
21
38.619518
31
0.0
0
LINE
8
0
6
CONTINUOUS
10
238.368961
20
52.779783
30
0.0
11
233.529872
21
49.055957
31
0.0
0
LINE
8
0
6
CONTINUOUS
10
272.314344
20
38.619518
30
0.0
11
270.042392
21
44.205236
31
0.0
0
LINE
8
0
6
CONTINUOUS
10
248.394210
20
55.426912
30
0.0
11
246.947633
21
54.825613
31
0.0
0
LINE
8
0
6
CONTINUOUS
10
249.928792
20
55.639171
30
0.0
11
248.394210
21
55.426912
31
0.0
0
LINE
8
0
6
CONTINUOUS
10
244.142434
20
51.164803
30
0.0
11
243.930494
21
49.626179
31
0.0
0
LINE
8
0
6
CONTINUOUS
10
254.162584
20
53.870650
30
0.0
11
252.909921
21
54.825613
31
0.0
0
LINE
8
0
6
CONTINUOUS
10
251.463344
20
55.426912
30
0.0
11
249.928792
21
55.639171
31
0.0
0
LINE
8
0
6
CONTINUOUS
10
252.909921
20
54.825613
30
0.0
11
251.463344
21
55.426912
31
0.0
0
LINE
8
0
6
CONTINUOUS
10
255.927060
20
49.626179
30
0.0
11
255.715121
21
51.164803
31
0.0
0
LINE
8
0
6
CONTINUOUS
10
255.715121
20
51.164803
30
0.0
11
255.115292
21
52.615037
31
0.0
0
LINE
8
0
6
CONTINUOUS
10
255.115292
20
52.615037
30
0.0
11
254.162584
21
53.870650
31
0.0
0
LINE
8
0
6
CONTINUOUS
10
243.930494
20
49.626179
30
0.0
11
243.930494
21
32.617289
31
0.0
0
LINE
8
0
6
CONTINUOUS
10
245.694991
20
53.870650
30
0.0
11
244.742262
21
52.615037
31
0.0
0
LINE
8
0
6
CONTINUOUS
10
246.947633
20
54.825613
30
0.0
11
245.694991
21
53.870650
31
0.0
0
LINE
8
0
6
CONTINUOUS
10
244.742262
20
52.615037
30
0.0
11
244.142434
21
51.164803
31
0.0
0
LINE
8
0
6
CONTINUOUS
10
255.927060
20
32.617289
30
0.0
11
255.927060
21
49.626179
31
0.0
0
LINE
8
0
6
CONTINUOUS
10
246.947633
20
10.408965
30
0.0
11
248.394210
21
9.807666
31
0.0
0
LINE
8
0
6
CONTINUOUS
10
248.394210
20
9.807666
30
0.0
11
249.928792
21
9.595407
31
0.0
0
LINE
8
0
6
CONTINUOUS
10
243.930494
20
15.608399
30
0.0
11
244.142434
21
14.069775
31
0.0
0
LINE
8
0
6
CONTINUOUS
10
252.909921
20
10.408965
30
0.0
11
254.162584
21
11.363928
31
0.0
0
LINE
8
0
6
CONTINUOUS
10
249.928792
20
9.595407
30
0.0
11
251.463344
21
9.807666
31
0.0
0
LINE
8
0
6
CONTINUOUS
10
251.463344
20
9.807666
30
0.0
11
252.909921
21
10.408965
31
0.0
0
LINE
8
0
6
CONTINUOUS
10
255.715121
20
14.069775
30
0.0
11
255.927060
21
15.608399
31
0.0
0
LINE
8
0
6
CONTINUOUS
10
255.115292
20
12.619541
30
0.0
11
255.715121
21
14.069775
31
0.0
0
LINE
8
0
6
CONTINUOUS
10
254.162584
20
11.363928
30
0.0
11
255.115292
21
12.619541
31
0.0
0
LINE
8
0
6
CONTINUOUS
10
243.930494
20
32.617289
30
0.0
11
243.930494
21
15.608399
31
0.0
0
LINE
8
0
6
CONTINUOUS
10
244.742262
20
12.619541
30
0.0
11
245.694991
21
11.363928
31
0.0
0
LINE
8
0
6
CONTINUOUS
10
245.694991
20
11.363928
30
0.0
11
246.947633
21
10.408965
31
0.0
0
LINE
8
0
6
CONTINUOUS
10
244.142434
20
14.069775
30
0.0
11
244.742262
21
12.619541
31
0.0
0
LINE
8
0
6
CONTINUOUS
10
255.927060
20
15.608399
30
0.0
11
255.927060
21
32.617289
31
0.0
0
LINE
8
0
6
CONTINUOUS
10
148.791636
20
58.173537
30
0.0
11
145.496067
21
59.541953
31
0.0
0
LINE
8
0
6
CONTINUOUS
10
145.496067
20
59.541953
30
0.0
11
141.959496
21
60.008692
31
0.0
0
LINE
8
0
6
CONTINUOUS
10
128.760803
20
49.856156
30
0.0
11
128.295206
21
46.310916
31
0.0
0
LINE
8
0
6
CONTINUOUS
10
141.959496
20
60.008692
30
0.0
11
138.422915
21
59.541953
31
0.0
0
LINE
8
0
6
CONTINUOUS
10
155.158189
20
49.856156
30
0.0
11
153.793109
21
53.159804
31
0.0
0
LINE
8
0
6
CONTINUOUS
10
148.791636
20
34.448285
30
0.0
11
151.621598
21
36.625118
31
0.0
0
LINE
8
0
6
CONTINUOUS
10
135.127356
20
58.173537
30
0.0
11
132.297383
21
55.996703
31
0.0
0
LINE
8
0
6
CONTINUOUS
10
155.623776
20
46.310916
30
0.0
11
155.158189
21
49.856156
31
0.0
0
LINE
8
0
6
CONTINUOUS
10
138.422915
20
33.079868
30
0.0
11
141.959496
21
32.613130
31
0.0
0
LINE
8
0
6
CONTINUOUS
10
153.793109
20
39.462018
30
0.0
11
155.158189
21
42.765666
31
0.0
0
LINE
8
0
6
CONTINUOUS
10
155.158189
20
42.765666
30
0.0
11
155.623776
21
46.310916
31
0.0
0
LINE
8
0
6
CONTINUOUS
10
145.496067
20
33.079868
30
0.0
11
148.791636
21
34.448285
31
0.0
0
LINE
8
0
6
CONTINUOUS
10
130.125873
20
39.462018
30
0.0
11
132.297383
21
36.625118
31
0.0
0
LINE
8
0
6
CONTINUOUS
10
130.125873
20
53.159804
30
0.0
11
128.760803
21
49.856156
31
0.0
0
LINE
8
0
6
CONTINUOUS
10
128.760803
20
42.765666
30
0.0
11
130.125873
21
39.462018
31
0.0
0
LINE
8
0
6
CONTINUOUS
10
141.959496
20
32.613130
30
0.0
11
145.496067
21
33.079868
31
0.0
0
LINE
8
0
6
CONTINUOUS
10
132.297383
20
55.996703
30
0.0
11
130.125873
21
53.159804
31
0.0
0
LINE
8
0
6
CONTINUOUS
10
135.127356
20
34.448285
30
0.0
11
138.422915
21
33.079868
31
0.0
0
LINE
8
0
6
CONTINUOUS
10
128.295206
20
46.310916
30
0.0
11
128.760803
21
42.765666
31
0.0
0
LINE
8
0
6
CONTINUOUS
10
138.422915
20
59.541953
30
0.0
11
135.127356
21
58.173537
31
0.0
0
LINE
8
0
6
CONTINUOUS
10
151.621598
20
55.996703
30
0.0
11
148.791636
21
58.173537
31
0.0
0
LINE
8
0
6
CONTINUOUS
10
153.793109
20
53.159804
30
0.0
11
151.621598
21
55.996703
31
0.0
0
LINE
8
0
6
CONTINUOUS
10
132.297383
20
36.625118
30
0.0
11
135.127356
21
34.448285
31
0.0
0
LINE
8
0
6
CONTINUOUS
10
151.621598
20
36.625118
30
0.0
11
153.793109
21
39.462018
31
0.0
0
LINE
8
0
6
CONTINUOUS
10
102.804760
20
58.173537
30
0.0
11
99.509191
21
59.541953
31
0.0
0
LINE
8
0
6
CONTINUOUS
10
99.509191
20
59.541953
30
0.0
11
95.972620
21
60.008692
31
0.0
0
LINE
8
0
6
CONTINUOUS
10
82.773937
20
49.856156
30
0.0
11
82.308340
21
46.310916
31
0.0
0
LINE
8
0
6
CONTINUOUS
10
95.972620
20
60.008692
30
0.0
11
92.436049
21
59.541953
31
0.0
0
LINE
8
0
6
CONTINUOUS
10
109.171313
20
49.856156
30
0.0
11
107.806243
21
53.159804
31
0.0
0
LINE
8
0
6
CONTINUOUS
10
102.804760
20
34.448285
30
0.0
11
105.634733
21
36.625118
31
0.0
0
LINE
8
0
6
CONTINUOUS
10
89.140490
20
58.173537
30
0.0
11
86.310508
21
55.996703
31
0.0
0
LINE
8
0
6
CONTINUOUS
10
109.636910
20
46.310916
30
0.0
11
109.171313
21
49.856156
31
0.0
0
LINE
8
0
6
CONTINUOUS
10
92.436049
20
33.079868
30
0.0
11
95.972620
21
32.613130
31
0.0
0
LINE
8
0
6
CONTINUOUS
10
107.806243
20
39.462018
30
0.0
11
109.171313
21
42.765666
31
0.0
0
LINE
8
0
6
CONTINUOUS
10
109.171313
20
42.765666
30
0.0
11
109.636910
21
46.310916
31
0.0
0
LINE
8
0
6
CONTINUOUS
10
99.509191
20
33.079868
30
0.0
11
102.804760
21
34.448285
31
0.0
0
LINE
8
0
6
CONTINUOUS
10
84.139007
20
39.462018
30
0.0
11
86.310508
21
36.625118
31
0.0
0
LINE
8
0
6
CONTINUOUS
10
84.139007
20
53.159804
30
0.0
11
82.773937
21
49.856156
31
0.0
0
LINE
8
0
6
CONTINUOUS
10
82.773937
20
42.765666
30
0.0
11
84.139007
21
39.462018
31
0.0
0
LINE
8
0
6
CONTINUOUS
10
95.972620
20
32.613130
30
0.0
11
99.509191
21
33.079868
31
0.0
0
LINE
8
0
6
CONTINUOUS
10
86.310508
20
55.996703
30
0.0
11
84.139007
21
53.159804
31
0.0
0
LINE
8
0
6
CONTINUOUS
10
89.140490
20
34.448285
30
0.0
11
92.436049
21
33.079868
31
0.0
0
LINE
8
0
6
CONTINUOUS
10
82.308340
20
46.310916
30
0.0
11
82.773937
21
42.765666
31
0.0
0
LINE
8
0
6
CONTINUOUS
10
92.436049
20
59.541953
30
0.0
11
89.140490
21
58.173537
31
0.0
0
LINE
8
0
6
CONTINUOUS
10
105.634733
20
55.996703
30
0.0
11
102.804760
21
58.173537
31
0.0
0
LINE
8
0
6
CONTINUOUS
10
107.806243
20
53.159804
30
0.0
11
105.634733
21
55.996703
31
0.0
0
LINE
8
0
6
CONTINUOUS
10
86.310508
20
36.625118
30
0.0
11
89.140490
21
34.448285
31
0.0
0
LINE
8
0
6
CONTINUOUS
10
105.634733
20
36.625118
30
0.0
11
107.806243
21
39.462018
31
0.0
0
LINE
8
0
6
CONTINUOUS
10
253.927641
20
3.324137
30
0.0
11
253.927641
21
3.856838
31
0.0
0
LINE
8
0
6
CONTINUOUS
10
253.386795
20
3.324137
30
0.0
11
253.927641
21
3.324137
31
0.0
0
LINE
8
0
6
CONTINUOUS
10
249.928802
20
3.324137
30
0.0
11
251.916235
21
3.324137
31
0.0
0
LINE
8
0
6
CONTINUOUS
10
247.941339
20
3.324137
30
0.0
11
249.928802
21
3.324137
31
0.0
0
LINE
8
0
6
CONTINUOUS
10
246.470779
20
3.324137
30
0.0
11
247.941339
21
3.324137
31
0.0
0
LINE
8
0
6
CONTINUOUS
10
245.929933
20
8.967330
30
0.0
11
245.929933
21
3.856838
31
0.0
0
LINE
8
0
6
CONTINUOUS
10
245.929933
20
3.324137
30
0.0
11
246.470779
21
3.324137
31
0.0
0
LINE
8
0
6
CONTINUOUS
10
245.929933
20
3.856838
30
0.0
11
245.929933
21
3.324137
31
0.0
0
LINE
8
0
6
CONTINUOUS
10
253.927641
20
3.856838
30
0.0
11
253.927641
21
8.967330
31
0.0
0
LINE
8
0
6
CONTINUOUS
10
251.916235
20
3.324137
30
0.0
11
253.386795
21
3.324137
31
0.0
0
LINE
8
0
6
CONTINUOUS
10
254.927376
20
8.967330
30
0.0
11
254.927376
21
9.217871
31
0.0
0
LINE
8
0
6
CONTINUOUS
10
254.251569
20
8.967330
30
0.0
11
254.927376
21
8.967330
31
0.0
0
LINE
8
0
6
CONTINUOUS
10
254.927376
20
9.217871
30
0.0
11
254.927376
21
13.978157
31
0.0
0
LINE
8
0
6
CONTINUOUS
10
244.930229
20
13.978157
30
0.0
11
244.930229
21
9.217871
31
0.0
0
LINE
8
0
6
CONTINUOUS
10
249.928802
20
8.967330
30
0.0
11
252.413063
21
8.967330
31
0.0
0
LINE
8
0
6
CONTINUOUS
10
247.444511
20
8.967330
30
0.0
11
249.928802
21
8.967330
31
0.0
0
LINE
8
0
6
CONTINUOUS
10
244.930229
20
8.967330
30
0.0
11
245.606006
21
8.967330
31
0.0
0
LINE
8
0
6
CONTINUOUS
10
244.930229
20
9.217871
30
0.0
11
244.930229
21
8.967330
31
0.0
0
LINE
8
0
6
CONTINUOUS
10
252.413063
20
8.967330
30
0.0
11
254.251569
21
8.967330
31
0.0
0
LINE
8
0
6
CONTINUOUS
10
245.606006
20
8.967330
30
0.0
11
247.444511
21
8.967330
31
0.0
0
LINE
8
0
6
CONTINUOUS
10
224.573988
20
47.291755
30
0.0
11
221.649203
21
40.213351
31
0.0
0
LINE
8
0
6
CONTINUOUS
10
243.835141
20
55.414816
30
0.0
11
249.928792
21
56.219014
31
0.0
0
LINE
8
0
6
CONTINUOUS
10
257.506260
20
60.966201
30
0.0
11
249.928792
21
61.966231
31
0.0
0
LINE
8
0
6
CONTINUOUS
10
233.280673
20
49.306228
30
0.0
11
238.156772
21
53.056992
31
0.0
0
LINE
8
0
6
CONTINUOUS
10
279.205957
20
32.617289
30
0.0
11
278.208351
21
40.213361
31
0.0
0
LINE
8
0
6
CONTINUOUS
10
256.022423
20
55.414816
30
0.0
11
261.700803
21
53.056992
31
0.0
0
LINE
8
0
6
CONTINUOUS
10
249.928792
20
61.966231
30
0.0
11
242.351285
21
60.966201
31
0.0
0
LINE
8
0
6
CONTINUOUS
10
273.472773
20
32.617289
30
0.0
11
272.670542
21
26.508721
31
0.0
0
LINE
8
0
6
CONTINUOUS
10
242.351285
20
60.966201
30
0.0
11
235.290190
21
58.034226
31
0.0
0
LINE
8
0
6
CONTINUOUS
10
261.700803
20
53.056992
30
0.0
11
266.576891
21
49.306228
31
0.0
0
LINE
8
0
6
CONTINUOUS
10
270.630864
20
53.370128
30
0.0
11
264.567385
21
58.034226
31
0.0
0
LINE
8
0
6
CONTINUOUS
10
270.318493
20
44.418156
30
0.0
11
272.670542
21
38.725867
31
0.0
0
LINE
8
0
6
CONTINUOUS
10
278.208351
20
40.213361
30
0.0
11
275.283546
21
47.291765
31
0.0
0
LINE
8
0
6
CONTINUOUS
10
244.930229
20
9.675250
30
0.0
11
243.835141
21
9.819772
31
0.0
0
LINE
8
0
6
CONTINUOUS
10
270.630864
20
11.864450
30
0.0
11
275.283566
21
17.942823
31
0.0
0
LINE
8
0
6
CONTINUOUS
10
233.280673
20
15.928350
30
0.0
11
229.539061
21
20.816432
31
0.0
0
LINE
8
0
6
CONTINUOUS
10
221.649203
20
25.021227
30
0.0
11
224.573988
21
17.942823
31
0.0
0
LINE
8
0
6
CONTINUOUS
10
261.700803
20
12.177606
30
0.0
11
256.022423
21
9.819772
31
0.0
0
LINE
8
0
6
CONTINUOUS
10
220.651618
20
32.617289
30
0.0
11
221.649203
21
25.021227
31
0.0
0
LINE
8
0
6
CONTINUOUS
10
266.576891
20
49.306228
30
0.0
11
270.318493
21
44.418156
31
0.0
0
LINE
8
0
6
CONTINUOUS
10
235.290190
20
7.200362
30
0.0
11
242.351285
21
4.268387
31
0.0
0
LINE
8
0
6
CONTINUOUS
10
229.539061
20
44.418146
30
0.0
11
233.280673
21
49.306228
31
0.0
0
LINE
8
0
6
CONTINUOUS
10
221.649203
20
40.213351
30
0.0
11
220.651618
21
32.617289
31
0.0
0
LINE
8
0
6
CONTINUOUS
10
272.670542
20
26.508721
30
0.0
11
270.318513
21
20.816432
31
0.0
0
LINE
8
0
6
CONTINUOUS
10
256.022423
20
9.819772
30
0.0
11
254.927376
21
9.675255
31
0.0
0
LINE
8
0
6
CONTINUOUS
10
229.226690
20
11.864450
30
0.0
11
235.290190
21
7.200362
31
0.0
0
LINE
8
0
6
CONTINUOUS
10
227.187003
20
26.508711
30
0.0
11
226.384772
21
32.617289
31
0.0
0
LINE
8
0
6
CONTINUOUS
10
275.283566
20
17.942823
30
0.0
11
278.208351
21
25.021227
31
0.0
0
LINE
8
0
6
CONTINUOUS
10
243.835141
20
9.819772
30
0.0
11
238.156772
21
12.177606
31
0.0
0
LINE
8
0
6
CONTINUOUS
10
226.384772
20
32.617289
30
0.0
11
227.187003
21
38.725867
31
0.0
0
LINE
8
0
6
CONTINUOUS
10
275.283546
20
47.291765
30
0.0
11
270.630864
21
53.370128
31
0.0
0
LINE
8
0
6
CONTINUOUS
10
270.318513
20
20.816432
30
0.0
11
266.576891
21
15.928350
31
0.0
0
LINE
8
0
6
CONTINUOUS
10
257.506260
20
4.268387
30
0.0
11
264.567385
21
7.200362
31
0.0
0
LINE
8
0
6
CONTINUOUS
10
229.539061
20
20.816432
30
0.0
11
227.187003
21
26.508711
31
0.0
0
LINE
8
0
6
CONTINUOUS
10
278.208351
20
25.021227
30
0.0
11
279.205957
21
32.617289
31
0.0
0
LINE
8
0
6
CONTINUOUS
10
249.928792
20
56.219014
30
0.0
11
256.022423
21
55.414816
31
0.0
0
LINE
8
0
6
CONTINUOUS
10
264.567385
20
58.034226
30
0.0
11
257.506260
21
60.966201
31
0.0
0
LINE
8
0
6
CONTINUOUS
10
272.670542
20
38.725867
30
0.0
11
273.472773
21
32.617289
31
0.0
0
LINE
8
0
6
CONTINUOUS
10
235.290190
20
58.034226
30
0.0
11
229.226690
21
53.370128
31
0.0
0
LINE
8
0
6
CONTINUOUS
10
238.156772
20
53.056992
30
0.0
11
243.835141
21
55.414816
31
0.0
0
LINE
8
0
6
CONTINUOUS
10
229.226690
20
53.370128
30
0.0
11
224.573988
21
47.291755
31
0.0
0
LINE
8
0
6
CONTINUOUS
10
266.576891
20
15.928350
30
0.0
11
261.700803
21
12.177606
31
0.0
0
LINE
8
0
6
CONTINUOUS
10
264.567385
20
7.200362
30
0.0
11
270.630864
21
11.864450
31
0.0
0
LINE
8
0
6
CONTINUOUS
10
238.156772
20
12.177606
30
0.0
11
233.280673
21
15.928350
31
0.0
0
LINE
8
0
6
CONTINUOUS
10
224.573988
20
17.942823
30
0.0
11
229.226690
21
11.864450
31
0.0
0
LINE
8
0
6
CONTINUOUS
10
227.187003
20
38.725867
30
0.0
11
229.539061
21
44.418146
31
0.0
0
LINE
8
0
6
CONTINUOUS
10
-350.500000
20
66.540896
30
0.0
11
-350.500000
21
46.657575
31
0.0
0
LINE
8
0
6
CONTINUOUS
10
-350.500000
20
46.657575
30
0.0
11
-350.500000
21
26.795300
31
0.0
0
LINE
8
0
6
CONTINUOUS
10
-350.500000
20
26.281720
30
0.0
11
-350.500000
21
-0.602827
31
0.0
0
LINE
8
0
6
CONTINUOUS
10
-349.855804
20
-2.171266
30
0.0
11
-348.345845
21
-2.656966
31
0.0
0
LINE
8
0
6
CONTINUOUS
10
-346.166297
20
26.398382
30
0.0
11
-348.173814
21
25.929289
31
0.0
0
LINE
8
0
6
CONTINUOUS
10
-346.166297
20
26.398382
30
0.0
11
-343.122266
21
26.874180
31
0.0
0
LINE
8
0
6
CONTINUOUS
10
-343.122266
20
26.874180
30
0.0
11
-339.536139
21
27.062808
31
0.0
0
LINE
8
0
6
CONTINUOUS
10
-335.575289
20
27.146118
30
0.0
11
-339.536139
21
27.062808
31
0.0
0
LINE
8
0
6
CONTINUOUS
10
95.972620
20
27.120953
30
0.0
11
-335.575289
21
27.146118
31
0.0
0
LINE
8
0
6
CONTINUOUS
10
141.959496
20
27.120953
30
0.0
11
95.972620
21
27.120953
31
0.0
0
LINE
8
0
6
CONTINUOUS
10
350.500000
20
46.657575
30
0.0
11
350.500000
21
66.540896
31
0.0
0
LINE
8
0
6
CONTINUOUS
10
348.050449
20
25.987975
30
0.0
11
346.166297
21
26.398382
31
0.0
0
LINE
8
0
6
CONTINUOUS
10
343.121246
20
26.870412
30
0.0
11
346.166297
21
26.398382
31
0.0
0
LINE
8
0
6
CONTINUOUS
10
350.500000
20
26.795300
30
0.0
11
350.500000
21
46.657575
31
0.0
0
LINE
8
0
6
CONTINUOUS
10
339.542137
20
27.080867
30
0.0
11
343.121246
21
26.870412
31
0.0
0
LINE
8
0
6
CONTINUOUS
10
339.542137
20
27.080867
30
0.0
11
335.585856
21
27.172775
31
0.0
0
LINE
8
0
6
CONTINUOUS
10
233.325861
20
4.176028
30
0.0
11
241.336464
21
0.866888
31
0.0
0
LINE
8
0
6
CONTINUOUS
10
233.325861
20
4.176028
30
0.0
11
226.440366
21
9.447848
31
0.0
0
LINE
8
0
6
CONTINUOUS
10
221.148376
20
16.324707
30
0.0
11
226.440366
21
9.447848
31
0.0
0
LINE
8
0
6
CONTINUOUS
10
249.927893
20
-0.255507
30
0.0
11
241.336464
21
0.866888
31
0.0
0
LINE
8
0
6
CONTINUOUS
10
258.519321
20
0.866888
30
0.0
11
266.529924
21
4.176028
31
0.0
0
LINE
8
0
6
CONTINUOUS
10
273.415409
20
9.447848
30
0.0
11
266.529924
21
4.176028
31
0.0
0
LINE
8
0
6
CONTINUOUS
10
273.415409
20
9.447848
30
0.0
11
278.707409
21
16.324707
31
0.0
0
LINE
8
0
6
CONTINUOUS
10
258.519321
20
0.866888
30
0.0
11
249.927893
21
-0.255507
31
0.0
0
LINE
8
0
6
CONTINUOUS
10
262.999302
20
-2.663640
30
0.0
11
269.534987
21
-2.663710
31
0.0
0
LINE
8
0
6
CONTINUOUS
10
223.785033
20
-2.663209
30
0.0
11
230.320798
21
-2.663279
31
0.0
0
LINE
8
0
6
CONTINUOUS
10
276.070712
20
-2.663770
30
0.0
11
282.606436
21
-2.663851
31
0.0
0
LINE
8
0
6
CONTINUOUS
10
236.856483
20
-2.663350
30
0.0
11
243.392128
21
-2.663420
31
0.0
0
LINE
8
0
6
CONTINUOUS
10
269.534987
20
-2.663710
30
0.0
11
276.070712
21
-2.663770
31
0.0
0
LINE
8
0
6
CONTINUOUS
10
256.463617
20
-2.663570
30
0.0
11
262.999302
21
-2.663640
31
0.0
0
LINE
8
0
6
CONTINUOUS
10
284.381750
20
-2.663871
30
0.0
11
285.619766
21
-2.663881
31
0.0
0
LINE
8
0
6
CONTINUOUS
10
217.249349
20
-2.663139
30
0.0
11
223.785033
21
-2.663209
31
0.0
0
LINE
8
0
6
CONTINUOUS
10
230.320798
20
-2.663279
30
0.0
11
236.856483
21
-2.663350
31
0.0
0
LINE
8
0
6
CONTINUOUS
10
215.473995
20
-2.663119
30
0.0
11
217.249349
21
-2.663139
31
0.0
0
LINE
8
0
6
CONTINUOUS
10
282.606436
20
-2.663851
30
0.0
11
284.381750
21
-2.663871
31
0.0
0
LINE
8
0
6
CONTINUOUS
10
214.235979
20
-2.663099
30
0.0
11
215.473995
21
-2.663119
31
0.0
0
LINE
8
0
6
CONTINUOUS
10
-348.345845
20
-2.656966
30
0.0
11
174.181058
21
-2.662666
31
0.0
0
LINE
8
0
6
CONTINUOUS
10
195.713398
20
-2.662901
30
0.0
11
211.996818
21
-2.663079
31
0.0
0
LINE
8
0
6
CONTINUOUS
10
349.857563
20
24.870341
30
0.0
11
349.855814
21
-2.057280
31
0.0
0
LINE
8
0
6
CONTINUOUS
10
350.500000
20
-0.601264
30
0.0
11
350.500000
21
26.281720
31
0.0
0
LINE
8
0
6
CONTINUOUS
10
-350.500000
20
67.041978
30
0.0
11
-350.500000
21
66.540896
31
0.0
0
LINE
8
0
6
CONTINUOUS
10
-348.595833
20
67.041978
30
0.0
11
-350.500000
21
67.041978
31
0.0
0
LINE
8
0
6
CONTINUOUS
10
-343.265625
20
67.041978
30
0.0
11
-346.260450
21
67.041978
31
0.0
0
LINE
8
0
6
CONTINUOUS
10
-346.260450
20
67.041978
30
0.0
11
-348.595833
21
67.041978
31
0.0
0
LINE
8
0
6
CONTINUOUS
10
-335.909214
20
67.041978
30
0.0
11
-339.690135
21
67.041978
31
0.0
0
LINE
8
0
6
CONTINUOUS
10
-339.690135
20
67.041978
30
0.0
11
-343.265625
21
67.041978
31
0.0
0
LINE
8
0
6
CONTINUOUS
10
99.736656
20
60.392922
30
0.0
11
103.244175
21
58.936495
31
0.0
0
LINE
8
0
6
CONTINUOUS
10
95.972620
20
60.889685
30
0.0
11
99.736656
21
60.392922
31
0.0
0
LINE
8
0
6
CONTINUOUS
10
81.429501
20
46.310916
30
0.0
11
81.925039
21
50.084179
31
0.0
0
LINE
8
0
6
CONTINUOUS
10
92.208584
20
60.392922
30
0.0
11
95.972620
21
60.889685
31
0.0
0
LINE
8
0
6
CONTINUOUS
10
108.567336
20
53.600296
30
0.0
11
110.020201
21
50.084179
31
0.0
0
LINE
8
0
6
CONTINUOUS
10
106.256165
20
36.002162
30
0.0
11
103.244175
21
33.685327
31
0.0
0
LINE
8
0
6
CONTINUOUS
10
85.689085
20
56.619659
30
0.0
11
88.701075
21
58.936495
31
0.0
0
LINE
8
0
6
CONTINUOUS
10
110.020201
20
50.084179
30
0.0
11
110.515750
21
46.310916
31
0.0
0
LINE
8
0
6
CONTINUOUS
10
95.972620
20
31.732137
30
0.0
11
92.208584
21
32.228900
31
0.0
0
LINE
8
0
6
CONTINUOUS
10
110.020201
20
42.537643
30
0.0
11
108.567336
21
39.021526
31
0.0
0
LINE
8
0
6
CONTINUOUS
10
110.515750
20
46.310916
30
0.0
11
110.020201
21
42.537643
31
0.0
0
LINE
8
0
6
CONTINUOUS
10
103.244175
20
33.685327
30
0.0
11
99.736656
21
32.228900
31
0.0
0
LINE
8
0
6
CONTINUOUS
10
85.689085
20
36.002162
30
0.0
11
83.377915
21
39.021526
31
0.0
0
LINE
8
0
6
CONTINUOUS
10
81.925039
20
50.084179
30
0.0
11
83.377915
21
53.600296
31
0.0
0
LINE
8
0
6
CONTINUOUS
10
83.377915
20
39.021526
30
0.0
11
81.925039
21
42.537643
31
0.0
0
LINE
8
0
6
CONTINUOUS
10
99.736656
20
32.228900
30
0.0
11
95.972620
21
31.732137
31
0.0
0
LINE
8
0
6
CONTINUOUS
10
83.377915
20
53.600296
30
0.0
11
85.689085
21
56.619659
31
0.0
0
LINE
8
0
6
CONTINUOUS
10
92.208584
20
32.228900
30
0.0
11
88.701075
21
33.685327
31
0.0
0
LINE
8
0
6
CONTINUOUS
10
81.925039
20
42.537643
30
0.0
11
81.429501
21
46.310916
31
0.0
0
LINE
8
0
6
CONTINUOUS
10
88.701075
20
58.936495
30
0.0
11
92.208584
21
60.392922
31
0.0
0
LINE
8
0
6
CONTINUOUS
10
103.244175
20
58.936495
30
0.0
11
106.256165
21
56.619659
31
0.0
0
LINE
8
0
6
CONTINUOUS
10
106.256165
20
56.619659
30
0.0
11
108.567336
21
53.600296
31
0.0
0
LINE
8
0
6
CONTINUOUS
10
88.701075
20
33.685327
30
0.0
11
85.689085
21
36.002162
31
0.0
0
LINE
8
0
6
CONTINUOUS
10
108.567336
20
39.021526
30
0.0
11
106.256165
21
36.002162
31
0.0
0
LINE
8
0
6
CONTINUOUS
10
145.723522
20
60.392922
30
0.0
11
149.231041
21
58.936495
31
0.0
0
LINE
8
0
6
CONTINUOUS
10
141.959496
20
60.889685
30
0.0
11
145.723522
21
60.392922
31
0.0
0
LINE
8
0
6
CONTINUOUS
10
127.416376
20
46.310916
30
0.0
11
127.911915
21
50.084179
31
0.0
0
LINE
8
0
6
CONTINUOUS
10
138.195450
20
60.392922
30
0.0
11
141.959496
21
60.889685
31
0.0
0
LINE
8
0
6
CONTINUOUS
10
154.554201
20
53.600296
30
0.0
11
156.007077
21
50.084179
31
0.0
0
LINE
8
0
6
CONTINUOUS
10
152.243031
20
36.002162
30
0.0
11
149.231041
21
33.685327
31
0.0
0
LINE
8
0
6
CONTINUOUS
10
131.675951
20
56.619659
30
0.0
11
134.687941
21
58.936495
31
0.0
0
LINE
8
0
6
CONTINUOUS
10
141.959496
20
31.732137
30
0.0
11
138.195450
21
32.228900
31
0.0
0
LINE
8
0
6
CONTINUOUS
10
149.231041
20
33.685327
30
0.0
11
145.723522
21
32.228900
31
0.0
0
LINE
8
0
6
CONTINUOUS
10
131.675951
20
36.002162
30
0.0
11
129.364780
21
39.021526
31
0.0
0
LINE
8
0
6
CONTINUOUS
10
127.911915
20
50.084179
30
0.0
11
129.364780
21
53.600296
31
0.0
0
LINE
8
0
6
CONTINUOUS
10
129.364780
20
39.021526
30
0.0
11
127.911915
21
42.537643
31
0.0
0
LINE
8
0
6
CONTINUOUS
10
145.723522
20
32.228900
30
0.0
11
141.959496
21
31.732137
31
0.0
0
LINE
8
0
6
CONTINUOUS
10
129.364780
20
53.600296
30
0.0
11
131.675951
21
56.619659
31
0.0
0
LINE
8
0
6
CONTINUOUS
10
138.195450
20
32.228900
30
0.0
11
134.687941
21
33.685327
31
0.0
0
LINE
8
0
6
CONTINUOUS
10
127.911915
20
42.537643
30
0.0
11
127.416376
21
46.310916
31
0.0
0
LINE
8
0
6
CONTINUOUS
10
134.687941
20
58.936495
30
0.0
11
138.195450
21
60.392922
31
0.0
0
LINE
8
0
6
CONTINUOUS
10
149.231041
20
58.936495
30
0.0
11
152.243031
21
56.619659
31
0.0
0
LINE
8
0
6
CONTINUOUS
10
152.243031
20
56.619659
30
0.0
11
154.554201
21
53.600296
31
0.0
0
LINE
8
0
6
CONTINUOUS
10
134.687941
20
33.685327
30
0.0
11
131.675951
21
36.002162
31
0.0
0
LINE
8
0
6
CONTINUOUS
10
154.554201
20
39.021526
30
0.0
11
152.243031
21
36.002162
31
0.0
0
LINE
8
0
6
CONTINUOUS
10
-350.500000
20
26.795300
30
0.0
11
-350.500000
21
26.281720
31
0.0
0
LINE
8
0
6
CONTINUOUS
10
348.452024
20
67.041978
30
0.0
11
346.260410
21
67.041978
31
0.0
0
LINE
8
0
6
CONTINUOUS
10
346.260410
20
67.041978
30
0.0
11
343.265665
21
67.041978
31
0.0
0
LINE
8
0
6
CONTINUOUS
10
343.265665
20
67.041978
30
0.0
11
339.690175
21
67.041978
31
0.0
0
LINE
8
0
6
CONTINUOUS
10
339.690175
20
67.041978
30
0.0
11
335.909214
21
67.041978
31
0.0
0
LINE
8
0
6
CONTINUOUS
10
350.500000
20
67.041978
30
0.0
11
348.452024
21
67.041978
31
0.0
0
LINE
8
0
6
CONTINUOUS
10
350.500000
20
66.540896
30
0.0
11
350.500000
21
67.041978
31
0.0
0
LINE
8
0
6
CONTINUOUS
10
350.500000
20
26.281720
30
0.0
11
350.500000
21
26.795300
31
0.0
0
LINE
8
0
6
CONTINUOUS
10
348.345735
20
-2.664562
30
0.0
11
349.855774
21
-2.171266
31
0.0
0
LINE
8
0
6
CONTINUOUS
10
335.909214
20
67.041978
30
0.0
11
249.927893
21
67.041978
31
0.0
0
LINE
8
0
6
CONTINUOUS
10
224.544037
20
47.783518
30
0.0
11
229.166508
21
54.294957
31
0.0
0
LINE
8
0
6
CONTINUOUS
10
278.801642
20
24.861892
30
0.0
11
275.815434
21
17.634968
31
0.0
0
LINE
8
0
6
CONTINUOUS
10
264.544331
20
58.735060
30
0.0
11
270.690037
21
54.296179
31
0.0
0
LINE
8
0
6
CONTINUOUS
10
242.371489
20
61.610944
30
0.0
11
249.928042
21
62.581922
31
0.0
0
LINE
8
0
6
CONTINUOUS
10
249.928042
20
62.581922
30
0.0
11
257.484656
21
61.611325
31
0.0
0
LINE
8
0
6
CONTINUOUS
10
264.874457
20
6.667170
30
0.0
11
257.665224
21
3.673682
31
0.0
0
LINE
8
0
6
CONTINUOUS
10
275.815434
20
17.634968
30
0.0
11
271.065160
21
11.429099
31
0.0
0
LINE
8
0
6
CONTINUOUS
10
257.665224
20
3.673682
30
0.0
11
249.928792
21
2.652656
31
0.0
0
LINE
8
0
6
CONTINUOUS
10
275.312568
20
47.783949
30
0.0
11
278.801622
21
40.372706
31
0.0
0
LINE
8
0
6
CONTINUOUS
10
249.928792
20
2.652656
30
0.0
11
242.192310
21
3.673682
31
0.0
0
LINE
8
0
6
CONTINUOUS
10
229.166508
20
54.294957
30
0.0
11
235.311954
21
58.734399
31
0.0
0
LINE
8
0
6
CONTINUOUS
10
257.484656
20
61.611325
30
0.0
11
264.544331
21
58.735060
31
0.0
0
LINE
8
0
6
CONTINUOUS
10
235.311954
20
58.734399
30
0.0
11
242.371489
21
61.610944
31
0.0
0
LINE
8
0
6
CONTINUOUS
10
242.192310
20
3.673682
30
0.0
11
234.983118
21
6.667160
31
0.0
0
LINE
8
0
6
CONTINUOUS
10
278.801622
20
40.372706
30
0.0
11
279.820141
21
32.617289
31
0.0
0
LINE
8
0
6
CONTINUOUS
10
234.983118
20
6.667160
30
0.0
11
228.792374
21
11.429099
31
0.0
0
LINE
8
0
6
CONTINUOUS
10
228.792374
20
11.429099
30
0.0
11
224.042140
21
17.634968
31
0.0
0
LINE
8
0
6
CONTINUOUS
10
271.065160
20
11.429099
30
0.0
11
264.874457
21
6.667170
31
0.0
0
LINE
8
0
6
CONTINUOUS
10
279.820141
20
32.617289
30
0.0
11
278.801642
21
24.861892
31
0.0
0
LINE
8
0
6
CONTINUOUS
10
270.690037
20
54.296179
30
0.0
11
275.312568
21
47.783949
31
0.0
0
LINE
8
0
6
CONTINUOUS
10
95.972620
20
67.041978
30
0.0
11
-335.909214
21
67.041978
31
0.0
0
LINE
8
0
6
CONTINUOUS
10
141.959496
20
67.041978
30
0.0
11
95.972620
21
67.041978
31
0.0
0
LINE
8
0
6
CONTINUOUS
10
249.927893
20
67.041978
30
0.0
11
141.959496
21
67.041978
31
0.0
0
LINE
8
0
6
CONTINUOUS
10
287.858657
20
-2.663901
30
0.0
11
348.345735
21
-2.664562
31
0.0
0
LINE
8
0
6
CONTINUOUS
10
249.927893
20
-2.663490
30
0.0
11
256.463617
21
-2.663570
31
0.0
0
LINE
8
0
6
CONTINUOUS
10
349.855774
20
-2.171266
30
0.0
11
350.499970
21
-0.715070
31
0.0
0
LINE
8
0
6
CONTINUOUS
10
349.855814
20
-2.057280
30
0.0
11
349.855774
21
-2.171266
31
0.0
0
LINE
8
0
6
CONTINUOUS
10
350.499970
20
-0.715070
30
0.0
11
350.500000
21
-0.601264
31
0.0
0
LINE
8
0
6
CONTINUOUS
10
141.959496
20
27.120953
30
0.0
11
209.382864
21
26.924760
31
0.0
0
LINE
8
0
6
CONTINUOUS
10
282.609755
20
-2.446721
30
0.0
11
284.381730
21
23.909595
31
0.0
0
LINE
8
0
6
CONTINUOUS
10
215.474075
20
-2.446080
30
0.0
11
217.026232
21
22.410987
31
0.0
0
LINE
8
0
6
CONTINUOUS
10
215.474055
20
23.909595
30
0.0
11
215.474075
21
-2.446080
31
0.0
0
LINE
8
0
6
CONTINUOUS
10
236.806067
20
-2.446281
30
0.0
11
226.578056
21
8.313347
31
0.0
0
LINE
8
0
6
CONTINUOUS
10
223.745755
20
-2.446160
30
0.0
11
217.026232
21
22.410987
31
0.0
0
LINE
8
0
6
CONTINUOUS
10
243.392128
20
-2.663420
30
0.0
11
249.927893
21
-2.663490
31
0.0
0
LINE
8
0
6
CONTINUOUS
10
276.110030
20
-2.446651
30
0.0
11
273.277719
21
8.313347
31
0.0
0
LINE
8
0
6
CONTINUOUS
10
233.490893
20
3.275191
30
0.0
11
236.806067
21
-2.446281
31
0.0
0
LINE
8
0
6
CONTINUOUS
10
282.609755
20
-2.446721
30
0.0
11
282.829553
21
22.410987
31
0.0
0
LINE
8
0
6
CONTINUOUS
10
276.110030
20
-2.446651
30
0.0
11
282.829553
21
22.410987
31
0.0
0
LINE
8
0
6
CONTINUOUS
10
230.264694
20
-2.446220
30
0.0
11
226.578056
21
8.313347
31
0.0
0
LINE
8
0
6
CONTINUOUS
10
230.264694
20
-2.446220
30
0.0
11
221.155284
21
14.930344
31
0.0
0
LINE
8
0
6
CONTINUOUS
10
221.155284
20
14.930344
30
0.0
11
223.745755
21
-2.446160
31
0.0
0
LINE
8
0
6
CONTINUOUS
10
269.591091
20
-2.446591
30
0.0
11
273.277719
21
8.313347
31
0.0
0
LINE
8
0
6
CONTINUOUS
10
269.591091
20
-2.446591
30
0.0
11
266.364892
21
3.275191
31
0.0
0
LINE
8
0
6
CONTINUOUS
10
-350.500000
20
-0.715070
30
0.0
11
-349.855804
21
-2.171266
31
0.0
0
LINE
8
0
6
CONTINUOUS
10
-350.500000
20
-0.602827
30
0.0
11
-350.500000
21
-0.715070
31
0.0
0
LINE
8
0
6
CONTINUOUS
10
-349.855804
20
-2.171266
30
0.0
11
-349.855804
21
-2.058843
31
0.0
0
LINE
8
0
6
CONTINUOUS
10
335.585856
20
27.172775
30
0.0
11
290.472601
21
27.043085
31
0.0
0
LINE
8
0
6
CONTINUOUS
10
348.345775
20
-2.555978
30
0.0
11
348.352213
21
23.596238
31
0.0
0
LINE
8
0
6
CONTINUOUS
10
156.007077
20
50.084179
30
0.0
11
156.502615
21
46.310916
31
0.0
0
LINE
8
0
6
CONTINUOUS
10
156.007077
20
42.537643
30
0.0
11
154.554201
21
39.021526
31
0.0
0
LINE
8
0
6
CONTINUOUS
10
156.502615
20
46.310916
30
0.0
11
156.007077
21
42.537643
31
0.0
0
LINE
8
0
6
CONTINUOUS
10
220.037433
20
32.617289
30
0.0
11
221.055932
21
40.372706
31
0.0
0
LINE
8
0
6
CONTINUOUS
10
221.055932
20
40.372706
30
0.0
11
224.544037
21
47.783518
31
0.0
0
LINE
8
0
6
CONTINUOUS
10
221.055932
20
24.861872
30
0.0
11
220.037433
21
32.617289
31
0.0
0
LINE
8
0
6
CONTINUOUS
10
224.042140
20
17.634968
30
0.0
11
221.055932
21
24.861872
31
0.0
0
LINE
8
0
6
CONTINUOUS
10
210.384028
20
26.921853
30
0.0
11
209.382864
21
26.924760
31
0.0
0
LINE
8
0
6
CONTINUOUS
10
289.471717
20
27.040229
30
0.0
11
286.857873
21
26.516287
31
0.0
0
LINE
8
0
6
CONTINUOUS
10
212.999572
20
-2.663079
30
0.0
11
214.235979
21
-2.663099
31
0.0
0
LINE
8
0
6
CONTINUOUS
10
290.472601
20
27.043085
30
0.0
11
289.471717
21
27.040229
31
0.0
0
LINE
8
0
6
CONTINUOUS
10
211.996818
20
-2.663079
30
0.0
11
212.999572
21
-2.663079
31
0.0
0
LINE
8
0
6
CONTINUOUS
10
285.619766
20
-2.663881
30
0.0
11
286.857963
21
-2.663891
31
0.0
0
LINE
8
0
6
CONTINUOUS
10
286.857963
20
-2.663891
30
0.0
11
287.858657
21
-2.663901
31
0.0
0
LINE
8
0
6
CONTINUOUS
10
210.384028
20
26.921853
30
0.0
11
212.997912
21
26.516287
31
0.0
0
LINE
8
0
6
CONTINUOUS
10
179.281055
20
22.868096
30
0.0
11
184.947237
21
23.194430
31
0.0
0
LINE
8
0
6
CONTINUOUS
10
184.947237
20
23.194430
30
0.0
11
190.613460
21
22.868040
31
0.0
0
LINE
8
0
6
CONTINUOUS
10
188.644287
20
-10.818052
30
0.0
11
189.850173
21
-10.828265
31
0.0
0
LINE
8
0
6
CONTINUOUS
10
191.367758
20
-10.841082
30
0.0
11
191.445911
21
-10.841722
31
0.0
0
LINE
8
0
6
CONTINUOUS
10
178.450027
20
-10.841736
30
0.0
11
177.474315
21
-10.872245
31
0.0
0
ENDSEC
0
EOF
