999
Erzeugt mit innoplus bad 
0
SECTION
2
HEADER
9
$ACADVER
1
AC1009
9
$DWGCODEPAGE
3
ISO8859-1
0
ENDSEC
0
SECTION
2
TABLES
0
TABLE
2
LAYER
70
1
0
LAYER
2
0
70
0
62
7
6
CONTINUOUS
0
ENDTAB
0
ENDSEC
0
SECTION
2
ENTITIES
0
LINE
8
0
6
CONTINUOUS
10
8.674540
20
-157.024955
30
0.0
11
3.351950
21
-162.249605
31
0.0
0
LINE
8
0
6
CONTINUOUS
10
-18.143090
20
-149.571075
30
0.0
11
-16.145800
21
-142.385405
31
0.0
0
LINE
8
0
6
CONTINUOUS
10
3.351950
20
-162.249605
30
0.0
11
-3.869720
21
-164.112665
31
0.0
0
LINE
8
0
6
CONTINUOUS
10
-16.145800
20
-142.385405
30
0.0
11
-14.585040
21
-140.853385
31
0.0
0
LINE
8
0
6
CONTINUOUS
10
7.113750
20
-140.890899
30
0.0
11
8.808630
21
-142.617685
31
0.0
0
LINE
8
0
6
CONTINUOUS
10
-3.869720
20
-164.112665
30
0.0
11
-11.055490
21
-162.115515
31
0.0
0
LINE
8
0
6
CONTINUOUS
10
8.808630
20
-142.617685
30
0.0
11
10.671820
21
-149.839255
31
0.0
0
LINE
8
0
6
CONTINUOUS
10
-11.055490
20
-162.115515
30
0.0
11
-16.279890
21
-156.792685
31
0.0
0
LINE
8
0
6
CONTINUOUS
10
10.671820
20
-149.839255
30
0.0
11
8.674540
21
-157.024955
31
0.0
0
LINE
8
0
6
CONTINUOUS
10
-16.279890
20
-156.792685
30
0.0
11
-18.143090
21
-149.571075
31
0.0
0
LINE
8
0
6
CONTINUOUS
10
3.858810
20
-163.146705
30
0.0
11
9.562030
21
-157.548415
31
0.0
0
LINE
8
0
6
CONTINUOUS
10
-3.879330
20
-165.143015
30
0.0
11
3.858810
21
-163.146705
31
0.0
0
LINE
8
0
6
CONTINUOUS
10
-11.578980
20
-163.003005
30
0.0
11
-3.879330
21
-165.143015
31
0.0
0
LINE
8
0
6
CONTINUOUS
10
11.702160
20
-149.848785
30
0.0
11
9.705730
21
-142.110825
31
0.0
0
LINE
8
0
6
CONTINUOUS
10
-17.177010
20
-157.299535
30
0.0
11
-11.578980
21
-163.003005
31
0.0
0
LINE
8
0
6
CONTINUOUS
10
9.562030
20
-157.548415
30
0.0
11
11.702160
21
-149.848785
31
0.0
0
LINE
8
0
6
CONTINUOUS
10
-19.173450
20
-149.561425
30
0.0
11
-17.177010
21
-157.299535
31
0.0
0
LINE
8
0
6
CONTINUOUS
10
-15.009860
20
-149.600225
30
0.0
11
-13.551870
21
-155.251355
31
0.0
0
LINE
8
0
6
CONTINUOUS
10
-13.551870
20
-155.251355
30
0.0
11
-9.463640
21
-159.416585
31
0.0
0
LINE
8
0
6
CONTINUOUS
10
-9.463640
20
-159.416585
30
0.0
11
-3.840600
21
-160.979425
31
0.0
0
LINE
8
0
6
CONTINUOUS
10
1.810580
20
-159.521525
30
0.0
11
5.975630
21
-155.433125
31
0.0
0
LINE
8
0
6
CONTINUOUS
10
5.975630
20
-155.433125
30
0.0
11
7.538560
21
-149.810105
31
0.0
0
LINE
8
0
6
CONTINUOUS
10
1.810580
20
-159.521525
30
0.0
11
-3.840600
21
-160.979425
31
0.0
0
LINE
8
0
6
CONTINUOUS
10
-22.828020
20
-241.229135
30
0.0
11
-4.605850
21
-243.195265
31
0.0
0
LINE
8
0
6
CONTINUOUS
10
-40.316630
20
-235.745775
30
0.0
11
-22.828020
21
-241.229135
31
0.0
0
LINE
8
0
6
CONTINUOUS
10
-56.399470
20
-226.955945
30
0.0
11
-40.316630
21
-235.745775
31
0.0
0
LINE
8
0
6
CONTINUOUS
10
-70.458460
20
-215.197375
30
0.0
11
-56.399470
21
-226.955945
31
0.0
0
LINE
8
0
6
CONTINUOUS
10
-81.953310
20
-200.922015
30
0.0
11
-70.458460
21
-215.197375
31
0.0
0
LINE
8
0
6
CONTINUOUS
10
-90.442320
20
-184.678345
30
0.0
11
-81.953310
21
-200.922015
31
0.0
0
LINE
8
0
6
CONTINUOUS
10
-95.599240
20
-167.090765
30
0.0
11
-90.442320
21
-184.678345
31
0.0
0
LINE
8
0
6
CONTINUOUS
10
-97.225900
20
-148.835035
30
0.0
11
-95.599240
21
-167.090765
31
0.0
0
LINE
8
0
6
CONTINUOUS
10
-95.259760
20
-130.612715
30
0.0
11
-97.225900
21
-148.835035
31
0.0
0
LINE
8
0
6
CONTINUOUS
10
-89.776400
20
-113.124085
30
0.0
11
-95.259760
21
-130.612715
31
0.0
0
LINE
8
0
6
CONTINUOUS
10
-80.986540
20
-97.041285
30
0.0
11
-89.776400
21
-113.124085
31
0.0
0
LINE
8
0
6
CONTINUOUS
10
-69.227980
20
-82.982295
30
0.0
11
-80.986540
21
-97.041285
31
0.0
0
LINE
8
0
6
CONTINUOUS
10
-54.952570
20
-71.487425
30
0.0
11
-69.227980
21
-82.982295
31
0.0
0
LINE
8
0
6
CONTINUOUS
10
-38.708940
20
-62.998465
30
0.0
11
-54.952570
21
-71.487425
31
0.0
0
LINE
8
0
6
CONTINUOUS
10
-21.121300
20
-57.841515
30
0.0
11
-38.708940
21
-62.998465
31
0.0
0
LINE
8
0
6
CONTINUOUS
10
-14.585040
20
-57.259127
30
0.0
11
-21.121300
21
-57.841515
31
0.0
0
LINE
8
0
6
CONTINUOUS
10
15.356790
20
-58.181035
30
0.0
11
7.113750
21
-57.291637
31
0.0
0
LINE
8
0
6
CONTINUOUS
10
32.845390
20
-63.664395
30
0.0
11
15.356790
21
-58.181035
31
0.0
0
LINE
8
0
6
CONTINUOUS
10
48.928220
20
-72.454265
30
0.0
11
32.845390
21
-63.664395
31
0.0
0
LINE
8
0
6
CONTINUOUS
10
62.987200
20
-84.212875
30
0.0
11
48.928220
21
-72.454265
31
0.0
0
LINE
8
0
6
CONTINUOUS
10
74.482040
20
-98.488235
30
0.0
11
62.987200
21
-84.212875
31
0.0
0
LINE
8
0
6
CONTINUOUS
10
82.971020
20
-114.731905
30
0.0
11
74.482040
21
-98.488235
31
0.0
0
LINE
8
0
6
CONTINUOUS
10
88.127920
20
-132.319525
30
0.0
11
82.971020
21
-114.731905
31
0.0
0
LINE
8
0
6
CONTINUOUS
10
89.754540
20
-150.575255
30
0.0
11
88.127920
21
-132.319525
31
0.0
0
LINE
8
0
6
CONTINUOUS
10
87.788390
20
-168.797575
30
0.0
11
89.754540
21
-150.575255
31
0.0
0
LINE
8
0
6
CONTINUOUS
10
82.305010
20
-186.286165
30
0.0
11
87.788390
21
-168.797575
31
0.0
0
LINE
8
0
6
CONTINUOUS
10
73.515170
20
-202.368925
30
0.0
11
82.305010
21
-186.286165
31
0.0
0
LINE
8
0
6
CONTINUOUS
10
61.756580
20
-216.427885
30
0.0
11
73.515170
21
-202.368925
31
0.0
0
LINE
8
0
6
CONTINUOUS
10
47.481190
20
-227.922785
30
0.0
11
61.756580
21
-216.427885
31
0.0
0
LINE
8
0
6
CONTINUOUS
10
31.237550
20
-236.411745
30
0.0
11
47.481190
21
-227.922785
31
0.0
0
LINE
8
0
6
CONTINUOUS
10
13.649910
20
-241.568645
30
0.0
11
31.237550
21
-236.411745
31
0.0
0
LINE
8
0
6
CONTINUOUS
10
-4.605850
20
-243.195265
30
0.0
11
13.649910
21
-241.568645
31
0.0
0
LINE
8
0
6
CONTINUOUS
10
49.216510
20
155.968796
30
0.0
11
49.020026
21
157.785809
31
0.0
0
LINE
8
0
6
CONTINUOUS
10
27.107521
20
157.785819
30
0.0
11
26.926271
21
156.109785
31
0.0
0
LINE
8
0
6
CONTINUOUS
10
27.984070
20
157.080725
30
0.0
11
25.579220
21
154.873345
31
0.0
0
LINE
8
0
6
CONTINUOUS
10
37.994600
20
160.102945
30
0.0
11
34.399610
21
159.752825
31
0.0
0
LINE
8
0
6
CONTINUOUS
10
34.399610
20
159.752825
30
0.0
11
30.960270
21
158.722125
31
0.0
0
LINE
8
0
6
CONTINUOUS
10
-15.795400
20
37.007105
30
0.0
11
-15.762160
21
36.608465
31
0.0
0
LINE
8
0
6
CONTINUOUS
10
-15.762160
20
36.608465
30
0.0
11
-15.399910
21
32.264745
31
0.0
0
LINE
8
0
6
CONTINUOUS
10
19.783220
20
97.620595
30
0.0
11
17.588600
21
91.988745
31
0.0
0
LINE
8
0
6
CONTINUOUS
10
12.037360
20
-3.676495
30
0.0
11
24.786880
21
-7.854655
31
0.0
0
LINE
8
0
6
CONTINUOUS
10
21.591880
20
115.085355
30
0.0
11
20.579950
21
103.987555
31
0.0
0
LINE
8
0
6
CONTINUOUS
10
-14.585040
20
52.694920
30
0.0
11
-15.258026
21
50.625744
31
0.0
0
LINE
8
0
6
CONTINUOUS
10
7.489330
20
80.583915
30
0.0
11
7.113750
21
80.266890
31
0.0
0
LINE
8
0
6
CONTINUOUS
10
13.648550
20
86.296285
30
0.0
11
9.197870
21
82.026065
31
0.0
0
LINE
8
0
6
CONTINUOUS
10
20.579950
20
103.987555
30
0.0
11
19.683284
21
97.364138
31
0.0
0
LINE
8
0
6
CONTINUOUS
10
24.457940
20
145.921035
30
0.0
11
22.846310
21
128.656305
31
0.0
0
LINE
8
0
6
CONTINUOUS
10
22.846310
20
128.656305
30
0.0
11
21.591880
21
115.085355
31
0.0
0
LINE
8
0
6
CONTINUOUS
10
25.579220
20
154.873345
30
0.0
11
25.255280
21
154.497865
31
0.0
0
LINE
8
0
6
CONTINUOUS
10
30.960270
20
158.722125
30
0.0
11
27.984070
21
157.080725
31
0.0
0
LINE
8
0
6
CONTINUOUS
10
-14.678460
20
28.572505
30
0.0
11
-14.585040
21
28.299249
31
0.0
0
LINE
8
0
6
CONTINUOUS
10
-14.704120
20
28.703915
30
0.0
11
-14.678460
21
28.572505
31
0.0
0
LINE
8
0
6
CONTINUOUS
10
24.786880
20
-7.854655
30
0.0
11
37.994270
21
-9.257735
31
0.0
0
LINE
8
0
6
CONTINUOUS
10
-15.399910
20
32.264745
30
0.0
11
-14.704120
21
28.703915
31
0.0
0
LINE
8
0
6
CONTINUOUS
10
9.197870
20
82.026065
30
0.0
11
7.489330
21
80.583915
31
0.0
0
LINE
8
0
6
CONTINUOUS
10
17.588600
20
91.988745
30
0.0
11
13.648550
21
86.296285
31
0.0
0
LINE
8
0
6
CONTINUOUS
10
25.189060
20
153.817425
30
0.0
11
24.457940
21
145.921035
31
0.0
0
LINE
8
0
6
CONTINUOUS
10
-15.878460
20
48.718145
30
0.0
11
-15.795400
21
37.007105
31
0.0
0
LINE
8
0
6
CONTINUOUS
10
7.113750
20
-0.629647
30
0.0
11
12.037360
21
-3.676495
31
0.0
0
LINE
8
0
6
CONTINUOUS
10
50.409970
20
154.873325
30
0.0
11
48.005130
21
157.080715
31
0.0
0
LINE
8
0
6
CONTINUOUS
10
41.589580
20
159.752815
30
0.0
11
37.994600
21
160.102945
31
0.0
0
LINE
8
0
6
CONTINUOUS
10
45.028920
20
158.722115
30
0.0
11
41.589580
21
159.752815
31
0.0
0
LINE
8
0
6
CONTINUOUS
10
91.750770
20
36.608355
30
0.0
11
91.784030
21
37.007025
31
0.0
0
LINE
8
0
6
CONTINUOUS
10
88.233010
20
59.891695
30
0.0
11
81.123100
21
69.813285
31
0.0
0
LINE
8
0
6
CONTINUOUS
10
91.388550
20
32.264665
30
0.0
11
91.750770
21
36.608355
31
0.0
0
LINE
8
0
6
CONTINUOUS
10
58.400210
20
91.988715
30
0.0
11
56.205630
21
97.620565
31
0.0
0
LINE
8
0
6
CONTINUOUS
10
51.201670
20
-7.854695
30
0.0
11
63.951200
21
-3.676535
31
0.0
0
LINE
8
0
6
CONTINUOUS
10
71.916520
20
77.699545
30
0.0
11
70.207980
21
79.141715
31
0.0
0
LINE
8
0
6
CONTINUOUS
10
81.107190
20
69.743685
30
0.0
11
77.006470
21
73.685375
31
0.0
0
LINE
8
0
6
CONTINUOUS
10
55.408940
20
103.987525
30
0.0
11
54.397080
21
115.085335
31
0.0
0
LINE
8
0
6
CONTINUOUS
10
91.867120
20
48.718065
30
0.0
11
88.233010
21
59.891695
31
0.0
0
LINE
8
0
6
CONTINUOUS
10
70.207980
20
79.141715
30
0.0
11
68.499440
21
80.583875
31
0.0
0
LINE
8
0
6
CONTINUOUS
10
66.790900
20
82.026025
30
0.0
11
62.340240
21
86.296255
31
0.0
0
LINE
8
0
6
CONTINUOUS
10
56.305573
20
97.364086
30
0.0
11
55.408940
21
103.987525
31
0.0
0
LINE
8
0
6
CONTINUOUS
10
53.142740
20
128.656295
30
0.0
11
51.531210
21
145.921025
31
0.0
0
LINE
8
0
6
CONTINUOUS
10
54.397080
20
115.085335
30
0.0
11
53.142740
21
128.656295
31
0.0
0
LINE
8
0
6
CONTINUOUS
10
50.733920
20
154.497855
30
0.0
11
50.409970
21
154.873325
31
0.0
0
LINE
8
0
6
CONTINUOUS
10
48.005130
20
157.080715
30
0.0
11
45.028920
21
158.722115
31
0.0
0
LINE
8
0
6
CONTINUOUS
10
77.006470
20
73.685375
30
0.0
11
71.916520
21
77.699545
31
0.0
0
LINE
8
0
6
CONTINUOUS
10
86.581780
20
16.946335
30
0.0
11
86.920310
21
17.613025
31
0.0
0
LINE
8
0
6
CONTINUOUS
10
81.680850
20
9.654845
30
0.0
11
86.581780
21
16.946335
31
0.0
0
LINE
8
0
6
CONTINUOUS
10
90.667090
20
28.572425
30
0.0
11
90.692760
21
28.703845
31
0.0
0
LINE
8
0
6
CONTINUOUS
10
86.920310
20
17.613025
30
0.0
11
90.667090
21
28.572425
31
0.0
0
LINE
8
0
6
CONTINUOUS
10
37.994270
20
-9.257735
30
0.0
11
51.201670
21
-7.854695
31
0.0
0
LINE
8
0
6
CONTINUOUS
10
75.169370
20
3.265535
30
0.0
11
81.680850
21
9.654845
31
0.0
0
LINE
8
0
6
CONTINUOUS
10
90.692760
20
28.703845
30
0.0
11
91.388550
21
32.264665
31
0.0
0
LINE
8
0
6
CONTINUOUS
10
68.499440
20
80.583875
30
0.0
11
66.790900
21
82.026025
31
0.0
0
LINE
8
0
6
CONTINUOUS
10
62.340240
20
86.296255
30
0.0
11
58.400210
21
91.988715
31
0.0
0
LINE
8
0
6
CONTINUOUS
10
51.531210
20
145.921025
30
0.0
11
51.070591
21
150.896229
31
0.0
0
LINE
8
0
6
CONTINUOUS
10
91.784030
20
37.007025
30
0.0
11
91.867120
21
48.718065
31
0.0
0
LINE
8
0
6
CONTINUOUS
10
63.951200
20
-3.676535
30
0.0
11
75.169370
21
3.265535
31
0.0
0
LINE
8
0
6
CONTINUOUS
10
131.839103
20
194.130404
30
0.0
11
125.765230
21
190.879145
31
0.0
0
LINE
8
0
6
CONTINUOUS
10
121.164230
20
199.913775
30
0.0
11
129.329580
21
195.488815
31
0.0
0
LINE
8
0
6
CONTINUOUS
10
33.999680
20
206.922705
30
0.0
11
33.361847
21
201.088755
31
0.0
0
LINE
8
0
6
CONTINUOUS
10
144.319050
20
186.077145
30
0.0
11
146.198920
21
187.083206
31
0.0
0
LINE
8
0
6
CONTINUOUS
10
148.275710
20
191.854535
30
0.0
11
142.790110
21
194.680555
31
0.0
0
LINE
8
0
6
CONTINUOUS
10
136.252010
20
191.741685
30
0.0
11
141.707890
21
188.930865
31
0.0
0
LINE
8
0
6
CONTINUOUS
10
114.077390
20
184.622825
30
0.0
11
110.519598
21
182.718391
31
0.0
0
LINE
8
0
6
CONTINUOUS
10
56.201580
20
234.017565
30
0.0
11
52.766140
21
229.359965
31
0.0
0
LINE
8
0
6
CONTINUOUS
10
52.439120
20
222.412075
30
0.0
11
55.769460
21
226.929315
31
0.0
0
LINE
8
0
6
CONTINUOUS
10
43.918350
20
235.110885
30
0.0
11
40.416320
21
230.364345
31
0.0
0
LINE
8
0
6
CONTINUOUS
10
46.754790
20
233.336105
30
0.0
11
50.276040
21
238.108345
31
0.0
0
LINE
8
0
6
CONTINUOUS
10
82.150290
20
233.539805
30
0.0
11
70.980160
21
237.555865
31
0.0
0
LINE
8
0
6
CONTINUOUS
10
76.601820
20
233.415565
30
0.0
11
87.711090
21
229.421315
31
0.0
0
LINE
8
0
6
CONTINUOUS
10
86.893470
20
222.279965
30
0.0
11
75.826480
21
226.259005
31
0.0
0
LINE
8
0
6
CONTINUOUS
10
69.429500
20
223.242735
30
0.0
11
80.514960
21
219.257045
31
0.0
0
LINE
8
0
6
CONTINUOUS
10
22.896300
20
135.814955
30
0.0
11
15.001515
21
131.588995
31
0.0
0
LINE
8
0
6
CONTINUOUS
10
122.900390
20
214.154435
30
0.0
11
113.742550
21
218.985115
31
0.0
0
LINE
8
0
6
CONTINUOUS
10
149.038400
20
200.987755
30
0.0
11
147.033860
21
201.645755
31
0.0
0
LINE
8
0
6
CONTINUOUS
10
129.329580
20
195.488815
30
0.0
11
136.252010
21
191.741685
31
0.0
0
LINE
8
0
6
CONTINUOUS
10
37.650310
20
223.828095
30
0.0
11
35.539040
21
215.886795
31
0.0
0
LINE
8
0
6
CONTINUOUS
10
133.164090
20
188.082215
30
0.0
11
125.836750
21
184.160005
31
0.0
0
LINE
8
0
6
CONTINUOUS
10
14.707825
20
124.674351
30
0.0
11
16.115380
21
125.427795
31
0.0
0
LINE
8
0
6
CONTINUOUS
10
137.826928
20
182.602013
30
0.0
11
144.319050
21
186.077145
31
0.0
0
LINE
8
0
6
CONTINUOUS
10
138.600060
20
183.625215
30
0.0
11
136.697544
21
182.606827
31
0.0
0
LINE
8
0
6
CONTINUOUS
10
108.383820
20
212.785325
30
0.0
11
97.814010
21
217.706735
31
0.0
0
LINE
8
0
6
CONTINUOUS
10
91.441790
20
214.681225
30
0.0
11
102.000970
21
209.764765
31
0.0
0
LINE
8
0
6
CONTINUOUS
10
43.976860
20
226.772265
30
0.0
11
41.859730
21
218.809275
31
0.0
0
LINE
8
0
6
CONTINUOUS
10
103.753570
20
223.996525
30
0.0
11
93.149250
21
228.933935
31
0.0
0
LINE
8
0
6
CONTINUOUS
10
98.667740
20
224.833085
30
0.0
11
109.260170
21
219.901215
31
0.0
0
LINE
8
0
6
CONTINUOUS
10
22.883103
20
129.050453
30
0.0
11
16.115380
21
125.427795
31
0.0
0
LINE
8
0
6
CONTINUOUS
10
57.985600
20
139.864145
30
0.0
11
67.533112
21
144.974785
31
0.0
0
LINE
8
0
6
CONTINUOUS
10
66.394719
20
144.974785
30
0.0
11
59.085560
21
141.062305
31
0.0
0
LINE
8
0
6
CONTINUOUS
10
52.766140
20
229.359965
30
0.0
11
50.050650
21
222.941375
31
0.0
0
LINE
8
0
6
CONTINUOUS
10
49.797900
20
216.166305
30
0.0
11
52.439120
21
222.412075
31
0.0
0
LINE
8
0
6
CONTINUOUS
10
148.651880
20
186.270305
30
0.0
11
155.245850
21
189.183135
31
0.0
0
LINE
8
0
6
CONTINUOUS
10
147.485920
20
186.653115
30
0.0
11
148.651880
21
186.270305
31
0.0
0
LINE
8
0
6
CONTINUOUS
10
147.033860
20
201.645755
30
0.0
11
143.292640
21
203.251585
31
0.0
0
LINE
8
0
6
CONTINUOUS
10
40.416320
20
230.364345
30
0.0
11
37.650310
21
223.828095
31
0.0
0
LINE
8
0
6
CONTINUOUS
10
43.976860
20
226.772265
30
0.0
11
46.754790
21
233.336105
31
0.0
0
LINE
8
0
6
CONTINUOUS
10
52.376815
20
136.861848
30
0.0
11
57.985600
21
139.864145
31
0.0
0
LINE
8
0
6
CONTINUOUS
10
64.834240
20
229.395725
30
0.0
11
59.867970
21
229.375585
31
0.0
0
LINE
8
0
6
CONTINUOUS
10
55.356660
20
226.369398
30
0.0
11
58.429730
21
226.381245
31
0.0
0
LINE
8
0
6
CONTINUOUS
10
128.484600
20
210.019075
30
0.0
11
119.272740
21
214.878005
31
0.0
0
LINE
8
0
6
CONTINUOUS
10
50.050650
20
222.941375
30
0.0
11
47.975110
21
215.132105
31
0.0
0
LINE
8
0
6
CONTINUOUS
10
47.769770
20
208.532425
30
0.0
11
49.797900
21
216.166305
31
0.0
0
LINE
8
0
6
CONTINUOUS
10
150.202790
20
200.605445
30
0.0
11
149.038400
21
200.987755
31
0.0
0
LINE
8
0
6
CONTINUOUS
10
156.021330
20
196.350705
30
0.0
11
150.202790
21
200.605445
31
0.0
0
LINE
8
0
6
CONTINUOUS
10
75.826480
20
226.259005
30
0.0
11
64.834240
21
229.395725
31
0.0
0
LINE
8
0
6
CONTINUOUS
10
58.429730
20
226.381245
30
0.0
11
69.429500
21
223.242735
31
0.0
0
LINE
8
0
6
CONTINUOUS
10
80.514960
20
219.257045
30
0.0
11
91.441790
21
214.681225
31
0.0
0
LINE
8
0
6
CONTINUOUS
10
143.292640
20
203.251585
30
0.0
11
137.883760
21
206.038425
31
0.0
0
LINE
8
0
6
CONTINUOUS
10
143.605970
20
201.828915
30
0.0
11
149.068110
21
199.014905
31
0.0
0
LINE
8
0
6
CONTINUOUS
10
113.742550
20
218.985115
30
0.0
11
103.753570
21
223.996525
31
0.0
0
LINE
8
0
6
CONTINUOUS
10
137.883760
20
206.038425
30
0.0
11
131.016730
21
209.755815
31
0.0
0
LINE
8
0
6
CONTINUOUS
10
59.827000
20
240.731355
30
0.0
11
54.619370
21
240.698445
31
0.0
0
LINE
8
0
6
CONTINUOUS
10
60.436070
20
236.543725
30
0.0
11
65.532880
21
236.570765
31
0.0
0
LINE
8
0
6
CONTINUOUS
10
52.322642
20
137.442216
30
0.0
11
59.085560
21
141.062305
31
0.0
0
LINE
8
0
6
CONTINUOUS
10
52.632363
20
144.974785
30
0.0
11
51.667732
21
144.458432
31
0.0
0
LINE
8
0
6
CONTINUOUS
10
131.016730
20
209.755815
30
0.0
11
122.900390
21
214.154435
31
0.0
0
LINE
8
0
6
CONTINUOUS
10
152.838440
20
197.396005
30
0.0
11
149.068110
21
199.014905
31
0.0
0
LINE
8
0
6
CONTINUOUS
10
14.361167
20
116.512648
30
0.0
11
22.107071
21
120.658913
31
0.0
0
LINE
8
0
6
CONTINUOUS
10
22.166330
20
121.299991
30
0.0
11
17.080990
21
118.577885
31
0.0
0
LINE
8
0
6
CONTINUOUS
10
136.670770
20
205.582915
30
0.0
11
128.484600
21
210.019075
31
0.0
0
LINE
8
0
6
CONTINUOUS
10
127.616540
20
202.898745
30
0.0
11
135.827190
21
198.449405
31
0.0
0
LINE
8
0
6
CONTINUOUS
10
35.539040
20
215.886795
30
0.0
11
33.999680
21
206.922705
31
0.0
0
LINE
8
0
6
CONTINUOUS
10
40.318770
20
209.835735
30
0.0
11
41.859730
21
218.809275
31
0.0
0
LINE
8
0
6
CONTINUOUS
10
70.980160
20
237.555865
30
0.0
11
59.827000
21
240.731355
31
0.0
0
LINE
8
0
6
CONTINUOUS
10
65.532880
20
236.570765
30
0.0
11
76.601820
21
233.415565
31
0.0
0
LINE
8
0
6
CONTINUOUS
10
60.436070
20
236.543725
30
0.0
11
56.201580
21
234.017565
31
0.0
0
LINE
8
0
6
CONTINUOUS
10
55.769460
20
226.929315
30
0.0
11
59.867970
21
229.375585
31
0.0
0
LINE
8
0
6
CONTINUOUS
10
102.000970
20
209.764765
30
0.0
11
111.980670
21
204.757905
31
0.0
0
LINE
8
0
6
CONTINUOUS
10
48.234500
20
237.685035
30
0.0
11
43.918350
21
235.110885
31
0.0
0
LINE
8
0
6
CONTINUOUS
10
54.619370
20
240.698445
30
0.0
11
48.234500
21
237.685035
31
0.0
0
LINE
8
0
6
CONTINUOUS
10
50.276040
20
238.108345
30
0.0
11
54.619370
21
240.698445
31
0.0
0
LINE
8
0
6
CONTINUOUS
10
93.149250
20
228.933935
30
0.0
11
82.150290
21
233.539805
31
0.0
0
LINE
8
0
6
CONTINUOUS
10
17.080990
20
118.577885
30
0.0
11
14.387651
21
117.136179
31
0.0
0
LINE
8
0
6
CONTINUOUS
10
145.474350
20
187.313715
30
0.0
11
147.485920
21
186.653115
31
0.0
0
LINE
8
0
6
CONTINUOUS
10
154.853380
20
196.734155
30
0.0
11
152.838440
21
197.396005
31
0.0
0
LINE
8
0
6
CONTINUOUS
10
152.058680
20
190.229995
30
0.0
11
154.077150
21
189.566835
31
0.0
0
LINE
8
0
6
CONTINUOUS
10
152.058680
20
190.229995
30
0.0
11
148.275710
21
191.854535
31
0.0
0
LINE
8
0
6
CONTINUOUS
10
141.707890
20
188.930865
30
0.0
11
145.474350
21
187.313715
31
0.0
0
LINE
8
0
6
CONTINUOUS
10
138.600060
20
183.625215
30
0.0
11
143.012920
21
185.988155
31
0.0
0
LINE
8
0
6
CONTINUOUS
10
137.309170
20
190.302395
30
0.0
11
133.164090
21
188.082215
31
0.0
0
LINE
8
0
6
CONTINUOUS
10
47.975110
20
215.132105
30
0.0
11
46.459130
21
206.301035
31
0.0
0
LINE
8
0
6
CONTINUOUS
10
46.395269
20
200.522634
30
0.0
11
47.769770
21
208.532425
31
0.0
0
LINE
8
0
6
CONTINUOUS
10
143.605970
20
201.828915
30
0.0
11
136.670770
21
205.582915
31
0.0
0
LINE
8
0
6
CONTINUOUS
10
135.827190
20
198.449405
30
0.0
11
142.790110
21
194.680555
31
0.0
0
LINE
8
0
6
CONTINUOUS
10
119.272740
20
214.878005
30
0.0
11
109.260170
21
219.901215
31
0.0
0
LINE
8
0
6
CONTINUOUS
10
108.383820
20
212.785325
30
0.0
11
118.391830
21
207.764415
31
0.0
0
LINE
8
0
6
CONTINUOUS
10
98.667740
20
224.833085
30
0.0
11
87.711090
21
229.421315
31
0.0
0
LINE
8
0
6
CONTINUOUS
10
86.893470
20
222.279965
30
0.0
11
97.814010
21
217.706735
31
0.0
0
LINE
8
0
6
CONTINUOUS
10
127.616540
20
202.898745
30
0.0
11
118.391830
21
207.764415
31
0.0
0
LINE
8
0
6
CONTINUOUS
10
111.980670
20
204.757905
30
0.0
11
121.164230
21
199.913775
31
0.0
0
LINE
8
0
6
CONTINUOUS
10
40.318770
20
209.835735
30
0.0
11
39.364346
21
201.106139
31
0.0
0
LINE
8
0
6
CONTINUOUS
10
45.847206
20
200.702447
30
0.0
11
46.459130
21
206.301035
31
0.0
0
LINE
8
0
6
CONTINUOUS
10
156.021330
20
196.350705
30
0.0
11
154.853380
21
196.734155
31
0.0
0
LINE
8
0
6
CONTINUOUS
10
155.245850
20
189.183135
30
0.0
11
156.021330
21
196.350705
31
0.0
0
LINE
8
0
6
CONTINUOUS
10
154.077150
20
189.566835
30
0.0
11
155.245850
21
189.183135
31
0.0
0
LINE
8
0
6
CONTINUOUS
10
138.160092
20
190.758658
30
0.0
11
137.309170
21
190.302395
31
0.0
0
LINE
8
0
6
CONTINUOUS
10
145.493210
20
187.317075
30
0.0
11
143.012920
21
185.988155
31
0.0
0
LINE
8
0
6
CONTINUOUS
10
23.547074
20
136.163305
30
0.0
11
22.896300
21
135.814955
31
0.0
0
LINE
8
0
6
CONTINUOUS
10
125.765230
20
190.879145
30
0.0
11
114.077390
21
184.622825
31
0.0
0
LINE
8
0
6
CONTINUOUS
10
123.043873
20
182.665016
30
0.0
11
125.836750
21
184.160005
31
0.0
0
LINE
8
0
6
CONTINUOUS
10
7.113750
20
180.766275
30
0.0
11
7.113750
21
181.358965
31
0.0
0
LINE
8
0
6
CONTINUOUS
10
7.113750
20
181.358965
30
0.0
11
5.660210
21
186.783655
31
0.0
0
LINE
8
0
6
CONTINUOUS
10
-9.160340
20
190.754815
30
0.0
11
-13.131490
21
186.783655
31
0.0
0
LINE
8
0
6
CONTINUOUS
10
1.689050
20
190.754815
30
0.0
11
-3.735640
21
192.208345
31
0.0
0
LINE
8
0
6
CONTINUOUS
10
-3.735640
20
192.208345
30
0.0
11
-9.160340
21
190.754815
31
0.0
0
LINE
8
0
6
CONTINUOUS
10
5.660210
20
186.783655
30
0.0
11
1.689050
21
190.754815
31
0.0
0
LINE
8
0
6
CONTINUOUS
10
-14.585040
20
181.358945
30
0.0
11
-14.585040
21
180.766275
31
0.0
0
LINE
8
0
6
CONTINUOUS
10
-13.131490
20
186.783655
30
0.0
11
-14.585040
21
181.358945
31
0.0
0
LINE
8
0
6
CONTINUOUS
10
7.113750
20
178.399945
30
0.0
11
7.113750
21
180.766275
31
0.0
0
LINE
8
0
6
CONTINUOUS
10
-14.585040
20
180.766275
30
0.0
11
-14.585040
21
178.399945
31
0.0
0
LINE
8
0
6
CONTINUOUS
10
-14.585040
20
174.378605
30
0.0
11
-14.585040
21
168.903925
31
0.0
0
LINE
8
0
6
CONTINUOUS
10
7.113750
20
174.378625
30
0.0
11
7.113750
21
178.399945
31
0.0
0
LINE
8
0
6
CONTINUOUS
10
-14.585040
20
178.399945
30
0.0
11
-14.585040
21
174.378605
31
0.0
0
LINE
8
0
6
CONTINUOUS
10
7.113750
20
168.903925
30
0.0
11
7.113750
21
174.378625
31
0.0
0
LINE
8
0
6
CONTINUOUS
10
-14.585040
20
168.903925
30
0.0
11
-14.585040
21
162.250425
31
0.0
0
LINE
8
0
6
CONTINUOUS
10
7.113750
20
162.250405
30
0.0
11
7.113750
21
168.903925
31
0.0
0
LINE
8
0
6
CONTINUOUS
10
-14.585040
20
162.250425
30
0.0
11
-14.585040
21
154.751715
31
0.0
0
LINE
8
0
6
CONTINUOUS
10
7.113750
20
154.751705
30
0.0
11
7.113750
21
162.250405
31
0.0
0
LINE
8
0
6
CONTINUOUS
10
7.113750
20
146.783825
30
0.0
11
7.113750
21
154.751705
31
0.0
0
LINE
8
0
6
CONTINUOUS
10
-14.585040
20
154.751715
30
0.0
11
-14.585040
21
146.783835
31
0.0
0
LINE
8
0
6
CONTINUOUS
10
-14.585040
20
-112.827155
30
0.0
11
-14.585040
21
-120.544935
31
0.0
0
LINE
8
0
6
CONTINUOUS
10
7.113750
20
-112.827155
30
0.0
11
7.113750
21
146.783825
31
0.0
0
LINE
8
0
6
CONTINUOUS
10
-14.585040
20
146.783835
30
0.0
11
-14.585040
21
-112.827155
31
0.0
0
LINE
8
0
6
CONTINUOUS
10
7.113750
20
-120.544935
30
0.0
11
7.113750
21
-112.827155
31
0.0
0
LINE
8
0
6
CONTINUOUS
10
-14.585040
20
-120.544935
30
0.0
11
-14.585040
21
-127.999765
31
0.0
0
LINE
8
0
6
CONTINUOUS
10
7.113750
20
-127.999765
30
0.0
11
7.113750
21
-120.544935
31
0.0
0
LINE
8
0
6
CONTINUOUS
10
-14.585040
20
-127.999765
30
0.0
11
-14.585040
21
-134.817775
31
0.0
0
LINE
8
0
6
CONTINUOUS
10
7.113750
20
-134.817775
30
0.0
11
7.113750
21
-127.999765
31
0.0
0
LINE
8
0
6
CONTINUOUS
10
7.113750
20
-140.657085
30
0.0
11
7.113750
21
-134.817775
31
0.0
0
LINE
8
0
6
CONTINUOUS
10
-14.585040
20
-134.817775
30
0.0
11
-14.585040
21
-140.657085
31
0.0
0
LINE
8
0
6
CONTINUOUS
10
-14.585040
20
-145.224915
30
0.0
11
-14.585040
21
-148.292235
31
0.0
0
LINE
8
0
6
CONTINUOUS
10
7.113750
20
-145.224915
30
0.0
11
7.113750
21
-140.657085
31
0.0
0
LINE
8
0
6
CONTINUOUS
10
-14.585040
20
-140.657085
30
0.0
11
-14.585040
21
-145.224915
31
0.0
0
LINE
8
0
6
CONTINUOUS
10
-13.131490
20
-155.129815
30
0.0
11
-9.160340
21
-159.101105
31
0.0
0
LINE
8
0
6
CONTINUOUS
10
7.113750
20
-148.292235
30
0.0
11
7.113750
21
-145.224915
31
0.0
0
LINE
8
0
6
CONTINUOUS
10
-3.735640
20
-160.554585
30
0.0
11
1.689050
21
-159.101105
31
0.0
0
LINE
8
0
6
CONTINUOUS
10
-14.585040
20
-149.705205
30
0.0
11
-13.131490
21
-155.129815
31
0.0
0
LINE
8
0
6
CONTINUOUS
10
-14.585040
20
-148.292235
30
0.0
11
-14.585040
21
-149.705205
31
0.0
0
LINE
8
0
6
CONTINUOUS
10
7.113750
20
-149.705205
30
0.0
11
7.113750
21
-148.292235
31
0.0
0
LINE
8
0
6
CONTINUOUS
10
5.660210
20
-155.129815
30
0.0
11
7.113750
21
-149.705205
31
0.0
0
LINE
8
0
6
CONTINUOUS
10
-9.160340
20
-159.101105
30
0.0
11
-3.735640
21
-160.554585
31
0.0
0
LINE
8
0
6
CONTINUOUS
10
1.689050
20
-159.101105
30
0.0
11
5.660210
21
-155.129815
31
0.0
0
LINE
8
0
6
CONTINUOUS
10
6.744920
20
182.735459
30
0.0
11
6.744920
21
219.193645
31
0.0
0
LINE
8
0
6
CONTINUOUS
10
-14.216220
20
219.193645
30
0.0
11
-14.216220
21
182.735397
31
0.0
0
LINE
8
0
6
CONTINUOUS
10
-20.868000
20
241.899605
30
0.0
11
-28.354830
21
241.899605
31
0.0
0
LINE
8
0
6
CONTINUOUS
10
-3.735640
20
219.193645
30
0.0
11
4.937770
21
219.193645
31
0.0
0
LINE
8
0
6
CONTINUOUS
10
-28.354830
20
241.899605
30
0.0
11
-34.607150
21
241.899605
31
0.0
0
LINE
8
0
6
CONTINUOUS
10
4.937770
20
219.193645
30
0.0
11
13.176260
21
219.193645
31
0.0
0
LINE
8
0
6
CONTINUOUS
10
13.176260
20
219.193645
30
0.0
11
20.566720
21
219.193645
31
0.0
0
LINE
8
0
6
CONTINUOUS
10
20.566720
20
219.193645
30
0.0
11
26.738550
21
219.193645
31
0.0
0
LINE
8
0
6
CONTINUOUS
10
-42.231810
20
241.899605
30
0.0
11
-43.221820
21
241.899645
31
0.0
0
LINE
8
0
6
CONTINUOUS
10
-43.221820
20
241.899645
30
0.0
11
-43.203180
21
229.744375
31
0.0
0
LINE
8
0
6
CONTINUOUS
10
26.738550
20
219.193645
30
0.0
11
31.382280
21
219.193645
31
0.0
0
LINE
8
0
6
CONTINUOUS
10
31.382280
20
219.193645
30
0.0
11
34.265050
21
219.193685
31
0.0
0
LINE
8
0
6
CONTINUOUS
10
35.242310
20
219.193685
30
0.0
11
35.283080
21
220.072175
31
0.0
0
LINE
8
0
6
CONTINUOUS
10
34.265050
20
219.193685
30
0.0
11
35.242310
21
219.193685
31
0.0
0
LINE
8
0
6
CONTINUOUS
10
35.750550
20
241.899645
30
0.0
11
34.760550
21
241.899605
31
0.0
0
LINE
8
0
6
CONTINUOUS
10
35.731900
20
229.744375
30
0.0
11
35.750550
21
241.899645
31
0.0
0
LINE
8
0
6
CONTINUOUS
10
-42.713590
20
219.193685
30
0.0
11
-41.736320
21
219.193685
31
0.0
0
LINE
8
0
6
CONTINUOUS
10
-42.754350
20
220.072175
30
0.0
11
-42.713590
21
219.193685
31
0.0
0
LINE
8
0
6
CONTINUOUS
10
27.135900
20
241.899605
30
0.0
11
20.883600
21
241.899605
31
0.0
0
LINE
8
0
6
CONTINUOUS
10
-41.736320
20
219.193685
30
0.0
11
-38.853540
21
219.193645
31
0.0
0
LINE
8
0
6
CONTINUOUS
10
20.883600
20
241.899605
30
0.0
11
13.396780
21
241.899605
31
0.0
0
LINE
8
0
6
CONTINUOUS
10
-38.853540
20
219.193645
30
0.0
11
-34.209800
21
219.193645
31
0.0
0
LINE
8
0
6
CONTINUOUS
10
13.396780
20
241.899605
30
0.0
11
5.050860
21
241.899605
31
0.0
0
LINE
8
0
6
CONTINUOUS
10
-34.209800
20
219.193645
30
0.0
11
-28.037950
21
219.193645
31
0.0
0
LINE
8
0
6
CONTINUOUS
10
-12.522080
20
241.899605
30
0.0
11
-20.868000
21
241.899605
31
0.0
0
LINE
8
0
6
CONTINUOUS
10
-28.037950
20
219.193645
30
0.0
11
-20.647480
21
219.193645
31
0.0
0
LINE
8
0
6
CONTINUOUS
10
-12.408990
20
219.193645
30
0.0
11
-3.735640
21
219.193645
31
0.0
0
LINE
8
0
6
CONTINUOUS
10
-20.647480
20
219.193645
30
0.0
11
-12.408990
21
219.193645
31
0.0
0
LINE
8
0
6
CONTINUOUS
10
35.283080
20
220.072175
30
0.0
11
35.731900
21
229.744375
31
0.0
0
LINE
8
0
6
CONTINUOUS
10
-43.203180
20
229.744375
30
0.0
11
-42.754350
21
220.072175
31
0.0
0
LINE
8
0
6
CONTINUOUS
10
-34.607150
20
241.899605
30
0.0
11
-39.311440
21
241.899605
31
0.0
0
LINE
8
0
6
CONTINUOUS
10
-39.311440
20
241.899605
30
0.0
11
-42.231810
21
241.899605
31
0.0
0
LINE
8
0
6
CONTINUOUS
10
34.760550
20
241.899605
30
0.0
11
31.840180
21
241.899605
31
0.0
0
LINE
8
0
6
CONTINUOUS
10
31.840180
20
241.899605
30
0.0
11
27.135900
21
241.899605
31
0.0
0
LINE
8
0
6
CONTINUOUS
10
5.050860
20
241.899605
30
0.0
11
-3.735640
21
241.899605
31
0.0
0
LINE
8
0
6
CONTINUOUS
10
-3.735640
20
241.899605
30
0.0
11
-12.522080
21
241.899605
31
0.0
0
LINE
8
0
6
CONTINUOUS
10
35.750550
20
241.899645
30
0.0
11
-3.735640
21
241.899645
31
0.0
0
LINE
8
0
6
CONTINUOUS
10
34.760550
20
241.899605
30
0.0
11
35.750550
21
241.899645
31
0.0
0
LINE
8
0
6
CONTINUOUS
10
31.840180
20
241.899605
30
0.0
11
34.760550
21
241.899605
31
0.0
0
LINE
8
0
6
CONTINUOUS
10
-3.735640
20
241.899645
30
0.0
11
31.840180
21
241.899605
31
0.0
0
LINE
8
0
6
CONTINUOUS
10
5.050860
20
241.899605
30
0.0
11
-3.735640
21
241.899645
31
0.0
0
LINE
8
0
6
CONTINUOUS
10
-3.735640
20
241.899605
30
0.0
11
5.050860
21
241.899605
31
0.0
0
LINE
8
0
6
CONTINUOUS
10
-12.522080
20
241.899605
30
0.0
11
-3.735640
21
241.899605
31
0.0
0
LINE
8
0
6
CONTINUOUS
10
-3.735640
20
241.899645
30
0.0
11
-12.522080
21
241.899605
31
0.0
0
LINE
8
0
6
CONTINUOUS
10
-43.221820
20
241.899645
30
0.0
11
-42.231810
21
241.899605
31
0.0
0
LINE
8
0
6
CONTINUOUS
10
-3.735640
20
241.899645
30
0.0
11
-43.221820
21
241.899645
31
0.0
0
LINE
8
0
6
CONTINUOUS
10
-39.311440
20
241.899605
30
0.0
11
-3.735640
21
241.899645
31
0.0
0
LINE
8
0
6
CONTINUOUS
10
-42.231810
20
241.899605
30
0.0
11
-39.311440
21
241.899605
31
0.0
0
LINE
8
0
6
CONTINUOUS
10
-49.704810
20
201.064525
30
0.0
11
-49.704810
21
200.558055
31
0.0
0
LINE
8
0
6
CONTINUOUS
10
-48.947090
20
201.241775
30
0.0
11
-49.704810
21
201.064525
31
0.0
0
LINE
8
0
6
CONTINUOUS
10
-49.704790
20
191.208835
30
0.0
11
-49.704790
21
186.369345
31
0.0
0
LINE
8
0
6
CONTINUOUS
10
-49.704790
20
186.369345
30
0.0
11
-49.704790
21
185.034295
31
0.0
0
LINE
8
0
6
CONTINUOUS
10
-49.704790
20
177.317525
30
0.0
11
-49.704790
21
175.982495
31
0.0
0
LINE
8
0
6
CONTINUOUS
10
-49.704790
20
175.982495
30
0.0
11
-49.704790
21
171.142995
31
0.0
0
LINE
8
0
6
CONTINUOUS
10
-49.704800
20
166.987225
30
0.0
11
-49.704800
21
163.798385
31
0.0
0
LINE
8
0
6
CONTINUOUS
10
-49.704810
20
161.793785
30
0.0
11
-49.704810
21
161.110075
31
0.0
0
LINE
8
0
6
CONTINUOUS
10
-49.704810
20
161.110075
30
0.0
11
-48.947090
21
161.110075
31
0.0
0
LINE
8
0
6
CONTINUOUS
10
21.276800
20
161.110075
30
0.0
11
21.555130
21
161.110075
31
0.0
0
LINE
8
0
6
CONTINUOUS
10
21.555130
20
201.241775
30
0.0
11
21.276800
21
201.241775
31
0.0
0
LINE
8
0
6
CONTINUOUS
10
-49.704810
20
161.793785
30
0.0
11
-49.704800
21
163.798385
31
0.0
0
LINE
8
0
6
CONTINUOUS
10
-49.704800
20
166.987225
30
0.0
11
-49.704790
21
171.142995
31
0.0
0
LINE
8
0
6
CONTINUOUS
10
-49.704790
20
191.208835
30
0.0
11
-49.704800
21
195.364625
31
0.0
0
LINE
8
0
6
CONTINUOUS
10
-49.704800
20
195.364625
30
0.0
11
-49.704800
21
198.553465
31
0.0
0
LINE
8
0
6
CONTINUOUS
10
-49.704800
20
198.553465
30
0.0
11
-49.704810
21
200.558055
31
0.0
0
LINE
8
0
6
CONTINUOUS
10
-51.474710
20
185.034295
30
0.0
11
-51.527670
21
185.034295
31
0.0
0
LINE
8
0
6
CONTINUOUS
10
-51.474710
20
177.317525
30
0.0
11
-49.704830
21
177.317525
31
0.0
0
LINE
8
0
6
CONTINUOUS
10
-51.527670
20
177.317525
30
0.0
11
-51.474710
21
177.317525
31
0.0
0
LINE
8
0
6
CONTINUOUS
10
-49.704790
20
185.034295
30
0.0
11
-51.474710
21
185.034295
31
0.0
0
LINE
8
0
6
CONTINUOUS
10
-49.648660
20
184.517365
30
0.0
11
-51.527670
21
185.034295
31
0.0
0
LINE
8
0
6
CONTINUOUS
10
-48.273110
20
183.105085
30
0.0
11
-49.648660
21
184.517365
31
0.0
0
LINE
8
0
6
CONTINUOUS
10
-47.769630
20
181.175895
30
0.0
11
-48.273110
21
183.105085
31
0.0
0
LINE
8
0
6
CONTINUOUS
10
-48.273120
20
179.246715
30
0.0
11
-47.769630
21
181.175895
31
0.0
0
LINE
8
0
6
CONTINUOUS
10
-49.648660
20
177.834435
30
0.0
11
-48.273120
21
179.246715
31
0.0
0
LINE
8
0
6
CONTINUOUS
10
-51.527670
20
177.317525
30
0.0
11
-49.648660
21
177.834435
31
0.0
0
LINE
8
0
6
CONTINUOUS
10
-53.406690
20
177.834435
30
0.0
11
-51.527670
21
177.317525
31
0.0
0
LINE
8
0
6
CONTINUOUS
10
-54.782250
20
179.246715
30
0.0
11
-53.406690
21
177.834435
31
0.0
0
LINE
8
0
6
CONTINUOUS
10
-55.285720
20
181.175895
30
0.0
11
-54.782250
21
179.246715
31
0.0
0
LINE
8
0
6
CONTINUOUS
10
-54.782250
20
183.105085
30
0.0
11
-55.285720
21
181.175895
31
0.0
0
LINE
8
0
6
CONTINUOUS
10
-53.406700
20
184.517365
30
0.0
11
-54.782250
21
183.105085
31
0.0
0
LINE
8
0
6
CONTINUOUS
10
-51.527670
20
185.034295
30
0.0
11
-53.406700
21
184.517365
31
0.0
0
LINE
8
0
6
CONTINUOUS
10
-48.947090
20
161.110075
30
0.0
11
-23.478970
21
161.110075
31
0.0
0
LINE
8
0
6
CONTINUOUS
10
-23.478970
20
201.241775
30
0.0
11
-48.947090
21
201.241775
31
0.0
0
LINE
8
0
6
CONTINUOUS
10
28.553830
20
199.121355
30
0.0
11
25.518500
21
200.351295
31
0.0
0
LINE
8
0
6
CONTINUOUS
10
21.555130
20
161.110075
30
0.0
11
21.794770
21
161.167824
31
0.0
0
LINE
8
0
6
CONTINUOUS
10
22.196540
20
201.087205
30
0.0
11
21.555130
21
201.241775
31
0.0
0
LINE
8
0
6
CONTINUOUS
10
25.518500
20
200.351295
30
0.0
11
22.196540
21
201.087205
31
0.0
0
LINE
8
0
6
CONTINUOUS
10
-22.242940
20
161.110075
30
0.0
11
-14.585040
21
161.110075
31
0.0
0
LINE
8
0
6
CONTINUOUS
10
7.113750
20
161.110075
30
0.0
11
21.276800
21
161.110075
31
0.0
0
LINE
8
0
6
CONTINUOUS
10
21.276800
20
201.241775
30
0.0
11
6.744920
21
201.241775
31
0.0
0
LINE
8
0
6
CONTINUOUS
10
-14.216220
20
201.241775
30
0.0
11
-22.242940
21
201.241775
31
0.0
0
LINE
8
0
6
CONTINUOUS
10
-22.551950
20
161.110075
30
0.0
11
-22.242940
21
161.110075
31
0.0
0
LINE
8
0
6
CONTINUOUS
10
-22.860950
20
162.030755
30
0.0
11
-22.551950
21
161.110075
31
0.0
0
LINE
8
0
6
CONTINUOUS
10
-22.551950
20
161.110075
30
0.0
11
-22.551940
21
161.793805
31
0.0
0
LINE
8
0
6
CONTINUOUS
10
-23.169960
20
161.110075
30
0.0
11
-22.860950
21
162.030755
31
0.0
0
LINE
8
0
6
CONTINUOUS
10
-22.860950
20
162.030755
30
0.0
11
-22.860950
21
162.683105
31
0.0
0
LINE
8
0
6
CONTINUOUS
10
-23.478970
20
161.110075
30
0.0
11
-23.169960
21
161.110075
31
0.0
0
LINE
8
0
6
CONTINUOUS
10
-23.169960
20
161.110075
30
0.0
11
-23.169960
21
161.793805
31
0.0
0
LINE
8
0
6
CONTINUOUS
10
-22.551940
20
161.793805
30
0.0
11
-22.551930
21
163.798385
31
0.0
0
LINE
8
0
6
CONTINUOUS
10
-22.860950
20
162.683105
30
0.0
11
-22.860940
21
164.595715
31
0.0
0
LINE
8
0
6
CONTINUOUS
10
-23.169960
20
161.793805
30
0.0
11
-23.169950
21
163.798385
31
0.0
0
LINE
8
0
6
CONTINUOUS
10
-22.551930
20
163.798385
30
0.0
11
-22.551930
21
166.987225
31
0.0
0
LINE
8
0
6
CONTINUOUS
10
-22.860940
20
164.595715
30
0.0
11
-22.860940
21
167.638245
31
0.0
0
LINE
8
0
6
CONTINUOUS
10
-23.169950
20
163.798385
30
0.0
11
-23.169950
21
166.987225
31
0.0
0
LINE
8
0
6
CONTINUOUS
10
-22.551930
20
166.987225
30
0.0
11
-22.551930
21
171.142995
31
0.0
0
LINE
8
0
6
CONTINUOUS
10
-22.860940
20
167.638245
30
0.0
11
-22.860930
21
171.603335
31
0.0
0
LINE
8
0
6
CONTINUOUS
10
-23.169950
20
166.987225
30
0.0
11
-23.169940
21
171.142995
31
0.0
0
LINE
8
0
6
CONTINUOUS
10
-22.551930
20
171.142995
30
0.0
11
-22.551930
21
175.982495
31
0.0
0
LINE
8
0
6
CONTINUOUS
10
-22.860930
20
171.603335
30
0.0
11
-22.860930
21
176.220775
31
0.0
0
LINE
8
0
6
CONTINUOUS
10
-23.169940
20
171.142995
30
0.0
11
-23.169940
21
175.982495
31
0.0
0
LINE
8
0
6
CONTINUOUS
10
-22.551930
20
175.982495
30
0.0
11
-22.551930
21
181.175915
31
0.0
0
LINE
8
0
6
CONTINUOUS
10
-22.860930
20
176.220775
30
0.0
11
-22.860930
21
181.175915
31
0.0
0
LINE
8
0
6
CONTINUOUS
10
-23.169940
20
175.982495
30
0.0
11
-23.169940
21
181.175915
31
0.0
0
LINE
8
0
6
CONTINUOUS
10
-22.551930
20
181.175915
30
0.0
11
-22.551930
21
186.369345
31
0.0
0
LINE
8
0
6
CONTINUOUS
10
-22.860930
20
181.175915
30
0.0
11
-22.860930
21
186.131055
31
0.0
0
LINE
8
0
6
CONTINUOUS
10
-23.169940
20
181.175915
30
0.0
11
-23.169940
21
186.369345
31
0.0
0
LINE
8
0
6
CONTINUOUS
10
-22.551930
20
186.369345
30
0.0
11
-22.551930
21
191.208835
31
0.0
0
LINE
8
0
6
CONTINUOUS
10
-22.860930
20
186.131055
30
0.0
11
-22.860930
21
190.748495
31
0.0
0
LINE
8
0
6
CONTINUOUS
10
-23.169940
20
186.369345
30
0.0
11
-23.169940
21
191.208835
31
0.0
0
LINE
8
0
6
CONTINUOUS
10
-22.551930
20
191.208835
30
0.0
11
-22.551930
21
195.364625
31
0.0
0
LINE
8
0
6
CONTINUOUS
10
-22.860930
20
190.748495
30
0.0
11
-22.860940
21
194.713605
31
0.0
0
LINE
8
0
6
CONTINUOUS
10
-23.169940
20
191.208835
30
0.0
11
-23.169950
21
195.364625
31
0.0
0
LINE
8
0
6
CONTINUOUS
10
-22.551930
20
195.364625
30
0.0
11
-22.551930
21
198.553465
31
0.0
0
LINE
8
0
6
CONTINUOUS
10
-22.860940
20
194.713605
30
0.0
11
-22.860940
21
197.756135
31
0.0
0
LINE
8
0
6
CONTINUOUS
10
-23.169950
20
195.364625
30
0.0
11
-23.169950
21
198.553465
31
0.0
0
LINE
8
0
6
CONTINUOUS
10
-22.242940
20
201.241775
30
0.0
11
-22.551950
21
201.241775
31
0.0
0
LINE
8
0
6
CONTINUOUS
10
-22.551950
20
201.241775
30
0.0
11
-22.860950
21
200.321105
31
0.0
0
LINE
8
0
6
CONTINUOUS
10
-22.551940
20
200.558055
30
0.0
11
-22.551950
21
201.241775
31
0.0
0
LINE
8
0
6
CONTINUOUS
10
-22.860950
20
200.321105
30
0.0
11
-23.169960
21
201.241775
31
0.0
0
LINE
8
0
6
CONTINUOUS
10
-22.860950
20
199.668745
30
0.0
11
-22.860950
21
200.321105
31
0.0
0
LINE
8
0
6
CONTINUOUS
10
-23.169960
20
201.241775
30
0.0
11
-23.478970
21
201.241775
31
0.0
0
LINE
8
0
6
CONTINUOUS
10
-23.169960
20
200.558055
30
0.0
11
-23.169960
21
201.241775
31
0.0
0
LINE
8
0
6
CONTINUOUS
10
-22.551930
20
198.553465
30
0.0
11
-22.551940
21
200.558055
31
0.0
0
LINE
8
0
6
CONTINUOUS
10
-22.860940
20
197.756135
30
0.0
11
-22.860950
21
199.668745
31
0.0
0
LINE
8
0
6
CONTINUOUS
10
-23.169950
20
198.553465
30
0.0
11
-23.169960
21
200.558055
31
0.0
0
LINE
8
0
6
CONTINUOUS
10
29.726830
20
200.786705
30
0.0
11
26.441420
21
199.708785
31
0.0
0
LINE
8
0
6
CONTINUOUS
10
41.764420
20
201.104625
30
0.0
11
37.658580
21
201.107215
31
0.0
0
LINE
8
0
6
CONTINUOUS
10
52.981610
20
195.397945
30
0.0
11
51.396840
21
197.897075
31
0.0
0
LINE
8
0
6
CONTINUOUS
10
51.396840
20
197.897075
30
0.0
11
48.875850
21
199.708785
31
0.0
0
LINE
8
0
6
CONTINUOUS
10
37.658580
20
201.107215
30
0.0
11
33.552830
21
201.104625
31
0.0
0
LINE
8
0
6
CONTINUOUS
10
33.552830
20
201.104625
30
0.0
11
29.726830
21
200.786705
31
0.0
0
LINE
8
0
6
CONTINUOUS
10
45.590390
20
200.786705
30
0.0
11
41.764420
21
201.104625
31
0.0
0
LINE
8
0
6
CONTINUOUS
10
51.344242
20
147.940486
30
0.0
11
51.396490
21
147.998805
31
0.0
0
LINE
8
0
6
CONTINUOUS
10
21.794710
20
154.792425
30
0.0
11
22.335260
21
151.275785
31
0.0
0
LINE
8
0
6
CONTINUOUS
10
22.335260
20
151.275785
30
0.0
11
23.920030
21
147.998825
31
0.0
0
LINE
8
0
6
CONTINUOUS
10
53.521810
20
154.792405
30
0.0
11
53.521810
21
155.064085
31
0.0
0
LINE
8
0
6
CONTINUOUS
10
26.441060
20
164.400025
30
0.0
11
29.726460
21
166.559295
31
0.0
0
LINE
8
0
6
CONTINUOUS
10
37.658220
20
168.379615
30
0.0
11
41.764060
21
167.916655
31
0.0
0
LINE
8
0
6
CONTINUOUS
10
23.920030
20
161.586035
30
0.0
11
26.441060
21
164.400025
31
0.0
0
LINE
8
0
6
CONTINUOUS
10
22.335260
20
158.309055
30
0.0
11
23.920030
21
161.586035
31
0.0
0
LINE
8
0
6
CONTINUOUS
10
33.552460
20
167.916655
30
0.0
11
37.658220
21
168.379615
31
0.0
0
LINE
8
0
6
CONTINUOUS
10
21.794710
20
155.064105
30
0.0
11
21.794710
21
154.792425
31
0.0
0
LINE
8
0
6
CONTINUOUS
10
21.794710
20
154.792425
30
0.0
11
22.335260
21
158.309055
31
0.0
0
LINE
8
0
6
CONTINUOUS
10
29.726460
20
166.559295
30
0.0
11
33.552460
21
167.916655
31
0.0
0
LINE
8
0
6
CONTINUOUS
10
45.590030
20
166.559295
30
0.0
11
41.764060
21
167.916655
31
0.0
0
LINE
8
0
6
CONTINUOUS
10
48.875490
20
164.400025
30
0.0
11
45.590030
21
166.559295
31
0.0
0
LINE
8
0
6
CONTINUOUS
10
51.396490
20
161.586035
30
0.0
11
48.875490
21
164.400025
31
0.0
0
LINE
8
0
6
CONTINUOUS
10
52.981250
20
158.309055
30
0.0
11
51.396490
21
161.586035
31
0.0
0
LINE
8
0
6
CONTINUOUS
10
53.521810
20
154.792405
30
0.0
11
52.981250
21
158.309055
31
0.0
0
LINE
8
0
6
CONTINUOUS
10
52.981250
20
151.275785
30
0.0
11
53.521810
21
154.792405
31
0.0
0
LINE
8
0
6
CONTINUOUS
10
51.396490
20
147.998805
30
0.0
11
52.981250
21
151.275785
31
0.0
0
LINE
8
0
6
CONTINUOUS
10
48.875850
20
199.708785
30
0.0
11
45.590390
21
200.786705
31
0.0
0
LINE
8
0
6
CONTINUOUS
10
23.920030
20
147.998825
30
0.0
11
24.581916
21
147.260021
31
0.0
0
LINE
8
0
6
CONTINUOUS
10
53.522170
20
192.096405
30
0.0
11
52.981610
21
195.397945
31
0.0
0
LINE
8
0
6
CONTINUOUS
10
53.522170
20
191.905855
30
0.0
11
53.522170
21
192.096405
31
0.0
0
LINE
8
0
6
CONTINUOUS
10
21.794770
20
161.167824
30
0.0
11
21.794710
21
155.064105
31
0.0
0
LINE
8
0
6
CONTINUOUS
10
53.521810
20
155.064085
30
0.0
11
53.522170
21
191.905855
31
0.0
0
LINE
8
0
6
CONTINUOUS
10
-110.113850
20
176.759575
30
0.0
11
-110.113850
21
173.195395
31
0.0
0
LINE
8
0
6
CONTINUOUS
10
-110.114230
20
159.792305
30
0.0
11
-110.114730
21
155.449905
31
0.0
0
LINE
8
0
6
CONTINUOUS
10
-110.115600
20
147.002145
30
0.0
11
-110.115740
21
146.361345
31
0.0
0
LINE
8
0
6
CONTINUOUS
10
-110.115740
20
146.361345
30
0.0
11
-98.735670
21
146.361345
31
0.0
0
LINE
8
0
6
CONTINUOUS
10
-110.113840
20
179.526145
30
0.0
11
-110.113850
21
176.759575
31
0.0
0
LINE
8
0
6
CONTINUOUS
10
-110.113890
20
164.405945
30
0.0
11
-110.114230
21
159.792305
31
0.0
0
LINE
8
0
6
CONTINUOUS
10
-110.119070
20
148.785815
30
0.0
11
-110.115600
21
147.002145
31
0.0
0
LINE
8
0
6
CONTINUOUS
10
-110.113840
20
181.733435
30
0.0
11
-110.113840
21
181.121765
31
0.0
0
LINE
8
0
6
CONTINUOUS
10
-98.735670
20
181.733435
30
0.0
11
-110.113840
21
181.733435
31
0.0
0
LINE
8
0
6
CONTINUOUS
10
-110.113850
20
168.987195
30
0.0
11
-110.113890
21
164.405945
31
0.0
0
LINE
8
0
6
CONTINUOUS
10
-110.115840
20
151.680485
30
0.0
11
-110.119070
21
148.785815
31
0.0
0
LINE
8
0
6
CONTINUOUS
10
-110.113840
20
181.121765
30
0.0
11
-110.113840
21
179.526145
31
0.0
0
LINE
8
0
6
CONTINUOUS
10
-110.113850
20
173.195395
30
0.0
11
-110.113850
21
168.987195
31
0.0
0
LINE
8
0
6
CONTINUOUS
10
-110.114730
20
155.449905
30
0.0
11
-110.115840
21
151.680485
31
0.0
0
LINE
8
0
6
CONTINUOUS
10
102.642550
20
173.195395
30
0.0
11
102.642550
21
176.759575
31
0.0
0
LINE
8
0
6
CONTINUOUS
10
102.643430
20
155.449905
30
0.0
11
102.642930
21
159.792305
31
0.0
0
LINE
8
0
6
CONTINUOUS
10
91.264370
20
146.361345
30
0.0
11
102.644440
21
146.361345
31
0.0
0
LINE
8
0
6
CONTINUOUS
10
102.644440
20
146.361345
30
0.0
11
102.644300
21
147.002145
31
0.0
0
LINE
8
0
6
CONTINUOUS
10
102.642550
20
176.759575
30
0.0
11
102.642540
21
179.526145
31
0.0
0
LINE
8
0
6
CONTINUOUS
10
102.642930
20
159.792305
30
0.0
11
102.642590
21
164.405945
31
0.0
0
LINE
8
0
6
CONTINUOUS
10
102.644300
20
147.002145
30
0.0
11
102.647770
21
148.785815
31
0.0
0
LINE
8
0
6
CONTINUOUS
10
102.642540
20
181.733435
30
0.0
11
91.264370
21
181.733435
31
0.0
0
LINE
8
0
6
CONTINUOUS
10
102.642540
20
181.121765
30
0.0
11
102.642540
21
181.733435
31
0.0
0
LINE
8
0
6
CONTINUOUS
10
102.642590
20
164.405945
30
0.0
11
102.642550
21
168.987195
31
0.0
0
LINE
8
0
6
CONTINUOUS
10
102.647770
20
148.785815
30
0.0
11
102.644540
21
151.680485
31
0.0
0
LINE
8
0
6
CONTINUOUS
10
102.642540
20
179.526145
30
0.0
11
102.642540
21
181.121765
31
0.0
0
LINE
8
0
6
CONTINUOUS
10
102.642550
20
168.987195
30
0.0
11
102.642550
21
173.195395
31
0.0
0
LINE
8
0
6
CONTINUOUS
10
102.644540
20
151.680485
30
0.0
11
102.643430
21
155.449905
31
0.0
0
LINE
8
0
6
CONTINUOUS
10
-22.816670
20
139.684715
30
0.0
11
-20.975750
21
96.342105
31
0.0
0
LINE
8
0
6
CONTINUOUS
10
-33.982280
20
144.974785
30
0.0
11
-28.936250
21
144.974785
31
0.0
0
LINE
8
0
6
CONTINUOUS
10
-20.722520
20
72.803135
30
0.0
11
-20.624790
21
70.151805
31
0.0
0
LINE
8
0
6
CONTINUOUS
10
-20.437050
20
65.333365
30
0.0
11
-20.425580
21
61.504135
31
0.0
0
LINE
8
0
6
CONTINUOUS
10
-20.518240
20
67.716635
30
0.0
11
-20.437050
21
65.333365
31
0.0
0
LINE
8
0
6
CONTINUOUS
10
-20.624790
20
70.151805
30
0.0
11
-20.518240
21
67.716635
31
0.0
0
LINE
8
0
6
CONTINUOUS
10
-20.975750
20
96.342105
30
0.0
11
-20.945470
21
90.344655
31
0.0
0
LINE
8
0
6
CONTINUOUS
10
-20.945470
20
90.344655
30
0.0
11
-20.918600
21
84.241255
31
0.0
0
LINE
8
0
6
CONTINUOUS
10
-20.808510
20
75.769065
30
0.0
11
-20.722520
21
72.803135
31
0.0
0
LINE
8
0
6
CONTINUOUS
10
-20.874070
20
78.640235
30
0.0
11
-20.808510
21
75.769065
31
0.0
0
LINE
8
0
6
CONTINUOUS
10
-20.918600
20
84.241255
30
0.0
11
-20.874070
21
78.640235
31
0.0
0
LINE
8
0
6
CONTINUOUS
10
-17.661210
20
53.501925
30
0.0
11
-15.258026
21
50.625744
31
0.0
0
LINE
8
0
6
CONTINUOUS
10
-19.513360
20
57.252925
30
0.0
11
-17.661210
21
53.501925
31
0.0
0
LINE
8
0
6
CONTINUOUS
10
-20.425580
20
61.504135
30
0.0
11
-20.424380
21
61.368635
31
0.0
0
LINE
8
0
6
CONTINUOUS
10
-20.424380
20
61.368635
30
0.0
11
-19.513360
21
57.252925
31
0.0
0
LINE
8
0
6
CONTINUOUS
10
-94.491470
20
191.388745
30
0.0
11
-94.496960
21
190.702575
31
0.0
0
LINE
8
0
6
CONTINUOUS
10
-95.038640
20
185.055375
30
0.0
11
-96.769710
21
183.720865
31
0.0
0
LINE
8
0
6
CONTINUOUS
10
-94.496960
20
190.702575
30
0.0
11
-94.513480
21
188.824855
31
0.0
0
LINE
8
0
6
CONTINUOUS
10
-60.695340
20
192.372355
30
0.0
11
-62.354010
21
193.294215
31
0.0
0
LINE
8
0
6
CONTINUOUS
10
-58.127780
20
192.191085
30
0.0
11
-63.653790
21
192.820655
31
0.0
0
LINE
8
0
6
CONTINUOUS
10
-94.513480
20
188.824855
30
0.0
11
-94.523340
21
186.975895
31
0.0
0
LINE
8
0
6
CONTINUOUS
10
-94.523340
20
186.975895
30
0.0
11
-95.038640
21
185.055375
31
0.0
0
LINE
8
0
6
CONTINUOUS
10
-63.920190
20
198.689945
30
0.0
11
-65.169652
21
198.689897
31
0.0
0
LINE
8
0
6
CONTINUOUS
10
-66.327910
20
198.681525
30
0.0
11
-70.614370
21
198.689585
31
0.0
0
LINE
8
0
6
CONTINUOUS
10
-63.004460
20
198.340105
30
0.0
11
-63.010630
21
198.689925
31
0.0
0
LINE
8
0
6
CONTINUOUS
10
-94.438220
20
198.689835
30
0.0
11
-94.436610
21
198.326785
31
0.0
0
LINE
8
0
6
CONTINUOUS
10
-90.973700
20
198.689755
30
0.0
11
-93.310670
21
198.689655
31
0.0
0
LINE
8
0
6
CONTINUOUS
10
-87.697040
20
198.689835
30
0.0
11
-90.973700
21
198.689755
31
0.0
0
LINE
8
0
6
CONTINUOUS
10
-79.068100
20
198.689715
30
0.0
11
-74.636160
21
198.689695
31
0.0
0
LINE
8
0
6
CONTINUOUS
10
-74.636160
20
198.689695
30
0.0
11
-70.614370
21
198.689585
31
0.0
0
LINE
8
0
6
CONTINUOUS
10
-66.327910
20
198.681525
30
0.0
11
-63.712590
21
198.689905
31
0.0
0
LINE
8
0
6
CONTINUOUS
10
-63.010630
20
198.689925
30
0.0
11
-63.545270
21
198.689955
31
0.0
0
LINE
8
0
6
CONTINUOUS
10
-63.712590
20
198.689905
30
0.0
11
-63.010630
21
198.689925
31
0.0
0
LINE
8
0
6
CONTINUOUS
10
-91.615840
20
198.689814
30
0.0
11
-92.218350
21
198.689795
31
0.0
0
LINE
8
0
6
CONTINUOUS
10
-92.218350
20
198.689795
30
0.0
11
-94.069180
21
198.689775
31
0.0
0
LINE
8
0
6
CONTINUOUS
10
-94.438220
20
198.689835
30
0.0
11
-93.310670
21
198.689655
31
0.0
0
LINE
8
0
6
CONTINUOUS
10
-83.700790
20
198.689715
30
0.0
11
-79.068100
21
198.689715
31
0.0
0
LINE
8
0
6
CONTINUOUS
10
-87.697040
20
198.689835
30
0.0
11
-83.700790
21
198.689715
31
0.0
0
LINE
8
0
6
CONTINUOUS
10
-87.389760
20
198.689835
30
0.0
11
-87.697040
21
198.689835
31
0.0
0
LINE
8
0
6
CONTINUOUS
10
-96.769710
20
183.720865
30
0.0
11
-98.424700
21
183.213165
31
0.0
0
LINE
8
0
6
CONTINUOUS
10
-62.281510
20
193.062045
30
0.0
11
-63.004460
21
198.340105
31
0.0
0
LINE
8
0
6
CONTINUOUS
10
-94.436610
20
198.326785
30
0.0
11
-94.491470
21
191.388745
31
0.0
0
LINE
8
0
6
CONTINUOUS
10
-98.735670
20
174.100245
30
0.0
11
-98.735670
21
169.253575
31
0.0
0
LINE
8
0
6
CONTINUOUS
10
-98.735670
20
178.166025
30
0.0
11
-98.735670
21
174.100245
31
0.0
0
LINE
8
0
6
CONTINUOUS
10
-98.735670
20
182.841765
30
0.0
11
-98.735670
21
181.141985
31
0.0
0
LINE
8
0
6
CONTINUOUS
10
-98.735670
20
183.117755
30
0.0
11
-98.735670
21
182.841765
31
0.0
0
LINE
8
0
6
CONTINUOUS
10
-98.424700
20
183.213165
30
0.0
11
-98.735670
21
183.117755
31
0.0
0
LINE
8
0
6
CONTINUOUS
10
-98.735670
20
181.141985
30
0.0
11
-98.735670
21
178.166025
31
0.0
0
LINE
8
0
6
CONTINUOUS
10
-98.735670
20
169.253575
30
0.0
11
-98.735670
21
164.006785
31
0.0
0
LINE
8
0
6
CONTINUOUS
10
-54.414170
20
192.191015
30
0.0
11
-56.241100
21
192.191065
31
0.0
0
LINE
8
0
6
CONTINUOUS
10
-49.704828
20
192.191015
30
0.0
11
-54.414170
21
192.191015
31
0.0
0
LINE
8
0
6
CONTINUOUS
10
-68.011810
20
144.974785
30
0.0
11
-33.982280
21
144.974785
31
0.0
0
LINE
8
0
6
CONTINUOUS
10
-70.465200
20
144.974785
30
0.0
11
-68.011810
21
144.974785
31
0.0
0
LINE
8
0
6
CONTINUOUS
10
-74.519250
20
144.974785
30
0.0
11
-70.465200
21
144.974785
31
0.0
0
LINE
8
0
6
CONTINUOUS
10
-78.574500
20
144.974785
30
0.0
11
-74.519250
21
144.974785
31
0.0
0
LINE
8
0
6
CONTINUOUS
10
-82.614990
20
144.974785
30
0.0
11
-78.574500
21
144.974785
31
0.0
0
LINE
8
0
6
CONTINUOUS
10
-86.668760
20
144.974785
30
0.0
11
-82.614990
21
144.974785
31
0.0
0
LINE
8
0
6
CONTINUOUS
10
-92.702230
20
144.974785
30
0.0
11
-86.668760
21
144.974785
31
0.0
0
LINE
8
0
6
CONTINUOUS
10
-98.410390
20
144.974785
30
0.0
11
-92.702230
21
144.974785
31
0.0
0
LINE
8
0
6
CONTINUOUS
10
-98.735670
20
147.528205
30
0.0
11
-98.735670
21
145.624195
31
0.0
0
LINE
8
0
6
CONTINUOUS
10
-98.735670
20
144.974785
30
0.0
11
-98.410390
21
144.974785
31
0.0
0
LINE
8
0
6
CONTINUOUS
10
-98.735670
20
145.624195
30
0.0
11
-98.735670
21
144.974785
31
0.0
0
LINE
8
0
6
CONTINUOUS
10
-98.735670
20
159.101005
30
0.0
11
-98.735670
21
154.504315
31
0.0
0
LINE
8
0
6
CONTINUOUS
10
-98.735670
20
154.504315
30
0.0
11
-98.735670
21
150.557055
31
0.0
0
LINE
8
0
6
CONTINUOUS
10
-98.735670
20
150.557055
30
0.0
11
-98.735670
21
147.528205
31
0.0
0
LINE
8
0
6
CONTINUOUS
10
-98.735670
20
164.006785
30
0.0
11
-98.735670
21
159.101005
31
0.0
0
LINE
8
0
6
CONTINUOUS
10
-24.702130
20
143.425345
30
0.0
11
-22.816670
21
139.684715
31
0.0
0
LINE
8
0
6
CONTINUOUS
10
-28.936250
20
144.974785
30
0.0
11
-24.702130
21
143.425345
31
0.0
0
LINE
8
0
6
CONTINUOUS
10
13.504450
20
96.342105
30
0.0
11
15.345370
21
139.684715
31
0.0
0
LINE
8
0
6
CONTINUOUS
10
21.464950
20
144.974785
30
0.0
11
24.369609
21
144.974785
31
0.0
0
LINE
8
0
6
CONTINUOUS
10
13.474170
20
90.344655
30
0.0
11
13.504450
21
96.342105
31
0.0
0
LINE
8
0
6
CONTINUOUS
10
13.455532
20
86.111093
30
0.0
11
13.474170
21
90.344655
31
0.0
0
LINE
8
0
6
CONTINUOUS
10
87.025660
20
190.702575
30
0.0
11
87.020180
21
191.388745
31
0.0
0
LINE
8
0
6
CONTINUOUS
10
89.298410
20
183.720865
30
0.0
11
87.567340
21
185.055375
31
0.0
0
LINE
8
0
6
CONTINUOUS
10
87.042180
20
188.824855
30
0.0
11
87.025660
21
190.702575
31
0.0
0
LINE
8
0
6
CONTINUOUS
10
54.882710
20
193.294215
30
0.0
11
53.224040
21
192.372355
31
0.0
0
LINE
8
0
6
CONTINUOUS
10
87.052040
20
186.975895
30
0.0
11
87.042180
21
188.824855
31
0.0
0
LINE
8
0
6
CONTINUOUS
10
87.567340
20
185.055375
30
0.0
11
87.052040
21
186.975895
31
0.0
0
LINE
8
0
6
CONTINUOUS
10
63.143070
20
198.689585
30
0.0
11
58.856610
21
198.681525
31
0.0
0
LINE
8
0
6
CONTINUOUS
10
55.539330
20
198.689925
30
0.0
11
55.533160
21
198.340105
31
0.0
0
LINE
8
0
6
CONTINUOUS
10
86.965310
20
198.326785
30
0.0
11
86.966920
21
198.689835
31
0.0
0
LINE
8
0
6
CONTINUOUS
10
85.839370
20
198.689655
30
0.0
11
83.502400
21
198.689755
31
0.0
0
LINE
8
0
6
CONTINUOUS
10
83.502400
20
198.689755
30
0.0
11
80.225740
21
198.689835
31
0.0
0
LINE
8
0
6
CONTINUOUS
10
67.164860
20
198.689695
30
0.0
11
71.596800
21
198.689715
31
0.0
0
LINE
8
0
6
CONTINUOUS
10
63.143070
20
198.689585
30
0.0
11
67.164860
21
198.689695
31
0.0
0
LINE
8
0
6
CONTINUOUS
10
56.241300
20
198.689905
30
0.0
11
58.856610
21
198.681525
31
0.0
0
LINE
8
0
6
CONTINUOUS
10
55.539330
20
198.689925
30
0.0
11
56.241300
21
198.689905
31
0.0
0
LINE
8
0
6
CONTINUOUS
10
56.073970
20
198.689955
30
0.0
11
55.539330
21
198.689925
31
0.0
0
LINE
8
0
6
CONTINUOUS
10
86.597880
20
198.689775
30
0.0
11
84.969848
21
198.689793
31
0.0
0
LINE
8
0
6
CONTINUOUS
10
85.839370
20
198.689655
30
0.0
11
86.966920
21
198.689835
31
0.0
0
LINE
8
0
6
CONTINUOUS
10
71.596800
20
198.689715
30
0.0
11
76.229490
21
198.689715
31
0.0
0
LINE
8
0
6
CONTINUOUS
10
80.225740
20
198.689835
30
0.0
11
79.918460
21
198.689835
31
0.0
0
LINE
8
0
6
CONTINUOUS
10
76.229490
20
198.689715
30
0.0
11
80.225740
21
198.689835
31
0.0
0
LINE
8
0
6
CONTINUOUS
10
58.523660
20
198.690217
30
0.0
11
58.335700
21
198.689835
31
0.0
0
LINE
8
0
6
CONTINUOUS
10
90.953400
20
183.213165
30
0.0
11
89.298410
21
183.720865
31
0.0
0
LINE
8
0
6
CONTINUOUS
10
55.533160
20
198.340105
30
0.0
11
54.810210
21
193.062045
31
0.0
0
LINE
8
0
6
CONTINUOUS
10
87.020180
20
191.388745
30
0.0
11
86.965310
21
198.326785
31
0.0
0
LINE
8
0
6
CONTINUOUS
10
91.264370
20
169.253575
30
0.0
11
91.264370
21
174.100245
31
0.0
0
LINE
8
0
6
CONTINUOUS
10
91.264370
20
174.100245
30
0.0
11
91.264370
21
178.166025
31
0.0
0
LINE
8
0
6
CONTINUOUS
10
91.264370
20
181.141985
30
0.0
11
91.264370
21
182.841765
31
0.0
0
LINE
8
0
6
CONTINUOUS
10
91.264370
20
183.117755
30
0.0
11
90.953400
21
183.213165
31
0.0
0
LINE
8
0
6
CONTINUOUS
10
91.264370
20
182.841765
30
0.0
11
91.264370
21
183.117755
31
0.0
0
LINE
8
0
6
CONTINUOUS
10
91.264370
20
178.166025
30
0.0
11
91.264370
21
181.141985
31
0.0
0
LINE
8
0
6
CONTINUOUS
10
91.264370
20
164.006785
30
0.0
11
91.264370
21
169.253575
31
0.0
0
LINE
8
0
6
CONTINUOUS
10
51.619534
20
144.974785
30
0.0
11
60.540510
21
144.974785
31
0.0
0
LINE
8
0
6
CONTINUOUS
10
60.540510
20
144.974785
30
0.0
11
62.993910
21
144.974785
31
0.0
0
LINE
8
0
6
CONTINUOUS
10
62.993910
20
144.974785
30
0.0
11
67.047950
21
144.974785
31
0.0
0
LINE
8
0
6
CONTINUOUS
10
67.047950
20
144.974785
30
0.0
11
71.103200
21
144.974785
31
0.0
0
LINE
8
0
6
CONTINUOUS
10
71.103200
20
144.974785
30
0.0
11
75.143690
21
144.974785
31
0.0
0
LINE
8
0
6
CONTINUOUS
10
75.143690
20
144.974785
30
0.0
11
79.197460
21
144.974785
31
0.0
0
LINE
8
0
6
CONTINUOUS
10
79.197460
20
144.974785
30
0.0
11
85.230930
21
144.974785
31
0.0
0
LINE
8
0
6
CONTINUOUS
10
85.230930
20
144.974785
30
0.0
11
90.939090
21
144.974785
31
0.0
0
LINE
8
0
6
CONTINUOUS
10
91.264370
20
145.624195
30
0.0
11
91.264370
21
147.528205
31
0.0
0
LINE
8
0
6
CONTINUOUS
10
91.264370
20
144.974785
30
0.0
11
91.264370
21
145.624195
31
0.0
0
LINE
8
0
6
CONTINUOUS
10
90.939090
20
144.974785
30
0.0
11
91.264370
21
144.974785
31
0.0
0
LINE
8
0
6
CONTINUOUS
10
91.264370
20
154.504315
30
0.0
11
91.264370
21
159.101005
31
0.0
0
LINE
8
0
6
CONTINUOUS
10
91.264370
20
150.557055
30
0.0
11
91.264370
21
154.504315
31
0.0
0
LINE
8
0
6
CONTINUOUS
10
91.264370
20
147.528205
30
0.0
11
91.264370
21
150.557055
31
0.0
0
LINE
8
0
6
CONTINUOUS
10
91.264370
20
159.101005
30
0.0
11
91.264370
21
164.006785
31
0.0
0
LINE
8
0
6
CONTINUOUS
10
15.345370
20
139.684715
30
0.0
11
17.230830
21
143.425345
31
0.0
0
LINE
8
0
6
CONTINUOUS
10
17.230830
20
143.425345
30
0.0
11
21.464950
21
144.974785
31
0.0
0
LINE
8
0
6
CONTINUOUS
10
-135.153321
20
145.611127
30
0.0
11
-110.635610
21
145.327545
31
0.0
0
LINE
8
0
6
CONTINUOUS
10
-110.631610
20
182.749755
30
0.0
11
-154.911200
21
182.561045
31
0.0
0
LINE
8
0
6
CONTINUOUS
10
-110.635610
20
145.327545
30
0.0
11
-110.375670
21
145.325845
31
0.0
0
LINE
8
0
6
CONTINUOUS
10
-110.375490
20
146.003755
30
0.0
11
-110.375670
21
145.325845
31
0.0
0
LINE
8
0
6
CONTINUOUS
10
-110.115740
20
146.361345
30
0.0
11
-110.115600
21
147.002145
31
0.0
0
LINE
8
0
6
CONTINUOUS
10
-110.375670
20
145.325845
30
0.0
11
-110.115740
21
146.361345
31
0.0
0
LINE
8
0
6
CONTINUOUS
10
-110.380990
20
147.890505
30
0.0
11
-110.375490
21
146.003755
31
0.0
0
LINE
8
0
6
CONTINUOUS
10
-110.115600
20
147.002145
30
0.0
11
-110.119070
21
148.785815
31
0.0
0
LINE
8
0
6
CONTINUOUS
10
-110.375850
20
150.953175
30
0.0
11
-110.380990
21
147.890505
31
0.0
0
LINE
8
0
6
CONTINUOUS
10
-110.119070
20
148.785815
30
0.0
11
-110.115840
21
151.680485
31
0.0
0
LINE
8
0
6
CONTINUOUS
10
-110.374050
20
154.941385
30
0.0
11
-110.375850
21
150.953175
31
0.0
0
LINE
8
0
6
CONTINUOUS
10
-110.115840
20
151.680485
30
0.0
11
-110.114730
21
155.449905
31
0.0
0
LINE
8
0
6
CONTINUOUS
10
-110.373330
20
159.535635
30
0.0
11
-110.374050
21
154.941385
31
0.0
0
LINE
8
0
6
CONTINUOUS
10
-110.114730
20
155.449905
30
0.0
11
-110.114230
21
159.792305
31
0.0
0
LINE
8
0
6
CONTINUOUS
10
-110.372760
20
164.416915
30
0.0
11
-110.373330
21
159.535635
31
0.0
0
LINE
8
0
6
CONTINUOUS
10
-110.114230
20
159.792305
30
0.0
11
-110.113890
21
164.405945
31
0.0
0
LINE
8
0
6
CONTINUOUS
10
-110.372720
20
169.263985
30
0.0
11
-110.372760
21
164.416915
31
0.0
0
LINE
8
0
6
CONTINUOUS
10
-110.113890
20
164.405945
30
0.0
11
-110.113850
21
168.987195
31
0.0
0
LINE
8
0
6
CONTINUOUS
10
-110.372720
20
173.716325
30
0.0
11
-110.372720
21
169.263985
31
0.0
0
LINE
8
0
6
CONTINUOUS
10
-110.113850
20
168.987195
30
0.0
11
-110.113850
21
173.195395
31
0.0
0
LINE
8
0
6
CONTINUOUS
10
-110.372720
20
177.487465
30
0.0
11
-110.372720
21
173.716325
31
0.0
0
LINE
8
0
6
CONTINUOUS
10
-110.113850
20
173.195395
30
0.0
11
-110.113850
21
176.759575
31
0.0
0
LINE
8
0
6
CONTINUOUS
10
-110.372710
20
180.414555
30
0.0
11
-110.372720
21
177.487465
31
0.0
0
LINE
8
0
6
CONTINUOUS
10
-110.113850
20
176.759575
30
0.0
11
-110.113840
21
179.526145
31
0.0
0
LINE
8
0
6
CONTINUOUS
10
-110.372710
20
182.750375
30
0.0
11
-110.631610
21
182.749755
31
0.0
0
LINE
8
0
6
CONTINUOUS
10
-110.372710
20
182.750375
30
0.0
11
-110.372710
21
182.103235
31
0.0
0
LINE
8
0
6
CONTINUOUS
10
-110.113840
20
181.733435
30
0.0
11
-110.372710
21
182.750375
31
0.0
0
LINE
8
0
6
CONTINUOUS
10
-110.113840
20
181.121765
30
0.0
11
-110.113840
21
181.733435
31
0.0
0
LINE
8
0
6
CONTINUOUS
10
-110.372710
20
182.103235
30
0.0
11
-110.372710
21
180.414555
31
0.0
0
LINE
8
0
6
CONTINUOUS
10
-110.113840
20
179.526145
30
0.0
11
-110.113840
21
181.121765
31
0.0
0
LINE
8
0
6
CONTINUOUS
10
-155.720480
20
182.557595
30
0.0
11
-155.720490
21
181.931855
31
0.0
0
LINE
8
0
6
CONTINUOUS
10
-154.911200
20
182.561045
30
0.0
11
-155.720480
21
182.557595
31
0.0
0
LINE
8
0
6
CONTINUOUS
10
-155.720460
20
180.128545
30
0.0
11
-155.720470
21
177.262325
31
0.0
0
LINE
8
0
6
CONTINUOUS
10
-155.720470
20
177.262325
30
0.0
11
-155.720470
21
173.515385
31
0.0
0
LINE
8
0
6
CONTINUOUS
10
-155.720470
20
173.515385
30
0.0
11
-155.720470
21
169.160455
31
0.0
0
LINE
8
0
6
CONTINUOUS
10
-155.720470
20
169.160455
30
0.0
11
-155.720470
21
164.409565
31
0.0
0
LINE
8
0
6
CONTINUOUS
10
-155.720470
20
164.409565
30
0.0
11
-155.720470
21
159.637165
31
0.0
0
LINE
8
0
6
CONTINUOUS
10
-155.720470
20
159.637165
30
0.0
11
-155.720470
21
155.167745
31
0.0
0
LINE
8
0
6
CONTINUOUS
10
-155.720470
20
155.167745
30
0.0
11
-155.720470
21
151.235655
31
0.0
0
LINE
8
0
6
CONTINUOUS
10
-155.720460
20
180.128545
30
0.0
11
-155.720490
21
181.931855
31
0.0
0
LINE
8
0
6
CONTINUOUS
10
-155.952550
20
151.690485
30
0.0
11
-156.005420
21
143.759075
31
0.0
0
LINE
8
0
6
CONTINUOUS
10
-135.764560
20
138.995205
30
0.0
11
-135.202700
21
138.986225
31
0.0
0
LINE
8
0
6
CONTINUOUS
10
-156.021330
20
139.844125
30
0.0
11
-156.019000
21
139.319225
31
0.0
0
LINE
8
0
6
CONTINUOUS
10
-156.019000
20
139.319225
30
0.0
11
-155.473920
21
139.314875
31
0.0
0
LINE
8
0
6
CONTINUOUS
10
-156.013510
20
142.429155
30
0.0
11
-156.019310
21
141.014955
31
0.0
0
LINE
8
0
6
CONTINUOUS
10
-156.005420
20
143.759075
30
0.0
11
-156.013510
21
142.429155
31
0.0
0
LINE
8
0
6
CONTINUOUS
10
-156.019310
20
141.014955
30
0.0
11
-156.021330
21
139.844125
31
0.0
0
LINE
8
0
6
CONTINUOUS
10
-155.473920
20
139.314875
30
0.0
11
-135.764560
21
138.995205
31
0.0
0
LINE
8
0
6
CONTINUOUS
10
-135.203420
20
139.503855
30
0.0
11
-135.202700
21
138.986225
31
0.0
0
LINE
8
0
6
CONTINUOUS
10
-135.192550
20
142.142675
30
0.0
11
-135.199570
21
140.733815
31
0.0
0
LINE
8
0
6
CONTINUOUS
10
-135.184000
20
143.470665
30
0.0
11
-135.192550
21
142.142675
31
0.0
0
LINE
8
0
6
CONTINUOUS
10
-135.190110
20
140.093155
30
0.0
11
-135.137230
21
148.024615
31
0.0
0
LINE
8
0
6
CONTINUOUS
10
-135.131170
20
151.402095
30
0.0
11
-135.184000
21
143.470665
31
0.0
0
LINE
8
0
6
CONTINUOUS
10
-135.199570
20
140.733815
30
0.0
11
-135.203420
21
139.503855
31
0.0
0
LINE
8
0
6
CONTINUOUS
10
103.164310
20
145.327545
30
0.0
11
127.682021
21
145.611127
31
0.0
0
LINE
8
0
6
CONTINUOUS
10
147.439900
20
182.561045
30
0.0
11
103.160310
21
182.749755
31
0.0
0
LINE
8
0
6
CONTINUOUS
10
102.904370
20
145.325845
30
0.0
11
103.164310
21
145.327545
31
0.0
0
LINE
8
0
6
CONTINUOUS
10
102.644440
20
146.361345
30
0.0
11
102.904370
21
145.325845
31
0.0
0
LINE
8
0
6
CONTINUOUS
10
102.644300
20
147.002145
30
0.0
11
102.644440
21
146.361345
31
0.0
0
LINE
8
0
6
CONTINUOUS
10
102.904370
20
145.325845
30
0.0
11
102.904190
21
146.003755
31
0.0
0
LINE
8
0
6
CONTINUOUS
10
102.647770
20
148.785815
30
0.0
11
102.644300
21
147.002145
31
0.0
0
LINE
8
0
6
CONTINUOUS
10
102.904190
20
146.003755
30
0.0
11
102.909690
21
147.890505
31
0.0
0
LINE
8
0
6
CONTINUOUS
10
102.644540
20
151.680485
30
0.0
11
102.647770
21
148.785815
31
0.0
0
LINE
8
0
6
CONTINUOUS
10
102.909690
20
147.890505
30
0.0
11
102.904550
21
150.953175
31
0.0
0
LINE
8
0
6
CONTINUOUS
10
102.643430
20
155.449905
30
0.0
11
102.644540
21
151.680485
31
0.0
0
LINE
8
0
6
CONTINUOUS
10
102.904550
20
150.953175
30
0.0
11
102.902750
21
154.941385
31
0.0
0
LINE
8
0
6
CONTINUOUS
10
102.642930
20
159.792305
30
0.0
11
102.643430
21
155.449905
31
0.0
0
LINE
8
0
6
CONTINUOUS
10
102.902750
20
154.941385
30
0.0
11
102.902030
21
159.535635
31
0.0
0
LINE
8
0
6
CONTINUOUS
10
102.642590
20
164.405945
30
0.0
11
102.642930
21
159.792305
31
0.0
0
LINE
8
0
6
CONTINUOUS
10
102.902030
20
159.535635
30
0.0
11
102.901460
21
164.416915
31
0.0
0
LINE
8
0
6
CONTINUOUS
10
102.642550
20
168.987195
30
0.0
11
102.642590
21
164.405945
31
0.0
0
LINE
8
0
6
CONTINUOUS
10
102.901460
20
164.416915
30
0.0
11
102.901420
21
169.263985
31
0.0
0
LINE
8
0
6
CONTINUOUS
10
102.642550
20
173.195395
30
0.0
11
102.642550
21
168.987195
31
0.0
0
LINE
8
0
6
CONTINUOUS
10
102.901420
20
169.263985
30
0.0
11
102.901420
21
173.716325
31
0.0
0
LINE
8
0
6
CONTINUOUS
10
102.642550
20
176.759575
30
0.0
11
102.642550
21
173.195395
31
0.0
0
LINE
8
0
6
CONTINUOUS
10
102.901420
20
173.716325
30
0.0
11
102.901420
21
177.487465
31
0.0
0
LINE
8
0
6
CONTINUOUS
10
102.642540
20
179.526145
30
0.0
11
102.642550
21
176.759575
31
0.0
0
LINE
8
0
6
CONTINUOUS
10
102.901420
20
177.487465
30
0.0
11
102.901410
21
180.414555
31
0.0
0
LINE
8
0
6
CONTINUOUS
10
103.160310
20
182.749755
30
0.0
11
102.901410
21
182.750375
31
0.0
0
LINE
8
0
6
CONTINUOUS
10
102.642540
20
181.733435
30
0.0
11
102.642540
21
181.121765
31
0.0
0
LINE
8
0
6
CONTINUOUS
10
102.901410
20
182.750375
30
0.0
11
102.642540
21
181.733435
31
0.0
0
LINE
8
0
6
CONTINUOUS
10
102.901410
20
182.103235
30
0.0
11
102.901410
21
182.750375
31
0.0
0
LINE
8
0
6
CONTINUOUS
10
102.642540
20
181.121765
30
0.0
11
102.642540
21
179.526145
31
0.0
0
LINE
8
0
6
CONTINUOUS
10
102.901410
20
180.414555
30
0.0
11
102.901410
21
182.103235
31
0.0
0
LINE
8
0
6
CONTINUOUS
10
148.249190
20
182.557595
30
0.0
11
147.439900
21
182.561045
31
0.0
0
LINE
8
0
6
CONTINUOUS
10
148.249190
20
181.931855
30
0.0
11
148.249190
21
182.557595
31
0.0
0
LINE
8
0
6
CONTINUOUS
10
148.249170
20
177.262325
30
0.0
11
148.249160
21
180.128545
31
0.0
0
LINE
8
0
6
CONTINUOUS
10
148.249170
20
173.515385
30
0.0
11
148.249170
21
177.262325
31
0.0
0
LINE
8
0
6
CONTINUOUS
10
148.249170
20
169.160455
30
0.0
11
148.249170
21
173.515385
31
0.0
0
LINE
8
0
6
CONTINUOUS
10
148.249170
20
164.409565
30
0.0
11
148.249170
21
169.160455
31
0.0
0
LINE
8
0
6
CONTINUOUS
10
148.249170
20
159.637165
30
0.0
11
148.249170
21
164.409565
31
0.0
0
LINE
8
0
6
CONTINUOUS
10
148.249170
20
155.167745
30
0.0
11
148.249170
21
159.637165
31
0.0
0
LINE
8
0
6
CONTINUOUS
10
148.249170
20
151.235655
30
0.0
11
148.249170
21
155.167745
31
0.0
0
LINE
8
0
6
CONTINUOUS
10
148.249170
20
151.142094
30
0.0
11
148.249170
21
151.235655
31
0.0
0
LINE
8
0
6
CONTINUOUS
10
148.249190
20
181.931855
30
0.0
11
148.249160
21
180.128545
31
0.0
0
LINE
8
0
6
CONTINUOUS
10
148.534120
20
143.759075
30
0.0
11
148.481250
21
151.690485
31
0.0
0
LINE
8
0
6
CONTINUOUS
10
127.731400
20
138.986225
30
0.0
11
128.293260
21
138.995205
31
0.0
0
LINE
8
0
6
CONTINUOUS
10
148.002620
20
139.314875
30
0.0
11
148.547700
21
139.319225
31
0.0
0
LINE
8
0
6
CONTINUOUS
10
148.547700
20
139.319225
30
0.0
11
148.550030
21
139.844125
31
0.0
0
LINE
8
0
6
CONTINUOUS
10
148.548010
20
141.014955
30
0.0
11
148.542210
21
142.429155
31
0.0
0
LINE
8
0
6
CONTINUOUS
10
148.542210
20
142.429155
30
0.0
11
148.534120
21
143.759075
31
0.0
0
LINE
8
0
6
CONTINUOUS
10
148.550030
20
139.844125
30
0.0
11
148.548010
21
141.014955
31
0.0
0
LINE
8
0
6
CONTINUOUS
10
128.293260
20
138.995205
30
0.0
11
148.002620
21
139.314875
31
0.0
0
LINE
8
0
6
CONTINUOUS
10
127.731400
20
138.986225
30
0.0
11
127.732120
21
139.503855
31
0.0
0
LINE
8
0
6
CONTINUOUS
10
127.728270
20
140.733815
30
0.0
11
127.721250
21
142.142675
31
0.0
0
LINE
8
0
6
CONTINUOUS
10
127.721250
20
142.142675
30
0.0
11
127.712710
21
143.470665
31
0.0
0
LINE
8
0
6
CONTINUOUS
10
127.668012
20
147.712295
30
0.0
11
127.718810
21
140.093155
31
0.0
0
LINE
8
0
6
CONTINUOUS
10
127.712710
20
143.470665
30
0.0
11
127.662322
21
151.033969
31
0.0
0
LINE
8
0
6
CONTINUOUS
10
127.732120
20
139.503855
30
0.0
11
127.728270
21
140.733815
31
0.0
0
LINE
8
0
6
CONTINUOUS
10
-109.813640
20
145.462745
30
0.0
11
-109.555700
21
145.461065
31
0.0
0
LINE
8
0
6
CONTINUOUS
10
-109.555700
20
182.611955
30
0.0
11
-109.812620
21
182.611325
31
0.0
0
LINE
8
0
6
CONTINUOUS
10
-109.812620
20
182.611325
30
0.0
11
-109.812610
21
182.011905
31
0.0
0
LINE
8
0
6
CONTINUOUS
10
-109.812610
20
182.011905
30
0.0
11
-109.812610
21
181.733435
31
0.0
0
LINE
8
0
6
CONTINUOUS
10
-109.813646
20
146.361345
30
0.0
11
-109.813640
21
146.089645
31
0.0
0
LINE
8
0
6
CONTINUOUS
10
-109.813640
20
146.089645
30
0.0
11
-109.813640
21
145.462745
31
0.0
0
LINE
8
0
6
CONTINUOUS
10
-110.115600
20
147.002145
30
0.0
11
-110.115740
21
146.361345
31
0.0
0
LINE
8
0
6
CONTINUOUS
10
-109.813640
20
145.462745
30
0.0
11
-109.813580
21
146.135785
31
0.0
0
LINE
8
0
6
CONTINUOUS
10
-110.115740
20
146.361345
30
0.0
11
-109.813640
21
145.462745
31
0.0
0
LINE
8
0
6
CONTINUOUS
10
-110.119070
20
148.785815
30
0.0
11
-110.115600
21
147.002145
31
0.0
0
LINE
8
0
6
CONTINUOUS
10
-109.813580
20
146.135785
30
0.0
11
-109.815390
21
148.009455
31
0.0
0
LINE
8
0
6
CONTINUOUS
10
-110.115840
20
151.680485
30
0.0
11
-110.119070
21
148.785815
31
0.0
0
LINE
8
0
6
CONTINUOUS
10
-109.815390
20
148.009455
30
0.0
11
-109.813660
21
151.049445
31
0.0
0
LINE
8
0
6
CONTINUOUS
10
-110.114730
20
155.449905
30
0.0
11
-110.115840
21
151.680485
31
0.0
0
LINE
8
0
6
CONTINUOUS
10
-109.813660
20
151.049445
30
0.0
11
-109.813090
21
155.008105
31
0.0
0
LINE
8
0
6
CONTINUOUS
10
-110.114230
20
159.792305
30
0.0
11
-110.114730
21
155.449905
31
0.0
0
LINE
8
0
6
CONTINUOUS
10
-109.813090
20
155.008105
30
0.0
11
-109.812860
21
159.568725
31
0.0
0
LINE
8
0
6
CONTINUOUS
10
-110.113890
20
164.405945
30
0.0
11
-110.114230
21
159.792305
31
0.0
0
LINE
8
0
6
CONTINUOUS
10
-109.812860
20
159.568725
30
0.0
11
-109.812630
21
164.414115
31
0.0
0
LINE
8
0
6
CONTINUOUS
10
-110.113850
20
168.987195
30
0.0
11
-110.113890
21
164.405945
31
0.0
0
LINE
8
0
6
CONTINUOUS
10
-109.812630
20
164.414115
30
0.0
11
-109.812600
21
169.225475
31
0.0
0
LINE
8
0
6
CONTINUOUS
10
-110.113850
20
173.195395
30
0.0
11
-110.113850
21
168.987195
31
0.0
0
LINE
8
0
6
CONTINUOUS
10
-109.812600
20
169.225475
30
0.0
11
-109.812600
21
173.645055
31
0.0
0
LINE
8
0
6
CONTINUOUS
10
-110.113850
20
176.759575
30
0.0
11
-110.113850
21
173.195395
31
0.0
0
LINE
8
0
6
CONTINUOUS
10
-109.812600
20
173.645055
30
0.0
11
-109.812600
21
177.388075
31
0.0
0
LINE
8
0
6
CONTINUOUS
10
-110.113840
20
179.526145
30
0.0
11
-110.113850
21
176.759575
31
0.0
0
LINE
8
0
6
CONTINUOUS
10
-109.812600
20
177.388075
30
0.0
11
-109.812620
21
180.293615
31
0.0
0
LINE
8
0
6
CONTINUOUS
10
-110.113840
20
181.733435
30
0.0
11
-110.113840
21
181.121765
31
0.0
0
LINE
8
0
6
CONTINUOUS
10
-109.812620
20
182.611325
30
0.0
11
-110.113840
21
181.733435
31
0.0
0
LINE
8
0
6
CONTINUOUS
10
-109.812620
20
181.968895
30
0.0
11
-109.812620
21
182.611325
31
0.0
0
LINE
8
0
6
CONTINUOUS
10
-110.113840
20
181.121765
30
0.0
11
-110.113840
21
179.526145
31
0.0
0
LINE
8
0
6
CONTINUOUS
10
-109.812620
20
180.293615
30
0.0
11
-109.812620
21
181.968895
31
0.0
0
LINE
8
0
6
CONTINUOUS
10
-98.735670
20
182.611955
30
0.0
11
-109.555700
21
182.611955
31
0.0
0
LINE
8
0
6
CONTINUOUS
10
-98.616370
20
145.461065
30
0.0
11
-109.555700
21
145.461065
31
0.0
0
LINE
8
0
6
CONTINUOUS
10
102.084400
20
145.461065
30
0.0
11
102.342350
21
145.462745
31
0.0
0
LINE
8
0
6
CONTINUOUS
10
102.341330
20
182.611325
30
0.0
11
102.084410
21
182.611955
31
0.0
0
LINE
8
0
6
CONTINUOUS
10
102.341320
20
182.011905
30
0.0
11
102.341330
21
182.611325
31
0.0
0
LINE
8
0
6
CONTINUOUS
10
102.341320
20
181.733435
30
0.0
11
102.341320
21
182.011905
31
0.0
0
LINE
8
0
6
CONTINUOUS
10
102.342350
20
146.089645
30
0.0
11
102.342354
21
146.361345
31
0.0
0
LINE
8
0
6
CONTINUOUS
10
102.342350
20
145.462745
30
0.0
11
102.342350
21
146.089645
31
0.0
0
LINE
8
0
6
CONTINUOUS
10
102.342350
20
145.462745
30
0.0
11
102.644440
21
146.361345
31
0.0
0
LINE
8
0
6
CONTINUOUS
10
102.342280
20
146.135785
30
0.0
11
102.342350
21
145.462745
31
0.0
0
LINE
8
0
6
CONTINUOUS
10
102.644440
20
146.361345
30
0.0
11
102.644300
21
147.002145
31
0.0
0
LINE
8
0
6
CONTINUOUS
10
102.344090
20
148.009455
30
0.0
11
102.342280
21
146.135785
31
0.0
0
LINE
8
0
6
CONTINUOUS
10
102.644300
20
147.002145
30
0.0
11
102.647770
21
148.785815
31
0.0
0
LINE
8
0
6
CONTINUOUS
10
102.342360
20
151.049445
30
0.0
11
102.344090
21
148.009455
31
0.0
0
LINE
8
0
6
CONTINUOUS
10
102.647770
20
148.785815
30
0.0
11
102.644540
21
151.680485
31
0.0
0
LINE
8
0
6
CONTINUOUS
10
102.341790
20
155.008105
30
0.0
11
102.342360
21
151.049445
31
0.0
0
LINE
8
0
6
CONTINUOUS
10
102.644540
20
151.680485
30
0.0
11
102.643430
21
155.449905
31
0.0
0
LINE
8
0
6
CONTINUOUS
10
102.341560
20
159.568725
30
0.0
11
102.341790
21
155.008105
31
0.0
0
LINE
8
0
6
CONTINUOUS
10
102.643430
20
155.449905
30
0.0
11
102.642930
21
159.792305
31
0.0
0
LINE
8
0
6
CONTINUOUS
10
102.341330
20
164.414115
30
0.0
11
102.341560
21
159.568725
31
0.0
0
LINE
8
0
6
CONTINUOUS
10
102.642930
20
159.792305
30
0.0
11
102.642590
21
164.405945
31
0.0
0
LINE
8
0
6
CONTINUOUS
10
102.341300
20
169.225475
30
0.0
11
102.341330
21
164.414115
31
0.0
0
LINE
8
0
6
CONTINUOUS
10
102.642590
20
164.405945
30
0.0
11
102.642550
21
168.987195
31
0.0
0
LINE
8
0
6
CONTINUOUS
10
102.341300
20
173.645055
30
0.0
11
102.341300
21
169.225475
31
0.0
0
LINE
8
0
6
CONTINUOUS
10
102.642550
20
168.987195
30
0.0
11
102.642550
21
173.195395
31
0.0
0
LINE
8
0
6
CONTINUOUS
10
102.341300
20
177.388075
30
0.0
11
102.341300
21
173.645055
31
0.0
0
LINE
8
0
6
CONTINUOUS
10
102.642550
20
173.195395
30
0.0
11
102.642550
21
176.759575
31
0.0
0
LINE
8
0
6
CONTINUOUS
10
102.341330
20
180.293615
30
0.0
11
102.341300
21
177.388075
31
0.0
0
LINE
8
0
6
CONTINUOUS
10
102.642550
20
176.759575
30
0.0
11
102.642540
21
179.526145
31
0.0
0
LINE
8
0
6
CONTINUOUS
10
102.341330
20
182.611325
30
0.0
11
102.341330
21
181.968895
31
0.0
0
LINE
8
0
6
CONTINUOUS
10
102.642540
20
181.733435
30
0.0
11
102.341330
21
182.611325
31
0.0
0
LINE
8
0
6
CONTINUOUS
10
102.642540
20
181.121765
30
0.0
11
102.642540
21
181.733435
31
0.0
0
LINE
8
0
6
CONTINUOUS
10
102.341330
20
181.968895
30
0.0
11
102.341330
21
180.293615
31
0.0
0
LINE
8
0
6
CONTINUOUS
10
102.642540
20
179.526145
30
0.0
11
102.642540
21
181.121765
31
0.0
0
LINE
8
0
6
CONTINUOUS
10
102.084410
20
182.611955
30
0.0
11
91.264370
21
182.611955
31
0.0
0
LINE
8
0
6
CONTINUOUS
10
102.084400
20
145.461065
30
0.0
11
91.145070
21
145.461065
31
0.0
0
LINE
8
0
6
CONTINUOUS
10
88.630860
20
215.285295
30
0.0
11
88.592190
21
215.315075
31
0.0
0
LINE
8
0
6
CONTINUOUS
10
88.630860
20
204.440695
30
0.0
11
88.630860
21
215.285295
31
0.0
0
LINE
8
0
6
CONTINUOUS
10
55.130870
20
204.440715
30
0.0
11
58.457450
21
201.879885
31
0.0
0
LINE
8
0
6
CONTINUOUS
10
58.457450
20
201.879885
30
0.0
11
59.804260
21
201.879885
31
0.0
0
LINE
8
0
6
CONTINUOUS
10
59.804250
20
217.846155
30
0.0
11
58.457450
21
217.846155
31
0.0
0
LINE
8
0
6
CONTINUOUS
10
55.130860
20
215.285335
30
0.0
11
55.130870
21
204.440715
31
0.0
0
LINE
8
0
6
CONTINUOUS
10
58.457450
20
217.846155
30
0.0
11
55.130860
21
215.285335
31
0.0
0
LINE
8
0
6
CONTINUOUS
10
70.534060
20
217.846145
30
0.0
11
59.804250
21
217.846155
31
0.0
0
LINE
8
0
6
CONTINUOUS
10
63.092180
20
215.315095
30
0.0
11
63.880850
21
215.285335
31
0.0
0
LINE
8
0
6
CONTINUOUS
10
59.804250
20
217.846155
30
0.0
11
63.092180
21
215.315095
31
0.0
0
LINE
8
0
6
CONTINUOUS
10
79.880860
20
215.285315
30
0.0
11
80.669540
21
215.315095
31
0.0
0
LINE
8
0
6
CONTINUOUS
10
83.884166
20
217.846125
30
0.0
11
73.227650
21
217.846145
31
0.0
0
LINE
8
0
6
CONTINUOUS
10
73.227650
20
217.846145
30
0.0
11
70.534060
21
217.846145
31
0.0
0
LINE
8
0
6
CONTINUOUS
10
79.880860
20
215.285315
30
0.0
11
73.227650
21
217.846145
31
0.0
0
LINE
8
0
6
CONTINUOUS
10
70.534060
20
217.846145
30
0.0
11
63.880850
21
215.285335
31
0.0
0
LINE
8
0
6
CONTINUOUS
10
70.534050
20
201.879885
30
0.0
11
73.227640
21
201.879885
31
0.0
0
LINE
8
0
6
CONTINUOUS
10
88.592190
20
215.315075
30
0.0
11
86.998390
21
216.541984
31
0.0
0
LINE
8
0
6
CONTINUOUS
10
83.957470
20
217.846125
30
0.0
11
80.669540
21
215.315095
31
0.0
0
LINE
8
0
6
CONTINUOUS
10
83.957460
20
201.879865
30
0.0
11
85.304240
21
201.879865
31
0.0
0
LINE
8
0
6
CONTINUOUS
10
85.304240
20
201.879865
30
0.0
11
88.592180
21
204.410935
31
0.0
0
LINE
8
0
6
CONTINUOUS
10
88.630860
20
204.440695
30
0.0
11
88.592180
21
204.410935
31
0.0
0
LINE
8
0
6
CONTINUOUS
10
79.880860
20
204.440695
30
0.0
11
73.227640
21
201.879885
31
0.0
0
LINE
8
0
6
CONTINUOUS
10
83.957460
20
201.879865
30
0.0
11
80.669530
21
204.410935
31
0.0
0
LINE
8
0
6
CONTINUOUS
10
73.227640
20
201.879885
30
0.0
11
83.957460
21
201.879865
31
0.0
0
LINE
8
0
6
CONTINUOUS
10
80.669530
20
204.410935
30
0.0
11
79.880860
21
204.440695
31
0.0
0
LINE
8
0
6
CONTINUOUS
10
63.880850
20
204.440715
30
0.0
11
63.092180
21
204.410945
31
0.0
0
LINE
8
0
6
CONTINUOUS
10
63.092180
20
204.410945
30
0.0
11
59.804260
21
201.879885
31
0.0
0
LINE
8
0
6
CONTINUOUS
10
59.804260
20
201.879885
30
0.0
11
70.534050
21
201.879885
31
0.0
0
LINE
8
0
6
CONTINUOUS
10
70.534050
20
201.879885
30
0.0
11
63.880850
21
204.440715
31
0.0
0
LINE
8
0
6
CONTINUOUS
10
84.969848
20
198.690932
30
0.0
11
84.969847
21
201.879865
31
0.0
0
LINE
8
0
6
CONTINUOUS
10
58.523660
20
218.130261
30
0.0
11
58.523660
21
217.846155
31
0.0
0
LINE
8
0
6
CONTINUOUS
10
58.523660
20
201.879885
30
0.0
11
58.523660
21
198.690217
31
0.0
0
LINE
8
0
6
CONTINUOUS
10
71.334140
20
219.563115
30
0.0
11
63.760810
21
219.563115
31
0.0
0
LINE
8
0
6
CONTINUOUS
10
63.760810
20
219.563115
30
0.0
11
56.567250
21
219.563115
31
0.0
0
LINE
8
0
6
CONTINUOUS
10
56.567250
20
219.563115
30
0.0
11
51.234348
21
219.563115
31
0.0
0
LINE
8
0
6
CONTINUOUS
10
79.663683
20
219.563115
30
0.0
11
78.907400
21
219.563115
31
0.0
0
LINE
8
0
6
CONTINUOUS
10
78.907400
20
219.563115
30
0.0
11
71.334140
21
219.563115
31
0.0
0
LINE
8
0
6
CONTINUOUS
10
50.844875
20
218.642117
30
0.0
11
58.523660
21
218.119988
31
0.0
0
LINE
8
0
6
CONTINUOUS
10
37.299960
20
242.398455
30
0.0
11
37.299950
21
222.510258
31
0.0
0
LINE
8
0
6
CONTINUOUS
10
105.368320
20
223.186415
30
0.0
11
105.368320
21
242.398455
31
0.0
0
LINE
8
0
6
CONTINUOUS
10
71.334130
20
243.195265
30
0.0
11
63.760810
21
243.195265
31
0.0
0
LINE
8
0
6
CONTINUOUS
10
63.760810
20
243.195265
30
0.0
11
56.567250
21
243.195265
31
0.0
0
LINE
8
0
6
CONTINUOUS
10
56.567250
20
243.195265
30
0.0
11
50.114170
21
243.195265
31
0.0
0
LINE
8
0
6
CONTINUOUS
10
50.114170
20
243.195265
30
0.0
11
44.725140
21
243.195265
31
0.0
0
LINE
8
0
6
CONTINUOUS
10
44.725140
20
243.195265
30
0.0
11
40.670400
21
243.195265
31
0.0
0
LINE
8
0
6
CONTINUOUS
10
40.670400
20
243.195265
30
0.0
11
38.153260
21
243.195265
31
0.0
0
LINE
8
0
6
CONTINUOUS
10
37.299960
20
243.195265
30
0.0
11
37.299960
21
242.398455
31
0.0
0
LINE
8
0
6
CONTINUOUS
10
38.153260
20
243.195265
30
0.0
11
37.299960
21
243.195265
31
0.0
0
LINE
8
0
6
CONTINUOUS
10
105.368320
20
243.195265
30
0.0
11
104.515020
21
243.195265
31
0.0
0
LINE
8
0
6
CONTINUOUS
10
105.368320
20
242.398455
30
0.0
11
105.368320
21
243.195265
31
0.0
0
LINE
8
0
6
CONTINUOUS
10
104.515020
20
243.195265
30
0.0
11
101.997860
21
243.195265
31
0.0
0
LINE
8
0
6
CONTINUOUS
10
101.997860
20
243.195265
30
0.0
11
97.943110
21
243.195265
31
0.0
0
LINE
8
0
6
CONTINUOUS
10
97.943110
20
243.195265
30
0.0
11
92.554070
21
243.195265
31
0.0
0
LINE
8
0
6
CONTINUOUS
10
92.554070
20
243.195265
30
0.0
11
86.100980
21
243.195265
31
0.0
0
LINE
8
0
6
CONTINUOUS
10
78.907390
20
243.195265
30
0.0
11
71.334130
21
243.195265
31
0.0
0
LINE
8
0
6
CONTINUOUS
10
86.100980
20
243.195265
30
0.0
11
78.907390
21
243.195265
31
0.0
0
LINE
8
0
6
CONTINUOUS
10
-61.508640
20
215.285295
30
0.0
11
-61.547310
21
215.315075
31
0.0
0
LINE
8
0
6
CONTINUOUS
10
-61.508640
20
204.440695
30
0.0
11
-61.508640
21
215.285295
31
0.0
0
LINE
8
0
6
CONTINUOUS
10
-95.008630
20
204.440715
30
0.0
11
-91.682050
21
201.879885
31
0.0
0
LINE
8
0
6
CONTINUOUS
10
-91.682050
20
201.879885
30
0.0
11
-90.335240
21
201.879885
31
0.0
0
LINE
8
0
6
CONTINUOUS
10
-90.335250
20
217.846155
30
0.0
11
-91.682050
21
217.846155
31
0.0
0
LINE
8
0
6
CONTINUOUS
10
-95.008640
20
215.285335
30
0.0
11
-95.008630
21
204.440715
31
0.0
0
LINE
8
0
6
CONTINUOUS
10
-91.682050
20
217.846155
30
0.0
11
-95.008640
21
215.285335
31
0.0
0
LINE
8
0
6
CONTINUOUS
10
-79.605440
20
217.846145
30
0.0
11
-90.335250
21
217.846155
31
0.0
0
LINE
8
0
6
CONTINUOUS
10
-87.047320
20
215.315095
30
0.0
11
-86.258650
21
215.285335
31
0.0
0
LINE
8
0
6
CONTINUOUS
10
-90.335250
20
217.846155
30
0.0
11
-87.047320
21
215.315095
31
0.0
0
LINE
8
0
6
CONTINUOUS
10
-70.258640
20
215.285315
30
0.0
11
-69.469960
21
215.315095
31
0.0
0
LINE
8
0
6
CONTINUOUS
10
-66.182030
20
217.846125
30
0.0
11
-76.911850
21
217.846145
31
0.0
0
LINE
8
0
6
CONTINUOUS
10
-76.911850
20
217.846145
30
0.0
11
-79.605440
21
217.846145
31
0.0
0
LINE
8
0
6
CONTINUOUS
10
-70.258640
20
215.285315
30
0.0
11
-76.911850
21
217.846145
31
0.0
0
LINE
8
0
6
CONTINUOUS
10
-79.605440
20
217.846145
30
0.0
11
-86.258650
21
215.285335
31
0.0
0
LINE
8
0
6
CONTINUOUS
10
-79.605450
20
201.879885
30
0.0
11
-76.911860
21
201.879885
31
0.0
0
LINE
8
0
6
CONTINUOUS
10
-61.547310
20
215.315075
30
0.0
11
-64.835250
21
217.846135
31
0.0
0
LINE
8
0
6
CONTINUOUS
10
-64.835250
20
217.846135
30
0.0
11
-66.182030
21
217.846125
31
0.0
0
LINE
8
0
6
CONTINUOUS
10
-66.182030
20
217.846125
30
0.0
11
-69.469960
21
215.315095
31
0.0
0
LINE
8
0
6
CONTINUOUS
10
-66.182040
20
201.879865
30
0.0
11
-64.835260
21
201.879865
31
0.0
0
LINE
8
0
6
CONTINUOUS
10
-64.835260
20
201.879865
30
0.0
11
-61.547320
21
204.410935
31
0.0
0
LINE
8
0
6
CONTINUOUS
10
-61.508640
20
204.440695
30
0.0
11
-61.547320
21
204.410935
31
0.0
0
LINE
8
0
6
CONTINUOUS
10
-70.258640
20
204.440695
30
0.0
11
-76.911860
21
201.879885
31
0.0
0
LINE
8
0
6
CONTINUOUS
10
-66.182040
20
201.879865
30
0.0
11
-69.469970
21
204.410935
31
0.0
0
LINE
8
0
6
CONTINUOUS
10
-76.911860
20
201.879885
30
0.0
11
-66.182040
21
201.879865
31
0.0
0
LINE
8
0
6
CONTINUOUS
10
-69.469970
20
204.410935
30
0.0
11
-70.258640
21
204.440695
31
0.0
0
LINE
8
0
6
CONTINUOUS
10
-86.258650
20
204.440715
30
0.0
11
-87.047320
21
204.410945
31
0.0
0
LINE
8
0
6
CONTINUOUS
10
-87.047320
20
204.410945
30
0.0
11
-90.335240
21
201.879885
31
0.0
0
LINE
8
0
6
CONTINUOUS
10
-90.335240
20
201.879885
30
0.0
11
-79.605450
21
201.879885
31
0.0
0
LINE
8
0
6
CONTINUOUS
10
-79.605450
20
201.879885
30
0.0
11
-86.258650
21
204.440715
31
0.0
0
LINE
8
0
6
CONTINUOUS
10
-65.169652
20
198.689518
30
0.0
11
-65.169653
21
201.879865
31
0.0
0
LINE
8
0
6
CONTINUOUS
10
-91.615840
20
218.130261
30
0.0
11
-91.615840
21
217.846155
31
0.0
0
LINE
8
0
6
CONTINUOUS
10
-91.615840
20
201.879885
30
0.0
11
-91.615840
21
198.690890
31
0.0
0
LINE
8
0
6
CONTINUOUS
10
-112.839550
20
221.531695
30
0.0
11
-112.839550
21
219.563115
31
0.0
0
LINE
8
0
6
CONTINUOUS
10
-44.771170
20
219.563115
30
0.0
11
-44.771180
21
221.531695
31
0.0
0
LINE
8
0
6
CONTINUOUS
10
-78.805360
20
219.563115
30
0.0
11
-86.378690
21
219.563115
31
0.0
0
LINE
8
0
6
CONTINUOUS
10
-86.378690
20
219.563115
30
0.0
11
-93.572250
21
219.563115
31
0.0
0
LINE
8
0
6
CONTINUOUS
10
-93.572250
20
219.563115
30
0.0
11
-100.025340
21
219.563115
31
0.0
0
LINE
8
0
6
CONTINUOUS
10
-100.025340
20
219.563115
30
0.0
11
-105.414370
21
219.563115
31
0.0
0
LINE
8
0
6
CONTINUOUS
10
-105.414370
20
219.563115
30
0.0
11
-109.469110
21
219.563115
31
0.0
0
LINE
8
0
6
CONTINUOUS
10
-109.469110
20
219.563115
30
0.0
11
-111.986240
21
219.563115
31
0.0
0
LINE
8
0
6
CONTINUOUS
10
-112.839550
20
219.563115
30
0.0
11
-111.090540
21
219.444195
31
0.0
0
LINE
8
0
6
CONTINUOUS
10
-111.986240
20
219.563115
30
0.0
11
-112.839550
21
219.563115
31
0.0
0
LINE
8
0
6
CONTINUOUS
10
-44.771170
20
219.563115
30
0.0
11
-45.624500
21
219.563115
31
0.0
0
LINE
8
0
6
CONTINUOUS
10
-46.520170
20
219.444195
30
0.0
11
-44.771170
21
219.563115
31
0.0
0
LINE
8
0
6
CONTINUOUS
10
-45.624500
20
219.563115
30
0.0
11
-48.141640
21
219.563115
31
0.0
0
LINE
8
0
6
CONTINUOUS
10
-48.141640
20
219.563115
30
0.0
11
-52.196390
21
219.563115
31
0.0
0
LINE
8
0
6
CONTINUOUS
10
-52.196390
20
219.563115
30
0.0
11
-57.585430
21
219.563115
31
0.0
0
LINE
8
0
6
CONTINUOUS
10
-57.585430
20
219.563115
30
0.0
11
-64.038530
21
219.563115
31
0.0
0
LINE
8
0
6
CONTINUOUS
10
-64.038530
20
219.563115
30
0.0
11
-71.232100
21
219.563115
31
0.0
0
LINE
8
0
6
CONTINUOUS
10
-71.232100
20
219.563115
30
0.0
11
-78.805360
21
219.563115
31
0.0
0
LINE
8
0
6
CONTINUOUS
10
-111.090540
20
219.444195
30
0.0
11
-91.615840
21
218.119988
31
0.0
0
LINE
8
0
6
CONTINUOUS
10
-65.169657
20
218.176100
30
0.0
11
-46.520170
21
219.444195
31
0.0
0
LINE
8
0
6
CONTINUOUS
10
-112.839540
20
242.398455
30
0.0
11
-112.839550
21
221.531695
31
0.0
0
LINE
8
0
6
CONTINUOUS
10
-44.771180
20
221.531695
30
0.0
11
-44.771180
21
242.398455
31
0.0
0
LINE
8
0
6
CONTINUOUS
10
-78.805370
20
243.195265
30
0.0
11
-86.378690
21
243.195265
31
0.0
0
LINE
8
0
6
CONTINUOUS
10
-86.378690
20
243.195265
30
0.0
11
-93.572250
21
243.195265
31
0.0
0
LINE
8
0
6
CONTINUOUS
10
-93.572250
20
243.195265
30
0.0
11
-100.025330
21
243.195265
31
0.0
0
LINE
8
0
6
CONTINUOUS
10
-100.025330
20
243.195265
30
0.0
11
-105.414360
21
243.195265
31
0.0
0
LINE
8
0
6
CONTINUOUS
10
-105.414360
20
243.195265
30
0.0
11
-109.469100
21
243.195265
31
0.0
0
LINE
8
0
6
CONTINUOUS
10
-109.469100
20
243.195265
30
0.0
11
-111.986240
21
243.195265
31
0.0
0
LINE
8
0
6
CONTINUOUS
10
-112.839540
20
243.195265
30
0.0
11
-112.839540
21
242.398455
31
0.0
0
LINE
8
0
6
CONTINUOUS
10
-111.986240
20
243.195265
30
0.0
11
-112.839540
21
243.195265
31
0.0
0
LINE
8
0
6
CONTINUOUS
10
-44.771180
20
243.195265
30
0.0
11
-45.624480
21
243.195265
31
0.0
0
LINE
8
0
6
CONTINUOUS
10
-44.771180
20
242.398455
30
0.0
11
-44.771180
21
243.195265
31
0.0
0
LINE
8
0
6
CONTINUOUS
10
-45.624480
20
243.195265
30
0.0
11
-48.141640
21
243.195265
31
0.0
0
LINE
8
0
6
CONTINUOUS
10
-48.141640
20
243.195265
30
0.0
11
-52.196390
21
243.195265
31
0.0
0
LINE
8
0
6
CONTINUOUS
10
-52.196390
20
243.195265
30
0.0
11
-57.585430
21
243.195265
31
0.0
0
LINE
8
0
6
CONTINUOUS
10
-57.585430
20
243.195265
30
0.0
11
-64.038520
21
243.195265
31
0.0
0
LINE
8
0
6
CONTINUOUS
10
-71.232110
20
243.195265
30
0.0
11
-78.805370
21
243.195265
31
0.0
0
LINE
8
0
6
CONTINUOUS
10
-64.038520
20
243.195265
30
0.0
11
-71.232110
21
243.195265
31
0.0
0
LINE
8
0
6
CONTINUOUS
10
84.322648
20
198.690766
30
0.0
11
82.444460
21
198.690549
31
0.0
0
LINE
8
0
6
CONTINUOUS
10
84.969848
20
198.690932
30
0.0
11
84.322648
21
198.690766
31
0.0
0
LINE
8
0
6
CONTINUOUS
10
75.832892
20
198.690050
30
0.0
11
79.519060
21
198.690302
31
0.0
0
LINE
8
0
6
CONTINUOUS
10
82.444460
20
198.690549
30
0.0
11
79.519060
21
198.690302
31
0.0
0
LINE
8
0
6
CONTINUOUS
10
-82.478910
20
198.690007
30
0.0
11
-78.392740
21
198.689774
31
0.0
0
LINE
8
0
6
CONTINUOUS
10
-89.090440
20
198.690506
30
0.0
11
-86.165072
21
198.690260
31
0.0
0
LINE
8
0
6
CONTINUOUS
10
-91.615840
20
198.690890
30
0.0
11
-90.968660
21
198.690723
31
0.0
0
LINE
8
0
6
CONTINUOUS
10
-86.165072
20
198.690260
30
0.0
11
-82.478910
21
198.690007
31
0.0
0
LINE
8
0
6
CONTINUOUS
10
-78.805360
20
218.234788
30
0.0
11
-78.392740
21
218.242392
31
0.0
0
LINE
8
0
6
CONTINUOUS
10
-82.478910
20
218.230804
30
0.0
11
-81.999165
21
218.224870
31
0.0
0
LINE
8
0
6
CONTINUOUS
10
-81.999165
20
218.224870
30
0.0
11
-78.805360
21
218.234788
31
0.0
0
LINE
8
0
6
CONTINUOUS
10
62.727765
20
218.187521
30
0.0
11
63.974423
21
218.214368
31
0.0
0
LINE
8
0
6
CONTINUOUS
10
63.974423
20
218.214368
30
0.0
11
65.228789
21
218.205735
31
0.0
0
LINE
8
0
6
CONTINUOUS
10
71.334140
20
218.234788
30
0.0
11
71.746760
21
218.242392
31
0.0
0
LINE
8
0
6
CONTINUOUS
10
71.746760
20
218.242392
30
0.0
11
74.556702
21
218.233659
31
0.0
0
LINE
8
0
6
CONTINUOUS
10
82.536162
20
218.223170
30
0.0
11
82.444460
21
218.227441
31
0.0
0
LINE
8
0
6
CONTINUOUS
10
82.444460
20
218.227441
30
0.0
11
80.306642
21
218.227444
31
0.0
0
LINE
8
0
6
CONTINUOUS
10
-65.816857
20
218.210457
30
0.0
11
-66.155559
21
218.203605
31
0.0
0
LINE
8
0
6
CONTINUOUS
10
-65.440439
20
218.181059
30
0.0
11
-65.816857
21
218.210457
31
0.0
0
LINE
8
0
6
CONTINUOUS
10
-75.582798
20
218.233659
30
0.0
11
-74.306603
21
218.249446
31
0.0
0
LINE
8
0
6
CONTINUOUS
10
-78.392740
20
218.242392
30
0.0
11
-75.582798
21
218.233659
31
0.0
0
LINE
8
0
6
CONTINUOUS
10
-66.155559
20
218.203605
30
0.0
11
-67.603338
21
218.223170
31
0.0
0
LINE
8
0
6
CONTINUOUS
10
-67.603338
20
218.223170
30
0.0
11
-67.695040
21
218.227441
31
0.0
0
LINE
8
0
6
CONTINUOUS
10
-87.411735
20
218.187521
30
0.0
11
-86.165077
21
218.214368
31
0.0
0
LINE
8
0
6
CONTINUOUS
10
-89.090440
20
218.187517
30
0.0
11
-87.411735
21
218.187521
31
0.0
0
LINE
8
0
6
CONTINUOUS
10
-91.615840
20
218.130261
30
0.0
11
-91.373859
21
218.125512
31
0.0
0
LINE
8
0
6
CONTINUOUS
10
-91.373859
20
218.125512
30
0.0
11
-90.968660
21
218.157163
31
0.0
0
LINE
8
0
6
CONTINUOUS
10
-65.169657
20
218.186373
30
0.0
11
-65.440439
21
218.181059
31
0.0
0
LINE
8
0
6
CONTINUOUS
10
-69.832858
20
218.227444
30
0.0
11
-70.620440
21
218.244412
31
0.0
0
LINE
8
0
6
CONTINUOUS
10
-67.695040
20
218.227441
30
0.0
11
-69.832858
21
218.227444
31
0.0
0
LINE
8
0
6
CONTINUOUS
10
-74.306603
20
218.249446
30
0.0
11
-72.537434
21
218.231217
31
0.0
0
LINE
8
0
6
CONTINUOUS
10
-90.968660
20
218.157163
30
0.0
11
-90.792537
21
218.153606
31
0.0
0
LINE
8
0
6
CONTINUOUS
10
-90.792537
20
218.153606
30
0.0
11
-89.420564
21
218.172142
31
0.0
0
LINE
8
0
6
CONTINUOUS
10
-84.910711
20
218.205735
30
0.0
11
-82.478910
21
218.230804
31
0.0
0
LINE
8
0
6
CONTINUOUS
10
-72.537434
20
218.231217
30
0.0
11
-70.620440
21
218.244412
31
0.0
0
LINE
8
0
6
CONTINUOUS
10
-86.165077
20
218.214368
30
0.0
11
-84.910711
21
218.205735
31
0.0
0
LINE
8
0
6
CONTINUOUS
10
77.602066
20
218.231217
30
0.0
11
79.519060
21
218.244412
31
0.0
0
LINE
8
0
6
CONTINUOUS
10
80.306642
20
218.227444
30
0.0
11
79.519060
21
218.244412
31
0.0
0
LINE
8
0
6
CONTINUOUS
10
-89.420564
20
218.172142
30
0.0
11
-89.090440
21
218.187517
31
0.0
0
LINE
8
0
6
CONTINUOUS
10
60.718936
20
218.172142
30
0.0
11
61.049060
21
218.187517
31
0.0
0
LINE
8
0
6
CONTINUOUS
10
59.170840
20
218.157163
30
0.0
11
59.346963
21
218.153606
31
0.0
0
LINE
8
0
6
CONTINUOUS
10
59.346963
20
218.153606
30
0.0
11
60.718936
21
218.172142
31
0.0
0
LINE
8
0
6
CONTINUOUS
10
61.049060
20
218.187517
30
0.0
11
62.727765
21
218.187521
31
0.0
0
LINE
8
0
6
CONTINUOUS
10
68.140335
20
218.224870
30
0.0
11
71.334140
21
218.234788
31
0.0
0
LINE
8
0
6
CONTINUOUS
10
58.523660
20
218.130261
30
0.0
11
58.765641
21
218.125512
31
0.0
0
LINE
8
0
6
CONTINUOUS
10
58.765641
20
218.125512
30
0.0
11
59.170840
21
218.157163
31
0.0
0
LINE
8
0
6
CONTINUOUS
10
75.832897
20
218.249446
30
0.0
11
77.602066
21
218.231217
31
0.0
0
LINE
8
0
6
CONTINUOUS
10
67.660590
20
218.230804
30
0.0
11
68.140335
21
218.224870
31
0.0
0
LINE
8
0
6
CONTINUOUS
10
74.556702
20
218.233659
30
0.0
11
75.832897
21
218.249446
31
0.0
0
LINE
8
0
6
CONTINUOUS
10
65.228789
20
218.205735
30
0.0
11
67.660590
21
218.230804
31
0.0
0
LINE
8
0
6
CONTINUOUS
10
47.556507
20
162.480588
30
0.0
11
47.023986
21
163.075961
31
0.0
0
LINE
8
0
6
CONTINUOUS
10
47.023986
20
163.075961
30
0.0
11
45.816031
21
164.426503
31
0.0
0
LINE
8
0
6
CONTINUOUS
10
27.677872
20
160.629136
30
0.0
11
28.571041
21
162.480634
31
0.0
0
LINE
8
0
6
CONTINUOUS
10
49.020026
20
157.785809
30
0.0
11
48.924727
21
158.410230
31
0.0
0
LINE
8
0
6
CONTINUOUS
10
48.924727
20
158.410230
30
0.0
11
48.649206
21
160.215522
31
0.0
0
LINE
8
0
6
CONTINUOUS
10
48.649206
20
160.215522
30
0.0
11
48.359017
21
160.817061
31
0.0
0
LINE
8
0
6
CONTINUOUS
10
48.359017
20
160.817061
30
0.0
11
47.556507
21
162.480588
31
0.0
0
LINE
8
0
6
CONTINUOUS
10
27.206195
20
158.432330
30
0.0
11
27.478347
21
160.215503
31
0.0
0
LINE
8
0
6
CONTINUOUS
10
27.107521
20
157.785819
30
0.0
11
27.206195
21
158.432330
31
0.0
0
LINE
8
0
6
CONTINUOUS
10
44.738856
20
165.135342
30
0.0
11
45.816031
21
164.426503
31
0.0
0
LINE
8
0
6
CONTINUOUS
10
43.546243
20
165.920141
30
0.0
11
44.738856
21
165.135342
31
0.0
0
LINE
8
0
6
CONTINUOUS
10
38.063775
20
167.179748
30
0.0
11
40.901971
21
166.859342
31
0.0
0
LINE
8
0
6
CONTINUOUS
10
30.311521
20
164.426538
30
0.0
11
30.758174
21
164.720469
31
0.0
0
LINE
8
0
6
CONTINUOUS
10
30.758174
20
164.720469
30
0.0
11
32.581304
21
165.920194
31
0.0
0
LINE
8
0
6
CONTINUOUS
10
34.013184
20
166.428746
30
0.0
11
35.225579
21
166.859359
31
0.0
0
LINE
8
0
6
CONTINUOUS
10
32.581304
20
165.920194
30
0.0
11
34.013184
21
166.428746
31
0.0
0
LINE
8
0
6
CONTINUOUS
10
37.659863
20
167.134156
30
0.0
11
38.063775
21
167.179748
31
0.0
0
LINE
8
0
6
CONTINUOUS
10
35.225579
20
166.859359
30
0.0
11
37.659863
21
167.134156
31
0.0
0
LINE
8
0
6
CONTINUOUS
10
40.901971
20
166.859342
30
0.0
11
41.364156
21
166.695184
31
0.0
0
ENDSEC
0
EOF
