999
Erzeugt mit innoplus bad 
0
SECTION
2
HEADER
9
$ACADVER
1
AC1009
9
$DWGCODEPAGE
3
ISO8859-1
0
ENDSEC
0
SECTION
2
TABLES
0
TABLE
2
LAYER
70
1
0
LAYER
2
0
70
0
62
7
6
CONTINUOUS
0
ENDTAB
0
ENDSEC
0
SECTION
2
ENTITIES
0
LINE
8
0
6
CONTINUOUS
10
-16.145800
20
813.481335
30
0.0
11
-15.313930
21
813.481335
31
0.0
0
LINE
8
0
6
CONTINUOUS
10
-12.366735
20
813.481442
30
0.0
11
-16.145800
21
813.481335
31
0.0
0
LINE
8
0
6
CONTINUOUS
10
8.808630
20
813.481335
30
0.0
11
4.895460
21
813.481447
31
0.0
0
LINE
8
0
6
CONTINUOUS
10
7.967790
20
813.481335
30
0.0
11
8.808630
21
813.481335
31
0.0
0
LINE
8
0
6
CONTINUOUS
10
8.674540
20
813.481335
30
0.0
11
3.351950
21
813.481335
31
0.0
0
LINE
8
0
6
CONTINUOUS
10
3.351950
20
813.481335
30
0.0
11
-3.869720
21
813.481335
31
0.0
0
LINE
8
0
6
CONTINUOUS
10
-3.869720
20
813.481335
30
0.0
11
-11.055490
21
813.481335
31
0.0
0
LINE
8
0
6
CONTINUOUS
10
-11.055490
20
813.481335
30
0.0
11
-16.279890
21
813.481335
31
0.0
0
LINE
8
0
6
CONTINUOUS
10
10.782340
20
812.825055
30
0.0
11
10.671820
21
813.481335
31
0.0
0
LINE
8
0
6
CONTINUOUS
10
10.671820
20
813.481335
30
0.0
11
8.674540
21
813.481335
31
0.0
0
LINE
8
0
6
CONTINUOUS
10
-18.143090
20
813.481335
30
0.0
11
-18.253600
21
812.825055
31
0.0
0
LINE
8
0
6
CONTINUOUS
10
-16.279890
20
813.481335
30
0.0
11
-18.143090
21
813.481335
31
0.0
0
LINE
8
0
6
CONTINUOUS
10
11.702160
20
807.362555
30
0.0
11
10.782340
21
812.825055
31
0.0
0
LINE
8
0
6
CONTINUOUS
10
-18.253600
20
812.825055
30
0.0
11
-19.173450
21
807.362555
31
0.0
0
LINE
8
0
6
CONTINUOUS
10
11.702127
20
788.084249
30
0.0
11
11.702160
21
807.362555
31
0.0
0
LINE
8
0
6
CONTINUOUS
10
-19.173450
20
807.362555
30
0.0
11
-19.173466
21
788.084248
31
0.0
0
LINE
8
0
6
CONTINUOUS
10
7.538580
20
821.249585
30
0.0
11
7.538560
21
833.007245
31
0.0
0
LINE
8
0
6
CONTINUOUS
10
-15.009860
20
833.007245
30
0.0
11
-15.009850
21
821.249585
31
0.0
0
LINE
8
0
6
CONTINUOUS
10
5.975630
20
833.647195
30
0.0
11
1.810580
21
833.647195
31
0.0
0
LINE
8
0
6
CONTINUOUS
10
1.810580
20
833.647195
30
0.0
11
-3.840600
21
833.647195
31
0.0
0
LINE
8
0
6
CONTINUOUS
10
-3.840600
20
833.647195
30
0.0
11
-9.463640
21
833.647195
31
0.0
0
LINE
8
0
6
CONTINUOUS
10
-9.463640
20
833.647195
30
0.0
11
-13.551870
21
833.647195
31
0.0
0
LINE
8
0
6
CONTINUOUS
10
7.538560
20
833.007245
30
0.0
11
7.538560
21
833.647195
31
0.0
0
LINE
8
0
6
CONTINUOUS
10
7.538560
20
833.647195
30
0.0
11
5.975630
21
833.647195
31
0.0
0
LINE
8
0
6
CONTINUOUS
10
-15.009860
20
833.647195
30
0.0
11
-15.009860
21
833.007245
31
0.0
0
LINE
8
0
6
CONTINUOUS
10
-13.551870
20
833.647195
30
0.0
11
-15.009860
21
833.647195
31
0.0
0
LINE
8
0
6
CONTINUOUS
10
4.895427
20
813.481357
30
0.0
11
7.538580
21
820.849645
31
0.0
0
LINE
8
0
6
CONTINUOUS
10
-15.009850
20
820.849645
30
0.0
11
-12.366735
21
813.481442
31
0.0
0
LINE
8
0
6
CONTINUOUS
10
7.538580
20
820.849645
30
0.0
11
7.538580
21
821.249585
31
0.0
0
LINE
8
0
6
CONTINUOUS
10
-15.009850
20
821.249585
30
0.0
11
-15.009850
21
820.849645
31
0.0
0
LINE
8
0
6
CONTINUOUS
10
-97.225900
20
763.100015
30
0.0
11
-97.225900
21
762.232705
31
0.0
0
LINE
8
0
6
CONTINUOUS
10
89.754540
20
762.232705
30
0.0
11
89.754540
21
763.100015
31
0.0
0
LINE
8
0
6
CONTINUOUS
10
-19.173448
20
788.084250
30
0.0
11
-95.025710
21
781.039165
31
0.0
0
LINE
8
0
6
CONTINUOUS
10
87.554360
20
781.039165
30
0.0
11
11.702127
21
788.084248
31
0.0
0
LINE
8
0
6
CONTINUOUS
10
-97.225900
20
779.578595
30
0.0
11
-97.225900
21
763.100015
31
0.0
0
LINE
8
0
6
CONTINUOUS
10
89.754540
20
763.100015
30
0.0
11
89.754540
21
779.578595
31
0.0
0
LINE
8
0
6
CONTINUOUS
10
-22.070050
20
759.311865
30
0.0
11
-4.571300
21
759.311865
31
0.0
0
LINE
8
0
6
CONTINUOUS
10
-38.864360
20
759.311865
30
0.0
11
-22.070050
21
759.311865
31
0.0
0
LINE
8
0
6
CONTINUOUS
10
-54.308700
20
759.311865
30
0.0
11
-38.864360
21
759.311865
31
0.0
0
LINE
8
0
6
CONTINUOUS
10
-67.809530
20
759.311865
30
0.0
11
-54.308700
21
759.311865
31
0.0
0
LINE
8
0
6
CONTINUOUS
10
-78.848050
20
759.311865
30
0.0
11
-67.809530
21
759.311865
31
0.0
0
LINE
8
0
6
CONTINUOUS
10
-87.000030
20
759.311865
30
0.0
11
-78.848050
21
759.311865
31
0.0
0
LINE
8
0
6
CONTINUOUS
10
-91.952230
20
759.311865
30
0.0
11
-87.000030
21
759.311865
31
0.0
0
LINE
8
0
6
CONTINUOUS
10
-93.514310
20
759.311865
30
0.0
11
-91.952230
21
759.311865
31
0.0
0
LINE
8
0
6
CONTINUOUS
10
-96.459130
20
759.987525
30
0.0
11
-93.514310
21
759.311865
31
0.0
0
LINE
8
0
6
CONTINUOUS
10
84.154850
20
759.311865
30
0.0
11
86.042950
21
759.311865
31
0.0
0
LINE
8
0
6
CONTINUOUS
10
86.042950
20
759.311865
30
0.0
11
88.987790
21
759.987525
31
0.0
0
LINE
8
0
6
CONTINUOUS
10
78.889180
20
759.311865
30
0.0
11
84.154850
21
759.311865
31
0.0
0
LINE
8
0
6
CONTINUOUS
10
70.448290
20
759.311865
30
0.0
11
78.889180
21
759.311865
31
0.0
0
LINE
8
0
6
CONTINUOUS
10
59.156530
20
759.311865
30
0.0
11
70.448290
21
759.311865
31
0.0
0
LINE
8
0
6
CONTINUOUS
10
45.447860
20
759.311865
30
0.0
11
59.156530
21
759.311865
31
0.0
0
LINE
8
0
6
CONTINUOUS
10
29.849110
20
759.311865
30
0.0
11
45.447860
21
759.311865
31
0.0
0
LINE
8
0
6
CONTINUOUS
10
12.959710
20
759.311865
30
0.0
11
29.849110
21
759.311865
31
0.0
0
LINE
8
0
6
CONTINUOUS
10
-4.571300
20
759.311865
30
0.0
11
12.959710
21
759.311865
31
0.0
0
LINE
8
0
6
CONTINUOUS
10
-40.016630
20
759.987525
30
0.0
11
-22.671440
21
759.987525
31
0.0
0
LINE
8
0
6
CONTINUOUS
10
-22.671440
20
759.987525
30
0.0
11
-4.598700
21
759.987525
31
0.0
0
LINE
8
0
6
CONTINUOUS
10
-55.967560
20
759.987525
30
0.0
11
-40.016630
21
759.987525
31
0.0
0
LINE
8
0
6
CONTINUOUS
10
-69.911240
20
759.987525
30
0.0
11
-55.998510
21
759.987525
31
0.0
0
LINE
8
0
6
CONTINUOUS
10
-81.311820
20
759.987525
30
0.0
11
-69.911240
21
759.987525
31
0.0
0
LINE
8
0
6
CONTINUOUS
10
-89.731220
20
759.987525
30
0.0
11
-81.311820
21
759.987525
31
0.0
0
LINE
8
0
6
CONTINUOUS
10
-94.845830
20
759.987525
30
0.0
11
-89.731220
21
759.987525
31
0.0
0
LINE
8
0
6
CONTINUOUS
10
-97.225900
20
762.232705
30
0.0
11
-96.459130
21
759.987525
31
0.0
0
LINE
8
0
6
CONTINUOUS
10
-96.459130
20
759.987525
30
0.0
11
-94.845830
21
759.987525
31
0.0
0
LINE
8
0
6
CONTINUOUS
10
88.987790
20
759.987525
30
0.0
11
89.754540
21
762.232705
31
0.0
0
LINE
8
0
6
CONTINUOUS
10
87.037770
20
759.987525
30
0.0
11
88.987790
21
759.987525
31
0.0
0
LINE
8
0
6
CONTINUOUS
10
81.599370
20
759.987525
30
0.0
11
87.037770
21
759.987525
31
0.0
0
LINE
8
0
6
CONTINUOUS
10
72.881610
20
759.987525
30
0.0
11
81.599370
21
759.987525
31
0.0
0
LINE
8
0
6
CONTINUOUS
10
61.219470
20
759.987525
30
0.0
11
72.881610
21
759.987525
31
0.0
0
LINE
8
0
6
CONTINUOUS
10
47.061140
20
759.987525
30
0.0
11
61.219470
21
759.987525
31
0.0
0
LINE
8
0
6
CONTINUOUS
10
30.950730
20
759.987525
30
0.0
11
47.061140
21
759.987525
31
0.0
0
LINE
8
0
6
CONTINUOUS
10
13.507330
20
759.987525
30
0.0
11
30.950730
21
759.987525
31
0.0
0
LINE
8
0
6
CONTINUOUS
10
-95.025710
20
781.039165
30
0.0
11
-97.225900
21
780.834995
31
0.0
0
LINE
8
0
6
CONTINUOUS
10
89.754540
20
780.834995
30
0.0
11
87.554360
21
781.039165
31
0.0
0
LINE
8
0
6
CONTINUOUS
10
-22.828020
20
780.834995
30
0.0
11
-40.316630
21
780.834995
31
0.0
0
LINE
8
0
6
CONTINUOUS
10
-4.605850
20
780.834995
30
0.0
11
-22.828020
21
780.834995
31
0.0
0
LINE
8
0
6
CONTINUOUS
10
-4.598700
20
759.987525
30
0.0
11
13.507330
21
759.987525
31
0.0
0
LINE
8
0
6
CONTINUOUS
10
-40.316630
20
780.834995
30
0.0
11
-56.399470
21
780.834995
31
0.0
0
LINE
8
0
6
CONTINUOUS
10
-56.399470
20
780.834995
30
0.0
11
-70.458460
21
780.834995
31
0.0
0
LINE
8
0
6
CONTINUOUS
10
-70.458460
20
780.834995
30
0.0
11
-81.953310
21
780.834995
31
0.0
0
LINE
8
0
6
CONTINUOUS
10
-81.953310
20
780.834995
30
0.0
11
-90.442320
21
780.834995
31
0.0
0
LINE
8
0
6
CONTINUOUS
10
-90.442320
20
780.834995
30
0.0
11
-95.599240
21
780.834995
31
0.0
0
LINE
8
0
6
CONTINUOUS
10
-97.225900
20
780.834995
30
0.0
11
-97.225900
21
779.578595
31
0.0
0
LINE
8
0
6
CONTINUOUS
10
-95.599240
20
780.834995
30
0.0
11
-97.225900
21
780.834995
31
0.0
0
LINE
8
0
6
CONTINUOUS
10
89.754540
20
780.834995
30
0.0
11
87.788390
21
780.834995
31
0.0
0
LINE
8
0
6
CONTINUOUS
10
89.754540
20
779.578595
30
0.0
11
89.754540
21
780.834995
31
0.0
0
LINE
8
0
6
CONTINUOUS
10
87.788390
20
780.834995
30
0.0
11
82.305010
21
780.834995
31
0.0
0
LINE
8
0
6
CONTINUOUS
10
82.305010
20
780.834995
30
0.0
11
73.515170
21
780.834995
31
0.0
0
LINE
8
0
6
CONTINUOUS
10
73.515170
20
780.834995
30
0.0
11
61.756580
21
780.834995
31
0.0
0
LINE
8
0
6
CONTINUOUS
10
61.756580
20
780.834995
30
0.0
11
47.481190
21
780.834995
31
0.0
0
LINE
8
0
6
CONTINUOUS
10
47.481190
20
780.834995
30
0.0
11
31.237550
21
780.834995
31
0.0
0
LINE
8
0
6
CONTINUOUS
10
31.237550
20
780.834995
30
0.0
11
13.649910
21
780.834995
31
0.0
0
LINE
8
0
6
CONTINUOUS
10
13.649910
20
780.834995
30
0.0
11
-4.605850
21
780.834995
31
0.0
0
LINE
8
0
6
CONTINUOUS
10
-17.177330
20
813.481335
30
0.0
11
-15.439030
21
813.481335
31
0.0
0
LINE
8
0
6
CONTINUOUS
10
-15.313930
20
813.481335
30
0.0
11
-17.177330
21
813.481335
31
0.0
0
LINE
8
0
6
CONTINUOUS
10
9.706070
20
813.481335
30
0.0
11
7.967790
21
813.481335
31
0.0
0
LINE
8
0
6
CONTINUOUS
10
7.842660
20
813.481335
30
0.0
11
9.706070
21
813.481335
31
0.0
0
LINE
8
0
6
CONTINUOUS
10
2.876860
20
813.481335
30
0.0
11
7.842660
21
813.481335
31
0.0
0
LINE
8
0
6
CONTINUOUS
10
-3.860730
20
813.481335
30
0.0
11
2.876860
21
813.481335
31
0.0
0
LINE
8
0
6
CONTINUOUS
10
-10.564820
20
813.481335
30
0.0
11
-3.860730
21
813.481335
31
0.0
0
LINE
8
0
6
CONTINUOUS
10
-15.439030
20
813.481335
30
0.0
11
-10.564820
21
813.481335
31
0.0
0
LINE
8
0
6
CONTINUOUS
10
-67.809530
20
759.311865
30
0.0
11
-78.848050
21
759.311865
31
0.0
0
LINE
8
0
6
CONTINUOUS
10
-54.308700
20
759.311865
30
0.0
11
-67.809530
21
759.311865
31
0.0
0
LINE
8
0
6
CONTINUOUS
10
-38.864360
20
759.311865
30
0.0
11
-54.308700
21
759.311865
31
0.0
0
LINE
8
0
6
CONTINUOUS
10
-22.070050
20
759.311865
30
0.0
11
-38.864360
21
759.311865
31
0.0
0
LINE
8
0
6
CONTINUOUS
10
-4.571300
20
759.311865
30
0.0
11
-22.070050
21
759.311865
31
0.0
0
LINE
8
0
6
CONTINUOUS
10
12.959710
20
759.311865
30
0.0
11
-4.571300
21
759.311865
31
0.0
0
LINE
8
0
6
CONTINUOUS
10
29.849110
20
759.311865
30
0.0
11
12.959710
21
759.311865
31
0.0
0
LINE
8
0
6
CONTINUOUS
10
45.447860
20
759.311865
30
0.0
11
29.849110
21
759.311865
31
0.0
0
LINE
8
0
6
CONTINUOUS
10
-78.848050
20
759.311865
30
0.0
11
-87.000030
21
759.311865
31
0.0
0
LINE
8
0
6
CONTINUOUS
10
78.889180
20
759.311865
30
0.0
11
70.448290
21
759.311865
31
0.0
0
LINE
8
0
6
CONTINUOUS
10
-87.000030
20
759.311865
30
0.0
11
-91.952230
21
759.311865
31
0.0
0
LINE
8
0
6
CONTINUOUS
10
84.154850
20
759.311865
30
0.0
11
78.889180
21
759.311865
31
0.0
0
LINE
8
0
6
CONTINUOUS
10
-93.514310
20
759.311865
30
0.0
11
-87.904230
21
758.538471
31
0.0
0
LINE
8
0
6
CONTINUOUS
10
-80.136580
20
757.467639
30
0.0
11
-78.378060
21
757.225213
31
0.0
0
LINE
8
0
6
CONTINUOUS
10
-91.952230
20
759.311865
30
0.0
11
-93.514310
21
759.311865
31
0.0
0
LINE
8
0
6
CONTINUOUS
10
-49.009990
20
753.844754
30
0.0
11
-48.611310
21
753.816336
31
0.0
0
LINE
8
0
6
CONTINUOUS
10
-41.075930
20
753.279206
30
0.0
11
-39.046870
21
753.134573
31
0.0
0
LINE
8
0
6
CONTINUOUS
10
-33.941190
20
752.770635
30
0.0
11
-28.967640
21
752.416115
31
0.0
0
LINE
8
0
6
CONTINUOUS
10
-28.967640
20
752.416115
30
0.0
11
-28.560430
21
752.404106
31
0.0
0
LINE
8
0
6
CONTINUOUS
10
-22.698790
20
752.231236
30
0.0
11
-21.428190
21
752.193764
31
0.0
0
LINE
8
0
6
CONTINUOUS
10
10.513460
20
752.093765
30
0.0
11
13.443650
21
752.179764
31
0.0
0
LINE
8
0
6
CONTINUOUS
10
16.201300
20
752.260700
30
0.0
11
16.661750
21
752.274213
31
0.0
0
LINE
8
0
6
CONTINUOUS
10
24.452170
20
752.626791
30
0.0
11
26.727280
21
752.788966
31
0.0
0
LINE
8
0
6
CONTINUOUS
10
29.484900
20
752.985535
30
0.0
11
30.924490
21
753.088152
31
0.0
0
LINE
8
0
6
CONTINUOUS
10
45.712510
20
754.178337
30
0.0
11
46.264930
21
754.242232
31
0.0
0
LINE
8
0
6
CONTINUOUS
10
79.771960
20
758.447358
30
0.0
11
86.042950
21
759.311865
31
0.0
0
LINE
8
0
6
CONTINUOUS
10
86.042950
20
759.311865
30
0.0
11
84.154850
21
759.311865
31
0.0
0
LINE
8
0
6
CONTINUOUS
10
5.714230
20
751.644635
30
0.0
11
6.426120
21
751.644635
31
0.0
0
LINE
8
0
6
CONTINUOUS
10
10.513460
20
751.644635
30
0.0
11
10.513460
21
752.093765
31
0.0
0
LINE
8
0
6
CONTINUOUS
10
10.189430
20
751.644635
30
0.0
11
10.513460
21
751.644635
31
0.0
0
LINE
8
0
6
CONTINUOUS
10
-15.399720
20
751.644635
30
0.0
11
-13.822710
21
751.644635
31
0.0
0
LINE
8
0
6
CONTINUOUS
10
-11.065060
20
751.644635
30
0.0
11
-10.768970
21
751.644635
31
0.0
0
LINE
8
0
6
CONTINUOUS
10
-10.768970
20
751.644635
30
0.0
11
-10.521370
21
751.644635
31
0.0
0
LINE
8
0
6
CONTINUOUS
10
-6.758080
20
751.644635
30
0.0
11
-3.674820
21
751.644635
31
0.0
0
LINE
8
0
6
CONTINUOUS
10
-3.674820
20
751.644635
30
0.0
11
-1.098400
21
751.644635
31
0.0
0
LINE
8
0
6
CONTINUOUS
10
1.659230
20
751.644635
30
0.0
11
2.956590
21
751.644635
31
0.0
0
LINE
8
0
6
CONTINUOUS
10
-18.424730
20
756.098675
30
0.0
11
-15.790230
21
756.098675
31
0.0
0
LINE
8
0
6
CONTINUOUS
10
-15.715830
20
756.098675
30
0.0
11
-15.715830
21
758.841895
31
0.0
0
LINE
8
0
6
CONTINUOUS
10
-15.790230
20
756.098675
30
0.0
11
-15.715830
21
756.098675
31
0.0
0
LINE
8
0
6
CONTINUOUS
10
-15.790230
20
758.841895
30
0.0
11
-15.790230
21
756.138035
31
0.0
0
LINE
8
0
6
CONTINUOUS
10
-18.424730
20
756.098675
30
0.0
11
-18.424730
21
759.311865
31
0.0
0
LINE
8
0
6
CONTINUOUS
10
-20.984790
20
756.098675
30
0.0
11
-18.424730
21
756.098675
31
0.0
0
LINE
8
0
6
CONTINUOUS
10
-20.984790
20
759.311865
30
0.0
11
-20.984790
21
756.098675
31
0.0
0
LINE
8
0
6
CONTINUOUS
10
65.615140
20
756.151615
30
0.0
11
65.615140
21
759.311865
31
0.0
0
LINE
8
0
6
CONTINUOUS
10
63.033050
20
756.151615
30
0.0
11
65.615140
21
756.151615
31
0.0
0
LINE
8
0
6
CONTINUOUS
10
63.033050
20
756.151615
30
0.0
11
63.033050
21
759.311865
31
0.0
0
LINE
8
0
6
CONTINUOUS
10
60.419290
20
756.151615
30
0.0
11
63.033050
21
756.151615
31
0.0
0
LINE
8
0
6
CONTINUOUS
10
60.419290
20
756.151615
30
0.0
11
60.419290
21
759.311865
31
0.0
0
LINE
8
0
6
CONTINUOUS
10
60.387620
20
757.767466
30
0.0
11
60.387620
21
756.151615
31
0.0
0
LINE
8
0
6
CONTINUOUS
10
13.443650
20
750.508005
30
0.0
11
13.642510
21
750.508005
31
0.0
0
LINE
8
0
6
CONTINUOUS
10
13.642510
20
750.508005
30
0.0
11
15.021320
21
750.508005
31
0.0
0
LINE
8
0
6
CONTINUOUS
10
15.021320
20
750.508005
30
0.0
11
16.201300
21
750.508005
31
0.0
0
LINE
8
0
6
CONTINUOUS
10
26.727280
20
750.992775
30
0.0
11
26.926130
21
750.992775
31
0.0
0
LINE
8
0
6
CONTINUOUS
10
26.926130
20
750.992775
30
0.0
11
28.304950
21
750.992775
31
0.0
0
LINE
8
0
6
CONTINUOUS
10
28.304950
20
750.992775
30
0.0
11
29.484900
21
750.992775
31
0.0
0
LINE
8
0
6
CONTINUOUS
10
2.956590
20
751.008795
30
0.0
11
3.155440
21
751.008795
31
0.0
0
LINE
8
0
6
CONTINUOUS
10
3.155440
20
751.008795
30
0.0
11
4.534260
21
751.008795
31
0.0
0
LINE
8
0
6
CONTINUOUS
10
4.534260
20
751.008795
30
0.0
11
5.714230
21
751.008795
31
0.0
0
LINE
8
0
6
CONTINUOUS
10
53.079650
20
752.727545
30
0.0
11
53.079650
21
753.826335
31
0.0
0
LINE
8
0
6
CONTINUOUS
10
52.734020
20
752.727545
30
0.0
11
53.079650
21
752.727545
31
0.0
0
LINE
8
0
6
CONTINUOUS
10
52.734020
20
752.727545
30
0.0
11
52.734020
21
754.990469
31
0.0
0
LINE
8
0
6
CONTINUOUS
10
50.825120
20
752.727545
30
0.0
11
52.734020
21
752.727545
31
0.0
0
LINE
8
0
6
CONTINUOUS
10
49.261840
20
752.727545
30
0.0
11
50.825120
21
752.727545
31
0.0
0
LINE
8
0
6
CONTINUOUS
10
60.970980
20
753.809245
30
0.0
11
62.293540
21
753.809245
31
0.0
0
LINE
8
0
6
CONTINUOUS
10
57.977710
20
753.809245
30
0.0
11
60.970980
21
753.809245
31
0.0
0
LINE
8
0
6
CONTINUOUS
10
56.307030
20
753.809245
30
0.0
11
57.977710
21
753.809245
31
0.0
0
LINE
8
0
6
CONTINUOUS
10
55.134080
20
753.826335
30
0.0
11
56.307030
21
753.826335
31
0.0
0
LINE
8
0
6
CONTINUOUS
10
53.079650
20
753.826335
30
0.0
11
55.134080
21
753.826335
31
0.0
0
LINE
8
0
6
CONTINUOUS
10
46.264930
20
753.823285
30
0.0
11
48.562710
21
753.823285
31
0.0
0
LINE
8
0
6
CONTINUOUS
10
-70.956730
20
753.814125
30
0.0
11
-70.149720
21
753.814125
31
0.0
0
LINE
8
0
6
CONTINUOUS
10
-70.956730
20
754.846235
30
0.0
11
-70.956730
21
753.814125
31
0.0
0
LINE
8
0
6
CONTINUOUS
10
-70.149720
20
753.814125
30
0.0
11
-67.243900
21
753.814125
31
0.0
0
LINE
8
0
6
CONTINUOUS
10
-70.149720
20
754.846235
30
0.0
11
-70.149720
21
753.814125
31
0.0
0
LINE
8
0
6
CONTINUOUS
10
-65.145120
20
753.814125
30
0.0
11
-65.145120
21
753.894385
31
0.0
0
LINE
8
0
6
CONTINUOUS
10
-67.243900
20
753.814125
30
0.0
11
-65.145120
21
753.814125
31
0.0
0
LINE
8
0
6
CONTINUOUS
10
-67.243900
20
753.929635
30
0.0
11
-67.243900
21
753.814125
31
0.0
0
LINE
8
0
6
CONTINUOUS
10
30.924490
20
751.513865
30
0.0
11
31.195870
21
751.513865
31
0.0
0
LINE
8
0
6
CONTINUOUS
10
31.195870
20
751.513865
30
0.0
11
33.077520
21
751.513865
31
0.0
0
LINE
8
0
6
CONTINUOUS
10
33.077520
20
751.513865
30
0.0
11
34.687800
21
751.513865
31
0.0
0
LINE
8
0
6
CONTINUOUS
10
22.633360
20
751.494635
30
0.0
11
22.841890
21
751.494635
31
0.0
0
LINE
8
0
6
CONTINUOUS
10
22.841890
20
751.494635
30
0.0
11
24.452170
21
751.494635
31
0.0
0
LINE
8
0
6
CONTINUOUS
10
6.426120
20
751.546365
30
0.0
11
6.697490
21
751.546365
31
0.0
0
LINE
8
0
6
CONTINUOUS
10
6.697490
20
751.546365
30
0.0
11
8.579150
21
751.546365
31
0.0
0
LINE
8
0
6
CONTINUOUS
10
8.579150
20
751.546365
30
0.0
11
10.189430
21
751.546365
31
0.0
0
LINE
8
0
6
CONTINUOUS
10
34.687800
20
752.032505
30
0.0
11
35.358980
21
752.032505
31
0.0
0
LINE
8
0
6
CONTINUOUS
10
48.562710
20
752.945445
30
0.0
11
49.261840
21
752.945445
31
0.0
0
LINE
8
0
6
CONTINUOUS
10
-61.684020
20
752.844735
30
0.0
11
-60.994170
21
752.844735
31
0.0
0
LINE
8
0
6
CONTINUOUS
10
-61.684020
20
753.886145
30
0.0
11
-61.684020
21
752.844735
31
0.0
0
LINE
8
0
6
CONTINUOUS
10
-60.994170
20
752.844735
30
0.0
11
-58.991920
21
752.844735
31
0.0
0
LINE
8
0
6
CONTINUOUS
10
-60.994170
20
753.886145
30
0.0
11
-60.994170
21
752.844735
31
0.0
0
LINE
8
0
6
CONTINUOUS
10
-58.991920
20
752.844735
30
0.0
11
-57.679550
21
752.844735
31
0.0
0
LINE
8
0
6
CONTINUOUS
10
35.358980
20
752.883185
30
0.0
11
35.436180
21
752.883185
31
0.0
0
LINE
8
0
6
CONTINUOUS
10
65.532760
20
754.834785
30
0.0
11
66.058470
21
754.834785
31
0.0
0
LINE
8
0
6
CONTINUOUS
10
63.792880
20
754.834785
30
0.0
11
65.532760
21
754.834785
31
0.0
0
LINE
8
0
6
CONTINUOUS
10
74.963690
20
756.048015
30
0.0
11
74.963690
21
756.088605
31
0.0
0
LINE
8
0
6
CONTINUOUS
10
74.237880
20
756.048015
30
0.0
11
74.963690
21
756.048015
31
0.0
0
LINE
8
0
6
CONTINUOUS
10
74.237880
20
756.048015
30
0.0
11
74.237880
21
756.088605
31
0.0
0
LINE
8
0
6
CONTINUOUS
10
71.354090
20
756.048015
30
0.0
11
74.237880
21
756.048015
31
0.0
0
LINE
8
0
6
CONTINUOUS
10
71.354090
20
756.048015
30
0.0
11
71.354090
21
756.165815
31
0.0
0
LINE
8
0
6
CONTINUOUS
10
71.254520
20
756.048015
30
0.0
11
71.354090
21
756.048015
31
0.0
0
LINE
8
0
6
CONTINUOUS
10
79.771960
20
756.088605
30
0.0
11
79.771960
21
756.131025
31
0.0
0
LINE
8
0
6
CONTINUOUS
10
78.449420
20
756.088605
30
0.0
11
79.771960
21
756.088605
31
0.0
0
LINE
8
0
6
CONTINUOUS
10
78.449420
20
756.088605
30
0.0
11
78.449420
21
756.131025
31
0.0
0
LINE
8
0
6
CONTINUOUS
10
75.456140
20
756.088605
30
0.0
11
78.449420
21
756.088605
31
0.0
0
LINE
8
0
6
CONTINUOUS
10
75.456140
20
756.088605
30
0.0
11
75.456140
21
756.131025
31
0.0
0
LINE
8
0
6
CONTINUOUS
10
73.785460
20
756.088605
30
0.0
11
75.456140
21
756.088605
31
0.0
0
LINE
8
0
6
CONTINUOUS
10
-87.904230
20
756.053965
30
0.0
11
-87.097230
21
756.053965
31
0.0
0
LINE
8
0
6
CONTINUOUS
10
-87.904230
20
758.538471
30
0.0
11
-87.904230
21
756.053965
31
0.0
0
LINE
8
0
6
CONTINUOUS
10
-87.097230
20
756.053965
30
0.0
11
-85.503750
21
756.053965
31
0.0
0
LINE
8
0
6
CONTINUOUS
10
-87.097230
20
758.461958
30
0.0
11
-87.097230
21
756.053965
31
0.0
0
LINE
8
0
6
CONTINUOUS
10
62.969730
20
756.020085
30
0.0
11
63.792880
21
756.020085
31
0.0
0
LINE
8
0
6
CONTINUOUS
10
62.969730
20
756.020085
30
0.0
11
62.969730
21
756.151615
31
0.0
0
LINE
8
0
6
CONTINUOUS
10
62.843020
20
756.020085
30
0.0
11
62.969730
21
756.020085
31
0.0
0
LINE
8
0
6
CONTINUOUS
10
-28.560430
20
750.477025
30
0.0
11
-27.380480
21
750.477025
31
0.0
0
LINE
8
0
6
CONTINUOUS
10
-28.560430
20
752.404106
30
0.0
11
-28.560430
21
750.477025
31
0.0
0
LINE
8
0
6
CONTINUOUS
10
-27.380480
20
750.477025
30
0.0
11
-26.001660
21
750.477025
31
0.0
0
LINE
8
0
6
CONTINUOUS
10
-27.380480
20
750.843085
30
0.0
11
-27.380480
21
750.484045
31
0.0
0
LINE
8
0
6
CONTINUOUS
10
-26.001660
20
750.477025
30
0.0
11
-25.802790
21
750.477025
31
0.0
0
LINE
8
0
6
CONTINUOUS
10
-26.001660
20
750.844765
30
0.0
11
-26.001660
21
750.477025
31
0.0
0
LINE
8
0
6
CONTINUOUS
10
-18.157350
20
750.500675
30
0.0
11
-16.977400
21
750.500675
31
0.0
0
LINE
8
0
6
CONTINUOUS
10
-18.157350
20
751.989175
30
0.0
11
-18.157350
21
750.500675
31
0.0
0
LINE
8
0
6
CONTINUOUS
10
-16.977400
20
750.500675
30
0.0
11
-15.598570
21
750.500675
31
0.0
0
LINE
8
0
6
CONTINUOUS
10
-16.977400
20
752.521405
30
0.0
11
-16.977400
21
750.516855
31
0.0
0
LINE
8
0
6
CONTINUOUS
10
-15.399720
20
750.500675
30
0.0
11
-15.399720
21
752.521405
31
0.0
0
LINE
8
0
6
CONTINUOUS
10
-15.598570
20
750.500675
30
0.0
11
-15.399720
21
750.500675
31
0.0
0
LINE
8
0
6
CONTINUOUS
10
-15.598570
20
752.521405
30
0.0
11
-15.598570
21
750.500675
31
0.0
0
LINE
8
0
6
CONTINUOUS
10
-1.098400
20
750.432015
30
0.0
11
0.081570
21
750.432015
31
0.0
0
LINE
8
0
6
CONTINUOUS
10
-1.098400
20
751.953465
30
0.0
11
-1.098400
21
750.432015
31
0.0
0
LINE
8
0
6
CONTINUOUS
10
0.081570
20
750.432015
30
0.0
11
1.460370
21
750.432015
31
0.0
0
LINE
8
0
6
CONTINUOUS
10
0.081570
20
751.953465
30
0.0
11
0.081570
21
750.432015
31
0.0
0
LINE
8
0
6
CONTINUOUS
10
1.659230
20
750.432015
30
0.0
11
1.659230
21
751.950565
31
0.0
0
LINE
8
0
6
CONTINUOUS
10
1.460370
20
750.432015
30
0.0
11
1.659230
21
750.432015
31
0.0
0
LINE
8
0
6
CONTINUOUS
10
1.460370
20
751.953465
30
0.0
11
1.460370
21
750.432015
31
0.0
0
LINE
8
0
6
CONTINUOUS
10
13.443650
20
750.538365
30
0.0
11
14.623620
21
750.538365
31
0.0
0
LINE
8
0
6
CONTINUOUS
10
13.443650
20
752.179764
30
0.0
11
13.443650
21
750.538365
31
0.0
0
LINE
8
0
6
CONTINUOUS
10
14.623620
20
750.538365
30
0.0
11
16.002450
21
750.538365
31
0.0
0
LINE
8
0
6
CONTINUOUS
10
14.623620
20
752.214396
30
0.0
11
14.623620
21
750.538365
31
0.0
0
LINE
8
0
6
CONTINUOUS
10
16.201300
20
750.538365
30
0.0
11
16.201300
21
752.260700
31
0.0
0
LINE
8
0
6
CONTINUOUS
10
16.002450
20
750.538365
30
0.0
11
16.201300
21
750.538365
31
0.0
0
LINE
8
0
6
CONTINUOUS
10
16.002450
20
752.254863
30
0.0
11
16.002450
21
750.538365
31
0.0
0
LINE
8
0
6
CONTINUOUS
10
19.875730
20
750.323525
30
0.0
11
21.055690
21
750.323525
31
0.0
0
LINE
8
0
6
CONTINUOUS
10
19.875730
20
750.840795
30
0.0
11
19.875730
21
750.323525
31
0.0
0
LINE
8
0
6
CONTINUOUS
10
21.055690
20
750.323525
30
0.0
11
22.434500
21
750.323525
31
0.0
0
LINE
8
0
6
CONTINUOUS
10
21.055690
20
751.504865
30
0.0
11
21.055690
21
750.323525
31
0.0
0
LINE
8
0
6
CONTINUOUS
10
22.633360
20
750.323525
30
0.0
11
22.633360
21
751.494635
31
0.0
0
LINE
8
0
6
CONTINUOUS
10
22.434500
20
750.323525
30
0.0
11
22.633360
21
750.323525
31
0.0
0
LINE
8
0
6
CONTINUOUS
10
22.434500
20
751.504865
30
0.0
11
22.434500
21
750.323525
31
0.0
0
LINE
8
0
6
CONTINUOUS
10
26.727280
20
751.007425
30
0.0
11
27.907240
21
751.007425
31
0.0
0
LINE
8
0
6
CONTINUOUS
10
26.727280
20
752.788966
30
0.0
11
26.727280
21
751.007425
31
0.0
0
LINE
8
0
6
CONTINUOUS
10
27.907240
20
751.007425
30
0.0
11
29.286050
21
751.007425
31
0.0
0
LINE
8
0
6
CONTINUOUS
10
27.907240
20
752.873076
30
0.0
11
27.907240
21
751.007425
31
0.0
0
LINE
8
0
6
CONTINUOUS
10
29.484900
20
751.007425
30
0.0
11
29.484900
21
752.985535
31
0.0
0
LINE
8
0
6
CONTINUOUS
10
29.286050
20
751.007425
30
0.0
11
29.484900
21
751.007425
31
0.0
0
LINE
8
0
6
CONTINUOUS
10
29.286050
20
752.971361
30
0.0
11
29.286050
21
751.007425
31
0.0
0
LINE
8
0
6
CONTINUOUS
10
17.778300
20
750.840795
30
0.0
11
18.958270
21
750.840795
31
0.0
0
LINE
8
0
6
CONTINUOUS
10
17.778300
20
751.946605
30
0.0
11
17.778300
21
750.840795
31
0.0
0
LINE
8
0
6
CONTINUOUS
10
18.958270
20
750.840795
30
0.0
11
20.337100
21
750.840795
31
0.0
0
LINE
8
0
6
CONTINUOUS
10
18.958270
20
751.946605
30
0.0
11
18.958270
21
750.865055
31
0.0
0
LINE
8
0
6
CONTINUOUS
10
20.535950
20
750.840795
30
0.0
11
20.535950
21
752.387919
31
0.0
0
LINE
8
0
6
CONTINUOUS
10
20.337100
20
750.840795
30
0.0
11
20.535950
21
750.840795
31
0.0
0
LINE
8
0
6
CONTINUOUS
10
20.337100
20
751.946605
30
0.0
11
20.337100
21
750.840795
31
0.0
0
LINE
8
0
6
CONTINUOUS
10
2.956590
20
751.028485
30
0.0
11
4.136550
21
751.028485
31
0.0
0
LINE
8
0
6
CONTINUOUS
10
2.956590
20
752.521405
30
0.0
11
2.956590
21
751.028485
31
0.0
0
LINE
8
0
6
CONTINUOUS
10
4.136550
20
751.028485
30
0.0
11
5.515370
21
751.028485
31
0.0
0
LINE
8
0
6
CONTINUOUS
10
4.136550
20
752.521405
30
0.0
11
4.136550
21
751.028485
31
0.0
0
LINE
8
0
6
CONTINUOUS
10
5.714230
20
751.028485
30
0.0
11
5.714230
21
752.521405
31
0.0
0
LINE
8
0
6
CONTINUOUS
10
5.515370
20
751.028485
30
0.0
11
5.714230
21
751.028485
31
0.0
0
LINE
8
0
6
CONTINUOUS
10
5.515370
20
752.521405
30
0.0
11
5.515370
21
751.028485
31
0.0
0
LINE
8
0
6
CONTINUOUS
10
-13.822710
20
751.000555
30
0.0
11
-12.642750
21
751.000555
31
0.0
0
LINE
8
0
6
CONTINUOUS
10
-13.822710
20
752.521405
30
0.0
11
-13.822710
21
751.000555
31
0.0
0
LINE
8
0
6
CONTINUOUS
10
-12.642750
20
751.000555
30
0.0
11
-11.263920
21
751.000555
31
0.0
0
LINE
8
0
6
CONTINUOUS
10
-12.642750
20
752.521405
30
0.0
11
-12.642750
21
751.000555
31
0.0
0
LINE
8
0
6
CONTINUOUS
10
-11.065060
20
751.000555
30
0.0
11
-11.065060
21
752.521405
31
0.0
0
LINE
8
0
6
CONTINUOUS
10
-11.263920
20
751.000555
30
0.0
11
-11.065060
21
751.000555
31
0.0
0
LINE
8
0
6
CONTINUOUS
10
-11.263920
20
752.521405
30
0.0
11
-11.263920
21
751.000555
31
0.0
0
LINE
8
0
6
CONTINUOUS
10
-28.364760
20
750.844765
30
0.0
11
-27.184810
21
750.844765
31
0.0
0
LINE
8
0
6
CONTINUOUS
10
-28.364760
20
752.398335
30
0.0
11
-28.364760
21
750.844765
31
0.0
0
LINE
8
0
6
CONTINUOUS
10
-27.184810
20
750.844765
30
0.0
11
-25.805980
21
750.844765
31
0.0
0
LINE
8
0
6
CONTINUOUS
10
-27.184810
20
752.363536
30
0.0
11
-27.184810
21
750.844765
31
0.0
0
LINE
8
0
6
CONTINUOUS
10
-25.607120
20
750.844765
30
0.0
11
-25.607120
21
751.495705
31
0.0
0
LINE
8
0
6
CONTINUOUS
10
-25.805980
20
750.844765
30
0.0
11
-25.607120
21
750.844765
31
0.0
0
LINE
8
0
6
CONTINUOUS
10
-25.805980
20
751.508215
30
0.0
11
-25.805980
21
750.844765
31
0.0
0
LINE
8
0
6
CONTINUOUS
10
-37.453560
20
751.029395
30
0.0
11
-36.273590
21
751.029395
31
0.0
0
LINE
8
0
6
CONTINUOUS
10
-37.453560
20
751.518745
30
0.0
11
-37.453560
21
751.029395
31
0.0
0
LINE
8
0
6
CONTINUOUS
10
-36.273590
20
751.029395
30
0.0
11
-34.894780
21
751.029395
31
0.0
0
LINE
8
0
6
CONTINUOUS
10
-36.273590
20
751.518745
30
0.0
11
-36.273590
21
751.053655
31
0.0
0
LINE
8
0
6
CONTINUOUS
10
-34.695920
20
751.029395
30
0.0
11
-34.695920
21
752.067915
31
0.0
0
LINE
8
0
6
CONTINUOUS
10
-34.894780
20
751.029395
30
0.0
11
-34.695920
21
751.029395
31
0.0
0
LINE
8
0
6
CONTINUOUS
10
-34.894780
20
752.067915
30
0.0
11
-34.894780
21
751.029395
31
0.0
0
LINE
8
0
6
CONTINUOUS
10
62.293540
20
753.830605
30
0.0
11
62.293540
21
754.857525
31
0.0
0
LINE
8
0
6
CONTINUOUS
10
60.622850
20
753.830605
30
0.0
11
62.293540
21
753.830605
31
0.0
0
LINE
8
0
6
CONTINUOUS
10
60.622850
20
753.830605
30
0.0
11
60.622850
21
754.857525
31
0.0
0
LINE
8
0
6
CONTINUOUS
10
57.629590
20
753.830605
30
0.0
11
60.622850
21
753.830605
31
0.0
0
LINE
8
0
6
CONTINUOUS
10
56.307030
20
753.830605
30
0.0
11
57.629590
21
753.830605
31
0.0
0
LINE
8
0
6
CONTINUOUS
10
58.743690
20
753.845715
30
0.0
11
58.743690
21
754.857525
31
0.0
0
LINE
8
0
6
CONTINUOUS
10
56.585710
20
753.845715
30
0.0
11
58.743690
21
753.845715
31
0.0
0
LINE
8
0
6
CONTINUOUS
10
56.585710
20
753.845715
30
0.0
11
56.585710
21
755.435969
31
0.0
0
LINE
8
0
6
CONTINUOUS
10
53.701920
20
753.845715
30
0.0
11
56.585710
21
753.845715
31
0.0
0
LINE
8
0
6
CONTINUOUS
10
53.701920
20
753.845715
30
0.0
11
53.701920
21
756.045875
31
0.0
0
LINE
8
0
6
CONTINUOUS
10
52.976110
20
753.845715
30
0.0
11
53.701920
21
753.845715
31
0.0
0
LINE
8
0
6
CONTINUOUS
10
52.976110
20
755.018470
30
0.0
11
52.976110
21
753.845715
31
0.0
0
LINE
8
0
6
CONTINUOUS
10
51.492460
20
753.889505
30
0.0
11
51.492460
21
754.976545
31
0.0
0
LINE
8
0
6
CONTINUOUS
10
48.910360
20
753.889505
30
0.0
11
51.492460
21
753.889505
31
0.0
0
LINE
8
0
6
CONTINUOUS
10
48.910360
20
753.889505
30
0.0
11
48.910360
21
754.976545
31
0.0
0
LINE
8
0
6
CONTINUOUS
10
46.296600
20
753.889505
30
0.0
11
48.910360
21
753.889505
31
0.0
0
LINE
8
0
6
CONTINUOUS
10
46.296600
20
753.889505
30
0.0
11
46.296600
21
754.245895
31
0.0
0
LINE
8
0
6
CONTINUOUS
10
46.264930
20
755.620411
30
0.0
11
46.264930
21
753.889505
31
0.0
0
LINE
8
0
6
CONTINUOUS
10
42.402640
20
753.835945
30
0.0
11
42.402640
21
753.906340
31
0.0
0
LINE
8
0
6
CONTINUOUS
10
41.801820
20
753.835945
30
0.0
11
42.402640
21
753.835945
31
0.0
0
LINE
8
0
6
CONTINUOUS
10
38.955990
20
753.835945
30
0.0
11
41.801820
21
753.835945
31
0.0
0
LINE
8
0
6
CONTINUOUS
10
38.955990
20
753.835945
30
0.0
11
38.955990
21
754.884835
31
0.0
0
LINE
8
0
6
CONTINUOUS
10
36.710950
20
753.835945
30
0.0
11
38.955990
21
753.835945
31
0.0
0
LINE
8
0
6
CONTINUOUS
10
36.710950
20
754.884835
30
0.0
11
36.710950
21
753.835945
31
0.0
0
LINE
8
0
6
CONTINUOUS
10
28.753370
20
754.016615
30
0.0
11
29.959720
21
754.016615
31
0.0
0
LINE
8
0
6
CONTINUOUS
10
25.771440
20
754.016615
30
0.0
11
28.753370
21
754.016615
31
0.0
0
LINE
8
0
6
CONTINUOUS
10
25.771440
20
754.016615
30
0.0
11
25.771440
21
754.906045
31
0.0
0
LINE
8
0
6
CONTINUOUS
10
23.995830
20
754.016615
30
0.0
11
25.771440
21
754.016615
31
0.0
0
LINE
8
0
6
CONTINUOUS
10
23.995830
20
754.941755
30
0.0
11
23.995830
21
754.016615
31
0.0
0
LINE
8
0
6
CONTINUOUS
10
17.386890
20
753.873025
30
0.0
11
17.386890
21
756.134075
31
0.0
0
LINE
8
0
6
CONTINUOUS
10
15.629150
20
753.873025
30
0.0
11
17.386890
21
753.873025
31
0.0
0
LINE
8
0
6
CONTINUOUS
10
15.629150
20
753.873025
30
0.0
11
15.629150
21
756.134075
31
0.0
0
LINE
8
0
6
CONTINUOUS
10
12.644860
20
753.873025
30
0.0
11
15.629150
21
753.873025
31
0.0
0
LINE
8
0
6
CONTINUOUS
10
11.418330
20
753.873025
30
0.0
11
12.644860
21
753.873025
31
0.0
0
LINE
8
0
6
CONTINUOUS
10
-15.807110
20
753.931615
30
0.0
11
-13.172630
21
753.931615
31
0.0
0
LINE
8
0
6
CONTINUOUS
10
-13.172630
20
753.931615
30
0.0
11
-13.098200
21
753.931615
31
0.0
0
LINE
8
0
6
CONTINUOUS
10
-15.807110
20
753.931615
30
0.0
11
-15.807110
21
756.098675
31
0.0
0
LINE
8
0
6
CONTINUOUS
10
-18.367190
20
753.931615
30
0.0
11
-15.807110
21
753.931615
31
0.0
0
LINE
8
0
6
CONTINUOUS
10
-18.367190
20
756.138035
30
0.0
11
-18.367190
21
753.931615
31
0.0
0
LINE
8
0
6
CONTINUOUS
10
1.881300
20
753.905835
30
0.0
11
1.881300
21
756.111645
31
0.0
0
LINE
8
0
6
CONTINUOUS
10
-0.349020
20
753.905835
30
0.0
11
1.881300
21
753.905835
31
0.0
0
LINE
8
0
6
CONTINUOUS
10
-0.349020
20
753.905835
30
0.0
11
-0.349020
21
756.111645
31
0.0
0
LINE
8
0
6
CONTINUOUS
10
-3.201780
20
753.905835
30
0.0
11
-0.349020
21
753.905835
31
0.0
0
LINE
8
0
6
CONTINUOUS
10
-3.824220
20
753.905835
30
0.0
11
-3.201780
21
753.905835
31
0.0
0
LINE
8
0
6
CONTINUOUS
10
-30.652590
20
753.929485
30
0.0
11
-27.774950
21
753.929485
31
0.0
0
LINE
8
0
6
CONTINUOUS
10
-27.070610
20
753.929485
30
0.0
11
-27.070610
21
754.855695
31
0.0
0
LINE
8
0
6
CONTINUOUS
10
-27.774950
20
753.929485
30
0.0
11
-27.070610
21
753.929485
31
0.0
0
LINE
8
0
6
CONTINUOUS
10
-27.774950
20
756.013817
30
0.0
11
-27.774950
21
753.929485
31
0.0
0
LINE
8
0
6
CONTINUOUS
10
-30.652590
20
753.929485
30
0.0
11
-30.652590
21
754.037205
31
0.0
0
LINE
8
0
6
CONTINUOUS
10
-32.825870
20
753.929485
30
0.0
11
-30.652590
21
753.929485
31
0.0
0
LINE
8
0
6
CONTINUOUS
10
-32.825870
20
756.181065
30
0.0
11
-32.825870
21
753.929485
31
0.0
0
LINE
8
0
6
CONTINUOUS
10
-43.434970
20
753.921705
30
0.0
11
-40.443290
21
753.921705
31
0.0
0
LINE
8
0
6
CONTINUOUS
10
-39.140590
20
753.921705
30
0.0
11
-39.140590
21
754.878735
31
0.0
0
LINE
8
0
6
CONTINUOUS
10
-40.443290
20
753.921705
30
0.0
11
-39.140590
21
753.921705
31
0.0
0
LINE
8
0
6
CONTINUOUS
10
-40.443290
20
754.902235
30
0.0
11
-40.443290
21
753.921705
31
0.0
0
LINE
8
0
6
CONTINUOUS
10
-43.434970
20
753.921705
30
0.0
11
-43.434970
21
753.984105
31
0.0
0
LINE
8
0
6
CONTINUOUS
10
-45.123980
20
753.921705
30
0.0
11
-43.434970
21
753.921705
31
0.0
0
LINE
8
0
6
CONTINUOUS
10
-45.123980
20
753.984105
30
0.0
11
-45.123980
21
753.921705
31
0.0
0
LINE
8
0
6
CONTINUOUS
10
-54.869530
20
753.859135
30
0.0
11
-51.897960
21
753.859135
31
0.0
0
LINE
8
0
6
CONTINUOUS
10
-50.055360
20
753.859135
30
0.0
11
-50.055360
21
756.064185
31
0.0
0
LINE
8
0
6
CONTINUOUS
10
-51.897960
20
753.859135
30
0.0
11
-50.055360
21
753.859135
31
0.0
0
LINE
8
0
6
CONTINUOUS
10
-51.897960
20
754.885595
30
0.0
11
-51.897960
21
753.896825
31
0.0
0
LINE
8
0
6
CONTINUOUS
10
-54.869530
20
753.859135
30
0.0
11
-54.869530
21
754.885595
31
0.0
0
LINE
8
0
6
CONTINUOUS
10
-55.998510
20
753.859135
30
0.0
11
-54.869530
21
753.859135
31
0.0
0
LINE
8
0
6
CONTINUOUS
10
-55.998510
20
754.503886
30
0.0
11
-55.998510
21
753.896825
31
0.0
0
LINE
8
0
6
CONTINUOUS
10
-63.429210
20
753.886145
30
0.0
11
-60.611070
21
753.886145
31
0.0
0
LINE
8
0
6
CONTINUOUS
10
-58.311200
20
753.886145
30
0.0
11
-58.311200
21
754.771381
31
0.0
0
LINE
8
0
6
CONTINUOUS
10
-60.611070
20
753.886145
30
0.0
11
-58.311200
21
753.886145
31
0.0
0
LINE
8
0
6
CONTINUOUS
10
-60.611070
20
755.037392
30
0.0
11
-60.611070
21
753.886145
31
0.0
0
LINE
8
0
6
CONTINUOUS
10
-63.429210
20
753.886145
30
0.0
11
-63.429210
21
754.870795
31
0.0
0
LINE
8
0
6
CONTINUOUS
10
-63.947510
20
753.886145
30
0.0
11
-63.429210
21
753.886145
31
0.0
0
LINE
8
0
6
CONTINUOUS
10
-63.947510
20
754.901775
30
0.0
11
-63.947510
21
753.886145
31
0.0
0
LINE
8
0
6
CONTINUOUS
10
-69.227440
20
753.894385
30
0.0
11
-66.724270
21
753.894385
31
0.0
0
LINE
8
0
6
CONTINUOUS
10
-69.227440
20
754.846235
30
0.0
11
-69.227440
21
753.894385
31
0.0
0
LINE
8
0
6
CONTINUOUS
10
-66.724270
20
753.894385
30
0.0
11
-64.040690
21
753.894385
31
0.0
0
LINE
8
0
6
CONTINUOUS
10
-66.724270
20
756.079755
30
0.0
11
-66.724270
21
753.929635
31
0.0
0
LINE
8
0
6
CONTINUOUS
10
-64.040690
20
753.894385
30
0.0
11
-63.860270
21
753.894385
31
0.0
0
LINE
8
0
6
CONTINUOUS
10
-64.040690
20
754.901775
30
0.0
11
-64.040690
21
753.929635
31
0.0
0
LINE
8
0
6
CONTINUOUS
10
35.455020
20
751.462285
30
0.0
11
37.065300
21
751.462285
31
0.0
0
LINE
8
0
6
CONTINUOUS
10
35.455020
20
752.893415
30
0.0
11
35.455020
21
751.462285
31
0.0
0
LINE
8
0
6
CONTINUOUS
10
37.065300
20
751.462285
30
0.0
11
38.946950
21
751.462285
31
0.0
0
LINE
8
0
6
CONTINUOUS
10
37.065300
20
753.525883
30
0.0
11
37.065300
21
751.462285
31
0.0
0
LINE
8
0
6
CONTINUOUS
10
39.218320
20
751.462285
30
0.0
11
39.218320
21
751.955755
31
0.0
0
LINE
8
0
6
CONTINUOUS
10
38.946950
20
751.462285
30
0.0
11
39.218320
21
751.462285
31
0.0
0
LINE
8
0
6
CONTINUOUS
10
38.946950
20
753.660011
30
0.0
11
38.946950
21
751.462285
31
0.0
0
LINE
8
0
6
CONTINUOUS
10
30.924490
20
751.531715
30
0.0
11
32.534770
21
751.531715
31
0.0
0
LINE
8
0
6
CONTINUOUS
10
30.924490
20
753.088152
30
0.0
11
30.924490
21
751.531715
31
0.0
0
LINE
8
0
6
CONTINUOUS
10
32.534770
20
751.531715
30
0.0
11
34.416430
21
751.531715
31
0.0
0
LINE
8
0
6
CONTINUOUS
10
32.534770
20
752.056315
30
0.0
11
32.534770
21
751.531715
31
0.0
0
LINE
8
0
6
CONTINUOUS
10
34.687800
20
751.531715
30
0.0
11
34.687800
21
752.032505
31
0.0
0
LINE
8
0
6
CONTINUOUS
10
34.416430
20
751.531715
30
0.0
11
34.687800
21
751.531715
31
0.0
0
LINE
8
0
6
CONTINUOUS
10
34.416430
20
752.056315
30
0.0
11
34.416430
21
751.531715
31
0.0
0
LINE
8
0
6
CONTINUOUS
10
20.688880
20
751.504865
30
0.0
11
22.299160
21
751.504865
31
0.0
0
LINE
8
0
6
CONTINUOUS
10
20.688880
20
752.392407
30
0.0
11
20.688880
21
751.504865
31
0.0
0
LINE
8
0
6
CONTINUOUS
10
22.299160
20
751.504865
30
0.0
11
24.180800
21
751.504865
31
0.0
0
LINE
8
0
6
CONTINUOUS
10
22.299160
20
752.901345
30
0.0
11
22.299160
21
751.504865
31
0.0
0
LINE
8
0
6
CONTINUOUS
10
24.452170
20
751.504865
30
0.0
11
24.452170
21
752.626791
31
0.0
0
LINE
8
0
6
CONTINUOUS
10
24.180800
20
751.504865
30
0.0
11
24.452170
21
751.504865
31
0.0
0
LINE
8
0
6
CONTINUOUS
10
24.180800
20
752.901345
30
0.0
11
24.180800
21
751.504865
31
0.0
0
LINE
8
0
6
CONTINUOUS
10
6.426120
20
751.560095
30
0.0
11
8.036400
21
751.560095
31
0.0
0
LINE
8
0
6
CONTINUOUS
10
6.426120
20
752.521405
30
0.0
11
6.426120
21
751.560095
31
0.0
0
LINE
8
0
6
CONTINUOUS
10
8.036400
20
751.560095
30
0.0
11
9.918050
21
751.560095
31
0.0
0
LINE
8
0
6
CONTINUOUS
10
8.036400
20
752.989995
30
0.0
11
8.036400
21
751.560095
31
0.0
0
LINE
8
0
6
CONTINUOUS
10
10.189430
20
751.560095
30
0.0
11
10.189430
21
752.989995
31
0.0
0
LINE
8
0
6
CONTINUOUS
10
9.918050
20
751.560095
30
0.0
11
10.189430
21
751.560095
31
0.0
0
LINE
8
0
6
CONTINUOUS
10
9.918050
20
753.002205
30
0.0
11
9.918050
21
751.560095
31
0.0
0
LINE
8
0
6
CONTINUOUS
10
-10.521370
20
751.489445
30
0.0
11
-8.911100
21
751.489445
31
0.0
0
LINE
8
0
6
CONTINUOUS
10
-10.521370
20
752.521405
30
0.0
11
-10.521370
21
751.489445
31
0.0
0
LINE
8
0
6
CONTINUOUS
10
-8.911100
20
751.489445
30
0.0
11
-7.029450
21
751.489445
31
0.0
0
LINE
8
0
6
CONTINUOUS
10
-8.911100
20
754.886665
30
0.0
11
-8.911100
21
751.489445
31
0.0
0
LINE
8
0
6
CONTINUOUS
10
-6.758080
20
751.489445
30
0.0
11
-6.758080
21
752.521405
31
0.0
0
LINE
8
0
6
CONTINUOUS
10
-7.029450
20
751.489445
30
0.0
11
-6.758080
21
751.489445
31
0.0
0
LINE
8
0
6
CONTINUOUS
10
-7.029450
20
752.521405
30
0.0
11
-7.029450
21
751.489445
31
0.0
0
LINE
8
0
6
CONTINUOUS
10
-26.462110
20
751.495705
30
0.0
11
-24.851810
21
751.495705
31
0.0
0
LINE
8
0
6
CONTINUOUS
10
-26.462110
20
754.855695
30
0.0
11
-26.462110
21
751.495705
31
0.0
0
LINE
8
0
6
CONTINUOUS
10
-24.851810
20
751.495705
30
0.0
11
-22.970180
21
751.495705
31
0.0
0
LINE
8
0
6
CONTINUOUS
10
-24.851810
20
754.855695
30
0.0
11
-24.851810
21
751.508215
31
0.0
0
LINE
8
0
6
CONTINUOUS
10
-22.698790
20
751.495705
30
0.0
11
-22.698790
21
752.231236
31
0.0
0
LINE
8
0
6
CONTINUOUS
10
-22.970180
20
751.495705
30
0.0
11
-22.698790
21
751.495705
31
0.0
0
LINE
8
0
6
CONTINUOUS
10
-22.970180
20
754.855695
30
0.0
11
-22.970180
21
751.508215
31
0.0
0
LINE
8
0
6
CONTINUOUS
10
-45.926560
20
751.589695
30
0.0
11
-44.316270
21
751.589695
31
0.0
0
LINE
8
0
6
CONTINUOUS
10
-45.926560
20
752.004895
30
0.0
11
-45.926560
21
751.589695
31
0.0
0
LINE
8
0
6
CONTINUOUS
10
-44.316270
20
751.589695
30
0.0
11
-42.434630
21
751.589695
31
0.0
0
LINE
8
0
6
CONTINUOUS
10
-44.316270
20
753.510181
30
0.0
11
-44.316270
21
751.615635
31
0.0
0
LINE
8
0
6
CONTINUOUS
10
-42.163250
20
751.589695
30
0.0
11
-42.163250
21
752.903485
31
0.0
0
LINE
8
0
6
CONTINUOUS
10
-42.434630
20
751.589695
30
0.0
11
-42.163250
21
751.589695
31
0.0
0
LINE
8
0
6
CONTINUOUS
10
-42.434630
20
752.937055
30
0.0
11
-42.434630
21
751.615635
31
0.0
0
LINE
8
0
6
CONTINUOUS
10
39.146550
20
751.955755
30
0.0
11
40.756830
21
751.955755
31
0.0
0
LINE
8
0
6
CONTINUOUS
10
39.146550
20
753.841135
30
0.0
11
39.146550
21
751.955755
31
0.0
0
LINE
8
0
6
CONTINUOUS
10
40.756830
20
751.955755
30
0.0
11
42.638480
21
751.955755
31
0.0
0
LINE
8
0
6
CONTINUOUS
10
40.756830
20
753.841135
30
0.0
11
40.756830
21
751.955755
31
0.0
0
LINE
8
0
6
CONTINUOUS
10
42.909850
20
751.955755
30
0.0
11
42.909850
21
752.850535
31
0.0
0
LINE
8
0
6
CONTINUOUS
10
42.638480
20
751.955755
30
0.0
11
42.909850
21
751.955755
31
0.0
0
LINE
8
0
6
CONTINUOUS
10
42.638480
20
752.857095
30
0.0
11
42.638480
21
751.955755
31
0.0
0
LINE
8
0
6
CONTINUOUS
10
31.595690
20
752.056315
30
0.0
11
33.205970
21
752.056315
31
0.0
0
LINE
8
0
6
CONTINUOUS
10
31.595690
20
753.135997
30
0.0
11
31.595690
21
752.056315
31
0.0
0
LINE
8
0
6
CONTINUOUS
10
33.205970
20
752.056315
30
0.0
11
35.087610
21
752.056315
31
0.0
0
LINE
8
0
6
CONTINUOUS
10
33.205970
20
752.893415
30
0.0
11
33.205970
21
752.056315
31
0.0
0
LINE
8
0
6
CONTINUOUS
10
35.358980
20
752.056315
30
0.0
11
35.358980
21
752.883185
31
0.0
0
LINE
8
0
6
CONTINUOUS
10
35.087610
20
752.056315
30
0.0
11
35.358980
21
752.056315
31
0.0
0
LINE
8
0
6
CONTINUOUS
10
35.087610
20
752.893415
30
0.0
11
35.087610
21
752.056315
31
0.0
0
LINE
8
0
6
CONTINUOUS
10
16.661750
20
751.929665
30
0.0
11
18.272020
21
751.929665
31
0.0
0
LINE
8
0
6
CONTINUOUS
10
16.661750
20
753.893475
30
0.0
11
16.661750
21
751.929665
31
0.0
0
LINE
8
0
6
CONTINUOUS
10
18.272020
20
751.929665
30
0.0
11
20.153680
21
751.929665
31
0.0
0
LINE
8
0
6
CONTINUOUS
10
18.272020
20
752.321474
30
0.0
11
18.272020
21
751.946605
31
0.0
0
LINE
8
0
6
CONTINUOUS
10
20.425040
20
751.929665
30
0.0
11
20.425040
21
752.384664
31
0.0
0
LINE
8
0
6
CONTINUOUS
10
20.153680
20
751.929665
30
0.0
11
20.425040
21
751.929665
31
0.0
0
LINE
8
0
6
CONTINUOUS
10
20.153680
20
752.376700
30
0.0
11
20.153680
21
751.946605
31
0.0
0
LINE
8
0
6
CONTINUOUS
10
-1.460340
20
751.950565
30
0.0
11
0.149950
21
751.950565
31
0.0
0
LINE
8
0
6
CONTINUOUS
10
-1.460340
20
753.905835
30
0.0
11
-1.460340
21
751.950565
31
0.0
0
LINE
8
0
6
CONTINUOUS
10
0.149950
20
751.950565
30
0.0
11
2.031580
21
751.950565
31
0.0
0
LINE
8
0
6
CONTINUOUS
10
0.149950
20
753.905835
30
0.0
11
0.149950
21
751.953465
31
0.0
0
LINE
8
0
6
CONTINUOUS
10
2.302960
20
751.950565
30
0.0
11
2.302960
21
752.521405
31
0.0
0
LINE
8
0
6
CONTINUOUS
10
2.031580
20
751.950565
30
0.0
11
2.302960
21
751.950565
31
0.0
0
LINE
8
0
6
CONTINUOUS
10
2.031580
20
752.521405
30
0.0
11
2.031580
21
751.953465
31
0.0
0
LINE
8
0
6
CONTINUOUS
10
-21.428190
20
751.975445
30
0.0
11
-19.817910
21
751.975445
31
0.0
0
LINE
8
0
6
CONTINUOUS
10
-21.428190
20
752.193764
30
0.0
11
-21.428190
21
751.975445
31
0.0
0
LINE
8
0
6
CONTINUOUS
10
-19.817910
20
751.975445
30
0.0
11
-17.936250
21
751.975445
31
0.0
0
LINE
8
0
6
CONTINUOUS
10
-19.817910
20
752.961925
30
0.0
11
-19.817910
21
751.989175
31
0.0
0
LINE
8
0
6
CONTINUOUS
10
-17.664890
20
751.975445
30
0.0
11
-17.664890
21
752.961925
31
0.0
0
LINE
8
0
6
CONTINUOUS
10
-17.936250
20
751.975445
30
0.0
11
-17.664890
21
751.975445
31
0.0
0
LINE
8
0
6
CONTINUOUS
10
-17.936250
20
752.961925
30
0.0
11
-17.936250
21
751.989175
31
0.0
0
LINE
8
0
6
CONTINUOUS
10
-37.704510
20
752.067915
30
0.0
11
-36.094230
21
752.067915
31
0.0
0
LINE
8
0
6
CONTINUOUS
10
-37.704510
20
754.902235
30
0.0
11
-37.704510
21
752.067915
31
0.0
0
LINE
8
0
6
CONTINUOUS
10
-36.094230
20
752.067915
30
0.0
11
-34.212570
21
752.067915
31
0.0
0
LINE
8
0
6
CONTINUOUS
10
-36.094230
20
752.924106
30
0.0
11
-36.094230
21
752.067915
31
0.0
0
LINE
8
0
6
CONTINUOUS
10
-33.941190
20
752.067915
30
0.0
11
-33.941190
21
752.770635
31
0.0
0
LINE
8
0
6
CONTINUOUS
10
-34.212570
20
752.067915
30
0.0
11
-33.941190
21
752.067915
31
0.0
0
LINE
8
0
6
CONTINUOUS
10
-34.212570
20
752.789979
30
0.0
11
-34.212570
21
752.067915
31
0.0
0
LINE
8
0
6
CONTINUOUS
10
-39.046870
20
751.503025
30
0.0
11
-37.453560
21
751.503025
31
0.0
0
LINE
8
0
6
CONTINUOUS
10
-39.046870
20
753.134573
30
0.0
11
-39.046870
21
751.503025
31
0.0
0
LINE
8
0
6
CONTINUOUS
10
-37.436590
20
751.503025
30
0.0
11
-35.554940
21
751.503025
31
0.0
0
LINE
8
0
6
CONTINUOUS
10
-37.436590
20
752.067915
30
0.0
11
-37.436590
21
751.518745
31
0.0
0
LINE
8
0
6
CONTINUOUS
10
-35.283580
20
751.503025
30
0.0
11
-35.283580
21
752.067915
31
0.0
0
LINE
8
0
6
CONTINUOUS
10
-35.554940
20
751.503025
30
0.0
11
-35.283580
21
751.503025
31
0.0
0
LINE
8
0
6
CONTINUOUS
10
-35.554940
20
752.067915
30
0.0
11
-35.554940
21
751.518745
31
0.0
0
LINE
8
0
6
CONTINUOUS
10
-48.611310
20
751.985975
30
0.0
11
-47.001030
21
751.985975
31
0.0
0
LINE
8
0
6
CONTINUOUS
10
-48.611310
20
753.816336
30
0.0
11
-48.611310
21
751.985975
31
0.0
0
LINE
8
0
6
CONTINUOUS
10
-47.001030
20
751.985975
30
0.0
11
-45.119390
21
751.985975
31
0.0
0
LINE
8
0
6
CONTINUOUS
10
-47.001030
20
753.701553
30
0.0
11
-47.001030
21
752.004895
31
0.0
0
LINE
8
0
6
CONTINUOUS
10
-44.848000
20
751.985975
30
0.0
11
-44.848000
21
753.548083
31
0.0
0
LINE
8
0
6
CONTINUOUS
10
-45.119390
20
751.985975
30
0.0
11
-44.848000
21
751.985975
31
0.0
0
LINE
8
0
6
CONTINUOUS
10
-45.119390
20
753.567428
30
0.0
11
-45.119390
21
752.004895
31
0.0
0
LINE
8
0
6
CONTINUOUS
10
-53.014480
20
751.902045
30
0.0
11
-51.702110
21
751.902045
31
0.0
0
LINE
8
0
6
CONTINUOUS
10
-53.014480
20
752.918285
30
0.0
11
-53.014480
21
751.902045
31
0.0
0
LINE
8
0
6
CONTINUOUS
10
-51.702110
20
751.902045
30
0.0
11
-49.699860
21
751.902045
31
0.0
0
LINE
8
0
6
CONTINUOUS
10
-51.702110
20
752.918285
30
0.0
11
-51.702110
21
751.902045
31
0.0
0
LINE
8
0
6
CONTINUOUS
10
-49.009990
20
751.902045
30
0.0
11
-49.009990
21
753.844754
31
0.0
0
LINE
8
0
6
CONTINUOUS
10
-49.699860
20
751.902045
30
0.0
11
-49.009990
21
751.902045
31
0.0
0
LINE
8
0
6
CONTINUOUS
10
-49.699860
20
753.893929
30
0.0
11
-49.699860
21
751.902045
31
0.0
0
LINE
8
0
6
CONTINUOUS
10
-2.697730
20
752.927745
30
0.0
11
-2.697730
21
753.902935
31
0.0
0
LINE
8
0
6
CONTINUOUS
10
-4.306050
20
752.927745
30
0.0
11
-2.697730
21
752.927745
31
0.0
0
LINE
8
0
6
CONTINUOUS
10
-4.306050
20
752.927745
30
0.0
11
-4.306050
21
752.972295
31
0.0
0
LINE
8
0
6
CONTINUOUS
10
-6.188920
20
752.927745
30
0.0
11
-4.306050
21
752.927745
31
0.0
0
LINE
8
0
6
CONTINUOUS
10
-6.188920
20
752.927745
30
0.0
11
-6.188920
21
752.972295
31
0.0
0
LINE
8
0
6
CONTINUOUS
10
-6.463450
20
752.927745
30
0.0
11
-6.188920
21
752.927745
31
0.0
0
LINE
8
0
6
CONTINUOUS
10
-6.463450
20
754.886665
30
0.0
11
-6.463450
21
752.927745
31
0.0
0
LINE
8
0
6
CONTINUOUS
10
52.380520
20
752.980995
30
0.0
11
52.380520
21
754.949582
31
0.0
0
LINE
8
0
6
CONTINUOUS
10
50.817250
20
752.980995
30
0.0
11
52.380520
21
752.980995
31
0.0
0
LINE
8
0
6
CONTINUOUS
10
50.817250
20
752.980995
30
0.0
11
50.817250
21
753.889505
31
0.0
0
LINE
8
0
6
CONTINUOUS
10
48.908330
20
752.980995
30
0.0
11
50.817250
21
752.980995
31
0.0
0
LINE
8
0
6
CONTINUOUS
10
48.908330
20
752.980995
30
0.0
11
48.908330
21
753.889505
31
0.0
0
LINE
8
0
6
CONTINUOUS
10
48.562710
20
752.980995
30
0.0
11
48.908330
21
752.980995
31
0.0
0
LINE
8
0
6
CONTINUOUS
10
48.562710
20
754.508001
30
0.0
11
48.562710
21
752.980995
31
0.0
0
LINE
8
0
6
CONTINUOUS
10
-53.241230
20
752.880595
30
0.0
11
-51.252280
21
752.880595
31
0.0
0
LINE
8
0
6
CONTINUOUS
10
-49.888120
20
752.880595
30
0.0
11
-49.888120
21
753.907348
31
0.0
0
LINE
8
0
6
CONTINUOUS
10
-51.252280
20
752.880595
30
0.0
11
-49.888120
21
752.880595
31
0.0
0
LINE
8
0
6
CONTINUOUS
10
-51.252280
20
753.896825
30
0.0
11
-51.252280
21
752.918285
31
0.0
0
LINE
8
0
6
CONTINUOUS
10
-53.241230
20
752.880595
30
0.0
11
-53.241230
21
753.859135
31
0.0
0
LINE
8
0
6
CONTINUOUS
10
-53.866070
20
752.880595
30
0.0
11
-53.241230
21
752.880595
31
0.0
0
LINE
8
0
6
CONTINUOUS
10
-53.866070
20
753.896825
30
0.0
11
-53.866070
21
752.918285
31
0.0
0
LINE
8
0
6
CONTINUOUS
10
11.819730
20
753.002205
30
0.0
11
11.819730
21
753.873025
31
0.0
0
LINE
8
0
6
CONTINUOUS
10
10.509800
20
753.002205
30
0.0
11
11.819730
21
753.002205
31
0.0
0
LINE
8
0
6
CONTINUOUS
10
8.506980
20
753.002205
30
0.0
11
10.509800
21
753.002205
31
0.0
0
LINE
8
0
6
CONTINUOUS
10
8.506980
20
753.002205
30
0.0
11
8.506980
21
754.920085
31
0.0
0
LINE
8
0
6
CONTINUOUS
10
7.814100
20
753.002205
30
0.0
11
8.506980
21
753.002205
31
0.0
0
LINE
8
0
6
CONTINUOUS
10
7.814100
20
754.923285
30
0.0
11
7.814100
21
753.002205
31
0.0
0
LINE
8
0
6
CONTINUOUS
10
-44.125910
20
752.903485
30
0.0
11
-42.091670
21
752.903485
31
0.0
0
LINE
8
0
6
CONTINUOUS
10
-41.075930
20
752.903485
30
0.0
11
-41.075930
21
753.921705
31
0.0
0
LINE
8
0
6
CONTINUOUS
10
-42.091670
20
752.903485
30
0.0
11
-41.075930
21
752.903485
31
0.0
0
LINE
8
0
6
CONTINUOUS
10
-42.091670
20
753.921705
30
0.0
11
-42.091670
21
752.903485
31
0.0
0
LINE
8
0
6
CONTINUOUS
10
-44.125910
20
752.903485
30
0.0
11
-44.125910
21
753.921705
31
0.0
0
LINE
8
0
6
CONTINUOUS
10
-45.144420
20
752.903485
30
0.0
11
-44.125910
21
752.903485
31
0.0
0
LINE
8
0
6
CONTINUOUS
10
-45.144420
20
753.569212
30
0.0
11
-45.144420
21
752.903485
31
0.0
0
LINE
8
0
6
CONTINUOUS
10
25.177190
20
752.901345
30
0.0
11
25.177190
21
754.016615
31
0.0
0
LINE
8
0
6
CONTINUOUS
10
24.224400
20
752.901345
30
0.0
11
25.177190
21
752.901345
31
0.0
0
LINE
8
0
6
CONTINUOUS
10
24.224400
20
752.901345
30
0.0
11
24.224400
21
754.016615
31
0.0
0
LINE
8
0
6
CONTINUOUS
10
22.191490
20
752.901345
30
0.0
11
24.224400
21
752.901345
31
0.0
0
LINE
8
0
6
CONTINUOUS
10
22.191490
20
752.901345
30
0.0
11
22.191490
21
754.906045
31
0.0
0
LINE
8
0
6
CONTINUOUS
10
21.111350
20
752.901345
30
0.0
11
22.191490
21
752.901345
31
0.0
0
LINE
8
0
6
CONTINUOUS
10
21.111350
20
755.421705
30
0.0
11
21.111350
21
752.901345
31
0.0
0
LINE
8
0
6
CONTINUOUS
10
-32.419000
20
752.902105
30
0.0
11
-30.430710
21
752.902105
31
0.0
0
LINE
8
0
6
CONTINUOUS
10
-29.808940
20
752.902105
30
0.0
11
-29.808940
21
753.929485
31
0.0
0
LINE
8
0
6
CONTINUOUS
10
-30.430710
20
752.902105
30
0.0
11
-29.808940
21
752.902105
31
0.0
0
LINE
8
0
6
CONTINUOUS
10
-30.430710
20
753.929485
30
0.0
11
-30.430710
21
752.902105
31
0.0
0
LINE
8
0
6
CONTINUOUS
10
-32.419000
20
752.902105
30
0.0
11
-32.419000
21
753.929485
31
0.0
0
LINE
8
0
6
CONTINUOUS
10
-33.785510
20
752.902105
30
0.0
11
-32.419000
21
752.902105
31
0.0
0
LINE
8
0
6
CONTINUOUS
10
-33.785510
20
756.071355
30
0.0
11
-33.785510
21
752.902105
31
0.0
0
LINE
8
0
6
CONTINUOUS
10
36.855140
20
752.893415
30
0.0
11
36.855140
21
753.835945
31
0.0
0
LINE
8
0
6
CONTINUOUS
10
36.302240
20
752.893415
30
0.0
11
36.855140
21
752.893415
31
0.0
0
LINE
8
0
6
CONTINUOUS
10
36.302240
20
752.893415
30
0.0
11
36.302240
21
754.884835
31
0.0
0
LINE
8
0
6
CONTINUOUS
10
34.330400
20
752.893415
30
0.0
11
36.302240
21
752.893415
31
0.0
0
LINE
8
0
6
CONTINUOUS
10
34.330400
20
752.893415
30
0.0
11
34.330400
21
756.099435
31
0.0
0
LINE
8
0
6
CONTINUOUS
10
32.911450
20
752.893415
30
0.0
11
34.330400
21
752.893415
31
0.0
0
LINE
8
0
6
CONTINUOUS
10
32.911450
20
756.099435
30
0.0
11
32.911450
21
752.893415
31
0.0
0
LINE
8
0
6
CONTINUOUS
10
-59.378340
20
752.881665
30
0.0
11
-57.768060
21
752.881665
31
0.0
0
LINE
8
0
6
CONTINUOUS
10
-59.378340
20
753.886145
30
0.0
11
-59.378340
21
752.881665
31
0.0
0
LINE
8
0
6
CONTINUOUS
10
-57.768060
20
752.881665
30
0.0
11
-55.886410
21
752.881665
31
0.0
0
LINE
8
0
6
CONTINUOUS
10
-57.768060
20
754.708559
30
0.0
11
-57.768060
21
752.881665
31
0.0
0
LINE
8
0
6
CONTINUOUS
10
-55.615020
20
752.881665
30
0.0
11
-55.615020
21
753.896825
31
0.0
0
LINE
8
0
6
CONTINUOUS
10
-55.886410
20
752.881665
30
0.0
11
-55.615020
21
752.881665
31
0.0
0
LINE
8
0
6
CONTINUOUS
10
-55.886410
20
753.896825
30
0.0
11
-55.886410
21
752.881665
31
0.0
0
LINE
8
0
6
CONTINUOUS
10
-18.689140
20
752.961925
30
0.0
11
-16.835990
21
752.961925
31
0.0
0
LINE
8
0
6
CONTINUOUS
10
-16.636080
20
752.961925
30
0.0
11
-16.636080
21
753.931615
31
0.0
0
LINE
8
0
6
CONTINUOUS
10
-16.835990
20
752.961925
30
0.0
11
-16.636080
21
752.961925
31
0.0
0
LINE
8
0
6
CONTINUOUS
10
-16.835990
20
753.958625
30
0.0
11
-16.835990
21
752.961925
31
0.0
0
LINE
8
0
6
CONTINUOUS
10
-18.689140
20
752.961925
30
0.0
11
-18.689140
21
756.098675
31
0.0
0
LINE
8
0
6
CONTINUOUS
10
-20.342360
20
752.961925
30
0.0
11
-18.689140
21
752.961925
31
0.0
0
LINE
8
0
6
CONTINUOUS
10
-20.342360
20
756.138035
30
0.0
11
-20.342360
21
752.961925
31
0.0
0
LINE
8
0
6
CONTINUOUS
10
45.712510
20
752.857095
30
0.0
11
45.712510
21
754.178337
31
0.0
0
LINE
8
0
6
CONTINUOUS
10
45.584280
20
752.857095
30
0.0
11
45.712510
21
752.857095
31
0.0
0
LINE
8
0
6
CONTINUOUS
10
45.584280
20
752.857095
30
0.0
11
45.584280
21
754.163506
31
0.0
0
LINE
8
0
6
CONTINUOUS
10
43.761980
20
752.857095
30
0.0
11
45.584280
21
752.857095
31
0.0
0
LINE
8
0
6
CONTINUOUS
10
43.761980
20
752.857095
30
0.0
11
43.761980
21
754.003237
31
0.0
0
LINE
8
0
6
CONTINUOUS
10
42.067860
20
752.857095
30
0.0
11
43.761980
21
752.857095
31
0.0
0
LINE
8
0
6
CONTINUOUS
10
42.067860
20
753.841135
30
0.0
11
42.067860
21
752.857095
31
0.0
0
LINE
8
0
6
CONTINUOUS
10
53.025960
20
754.976545
30
0.0
11
53.025960
21
756.029095
31
0.0
0
LINE
8
0
6
CONTINUOUS
10
52.740070
20
754.976545
30
0.0
11
53.025960
21
754.976545
31
0.0
0
LINE
8
0
6
CONTINUOUS
10
52.740070
20
754.976545
30
0.0
11
52.740070
21
756.029095
31
0.0
0
LINE
8
0
6
CONTINUOUS
10
50.294230
20
754.976545
30
0.0
11
52.740070
21
754.976545
31
0.0
0
LINE
8
0
6
CONTINUOUS
10
50.294230
20
754.976545
30
0.0
11
50.294230
21
756.029095
31
0.0
0
LINE
8
0
6
CONTINUOUS
10
48.134290
20
754.976545
30
0.0
11
50.294230
21
754.976545
31
0.0
0
LINE
8
0
6
CONTINUOUS
10
48.134290
20
756.947692
30
0.0
11
48.134290
21
754.976545
31
0.0
0
LINE
8
0
6
CONTINUOUS
10
-25.442900
20
754.855695
30
0.0
11
-22.960320
21
754.855695
31
0.0
0
LINE
8
0
6
CONTINUOUS
10
-22.580590
20
754.855695
30
0.0
11
-22.580590
21
754.924965
31
0.0
0
LINE
8
0
6
CONTINUOUS
10
-22.960320
20
754.855695
30
0.0
11
-22.580590
21
754.855695
31
0.0
0
LINE
8
0
6
CONTINUOUS
10
-22.960320
20
759.039045
30
0.0
11
-22.960320
21
754.855695
31
0.0
0
LINE
8
0
6
CONTINUOUS
10
-25.442900
20
754.855695
30
0.0
11
-25.442900
21
757.479139
31
0.0
0
LINE
8
0
6
CONTINUOUS
10
-27.545730
20
754.855695
30
0.0
11
-25.442900
21
754.855695
31
0.0
0
LINE
8
0
6
CONTINUOUS
10
-27.545730
20
756.157845
30
0.0
11
-27.545730
21
754.855695
31
0.0
0
LINE
8
0
6
CONTINUOUS
10
-78.204880
20
754.898565
30
0.0
11
-76.161770
21
754.898565
31
0.0
0
LINE
8
0
6
CONTINUOUS
10
-78.204880
20
756.003765
30
0.0
11
-78.204880
21
754.898565
31
0.0
0
LINE
8
0
6
CONTINUOUS
10
-76.161770
20
754.898565
30
0.0
11
-73.645590
21
754.898565
31
0.0
0
LINE
8
0
6
CONTINUOUS
10
-76.161770
20
756.003765
30
0.0
11
-76.161770
21
754.915355
31
0.0
0
LINE
8
0
6
CONTINUOUS
10
-73.645590
20
756.003765
30
0.0
11
-73.645590
21
754.915355
31
0.0
0
LINE
8
0
6
CONTINUOUS
10
71.254520
20
754.832345
30
0.0
11
71.254520
21
756.165815
31
0.0
0
LINE
8
0
6
CONTINUOUS
10
70.505340
20
754.832345
30
0.0
11
71.254520
21
754.832345
31
0.0
0
LINE
8
0
6
CONTINUOUS
10
70.505340
20
754.832345
30
0.0
11
70.505340
21
756.165815
31
0.0
0
LINE
8
0
6
CONTINUOUS
10
67.907320
20
754.832345
30
0.0
11
70.505340
21
754.832345
31
0.0
0
LINE
8
0
6
CONTINUOUS
10
66.058470
20
754.832345
30
0.0
11
67.907320
21
754.832345
31
0.0
0
LINE
8
0
6
CONTINUOUS
10
41.132430
20
754.884835
30
0.0
11
41.132430
21
759.311865
31
0.0
0
LINE
8
0
6
CONTINUOUS
10
40.292930
20
754.884835
30
0.0
11
41.132430
21
754.884835
31
0.0
0
LINE
8
0
6
CONTINUOUS
10
40.292930
20
754.884835
30
0.0
11
40.292930
21
759.311865
31
0.0
0
LINE
8
0
6
CONTINUOUS
10
37.674090
20
754.884835
30
0.0
11
40.292930
21
754.884835
31
0.0
0
LINE
8
0
6
CONTINUOUS
10
37.674090
20
754.884835
30
0.0
11
37.674090
21
756.167185
31
0.0
0
LINE
8
0
6
CONTINUOUS
10
35.894730
20
754.884835
30
0.0
11
37.674090
21
754.884835
31
0.0
0
LINE
8
0
6
CONTINUOUS
10
35.894730
20
756.760442
30
0.0
11
35.894730
21
754.884835
31
0.0
0
LINE
8
0
6
CONTINUOUS
10
-40.615410
20
754.878735
30
0.0
11
-37.979000
21
754.878735
31
0.0
0
LINE
8
0
6
CONTINUOUS
10
-37.050250
20
754.878735
30
0.0
11
-37.050250
21
756.071355
31
0.0
0
LINE
8
0
6
CONTINUOUS
10
-37.979000
20
754.878735
30
0.0
11
-37.050250
21
754.878735
31
0.0
0
LINE
8
0
6
CONTINUOUS
10
-37.979000
20
756.071355
30
0.0
11
-37.979000
21
754.902235
31
0.0
0
LINE
8
0
6
CONTINUOUS
10
-40.615410
20
754.878735
30
0.0
11
-40.615410
21
759.311865
31
0.0
0
LINE
8
0
6
CONTINUOUS
10
-42.323060
20
754.878735
30
0.0
11
-40.615410
21
754.878735
31
0.0
0
LINE
8
0
6
CONTINUOUS
10
-42.323060
20
759.311865
30
0.0
11
-42.323060
21
754.878735
31
0.0
0
LINE
8
0
6
CONTINUOUS
10
26.461950
20
754.941755
30
0.0
11
26.461950
21
759.311865
31
0.0
0
LINE
8
0
6
CONTINUOUS
10
25.106510
20
754.941755
30
0.0
11
26.461950
21
754.941755
31
0.0
0
LINE
8
0
6
CONTINUOUS
10
25.106510
20
754.941755
30
0.0
11
25.106510
21
759.311865
31
0.0
0
LINE
8
0
6
CONTINUOUS
10
22.432110
20
754.941755
30
0.0
11
25.106510
21
754.941755
31
0.0
0
LINE
8
0
6
CONTINUOUS
10
22.432110
20
754.941755
30
0.0
11
22.432110
21
758.664745
31
0.0
0
LINE
8
0
6
CONTINUOUS
10
21.113160
20
754.941755
30
0.0
11
22.432110
21
754.941755
31
0.0
0
LINE
8
0
6
CONTINUOUS
10
21.113160
20
756.134075
30
0.0
11
21.113160
21
754.941755
31
0.0
0
LINE
8
0
6
CONTINUOUS
10
-54.498360
20
754.885595
30
0.0
11
-51.826400
21
754.885595
31
0.0
0
LINE
8
0
6
CONTINUOUS
10
-50.390280
20
754.885595
30
0.0
11
-50.390280
21
756.064185
31
0.0
0
LINE
8
0
6
CONTINUOUS
10
-51.826400
20
754.885595
30
0.0
11
-50.390280
21
754.885595
31
0.0
0
LINE
8
0
6
CONTINUOUS
10
-51.826400
20
756.064185
30
0.0
11
-51.826400
21
754.885595
31
0.0
0
LINE
8
0
6
CONTINUOUS
10
-54.498360
20
754.885595
30
0.0
11
-54.498360
21
756.064185
31
0.0
0
LINE
8
0
6
CONTINUOUS
10
-55.734240
20
754.885595
30
0.0
11
-54.498360
21
754.885595
31
0.0
0
LINE
8
0
6
CONTINUOUS
10
-55.734240
20
759.311865
30
0.0
11
-55.734240
21
754.885595
31
0.0
0
LINE
8
0
6
CONTINUOUS
10
69.050870
20
754.862095
30
0.0
11
69.050870
21
756.969368
31
0.0
0
LINE
8
0
6
CONTINUOUS
10
67.311000
20
754.862095
30
0.0
11
69.050870
21
754.862095
31
0.0
0
LINE
8
0
6
CONTINUOUS
10
67.311000
20
754.862095
30
0.0
11
67.311000
21
756.729513
31
0.0
0
LINE
8
0
6
CONTINUOUS
10
64.682010
20
754.862095
30
0.0
11
67.311000
21
754.862095
31
0.0
0
LINE
8
0
6
CONTINUOUS
10
64.682010
20
754.862095
30
0.0
11
64.682010
21
756.151615
31
0.0
0
LINE
8
0
6
CONTINUOUS
10
63.792880
20
754.862095
30
0.0
11
64.682010
21
754.862095
31
0.0
0
LINE
8
0
6
CONTINUOUS
10
63.792880
20
756.269574
30
0.0
11
63.792880
21
754.862095
31
0.0
0
LINE
8
0
6
CONTINUOUS
10
10.321210
20
754.923285
30
0.0
11
10.321210
21
759.311865
31
0.0
0
LINE
8
0
6
CONTINUOUS
10
8.510610
20
754.923285
30
0.0
11
10.321210
21
754.923285
31
0.0
0
LINE
8
0
6
CONTINUOUS
10
8.510610
20
754.923285
30
0.0
11
8.510610
21
759.311865
31
0.0
0
LINE
8
0
6
CONTINUOUS
10
5.900620
20
754.923285
30
0.0
11
8.510610
21
754.923285
31
0.0
0
LINE
8
0
6
CONTINUOUS
10
5.900620
20
754.923285
30
0.0
11
5.900620
21
759.311865
31
0.0
0
LINE
8
0
6
CONTINUOUS
10
5.101240
20
754.923285
30
0.0
11
5.900620
21
754.923285
31
0.0
0
LINE
8
0
6
CONTINUOUS
10
-65.911580
20
754.870795
30
0.0
11
-63.323870
21
754.870795
31
0.0
0
LINE
8
0
6
CONTINUOUS
10
-61.444810
20
754.870795
30
0.0
11
-61.444810
21
755.133826
31
0.0
0
LINE
8
0
6
CONTINUOUS
10
-63.323870
20
754.870795
30
0.0
11
-61.444810
21
754.870795
31
0.0
0
LINE
8
0
6
CONTINUOUS
10
-63.323870
20
756.079755
30
0.0
11
-63.323870
21
754.901775
31
0.0
0
LINE
8
0
6
CONTINUOUS
10
-65.911580
20
754.870795
30
0.0
11
-65.911580
21
756.079755
31
0.0
0
LINE
8
0
6
CONTINUOUS
10
-66.620230
20
754.870795
30
0.0
11
-65.911580
21
754.870795
31
0.0
0
LINE
8
0
6
CONTINUOUS
10
-66.620230
20
756.079755
30
0.0
11
-66.620230
21
754.901775
31
0.0
0
LINE
8
0
6
CONTINUOUS
10
62.843020
20
754.862705
30
0.0
11
62.843020
21
756.151615
31
0.0
0
LINE
8
0
6
CONTINUOUS
10
60.714420
20
754.862705
30
0.0
11
62.843020
21
754.862705
31
0.0
0
LINE
8
0
6
CONTINUOUS
10
60.714420
20
754.862705
30
0.0
11
60.714420
21
756.151615
31
0.0
0
LINE
8
0
6
CONTINUOUS
10
58.247830
20
754.862705
30
0.0
11
60.714420
21
754.862705
31
0.0
0
LINE
8
0
6
CONTINUOUS
10
58.247830
20
754.862705
30
0.0
11
58.247830
21
755.628215
31
0.0
0
LINE
8
0
6
CONTINUOUS
10
57.909850
20
754.862705
30
0.0
11
58.247830
21
754.862705
31
0.0
0
LINE
8
0
6
CONTINUOUS
10
57.909850
20
756.654087
30
0.0
11
57.909850
21
754.862705
31
0.0
0
LINE
8
0
6
CONTINUOUS
10
-8.487610
20
754.886665
30
0.0
11
-6.303070
21
754.886665
31
0.0
0
LINE
8
0
6
CONTINUOUS
10
-8.487610
20
754.886665
30
0.0
11
-8.487610
21
759.311865
31
0.0
0
LINE
8
0
6
CONTINUOUS
10
-10.916110
20
754.886665
30
0.0
11
-8.487610
21
754.886665
31
0.0
0
LINE
8
0
6
CONTINUOUS
10
-10.916110
20
754.886665
30
0.0
11
-10.916110
21
759.311865
31
0.0
0
LINE
8
0
6
CONTINUOUS
10
-11.160060
20
754.886665
30
0.0
11
-10.916110
21
754.886665
31
0.0
0
LINE
8
0
6
CONTINUOUS
10
-11.160060
20
754.955485
30
0.0
11
-11.160060
21
754.886665
31
0.0
0
LINE
8
0
6
CONTINUOUS
10
-73.427790
20
754.823035
30
0.0
11
-71.040450
21
754.823035
31
0.0
0
LINE
8
0
6
CONTINUOUS
10
-68.802720
20
754.823035
30
0.0
11
-68.802720
21
755.984870
31
0.0
0
LINE
8
0
6
CONTINUOUS
10
-71.040450
20
754.823035
30
0.0
11
-68.802720
21
754.823035
31
0.0
0
LINE
8
0
6
CONTINUOUS
10
-71.040450
20
756.243694
30
0.0
11
-71.040450
21
754.846235
31
0.0
0
LINE
8
0
6
CONTINUOUS
10
-73.427790
20
754.823035
30
0.0
11
-73.427790
21
755.994755
31
0.0
0
LINE
8
0
6
CONTINUOUS
10
-73.577450
20
754.823035
30
0.0
11
-73.427790
21
754.823035
31
0.0
0
LINE
8
0
6
CONTINUOUS
10
-73.577450
20
756.003765
30
0.0
11
-73.577450
21
754.846235
31
0.0
0
LINE
8
0
6
CONTINUOUS
10
-77.859750
20
755.994755
30
0.0
11
-75.041630
21
755.994755
31
0.0
0
LINE
8
0
6
CONTINUOUS
10
-72.741750
20
755.994755
30
0.0
11
-72.741750
21
756.448204
31
0.0
0
LINE
8
0
6
CONTINUOUS
10
-75.041630
20
755.994755
30
0.0
11
-72.741750
21
755.994755
31
0.0
0
LINE
8
0
6
CONTINUOUS
10
-75.041630
20
759.311865
30
0.0
11
-75.041630
21
756.003765
31
0.0
0
LINE
8
0
6
CONTINUOUS
10
-77.859750
20
755.994755
30
0.0
11
-77.859750
21
759.311865
31
0.0
0
LINE
8
0
6
CONTINUOUS
10
-78.378060
20
755.994755
30
0.0
11
-77.859750
21
755.994755
31
0.0
0
LINE
8
0
6
CONTINUOUS
10
-78.378060
20
759.311865
30
0.0
11
-78.378060
21
756.003765
31
0.0
0
LINE
8
0
6
CONTINUOUS
10
3.089440
20
756.128125
30
0.0
11
3.089440
21
759.311865
31
0.0
0
LINE
8
0
6
CONTINUOUS
10
0.859120
20
756.128125
30
0.0
11
3.089440
21
756.128125
31
0.0
0
LINE
8
0
6
CONTINUOUS
10
0.859120
20
756.128125
30
0.0
11
0.859117
21
758.773235
31
0.0
0
LINE
8
0
6
CONTINUOUS
10
-1.993660
20
756.128125
30
0.0
11
0.859120
21
756.128125
31
0.0
0
LINE
8
0
6
CONTINUOUS
10
-1.993660
20
756.128125
30
0.0
11
-1.993660
21
759.311865
31
0.0
0
LINE
8
0
6
CONTINUOUS
10
-2.616080
20
756.128125
30
0.0
11
-1.993660
21
756.128125
31
0.0
0
LINE
8
0
6
CONTINUOUS
10
-2.616080
20
759.311865
30
0.0
11
-2.616080
21
756.128125
31
0.0
0
LINE
8
0
6
CONTINUOUS
10
74.963690
20
756.165815
30
0.0
11
74.963690
21
759.311865
31
0.0
0
LINE
8
0
6
CONTINUOUS
10
72.805710
20
756.165815
30
0.0
11
74.963690
21
756.165815
31
0.0
0
LINE
8
0
6
CONTINUOUS
10
72.805710
20
756.165815
30
0.0
11
72.805710
21
759.311865
31
0.0
0
LINE
8
0
6
CONTINUOUS
10
69.921900
20
756.165815
30
0.0
11
72.805710
21
756.165815
31
0.0
0
LINE
8
0
6
CONTINUOUS
10
69.921900
20
756.165815
30
0.0
11
69.921900
21
757.089447
31
0.0
0
LINE
8
0
6
CONTINUOUS
10
69.196090
20
756.165815
30
0.0
11
69.921900
21
756.165815
31
0.0
0
LINE
8
0
6
CONTINUOUS
10
69.196090
20
757.830649
30
0.0
11
69.196090
21
756.165815
31
0.0
0
LINE
8
0
6
CONTINUOUS
10
-67.454320
20
756.079755
30
0.0
11
-64.482740
21
756.079755
31
0.0
0
LINE
8
0
6
CONTINUOUS
10
-62.640120
20
756.079755
30
0.0
11
-62.640120
21
759.311865
31
0.0
0
LINE
8
0
6
CONTINUOUS
10
-64.482740
20
756.079755
30
0.0
11
-62.640120
21
756.079755
31
0.0
0
LINE
8
0
6
CONTINUOUS
10
-64.482740
20
759.311865
30
0.0
11
-64.482740
21
756.079755
31
0.0
0
LINE
8
0
6
CONTINUOUS
10
-67.454320
20
756.079755
30
0.0
11
-67.454320
21
759.311865
31
0.0
0
LINE
8
0
6
CONTINUOUS
10
-68.583290
20
756.079755
30
0.0
11
-67.454320
21
756.079755
31
0.0
0
LINE
8
0
6
CONTINUOUS
10
-68.583290
20
759.311865
30
0.0
11
-68.583290
21
756.079755
31
0.0
0
LINE
8
0
6
CONTINUOUS
10
21.413990
20
756.134075
30
0.0
11
21.413990
21
758.664745
31
0.0
0
LINE
8
0
6
CONTINUOUS
10
19.656250
20
756.134075
30
0.0
11
21.413990
21
756.134075
31
0.0
0
LINE
8
0
6
CONTINUOUS
10
19.656250
20
756.134075
30
0.0
11
19.656250
21
759.182015
31
0.0
0
LINE
8
0
6
CONTINUOUS
10
16.671960
20
756.134075
30
0.0
11
19.656250
21
756.134075
31
0.0
0
LINE
8
0
6
CONTINUOUS
10
16.671960
20
756.134075
30
0.0
11
16.671960
21
758.295719
31
0.0
0
LINE
8
0
6
CONTINUOUS
10
15.445430
20
756.134075
30
0.0
11
16.661750
21
756.134075
31
0.0
0
LINE
8
0
6
CONTINUOUS
10
15.445430
20
758.879585
30
0.0
11
15.445430
21
756.134075
31
0.0
0
LINE
8
0
6
CONTINUOUS
10
79.771960
20
756.131025
30
0.0
11
79.771960
21
758.447358
31
0.0
0
LINE
8
0
6
CONTINUOUS
10
78.101270
20
756.131025
30
0.0
11
79.771960
21
756.131025
31
0.0
0
LINE
8
0
6
CONTINUOUS
10
78.101270
20
756.131025
30
0.0
11
78.101270
21
758.217040
31
0.0
0
LINE
8
0
6
CONTINUOUS
10
75.108020
20
756.131025
30
0.0
11
78.101270
21
756.131025
31
0.0
0
LINE
8
0
6
CONTINUOUS
10
75.108020
20
756.131025
30
0.0
11
75.108020
21
757.804396
31
0.0
0
LINE
8
0
6
CONTINUOUS
10
73.785460
20
756.131025
30
0.0
11
75.108020
21
756.131025
31
0.0
0
LINE
8
0
6
CONTINUOUS
10
-52.999410
20
756.064185
30
0.0
11
-50.007710
21
756.064185
31
0.0
0
LINE
8
0
6
CONTINUOUS
10
-48.705010
20
756.064185
30
0.0
11
-48.705010
21
759.311865
31
0.0
0
LINE
8
0
6
CONTINUOUS
10
-50.007710
20
756.064185
30
0.0
11
-48.705010
21
756.064185
31
0.0
0
LINE
8
0
6
CONTINUOUS
10
-50.007710
20
759.311865
30
0.0
11
-50.007710
21
756.064185
31
0.0
0
LINE
8
0
6
CONTINUOUS
10
-52.999410
20
756.064185
30
0.0
11
-52.999410
21
759.311865
31
0.0
0
LINE
8
0
6
CONTINUOUS
10
-54.688410
20
756.064185
30
0.0
11
-53.014480
21
756.064185
31
0.0
0
LINE
8
0
6
CONTINUOUS
10
-54.688410
20
759.311865
30
0.0
11
-54.688410
21
756.064185
31
0.0
0
LINE
8
0
6
CONTINUOUS
10
38.740980
20
756.167185
30
0.0
11
38.740980
21
759.311865
31
0.0
0
LINE
8
0
6
CONTINUOUS
10
37.534640
20
756.167185
30
0.0
11
38.740980
21
756.167185
31
0.0
0
LINE
8
0
6
CONTINUOUS
10
37.534640
20
756.167185
30
0.0
11
37.534640
21
759.311865
31
0.0
0
LINE
8
0
6
CONTINUOUS
10
34.552700
20
756.167185
30
0.0
11
37.534640
21
756.167185
31
0.0
0
LINE
8
0
6
CONTINUOUS
10
34.552700
20
756.167185
30
0.0
11
34.552700
21
759.311865
31
0.0
0
LINE
8
0
6
CONTINUOUS
10
32.777100
20
756.167185
30
0.0
11
34.552700
21
756.167185
31
0.0
0
LINE
8
0
6
CONTINUOUS
10
32.777100
20
758.018509
30
0.0
11
32.777100
21
756.167185
31
0.0
0
LINE
8
0
6
CONTINUOUS
10
-36.189890
20
756.071355
30
0.0
11
-33.312260
21
756.071355
31
0.0
0
LINE
8
0
6
CONTINUOUS
10
-32.607910
20
756.071355
30
0.0
11
-32.607910
21
759.311865
31
0.0
0
LINE
8
0
6
CONTINUOUS
10
-33.312260
20
756.071355
30
0.0
11
-32.607910
21
756.071355
31
0.0
0
LINE
8
0
6
CONTINUOUS
10
-33.312260
20
759.311865
30
0.0
11
-33.312260
21
756.071355
31
0.0
0
LINE
8
0
6
CONTINUOUS
10
-36.189890
20
756.071355
30
0.0
11
-36.189890
21
759.311865
31
0.0
0
LINE
8
0
6
CONTINUOUS
10
-38.363180
20
756.071355
30
0.0
11
-36.189890
21
756.071355
31
0.0
0
LINE
8
0
6
CONTINUOUS
10
-38.363180
20
759.311865
30
0.0
11
-38.363180
21
756.071355
31
0.0
0
LINE
8
0
6
CONTINUOUS
10
53.868570
20
756.029095
30
0.0
11
53.868570
21
759.311865
31
0.0
0
LINE
8
0
6
CONTINUOUS
10
53.267770
20
756.029095
30
0.0
11
53.868570
21
756.029095
31
0.0
0
LINE
8
0
6
CONTINUOUS
10
53.267770
20
756.029095
30
0.0
11
53.267770
21
759.311865
31
0.0
0
LINE
8
0
6
CONTINUOUS
10
50.421930
20
756.029095
30
0.0
11
53.267770
21
756.029095
31
0.0
0
LINE
8
0
6
CONTINUOUS
10
50.421930
20
756.029095
30
0.0
11
50.421930
21
759.311865
31
0.0
0
LINE
8
0
6
CONTINUOUS
10
48.176890
20
756.029095
30
0.0
11
50.421930
21
756.029095
31
0.0
0
LINE
8
0
6
CONTINUOUS
10
48.176890
20
759.311865
30
0.0
11
48.176890
21
756.029095
31
0.0
0
LINE
8
0
6
CONTINUOUS
10
-85.503750
20
756.047405
30
0.0
11
-83.000580
21
756.047405
31
0.0
0
LINE
8
0
6
CONTINUOUS
10
-85.503750
20
758.207546
30
0.0
11
-85.503750
21
756.053965
31
0.0
0
LINE
8
0
6
CONTINUOUS
10
-83.000580
20
756.047405
30
0.0
11
-80.317010
21
756.047405
31
0.0
0
LINE
8
0
6
CONTINUOUS
10
-83.000580
20
757.862464
30
0.0
11
-83.000580
21
756.055335
31
0.0
0
LINE
8
0
6
CONTINUOUS
10
-80.136580
20
756.047405
30
0.0
11
-80.136580
21
757.467639
31
0.0
0
LINE
8
0
6
CONTINUOUS
10
-80.317010
20
756.047405
30
0.0
11
-80.136580
21
756.047405
31
0.0
0
LINE
8
0
6
CONTINUOUS
10
-80.317010
20
757.492513
30
0.0
11
-80.317010
21
756.055335
31
0.0
0
LINE
8
0
6
CONTINUOUS
10
45.258450
20
165.152475
30
0.0
11
46.875400
21
166.209605
31
0.0
0
LINE
8
0
6
CONTINUOUS
10
28.235740
20
167.440605
30
0.0
11
29.252200
21
166.209605
31
0.0
0
LINE
8
0
6
CONTINUOUS
10
35.430380
20
163.831445
30
0.0
11
38.063800
21
163.657495
31
0.0
0
LINE
8
0
6
CONTINUOUS
10
32.976420
20
164.341315
30
0.0
11
35.430380
21
163.831445
31
0.0
0
LINE
8
0
6
CONTINUOUS
10
43.151180
20
164.341315
30
0.0
11
45.258450
21
165.152475
31
0.0
0
LINE
8
0
6
CONTINUOUS
10
28.062216
20
168.101782
30
0.0
11
28.235740
21
167.440605
31
0.0
0
LINE
8
0
6
CONTINUOUS
10
30.869160
20
165.152475
30
0.0
11
32.976420
21
164.341315
31
0.0
0
LINE
8
0
6
CONTINUOUS
10
40.697220
20
163.831445
30
0.0
11
43.151180
21
164.341315
31
0.0
0
LINE
8
0
6
CONTINUOUS
10
29.252200
20
166.209605
30
0.0
11
30.869160
21
165.152475
31
0.0
0
LINE
8
0
6
CONTINUOUS
10
38.063800
20
163.657495
30
0.0
11
40.697220
21
163.831445
31
0.0
0
LINE
8
0
6
CONTINUOUS
10
46.875400
20
166.209605
30
0.0
11
47.260607
21
166.676142
31
0.0
0
LINE
8
0
6
CONTINUOUS
10
49.784620
20
193.416865
30
0.0
11
49.784620
21
195.151105
31
0.0
0
LINE
8
0
6
CONTINUOUS
10
38.063750
20
189.351925
30
0.0
11
35.030160
21
189.552265
31
0.0
0
LINE
8
0
6
CONTINUOUS
10
48.214320
20
192.291835
30
0.0
11
46.351650
21
191.074105
31
0.0
0
LINE
8
0
6
CONTINUOUS
10
35.030160
20
189.552265
30
0.0
11
32.203320
21
190.139655
31
0.0
0
LINE
8
0
6
CONTINUOUS
10
46.351650
20
191.074105
30
0.0
11
43.924190
21
190.139655
31
0.0
0
LINE
8
0
6
CONTINUOUS
10
32.203320
20
190.139655
30
0.0
11
29.775840
21
191.074025
31
0.0
0
LINE
8
0
6
CONTINUOUS
10
43.924190
20
190.139655
30
0.0
11
41.097330
21
189.552265
31
0.0
0
LINE
8
0
6
CONTINUOUS
10
41.097330
20
189.552265
30
0.0
11
38.063750
21
189.351925
31
0.0
0
LINE
8
0
6
CONTINUOUS
10
29.775840
20
191.074025
30
0.0
11
27.913180
21
192.291835
31
0.0
0
LINE
8
0
6
CONTINUOUS
10
49.385240
20
193.709905
30
0.0
11
48.214320
21
192.291835
31
0.0
0
LINE
8
0
6
CONTINUOUS
10
26.342880
20
193.416785
30
0.0
11
27.107521
21
181.223754
31
0.0
0
LINE
8
0
6
CONTINUOUS
10
49.020026
20
181.223853
30
0.0
11
49.784620
21
193.416865
31
0.0
0
LINE
8
0
6
CONTINUOUS
10
17.886380
20
298.695565
30
0.0
11
14.962770
21
300.418895
31
0.0
0
LINE
8
0
6
CONTINUOUS
10
20.867630
20
295.851095
30
0.0
11
17.886443
21
298.695505
31
0.0
0
LINE
8
0
6
CONTINUOUS
10
-13.432300
20
334.338645
30
0.0
11
-9.898460
21
342.094915
31
0.0
0
LINE
8
0
6
CONTINUOUS
10
-9.898460
20
342.094915
30
0.0
11
-5.272780
21
346.849095
31
0.0
0
LINE
8
0
6
CONTINUOUS
10
-3.996290
20
312.190595
30
0.0
11
-10.470390
21
318.959315
31
0.0
0
LINE
8
0
6
CONTINUOUS
10
-11.237470
20
319.008595
30
0.0
11
-4.592800
21
312.195395
31
0.0
0
LINE
8
0
6
CONTINUOUS
10
24.787590
20
358.771855
30
0.0
11
37.994270
21
359.704475
31
0.0
0
LINE
8
0
6
CONTINUOUS
10
12.058160
20
355.928385
30
0.0
11
24.787590
21
358.771855
31
0.0
0
LINE
8
0
6
CONTINUOUS
10
-5.272780
20
346.849095
30
0.0
11
0.873120
21
351.000635
31
0.0
0
LINE
8
0
6
CONTINUOUS
10
0.121410
20
309.265175
30
0.0
11
-3.996290
21
312.190595
31
0.0
0
LINE
8
0
6
CONTINUOUS
10
-4.592800
20
312.195395
30
0.0
11
-0.380010
21
309.276775
31
0.0
0
LINE
8
0
6
CONTINUOUS
10
37.994450
20
276.715585
30
0.0
11
33.788350
21
276.924405
31
0.0
0
LINE
8
0
6
CONTINUOUS
10
33.788350
20
276.924405
30
0.0
11
29.568260
21
277.903485
31
0.0
0
LINE
8
0
6
CONTINUOUS
10
0.873120
20
351.000635
30
0.0
11
12.058160
21
355.928385
31
0.0
0
LINE
8
0
6
CONTINUOUS
10
25.189060
20
198.172575
30
0.0
11
25.195670
21
198.045235
31
0.0
0
LINE
8
0
6
CONTINUOUS
10
25.195670
20
198.045235
30
0.0
11
25.396810
21
195.853995
31
0.0
0
LINE
8
0
6
CONTINUOUS
10
27.255720
20
193.029905
30
0.0
11
27.570250
21
192.663615
31
0.0
0
LINE
8
0
6
CONTINUOUS
10
25.396810
20
195.853995
30
0.0
11
25.862360
21
194.976085
31
0.0
0
LINE
8
0
6
CONTINUOUS
10
26.310860
20
194.130215
30
0.0
11
26.941200
21
193.396115
31
0.0
0
LINE
8
0
6
CONTINUOUS
10
25.862360
20
194.976085
30
0.0
11
26.310860
21
194.130215
31
0.0
0
LINE
8
0
6
CONTINUOUS
10
29.705760
20
191.267735
30
0.0
11
32.113050
21
190.341145
31
0.0
0
LINE
8
0
6
CONTINUOUS
10
32.113050
20
190.341145
30
0.0
11
34.931280
21
189.758565
31
0.0
0
LINE
8
0
6
CONTINUOUS
10
34.931280
20
189.758565
30
0.0
11
37.994600
21
189.559745
31
0.0
0
LINE
8
0
6
CONTINUOUS
10
-14.902120
20
327.970695
30
0.0
11
-14.878390
21
327.780575
31
0.0
0
LINE
8
0
6
CONTINUOUS
10
26.941200
20
193.396115
30
0.0
11
27.255720
21
193.029905
31
0.0
0
LINE
8
0
6
CONTINUOUS
10
19.897220
20
292.310005
30
0.0
11
20.709860
21
282.643475
31
0.0
0
LINE
8
0
6
CONTINUOUS
10
-12.020180
20
355.202675
30
0.0
11
-15.795400
21
347.307935
31
0.0
0
LINE
8
0
6
CONTINUOUS
10
-6.476640
20
361.074565
30
0.0
11
-11.102980
21
356.290095
31
0.0
0
LINE
8
0
6
CONTINUOUS
10
-11.102980
20
356.290095
30
0.0
11
-11.561580
21
355.746345
31
0.0
0
LINE
8
0
6
CONTINUOUS
10
-10.470390
20
318.959315
30
0.0
11
-13.696580
21
326.576575
31
0.0
0
LINE
8
0
6
CONTINUOUS
10
-14.513200
20
326.610985
30
0.0
11
-11.237470
21
319.008595
31
0.0
0
LINE
8
0
6
CONTINUOUS
10
37.994250
20
374.649165
30
0.0
11
24.931810
21
373.808025
31
0.0
0
LINE
8
0
6
CONTINUOUS
10
4.709850
20
306.562465
30
0.0
11
0.121410
21
309.265175
31
0.0
0
LINE
8
0
6
CONTINUOUS
10
-0.380010
20
309.276775
30
0.0
11
4.268070
21
306.598625
31
0.0
0
LINE
8
0
6
CONTINUOUS
10
9.783130
20
303.605005
30
0.0
11
8.092030
21
304.590795
31
0.0
0
LINE
8
0
6
CONTINUOUS
10
7.709660
20
304.660375
30
0.0
11
9.430460
21
303.691295
31
0.0
0
LINE
8
0
6
CONTINUOUS
10
12.037360
20
356.443675
30
0.0
11
24.786880
21
359.324535
31
0.0
0
LINE
8
0
6
CONTINUOUS
10
8.092030
20
304.590795
30
0.0
11
6.400950
21
305.576665
31
0.0
0
LINE
8
0
6
CONTINUOUS
10
5.988870
20
305.629465
30
0.0
11
7.709660
21
304.660375
31
0.0
0
LINE
8
0
6
CONTINUOUS
10
14.113700
20
300.521205
30
0.0
11
18.034080
21
296.193275
31
0.0
0
LINE
8
0
6
CONTINUOUS
10
19.897220
20
292.310005
30
0.0
11
20.159430
21
291.740075
31
0.0
0
LINE
8
0
6
CONTINUOUS
10
22.846310
20
242.489435
30
0.0
11
24.457940
21
212.259635
31
0.0
0
LINE
8
0
6
CONTINUOUS
10
-15.878460
20
339.058265
30
0.0
11
-15.850420
21
338.559305
31
0.0
0
LINE
8
0
6
CONTINUOUS
10
-15.795400
20
347.307935
30
0.0
11
-15.878460
21
339.058265
31
0.0
0
LINE
8
0
6
CONTINUOUS
10
-15.544910
20
333.123055
30
0.0
11
-14.902120
21
327.970695
31
0.0
0
LINE
8
0
6
CONTINUOUS
10
13.958310
20
300.282095
30
0.0
11
17.810460
21
296.762505
31
0.0
0
LINE
8
0
6
CONTINUOUS
10
-6.476640
20
361.074565
30
0.0
11
-7.013090
21
360.528455
31
0.0
0
LINE
8
0
6
CONTINUOUS
10
9.430460
20
303.691295
30
0.0
11
13.958310
21
300.282095
31
0.0
0
LINE
8
0
6
CONTINUOUS
10
-13.696580
20
326.576575
30
0.0
11
-13.432300
21
334.338645
31
0.0
0
LINE
8
0
6
CONTINUOUS
10
-15.850420
20
338.559305
30
0.0
11
-15.544910
21
333.123055
31
0.0
0
LINE
8
0
6
CONTINUOUS
10
20.579950
20
284.834405
30
0.0
11
21.591880
21
265.888325
31
0.0
0
LINE
8
0
6
CONTINUOUS
10
14.962770
20
300.418895
30
0.0
11
9.783130
21
303.605005
31
0.0
0
LINE
8
0
6
CONTINUOUS
10
21.591880
20
265.888325
30
0.0
11
22.846310
21
242.489435
31
0.0
0
LINE
8
0
6
CONTINUOUS
10
19.884596
20
292.460172
30
0.0
11
21.026300
21
290.156975
31
0.0
0
LINE
8
0
6
CONTINUOUS
10
18.034080
20
296.193275
30
0.0
11
21.314860
21
289.630015
31
0.0
0
LINE
8
0
6
CONTINUOUS
10
24.931810
20
373.808025
30
0.0
11
12.562770
21
371.131475
31
0.0
0
LINE
8
0
6
CONTINUOUS
10
29.568260
20
277.903485
30
0.0
11
26.461580
21
279.344135
31
0.0
0
LINE
8
0
6
CONTINUOUS
10
1.330450
20
366.516995
30
0.0
11
-5.940180
21
361.620675
31
0.0
0
LINE
8
0
6
CONTINUOUS
10
-5.940180
20
361.620675
30
0.0
11
-6.476640
21
361.074565
31
0.0
0
LINE
8
0
6
CONTINUOUS
10
-14.513200
20
326.610985
30
0.0
11
-14.237120
21
334.333845
31
0.0
0
LINE
8
0
6
CONTINUOUS
10
-14.878390
20
327.780575
30
0.0
11
-14.513200
21
326.610985
31
0.0
0
LINE
8
0
6
CONTINUOUS
10
-10.593170
20
341.998255
30
0.0
11
-5.692260
21
347.036555
31
0.0
0
LINE
8
0
6
CONTINUOUS
10
24.786880
20
359.324535
30
0.0
11
37.994270
21
360.278815
31
0.0
0
LINE
8
0
6
CONTINUOUS
10
-5.692260
20
347.036555
30
0.0
11
0.819210
21
351.426045
31
0.0
0
LINE
8
0
6
CONTINUOUS
10
24.457940
20
212.259635
30
0.0
11
25.189060
21
198.172575
31
0.0
0
LINE
8
0
6
CONTINUOUS
10
24.359290
20
288.631705
30
0.0
11
20.867630
21
295.851095
31
0.0
0
LINE
8
0
6
CONTINUOUS
10
12.562770
20
371.131475
30
0.0
11
1.330450
21
366.516995
31
0.0
0
LINE
8
0
6
CONTINUOUS
10
19.885070
20
292.454525
30
0.0
11
20.737740
21
290.683935
31
0.0
0
LINE
8
0
6
CONTINUOUS
10
26.461580
20
279.344135
30
0.0
11
24.359290
21
288.631705
31
0.0
0
LINE
8
0
6
CONTINUOUS
10
-7.013090
20
360.528455
30
0.0
11
-11.561580
21
355.746345
31
0.0
0
LINE
8
0
6
CONTINUOUS
10
-11.561580
20
355.746345
30
0.0
11
-12.020180
21
355.202675
31
0.0
0
LINE
8
0
6
CONTINUOUS
10
6.400950
20
305.576665
30
0.0
11
4.709850
21
306.562465
31
0.0
0
LINE
8
0
6
CONTINUOUS
10
4.268070
20
306.598625
30
0.0
11
5.988870
21
305.629465
31
0.0
0
LINE
8
0
6
CONTINUOUS
10
0.819210
20
351.426045
30
0.0
11
12.037360
21
356.443675
31
0.0
0
LINE
8
0
6
CONTINUOUS
10
-14.237120
20
334.333845
30
0.0
11
-10.593170
21
341.998255
31
0.0
0
LINE
8
0
6
CONTINUOUS
10
58.102440
20
298.695565
30
0.0
11
55.121200
21
295.851175
31
0.0
0
LINE
8
0
6
CONTINUOUS
10
61.026050
20
300.418965
30
0.0
11
58.102440
21
298.695565
31
0.0
0
LINE
8
0
6
CONTINUOUS
10
85.887070
20
342.095075
30
0.0
11
89.420950
21
334.338795
31
0.0
0
LINE
8
0
6
CONTINUOUS
10
81.261370
20
346.849255
30
0.0
11
85.887070
21
342.095075
31
0.0
0
LINE
8
0
6
CONTINUOUS
10
80.581550
20
312.195545
30
0.0
11
87.226200
21
319.008755
31
0.0
0
LINE
8
0
6
CONTINUOUS
10
86.459120
20
318.959465
30
0.0
11
79.985040
21
312.190745
31
0.0
0
LINE
8
0
6
CONTINUOUS
10
37.994270
20
359.704475
30
0.0
11
51.200950
21
358.771855
31
0.0
0
LINE
8
0
6
CONTINUOUS
10
51.200950
20
358.771855
30
0.0
11
63.930400
21
355.928535
31
0.0
0
LINE
8
0
6
CONTINUOUS
10
75.115460
20
351.000715
30
0.0
11
81.261370
21
346.849255
31
0.0
0
LINE
8
0
6
CONTINUOUS
10
76.368780
20
309.276845
30
0.0
11
80.581550
21
312.195545
31
0.0
0
LINE
8
0
6
CONTINUOUS
10
79.985040
20
312.190745
30
0.0
11
75.867360
21
309.265325
31
0.0
0
LINE
8
0
6
CONTINUOUS
10
42.200540
20
276.924405
30
0.0
11
37.994450
21
276.715585
31
0.0
0
LINE
8
0
6
CONTINUOUS
10
46.420630
20
277.903485
30
0.0
11
42.200540
21
276.924405
31
0.0
0
LINE
8
0
6
CONTINUOUS
10
63.930400
20
355.928535
30
0.0
11
75.115460
21
351.000715
31
0.0
0
LINE
8
0
6
CONTINUOUS
10
50.592380
20
195.853995
30
0.0
11
50.793530
21
198.045235
31
0.0
0
LINE
8
0
6
CONTINUOUS
10
50.793530
20
198.045235
30
0.0
11
50.800140
21
198.172575
31
0.0
0
LINE
8
0
6
CONTINUOUS
10
48.418950
20
192.663685
30
0.0
11
48.733480
21
193.029905
31
0.0
0
LINE
8
0
6
CONTINUOUS
10
50.126840
20
194.976085
30
0.0
11
50.592380
21
195.853995
31
0.0
0
LINE
8
0
6
CONTINUOUS
10
49.048010
20
193.396185
30
0.0
11
49.678350
21
194.130215
31
0.0
0
LINE
8
0
6
CONTINUOUS
10
49.678350
20
194.130215
30
0.0
11
50.126840
21
194.976085
31
0.0
0
LINE
8
0
6
CONTINUOUS
10
43.876150
20
190.341145
30
0.0
11
46.283450
21
191.267815
31
0.0
0
LINE
8
0
6
CONTINUOUS
10
41.057930
20
189.758565
30
0.0
11
43.876150
21
190.341145
31
0.0
0
LINE
8
0
6
CONTINUOUS
10
37.994600
20
189.559745
30
0.0
11
41.057930
21
189.758565
31
0.0
0
LINE
8
0
6
CONTINUOUS
10
90.867080
20
327.780725
30
0.0
11
90.890810
21
327.970845
31
0.0
0
LINE
8
0
6
CONTINUOUS
10
48.733480
20
193.029905
30
0.0
11
49.048010
21
193.396185
31
0.0
0
LINE
8
0
6
CONTINUOUS
10
55.279030
20
282.643475
30
0.0
11
56.091631
21
292.310092
31
0.0
0
LINE
8
0
6
CONTINUOUS
10
91.784030
20
347.308085
30
0.0
11
88.008780
21
355.202755
31
0.0
0
LINE
8
0
6
CONTINUOUS
10
87.091560
20
356.290245
30
0.0
11
82.465210
21
361.074635
31
0.0
0
LINE
8
0
6
CONTINUOUS
10
87.550160
20
355.746495
30
0.0
11
87.091560
21
356.290245
31
0.0
0
LINE
8
0
6
CONTINUOUS
10
87.226200
20
319.008755
30
0.0
11
90.501890
21
326.611135
31
0.0
0
LINE
8
0
6
CONTINUOUS
10
89.685270
20
326.576725
30
0.0
11
86.459120
21
318.959465
31
0.0
0
LINE
8
0
6
CONTINUOUS
10
51.056700
20
373.808025
30
0.0
11
37.994250
21
374.649165
31
0.0
0
LINE
8
0
6
CONTINUOUS
10
71.720700
20
306.598705
30
0.0
11
76.368780
21
309.276845
31
0.0
0
LINE
8
0
6
CONTINUOUS
10
75.867360
20
309.265325
30
0.0
11
71.278920
21
306.562535
31
0.0
0
LINE
8
0
6
CONTINUOUS
10
66.558340
20
303.691295
30
0.0
11
68.279130
21
304.660455
31
0.0
0
LINE
8
0
6
CONTINUOUS
10
67.896750
20
304.590955
30
0.0
11
66.205670
21
303.605085
31
0.0
0
LINE
8
0
6
CONTINUOUS
10
51.201670
20
359.324605
30
0.0
11
63.951200
21
356.443825
31
0.0
0
LINE
8
0
6
CONTINUOUS
10
68.279130
20
304.660455
30
0.0
11
69.999920
21
305.629615
31
0.0
0
LINE
8
0
6
CONTINUOUS
10
69.587840
20
305.576745
30
0.0
11
67.896750
21
304.590955
31
0.0
0
LINE
8
0
6
CONTINUOUS
10
57.954750
20
296.193275
30
0.0
11
61.875110
21
300.521275
31
0.0
0
LINE
8
0
6
CONTINUOUS
10
55.829420
20
291.740155
30
0.0
11
56.091631
21
292.310092
31
0.0
0
LINE
8
0
6
CONTINUOUS
10
51.531210
20
212.259715
30
0.0
11
53.142740
21
242.489515
31
0.0
0
LINE
8
0
6
CONTINUOUS
10
91.867120
20
339.058415
30
0.0
11
91.784030
21
347.308085
31
0.0
0
LINE
8
0
6
CONTINUOUS
10
91.839080
20
338.559455
30
0.0
11
91.867120
21
339.058415
31
0.0
0
LINE
8
0
6
CONTINUOUS
10
90.890810
20
327.970845
30
0.0
11
91.533590
21
333.123205
31
0.0
0
LINE
8
0
6
CONTINUOUS
10
58.178370
20
296.762585
30
0.0
11
62.030500
21
300.282175
31
0.0
0
LINE
8
0
6
CONTINUOUS
10
83.001650
20
360.528525
30
0.0
11
82.465210
21
361.074635
31
0.0
0
LINE
8
0
6
CONTINUOUS
10
62.030500
20
300.282175
30
0.0
11
66.558340
21
303.691295
31
0.0
0
LINE
8
0
6
CONTINUOUS
10
89.420950
20
334.338795
30
0.0
11
89.685270
21
326.576725
31
0.0
0
LINE
8
0
6
CONTINUOUS
10
91.533590
20
333.123205
30
0.0
11
91.839080
21
338.559455
31
0.0
0
LINE
8
0
6
CONTINUOUS
10
54.397080
20
265.888405
30
0.0
11
55.408940
21
284.834485
31
0.0
0
LINE
8
0
6
CONTINUOUS
10
66.205670
20
303.605085
30
0.0
11
61.026050
21
300.418965
31
0.0
0
LINE
8
0
6
CONTINUOUS
10
53.142740
20
242.489515
30
0.0
11
54.397080
21
265.888405
31
0.0
0
LINE
8
0
6
CONTINUOUS
10
54.962550
20
290.157055
30
0.0
11
56.104253
21
292.460233
31
0.0
0
LINE
8
0
6
CONTINUOUS
10
54.673990
20
289.630085
30
0.0
11
57.954750
21
296.193275
31
0.0
0
LINE
8
0
6
CONTINUOUS
10
63.425750
20
371.131555
30
0.0
11
51.056700
21
373.808025
31
0.0
0
LINE
8
0
6
CONTINUOUS
10
49.527310
20
279.344215
30
0.0
11
46.420630
21
277.903485
31
0.0
0
LINE
8
0
6
CONTINUOUS
10
82.465210
20
361.074635
30
0.0
11
81.928750
21
361.620755
31
0.0
0
LINE
8
0
6
CONTINUOUS
10
81.928750
20
361.620755
30
0.0
11
74.658090
21
366.517145
31
0.0
0
LINE
8
0
6
CONTINUOUS
10
90.501890
20
326.611135
30
0.0
11
90.867080
21
327.780725
31
0.0
0
LINE
8
0
6
CONTINUOUS
10
90.225770
20
334.333995
30
0.0
11
90.501890
21
326.611135
31
0.0
0
LINE
8
0
6
CONTINUOUS
10
81.680850
20
347.036705
30
0.0
11
86.581780
21
341.998405
31
0.0
0
LINE
8
0
6
CONTINUOUS
10
37.994270
20
360.278815
30
0.0
11
51.201670
21
359.324605
31
0.0
0
LINE
8
0
6
CONTINUOUS
10
75.169370
20
351.426205
30
0.0
11
81.680850
21
347.036705
31
0.0
0
LINE
8
0
6
CONTINUOUS
10
50.800140
20
198.172575
30
0.0
11
51.531210
21
212.259715
31
0.0
0
LINE
8
0
6
CONTINUOUS
10
55.121200
20
295.851175
30
0.0
11
51.629560
21
288.631705
31
0.0
0
LINE
8
0
6
CONTINUOUS
10
74.658090
20
366.517145
30
0.0
11
63.425750
21
371.131555
31
0.0
0
LINE
8
0
6
CONTINUOUS
10
55.251110
20
290.684015
30
0.0
11
56.103781
21
292.454619
31
0.0
0
LINE
8
0
6
CONTINUOUS
10
51.629560
20
288.631705
30
0.0
11
49.527310
21
279.344215
31
0.0
0
LINE
8
0
6
CONTINUOUS
10
87.550160
20
355.746495
30
0.0
11
83.001650
21
360.528525
31
0.0
0
LINE
8
0
6
CONTINUOUS
10
88.008780
20
355.202755
30
0.0
11
87.550160
21
355.746495
31
0.0
0
LINE
8
0
6
CONTINUOUS
10
69.999920
20
305.629615
30
0.0
11
71.720700
21
306.598705
31
0.0
0
LINE
8
0
6
CONTINUOUS
10
71.278920
20
306.562535
30
0.0
11
69.587840
21
305.576745
31
0.0
0
LINE
8
0
6
CONTINUOUS
10
63.951200
20
356.443825
30
0.0
11
75.169370
21
351.426205
31
0.0
0
LINE
8
0
6
CONTINUOUS
10
86.581780
20
341.998405
30
0.0
11
90.225770
21
334.333995
31
0.0
0
LINE
8
0
6
CONTINUOUS
10
86.459100
20
318.959465
30
0.0
11
89.685270
21
326.576725
31
0.0
0
LINE
8
0
6
CONTINUOUS
10
12.058140
20
355.928385
30
0.0
11
0.873100
21
351.000555
31
0.0
0
LINE
8
0
6
CONTINUOUS
10
63.930390
20
355.928455
30
0.0
11
51.200940
21
358.771855
31
0.0
0
LINE
8
0
6
CONTINUOUS
10
75.115450
20
351.000715
30
0.0
11
63.930390
21
355.928455
31
0.0
0
LINE
8
0
6
CONTINUOUS
10
37.994250
20
359.704395
30
0.0
11
24.787570
21
358.771705
31
0.0
0
LINE
8
0
6
CONTINUOUS
10
0.121400
20
309.265175
30
0.0
11
4.709840
21
306.562465
31
0.0
0
LINE
8
0
6
CONTINUOUS
10
85.887050
20
342.095075
30
0.0
11
81.261370
21
346.849095
31
0.0
0
LINE
8
0
6
CONTINUOUS
10
81.261370
20
346.849095
30
0.0
11
75.115450
21
351.000715
31
0.0
0
LINE
8
0
6
CONTINUOUS
10
51.200940
20
358.771855
30
0.0
11
37.994250
21
359.704395
31
0.0
0
LINE
8
0
6
CONTINUOUS
10
75.867350
20
309.265175
30
0.0
11
79.985040
21
312.190595
31
0.0
0
LINE
8
0
6
CONTINUOUS
10
89.420930
20
334.338795
30
0.0
11
85.887050
21
342.095075
31
0.0
0
LINE
8
0
6
CONTINUOUS
10
89.685270
20
326.576725
30
0.0
11
89.420930
21
334.338795
31
0.0
0
LINE
8
0
6
CONTINUOUS
10
-9.898470
20
342.094915
30
0.0
11
-13.432310
21
334.338645
31
0.0
0
LINE
8
0
6
CONTINUOUS
10
66.205650
20
303.605005
30
0.0
11
67.902906
21
304.594445
31
0.0
0
LINE
8
0
6
CONTINUOUS
10
67.902906
20
304.594445
30
0.0
11
69.590607
21
305.578315
31
0.0
0
LINE
8
0
6
CONTINUOUS
10
69.590607
20
305.578315
30
0.0
11
71.278910
21
306.562535
31
0.0
0
LINE
8
0
6
CONTINUOUS
10
71.278910
20
306.562535
30
0.0
11
75.867350
21
309.265175
31
0.0
0
LINE
8
0
6
CONTINUOUS
10
-13.432310
20
334.338645
30
0.0
11
-13.696590
21
326.576575
31
0.0
0
LINE
8
0
6
CONTINUOUS
10
24.787570
20
358.771705
30
0.0
11
12.058140
21
355.928385
31
0.0
0
LINE
8
0
6
CONTINUOUS
10
0.873100
20
351.000555
30
0.0
11
-5.272800
21
346.849025
31
0.0
0
LINE
8
0
6
CONTINUOUS
10
-5.272800
20
346.849025
30
0.0
11
-9.898470
21
342.094915
31
0.0
0
LINE
8
0
6
CONTINUOUS
10
4.709840
20
306.562465
30
0.0
11
6.399446
21
305.577512
31
0.0
0
LINE
8
0
6
CONTINUOUS
10
6.399446
20
305.577512
30
0.0
11
8.093993
21
304.589679
31
0.0
0
LINE
8
0
6
CONTINUOUS
10
8.093993
20
304.589679
30
0.0
11
9.783120
21
303.605005
31
0.0
0
LINE
8
0
6
CONTINUOUS
10
79.985040
20
312.190595
30
0.0
11
86.459100
21
318.959465
31
0.0
0
LINE
8
0
6
CONTINUOUS
10
-10.470400
20
318.959315
30
0.0
11
-3.996300
21
312.190595
31
0.0
0
LINE
8
0
6
CONTINUOUS
10
-3.996300
20
312.190595
30
0.0
11
0.121400
21
309.265175
31
0.0
0
LINE
8
0
6
CONTINUOUS
10
-13.696590
20
326.576575
30
0.0
11
-10.470400
21
318.959315
31
0.0
0
LINE
8
0
6
CONTINUOUS
10
49.152490
20
279.519995
30
0.0
11
51.154500
21
288.490335
31
0.0
0
LINE
8
0
6
CONTINUOUS
10
46.473660
20
278.370625
30
0.0
11
49.152490
21
279.519995
31
0.0
0
LINE
8
0
6
CONTINUOUS
10
51.154500
20
288.490335
30
0.0
11
54.503550
21
295.655095
31
0.0
0
LINE
8
0
6
CONTINUOUS
10
29.526090
20
278.314405
30
0.0
11
33.768140
21
277.315105
31
0.0
0
LINE
8
0
6
CONTINUOUS
10
57.477450
20
298.483235
30
0.0
11
52.102820
21
299.560585
31
0.0
0
LINE
8
0
6
CONTINUOUS
10
54.503550
20
295.655095
30
0.0
11
57.477450
21
298.483235
31
0.0
0
LINE
8
0
6
CONTINUOUS
10
45.366810
20
299.658925
30
0.0
11
38.055830
21
299.678005
31
0.0
0
LINE
8
0
6
CONTINUOUS
10
52.102820
20
299.560585
30
0.0
11
45.366810
21
299.658925
31
0.0
0
LINE
8
0
6
CONTINUOUS
10
21.434040
20
295.698285
30
0.0
11
24.829230
21
288.484995
31
0.0
0
LINE
8
0
6
CONTINUOUS
10
33.768140
20
277.315105
30
0.0
11
37.994480
21
277.098195
31
0.0
0
LINE
8
0
6
CONTINUOUS
10
30.761480
20
299.909405
30
0.0
11
24.176540
21
300.101815
31
0.0
0
LINE
8
0
6
CONTINUOUS
10
42.224120
20
277.316095
30
0.0
11
46.473660
21
278.370625
31
0.0
0
LINE
8
0
6
CONTINUOUS
10
18.501140
20
298.520625
30
0.0
11
21.434040
21
295.698285
31
0.0
0
LINE
8
0
6
CONTINUOUS
10
24.176540
20
300.101815
30
0.0
11
18.533771
21
298.529716
31
0.0
0
LINE
8
0
6
CONTINUOUS
10
37.994480
20
277.098195
30
0.0
11
42.224120
21
277.316095
31
0.0
0
LINE
8
0
6
CONTINUOUS
10
26.826900
20
279.566995
30
0.0
11
29.526090
21
278.314405
31
0.0
0
LINE
8
0
6
CONTINUOUS
10
24.829230
20
288.484995
30
0.0
11
26.826900
21
279.566995
31
0.0
0
LINE
8
0
6
CONTINUOUS
10
38.055830
20
299.678005
30
0.0
11
30.761480
21
299.909405
31
0.0
0
LINE
8
0
6
CONTINUOUS
10
9.783120
20
303.605005
30
0.0
11
14.962760
21
300.418745
31
0.0
0
LINE
8
0
6
CONTINUOUS
10
45.435630
20
299.963345
30
0.0
11
52.232200
21
299.864085
31
0.0
0
LINE
8
0
6
CONTINUOUS
10
24.044560
20
300.418585
30
0.0
11
30.690990
21
300.213665
31
0.0
0
LINE
8
0
6
CONTINUOUS
10
30.690990
20
300.213665
30
0.0
11
38.055870
21
299.985545
31
0.0
0
LINE
8
0
6
CONTINUOUS
10
38.055870
20
299.985545
30
0.0
11
45.435630
21
299.963345
31
0.0
0
LINE
8
0
6
CONTINUOUS
10
17.886370
20
298.695485
30
0.0
11
24.044560
21
300.418585
31
0.0
0
LINE
8
0
6
CONTINUOUS
10
52.232200
20
299.864085
30
0.0
11
58.102367
21
298.695496
31
0.0
0
LINE
8
0
6
CONTINUOUS
10
14.962760
20
300.418745
30
0.0
11
17.886370
21
298.695485
31
0.0
0
LINE
8
0
6
CONTINUOUS
10
61.026040
20
300.418895
30
0.0
11
66.205650
21
303.605005
31
0.0
0
LINE
8
0
6
CONTINUOUS
10
58.102420
20
298.695485
30
0.0
11
61.026040
21
300.418895
31
0.0
0
LINE
8
0
6
CONTINUOUS
10
26.653240
20
279.695935
30
0.0
11
26.826900
21
279.566995
31
0.0
0
LINE
8
0
6
CONTINUOUS
10
26.826900
20
279.566995
30
0.0
11
24.829230
21
288.484995
31
0.0
0
LINE
8
0
6
CONTINUOUS
10
26.461580
20
279.344065
30
0.0
11
29.568250
21
277.903325
31
0.0
0
LINE
8
0
6
CONTINUOUS
10
51.629550
20
288.631635
30
0.0
11
55.121190
21
295.851175
31
0.0
0
LINE
8
0
6
CONTINUOUS
10
33.788340
20
276.924325
30
0.0
11
37.994440
21
276.715505
31
0.0
0
LINE
8
0
6
CONTINUOUS
10
46.420620
20
277.903485
30
0.0
11
49.527300
21
279.344135
31
0.0
0
LINE
8
0
6
CONTINUOUS
10
29.568250
20
277.903325
30
0.0
11
33.788340
21
276.924325
31
0.0
0
LINE
8
0
6
CONTINUOUS
10
26.461580
20
279.344065
30
0.0
11
26.653240
21
279.695935
31
0.0
0
LINE
8
0
6
CONTINUOUS
10
24.359290
20
288.631635
30
0.0
11
26.461580
21
279.344065
31
0.0
0
LINE
8
0
6
CONTINUOUS
10
26.653240
20
279.695935
30
0.0
11
24.604560
21
288.795055
31
0.0
0
LINE
8
0
6
CONTINUOUS
10
37.994440
20
276.715505
30
0.0
11
42.200530
21
276.924405
31
0.0
0
LINE
8
0
6
CONTINUOUS
10
49.527300
20
279.344135
30
0.0
11
51.629550
21
288.631635
31
0.0
0
LINE
8
0
6
CONTINUOUS
10
49.341750
20
279.671975
30
0.0
11
49.527300
21
279.344135
31
0.0
0
LINE
8
0
6
CONTINUOUS
10
42.200530
20
276.924405
30
0.0
11
46.420620
21
277.903485
31
0.0
0
LINE
8
0
6
CONTINUOUS
10
20.867620
20
295.851025
30
0.0
11
24.359290
21
288.631635
31
0.0
0
LINE
8
0
6
CONTINUOUS
10
57.477450
20
298.483235
30
0.0
11
57.789290
21
298.825415
31
0.0
0
LINE
8
0
6
CONTINUOUS
10
52.102820
20
299.560585
30
0.0
11
57.438296
21
298.491083
31
0.0
0
LINE
8
0
6
CONTINUOUS
10
45.366810
20
299.658925
30
0.0
11
52.102820
21
299.560585
31
0.0
0
LINE
8
0
6
CONTINUOUS
10
38.055830
20
299.678005
30
0.0
11
45.366810
21
299.658925
31
0.0
0
LINE
8
0
6
CONTINUOUS
10
24.829230
20
288.484995
30
0.0
11
21.434040
21
295.698285
31
0.0
0
LINE
8
0
6
CONTINUOUS
10
21.207027
20
295.916741
30
0.0
11
24.604560
21
288.795055
31
0.0
0
LINE
8
0
6
CONTINUOUS
10
49.341750
20
279.671975
30
0.0
11
51.392620
21
288.797645
31
0.0
0
LINE
8
0
6
CONTINUOUS
10
49.152490
20
279.519995
30
0.0
11
49.341750
21
279.671975
31
0.0
0
LINE
8
0
6
CONTINUOUS
10
51.154500
20
288.490335
30
0.0
11
49.152490
21
279.519995
31
0.0
0
LINE
8
0
6
CONTINUOUS
10
24.176540
20
300.101815
30
0.0
11
30.761480
21
299.909405
31
0.0
0
LINE
8
0
6
CONTINUOUS
10
17.886370
20
298.695485
30
0.0
11
20.867620
21
295.851025
31
0.0
0
LINE
8
0
6
CONTINUOUS
10
30.761480
20
299.909405
30
0.0
11
38.055830
21
299.678005
31
0.0
0
LINE
8
0
6
CONTINUOUS
10
18.205270
20
298.844495
30
0.0
11
18.501140
21
298.520625
31
0.0
0
LINE
8
0
6
CONTINUOUS
10
18.501140
20
298.520625
30
0.0
11
24.176540
21
300.101815
31
0.0
0
LINE
8
0
6
CONTINUOUS
10
55.121190
20
295.851175
30
0.0
11
58.102420
21
298.695485
31
0.0
0
LINE
8
0
6
CONTINUOUS
10
54.503550
20
295.655095
30
0.0
11
51.154500
21
288.490335
31
0.0
0
LINE
8
0
6
CONTINUOUS
10
51.392620
20
288.797645
30
0.0
11
54.776177
21
295.914360
31
0.0
0
LINE
8
0
6
CONTINUOUS
10
43.542380
20
338.628965
30
0.0
11
44.771440
21
339.037205
31
0.0
0
LINE
8
0
6
CONTINUOUS
10
42.313390
20
339.037205
30
0.0
11
43.542380
21
338.628965
31
0.0
0
LINE
8
0
6
CONTINUOUS
10
42.313440
20
339.853855
30
0.0
11
42.313390
21
339.037205
31
0.0
0
LINE
8
0
6
CONTINUOUS
10
43.542500
20
340.262105
30
0.0
11
42.313440
21
339.853855
31
0.0
0
LINE
8
0
6
CONTINUOUS
10
44.771500
20
339.853785
30
0.0
11
43.542500
21
340.262105
31
0.0
0
LINE
8
0
6
CONTINUOUS
10
44.771440
20
339.037205
30
0.0
11
44.771500
21
339.853785
31
0.0
0
LINE
8
0
6
CONTINUOUS
10
32.050130
20
301.292765
30
0.0
11
33.745220
21
301.999095
31
0.0
0
LINE
8
0
6
CONTINUOUS
10
30.139500
20
301.784245
30
0.0
11
32.050130
21
301.292765
31
0.0
0
LINE
8
0
6
CONTINUOUS
10
29.923990
20
302.982145
30
0.0
11
30.139500
21
301.784245
31
0.0
0
LINE
8
0
6
CONTINUOUS
10
31.619080
20
303.688465
30
0.0
11
29.923990
21
302.982145
31
0.0
0
LINE
8
0
6
CONTINUOUS
10
33.529710
20
303.196905
30
0.0
11
31.619080
21
303.688465
31
0.0
0
LINE
8
0
6
CONTINUOUS
10
33.745220
20
301.999095
30
0.0
11
33.529710
21
303.196905
31
0.0
0
LINE
8
0
6
CONTINUOUS
10
52.617990
20
323.923145
30
0.0
11
53.904000
21
324.350315
31
0.0
0
LINE
8
0
6
CONTINUOUS
10
51.332030
20
324.350395
30
0.0
11
52.617990
21
323.923145
31
0.0
0
LINE
8
0
6
CONTINUOUS
10
51.332080
20
325.204815
30
0.0
11
51.332030
21
324.350395
31
0.0
0
LINE
8
0
6
CONTINUOUS
10
52.618100
20
325.631985
30
0.0
11
51.332080
21
325.204815
31
0.0
0
LINE
8
0
6
CONTINUOUS
10
53.904050
20
325.204735
30
0.0
11
52.618100
21
325.631985
31
0.0
0
LINE
8
0
6
CONTINUOUS
10
53.904000
20
324.350315
30
0.0
11
53.904050
21
325.204735
31
0.0
0
LINE
8
0
6
CONTINUOUS
10
56.562630
20
316.186485
30
0.0
11
57.848640
21
316.613655
31
0.0
0
LINE
8
0
6
CONTINUOUS
10
55.276670
20
316.613655
30
0.0
11
56.562630
21
316.186485
31
0.0
0
LINE
8
0
6
CONTINUOUS
10
55.276720
20
317.468075
30
0.0
11
55.276670
21
316.613655
31
0.0
0
LINE
8
0
6
CONTINUOUS
10
56.562740
20
317.895315
30
0.0
11
55.276720
21
317.468075
31
0.0
0
LINE
8
0
6
CONTINUOUS
10
57.848690
20
317.467995
30
0.0
11
56.562740
21
317.895315
31
0.0
0
LINE
8
0
6
CONTINUOUS
10
57.848640
20
316.613655
30
0.0
11
57.848690
21
317.467995
31
0.0
0
LINE
8
0
6
CONTINUOUS
10
20.136350
20
308.984715
30
0.0
11
18.737780
21
308.088795
31
0.0
0
LINE
8
0
6
CONTINUOUS
10
22.184020
20
308.735775
30
0.0
11
20.136350
21
308.984715
31
0.0
0
LINE
8
0
6
CONTINUOUS
10
22.833130
20
307.590825
30
0.0
11
22.184020
21
308.735775
31
0.0
0
LINE
8
0
6
CONTINUOUS
10
21.434550
20
306.694985
30
0.0
11
22.833130
21
307.590825
31
0.0
0
LINE
8
0
6
CONTINUOUS
10
19.386880
20
306.943935
30
0.0
11
21.434550
21
306.694985
31
0.0
0
LINE
8
0
6
CONTINUOUS
10
18.737780
20
308.088795
30
0.0
11
19.386880
21
306.943935
31
0.0
0
LINE
8
0
6
CONTINUOUS
10
43.906470
20
304.012945
30
0.0
11
45.601570
21
304.719275
31
0.0
0
LINE
8
0
6
CONTINUOUS
10
41.995850
20
304.504505
30
0.0
11
43.906470
21
304.012945
31
0.0
0
LINE
8
0
6
CONTINUOUS
10
41.780330
20
305.702405
30
0.0
11
41.995850
21
304.504505
31
0.0
0
LINE
8
0
6
CONTINUOUS
10
43.475430
20
306.408655
30
0.0
11
41.780330
21
305.702405
31
0.0
0
LINE
8
0
6
CONTINUOUS
10
45.386060
20
305.917165
30
0.0
11
43.475430
21
306.408655
31
0.0
0
LINE
8
0
6
CONTINUOUS
10
45.601570
20
304.719275
30
0.0
11
45.386060
21
305.917165
31
0.0
0
LINE
8
0
6
CONTINUOUS
10
41.995840
20
343.280835
30
0.0
11
43.906470
21
342.789265
31
0.0
0
LINE
8
0
6
CONTINUOUS
10
41.780330
20
344.478725
30
0.0
11
41.995840
21
343.280835
31
0.0
0
LINE
8
0
6
CONTINUOUS
10
43.475420
20
345.184975
30
0.0
11
41.780330
21
344.478725
31
0.0
0
LINE
8
0
6
CONTINUOUS
10
45.386050
20
344.693485
30
0.0
11
43.475420
21
345.184975
31
0.0
0
LINE
8
0
6
CONTINUOUS
10
45.601570
20
343.495595
30
0.0
11
45.386050
21
344.693485
31
0.0
0
LINE
8
0
6
CONTINUOUS
10
43.906470
20
342.789265
30
0.0
11
45.601570
21
343.495595
31
0.0
0
LINE
8
0
6
CONTINUOUS
10
16.364370
20
313.667265
30
0.0
11
15.989070
21
312.879755
31
0.0
0
LINE
8
0
6
CONTINUOUS
10
17.737290
20
313.874015
30
0.0
11
16.364370
21
313.667265
31
0.0
0
LINE
8
0
6
CONTINUOUS
10
18.734910
20
313.293195
30
0.0
11
17.737290
21
313.874015
31
0.0
0
LINE
8
0
6
CONTINUOUS
10
18.359610
20
312.505765
30
0.0
11
18.734910
21
313.293195
31
0.0
0
LINE
8
0
6
CONTINUOUS
10
16.986680
20
312.299005
30
0.0
11
18.359610
21
312.505765
31
0.0
0
LINE
8
0
6
CONTINUOUS
10
15.989070
20
312.879755
30
0.0
11
16.986680
21
312.299005
31
0.0
0
LINE
8
0
6
CONTINUOUS
10
63.927670
20
327.935825
30
0.0
11
65.156710
21
328.344075
31
0.0
0
LINE
8
0
6
CONTINUOUS
10
62.698680
20
328.344155
30
0.0
11
63.927670
21
327.935825
31
0.0
0
LINE
8
0
6
CONTINUOUS
10
62.698720
20
329.160805
30
0.0
11
62.698680
21
328.344155
31
0.0
0
LINE
8
0
6
CONTINUOUS
10
63.927780
20
329.569055
30
0.0
11
62.698720
21
329.160805
31
0.0
0
LINE
8
0
6
CONTINUOUS
10
65.156780
20
329.160725
30
0.0
11
63.927780
21
329.569055
31
0.0
0
LINE
8
0
6
CONTINUOUS
10
65.156710
20
328.344075
30
0.0
11
65.156780
21
329.160725
31
0.0
0
LINE
8
0
6
CONTINUOUS
10
18.962810
20
316.130025
30
0.0
11
20.248830
21
316.557275
31
0.0
0
LINE
8
0
6
CONTINUOUS
10
17.676860
20
316.557355
30
0.0
11
18.962810
21
316.130025
31
0.0
0
LINE
8
0
6
CONTINUOUS
10
17.676920
20
317.411765
30
0.0
11
17.676860
21
316.557355
31
0.0
0
LINE
8
0
6
CONTINUOUS
10
18.962930
20
317.838865
30
0.0
11
17.676920
21
317.411765
31
0.0
0
LINE
8
0
6
CONTINUOUS
10
20.248880
20
317.411695
30
0.0
11
18.962930
21
317.838865
31
0.0
0
LINE
8
0
6
CONTINUOUS
10
20.248830
20
316.557275
30
0.0
11
20.248880
21
317.411695
31
0.0
0
LINE
8
0
6
CONTINUOUS
10
53.616310
20
301.448255
30
0.0
11
55.526940
21
300.956765
31
0.0
0
LINE
8
0
6
CONTINUOUS
10
53.400800
20
302.646145
30
0.0
11
53.616310
21
301.448255
31
0.0
0
LINE
8
0
6
CONTINUOUS
10
55.095900
20
303.352475
30
0.0
11
53.400800
21
302.646145
31
0.0
0
LINE
8
0
6
CONTINUOUS
10
57.006520
20
302.860985
30
0.0
11
55.095900
21
303.352475
31
0.0
0
LINE
8
0
6
CONTINUOUS
10
57.222030
20
301.663095
30
0.0
11
57.006520
21
302.860985
31
0.0
0
LINE
8
0
6
CONTINUOUS
10
55.526940
20
300.956765
30
0.0
11
57.222030
21
301.663095
31
0.0
0
LINE
8
0
6
CONTINUOUS
10
21.743560
20
332.165645
30
0.0
11
20.457540
21
331.738545
31
0.0
0
LINE
8
0
6
CONTINUOUS
10
23.029510
20
331.738475
30
0.0
11
21.743560
21
332.165645
31
0.0
0
LINE
8
0
6
CONTINUOUS
10
23.029450
20
330.884055
30
0.0
11
23.029510
21
331.738475
31
0.0
0
LINE
8
0
6
CONTINUOUS
10
21.743440
20
330.456815
30
0.0
11
23.029450
21
330.884055
31
0.0
0
LINE
8
0
6
CONTINUOUS
10
20.457490
20
330.884135
30
0.0
11
21.743440
21
330.456815
31
0.0
0
LINE
8
0
6
CONTINUOUS
10
20.457540
20
331.738545
30
0.0
11
20.457490
21
330.884135
31
0.0
0
LINE
8
0
6
CONTINUOUS
10
16.104600
20
322.898825
30
0.0
11
14.818580
21
322.471655
31
0.0
0
LINE
8
0
6
CONTINUOUS
10
17.390550
20
322.471585
30
0.0
11
16.104600
21
322.898825
31
0.0
0
LINE
8
0
6
CONTINUOUS
10
17.390490
20
321.617165
30
0.0
11
17.390550
21
322.471585
31
0.0
0
LINE
8
0
6
CONTINUOUS
10
16.104490
20
321.189915
30
0.0
11
17.390490
21
321.617165
31
0.0
0
LINE
8
0
6
CONTINUOUS
10
14.818530
20
321.617245
30
0.0
11
16.104490
21
321.189915
31
0.0
0
LINE
8
0
6
CONTINUOUS
10
14.818580
20
322.471655
30
0.0
11
14.818530
21
321.617245
31
0.0
0
LINE
8
0
6
CONTINUOUS
10
52.876770
20
321.401025
30
0.0
11
51.590750
21
320.973855
31
0.0
0
LINE
8
0
6
CONTINUOUS
10
54.162720
20
320.973775
30
0.0
11
52.876770
21
321.401025
31
0.0
0
LINE
8
0
6
CONTINUOUS
10
54.162670
20
320.119435
30
0.0
11
54.162720
21
320.973775
31
0.0
0
LINE
8
0
6
CONTINUOUS
10
52.876660
20
319.692195
30
0.0
11
54.162670
21
320.119435
31
0.0
0
LINE
8
0
6
CONTINUOUS
10
51.590700
20
320.119435
30
0.0
11
52.876660
21
319.692195
31
0.0
0
LINE
8
0
6
CONTINUOUS
10
51.590750
20
320.973855
30
0.0
11
51.590700
21
320.119435
31
0.0
0
LINE
8
0
6
CONTINUOUS
10
76.269370
20
320.312615
30
0.0
11
78.153970
21
320.836375
31
0.0
0
LINE
8
0
6
CONTINUOUS
10
74.538810
20
320.989805
30
0.0
11
76.269370
21
320.312615
31
0.0
0
LINE
8
0
6
CONTINUOUS
10
74.692850
20
322.190815
30
0.0
11
74.538810
21
320.989805
31
0.0
0
LINE
8
0
6
CONTINUOUS
10
76.577440
20
322.714575
30
0.0
11
74.692850
21
322.190815
31
0.0
0
LINE
8
0
6
CONTINUOUS
10
78.308010
20
322.037315
30
0.0
11
76.577440
21
322.714575
31
0.0
0
LINE
8
0
6
CONTINUOUS
10
78.153970
20
320.836375
30
0.0
11
78.308010
21
322.037315
31
0.0
0
LINE
8
0
6
CONTINUOUS
10
72.735520
20
316.114385
30
0.0
11
70.691330
21
315.856205
31
0.0
0
LINE
8
0
6
CONTINUOUS
10
74.146310
20
315.224875
30
0.0
11
72.735520
21
316.114385
31
0.0
0
LINE
8
0
6
CONTINUOUS
10
73.512900
20
314.077035
30
0.0
11
74.146310
21
315.224875
31
0.0
0
LINE
8
0
6
CONTINUOUS
10
71.468690
20
313.818855
30
0.0
11
73.512900
21
314.077035
31
0.0
0
LINE
8
0
6
CONTINUOUS
10
70.057900
20
314.708365
30
0.0
11
71.468690
21
313.818855
31
0.0
0
LINE
8
0
6
CONTINUOUS
10
70.691330
20
315.856205
30
0.0
11
70.057900
21
314.708365
31
0.0
0
LINE
8
0
6
CONTINUOUS
10
53.318410
20
303.993725
30
0.0
11
55.366080
21
303.744775
31
0.0
0
LINE
8
0
6
CONTINUOUS
10
52.669300
20
305.138585
30
0.0
11
53.318410
21
303.993725
31
0.0
0
LINE
8
0
6
CONTINUOUS
10
54.067880
20
306.034505
30
0.0
11
52.669300
21
305.138585
31
0.0
0
LINE
8
0
6
CONTINUOUS
10
56.115540
20
305.785565
30
0.0
11
54.067880
21
306.034505
31
0.0
0
LINE
8
0
6
CONTINUOUS
10
56.764650
20
304.640695
30
0.0
11
56.115540
21
305.785565
31
0.0
0
LINE
8
0
6
CONTINUOUS
10
55.366080
20
303.744775
30
0.0
11
56.764650
21
304.640695
31
0.0
0
LINE
8
0
6
CONTINUOUS
10
37.631010
20
336.192975
30
0.0
11
36.345000
21
335.765805
31
0.0
0
LINE
8
0
6
CONTINUOUS
10
38.916970
20
335.765725
30
0.0
11
37.631010
21
336.192975
31
0.0
0
LINE
8
0
6
CONTINUOUS
10
38.916910
20
334.911305
30
0.0
11
38.916970
21
335.765725
31
0.0
0
LINE
8
0
6
CONTINUOUS
10
37.630900
20
334.484065
30
0.0
11
38.916910
21
334.911305
31
0.0
0
LINE
8
0
6
CONTINUOUS
10
36.344950
20
334.911305
30
0.0
11
37.630900
21
334.484065
31
0.0
0
LINE
8
0
6
CONTINUOUS
10
36.345000
20
335.765805
30
0.0
11
36.344950
21
334.911305
31
0.0
0
LINE
8
0
6
CONTINUOUS
10
43.475430
20
303.772545
30
0.0
11
41.780330
21
303.066215
31
0.0
0
LINE
8
0
6
CONTINUOUS
10
45.386060
20
303.281065
30
0.0
11
43.475430
21
303.772545
31
0.0
0
LINE
8
0
6
CONTINUOUS
10
45.601570
20
302.083165
30
0.0
11
45.386060
21
303.281065
31
0.0
0
LINE
8
0
6
CONTINUOUS
10
43.906480
20
301.376835
30
0.0
11
45.601570
21
302.083165
31
0.0
0
LINE
8
0
6
CONTINUOUS
10
41.995850
20
301.868325
30
0.0
11
43.906480
21
301.376835
31
0.0
0
LINE
8
0
6
CONTINUOUS
10
41.780330
20
303.066215
30
0.0
11
41.995850
21
301.868325
31
0.0
0
LINE
8
0
6
CONTINUOUS
10
68.766030
20
330.123555
30
0.0
11
70.810220
21
330.381735
31
0.0
0
LINE
8
0
6
CONTINUOUS
10
67.355240
20
331.013065
30
0.0
11
68.766030
21
330.123555
31
0.0
0
LINE
8
0
6
CONTINUOUS
10
67.988660
20
332.160755
30
0.0
11
67.355240
21
331.013065
31
0.0
0
LINE
8
0
6
CONTINUOUS
10
70.032850
20
332.419095
30
0.0
11
67.988660
21
332.160755
31
0.0
0
LINE
8
0
6
CONTINUOUS
10
71.443660
20
331.529575
30
0.0
11
70.032850
21
332.419095
31
0.0
0
LINE
8
0
6
CONTINUOUS
10
70.810220
20
330.381735
30
0.0
11
71.443660
21
331.529575
31
0.0
0
LINE
8
0
6
CONTINUOUS
10
31.619080
20
344.895515
30
0.0
11
29.923980
21
344.189185
31
0.0
0
LINE
8
0
6
CONTINUOUS
10
33.529710
20
344.404035
30
0.0
11
31.619080
21
344.895515
31
0.0
0
LINE
8
0
6
CONTINUOUS
10
33.745220
20
343.206135
30
0.0
11
33.529710
21
344.404035
31
0.0
0
LINE
8
0
6
CONTINUOUS
10
32.050120
20
342.499735
30
0.0
11
33.745220
21
343.206135
31
0.0
0
LINE
8
0
6
CONTINUOUS
10
30.139500
20
342.991295
30
0.0
11
32.050120
21
342.499735
31
0.0
0
LINE
8
0
6
CONTINUOUS
10
29.923980
20
344.189185
30
0.0
11
30.139500
21
342.991295
31
0.0
0
LINE
8
0
6
CONTINUOUS
10
39.668450
20
338.839685
30
0.0
11
40.897510
21
339.248005
31
0.0
0
LINE
8
0
6
CONTINUOUS
10
38.439460
20
339.248005
30
0.0
11
39.668450
21
338.839685
31
0.0
0
LINE
8
0
6
CONTINUOUS
10
38.439510
20
340.064585
30
0.0
11
38.439460
21
339.248005
31
0.0
0
LINE
8
0
6
CONTINUOUS
10
39.668570
20
340.472835
30
0.0
11
38.439510
21
340.064585
31
0.0
0
LINE
8
0
6
CONTINUOUS
10
40.897560
20
340.064505
30
0.0
11
39.668570
21
340.472835
31
0.0
0
LINE
8
0
6
CONTINUOUS
10
40.897510
20
339.248005
30
0.0
11
40.897560
21
340.064505
31
0.0
0
LINE
8
0
6
CONTINUOUS
10
83.701260
20
323.193245
30
0.0
11
85.351900
21
323.933605
31
0.0
0
LINE
8
0
6
CONTINUOUS
10
81.761620
20
323.645595
30
0.0
11
83.701260
21
323.193245
31
0.0
0
LINE
8
0
6
CONTINUOUS
10
81.472650
20
324.838295
30
0.0
11
81.761620
21
323.645595
31
0.0
0
LINE
8
0
6
CONTINUOUS
10
83.123290
20
325.578655
30
0.0
11
81.472650
21
324.838295
31
0.0
0
LINE
8
0
6
CONTINUOUS
10
85.062930
20
325.126385
30
0.0
11
83.123290
21
325.578655
31
0.0
0
LINE
8
0
6
CONTINUOUS
10
85.351900
20
323.933605
30
0.0
11
85.062930
21
325.126385
31
0.0
0
LINE
8
0
6
CONTINUOUS
10
62.677220
20
338.038445
30
0.0
11
61.637910
21
336.993145
31
0.0
0
LINE
8
0
6
CONTINUOUS
10
64.770100
20
338.043175
30
0.0
11
62.677220
21
338.038445
31
0.0
0
LINE
8
0
6
CONTINUOUS
10
65.823690
20
337.002675
30
0.0
11
64.770100
21
338.043175
31
0.0
0
LINE
8
0
6
CONTINUOUS
10
64.784380
20
335.957375
30
0.0
11
65.823690
21
337.002675
31
0.0
0
LINE
8
0
6
CONTINUOUS
10
62.691500
20
335.952645
30
0.0
11
64.784380
21
335.957375
31
0.0
0
LINE
8
0
6
CONTINUOUS
10
61.637910
20
336.993145
30
0.0
11
62.691500
21
335.952645
31
0.0
0
LINE
8
0
6
CONTINUOUS
10
58.515640
20
325.965695
30
0.0
11
59.801650
21
326.392935
31
0.0
0
LINE
8
0
6
CONTINUOUS
10
57.229680
20
326.393015
30
0.0
11
58.515640
21
325.965695
31
0.0
0
LINE
8
0
6
CONTINUOUS
10
57.229740
20
327.247425
30
0.0
11
57.229680
21
326.393015
31
0.0
0
LINE
8
0
6
CONTINUOUS
10
58.515740
20
327.674525
30
0.0
11
57.229740
21
327.247425
31
0.0
0
LINE
8
0
6
CONTINUOUS
10
59.801700
20
327.247355
30
0.0
11
58.515740
21
327.674525
31
0.0
0
LINE
8
0
6
CONTINUOUS
10
59.801650
20
326.392935
30
0.0
11
59.801700
21
327.247355
31
0.0
0
LINE
8
0
6
CONTINUOUS
10
33.649550
20
330.405005
30
0.0
11
34.935560
21
330.832175
31
0.0
0
LINE
8
0
6
CONTINUOUS
10
32.363590
20
330.832175
30
0.0
11
33.649550
21
330.405005
31
0.0
0
LINE
8
0
6
CONTINUOUS
10
32.363660
20
331.686595
30
0.0
11
32.363590
21
330.832175
31
0.0
0
LINE
8
0
6
CONTINUOUS
10
33.649670
20
332.113835
30
0.0
11
32.363660
21
331.686595
31
0.0
0
LINE
8
0
6
CONTINUOUS
10
34.935620
20
331.686595
30
0.0
11
33.649670
21
332.113835
31
0.0
0
LINE
8
0
6
CONTINUOUS
10
34.935560
20
330.832175
30
0.0
11
34.935620
21
331.686595
31
0.0
0
LINE
8
0
6
CONTINUOUS
10
63.033090
20
319.486735
30
0.0
11
62.657770
21
318.699305
31
0.0
0
LINE
8
0
6
CONTINUOUS
10
64.406010
20
319.693485
30
0.0
11
63.033090
21
319.486735
31
0.0
0
LINE
8
0
6
CONTINUOUS
10
65.403620
20
319.112745
30
0.0
11
64.406010
21
319.693485
31
0.0
0
LINE
8
0
6
CONTINUOUS
10
65.028320
20
318.325155
30
0.0
11
65.403620
21
319.112745
31
0.0
0
LINE
8
0
6
CONTINUOUS
10
63.655380
20
318.118475
30
0.0
11
65.028320
21
318.325155
31
0.0
0
LINE
8
0
6
CONTINUOUS
10
62.657770
20
318.699305
30
0.0
11
63.655380
21
318.118475
31
0.0
0
LINE
8
0
6
CONTINUOUS
10
17.207040
20
333.601795
30
0.0
11
18.436100
21
334.010125
31
0.0
0
LINE
8
0
6
CONTINUOUS
10
15.978040
20
334.010125
30
0.0
11
17.207040
21
333.601795
31
0.0
0
LINE
8
0
6
CONTINUOUS
10
15.978100
20
334.826695
30
0.0
11
15.978040
21
334.010125
31
0.0
0
LINE
8
0
6
CONTINUOUS
10
17.207150
20
335.235025
30
0.0
11
15.978100
21
334.826695
31
0.0
0
LINE
8
0
6
CONTINUOUS
10
18.436150
20
334.826625
30
0.0
11
17.207150
21
335.235025
31
0.0
0
LINE
8
0
6
CONTINUOUS
10
18.436100
20
334.010125
30
0.0
11
18.436150
21
334.826625
31
0.0
0
LINE
8
0
6
CONTINUOUS
10
28.354380
20
320.010185
30
0.0
11
28.354320
21
319.155775
31
0.0
0
LINE
8
0
6
CONTINUOUS
10
29.640390
20
320.437435
30
0.0
11
28.354380
21
320.010185
31
0.0
0
LINE
8
0
6
CONTINUOUS
10
30.926350
20
320.010105
30
0.0
11
29.640390
21
320.437435
31
0.0
0
LINE
8
0
6
CONTINUOUS
10
30.926290
20
319.155695
30
0.0
11
30.926350
21
320.010105
31
0.0
0
LINE
8
0
6
CONTINUOUS
10
29.640270
20
318.728445
30
0.0
11
30.926290
21
319.155695
31
0.0
0
LINE
8
0
6
CONTINUOUS
10
28.354320
20
319.155775
30
0.0
11
29.640270
21
318.728445
31
0.0
0
LINE
8
0
6
CONTINUOUS
10
31.983050
20
338.797115
30
0.0
11
33.212110
21
339.205365
31
0.0
0
LINE
8
0
6
CONTINUOUS
10
30.754050
20
339.205365
30
0.0
11
31.983050
21
338.797115
31
0.0
0
LINE
8
0
6
CONTINUOUS
10
30.754110
20
340.022015
30
0.0
11
30.754050
21
339.205365
31
0.0
0
LINE
8
0
6
CONTINUOUS
10
31.983170
20
340.430265
30
0.0
11
30.754110
21
340.022015
31
0.0
0
LINE
8
0
6
CONTINUOUS
10
33.212160
20
340.021935
30
0.0
11
31.983170
21
340.430265
31
0.0
0
LINE
8
0
6
CONTINUOUS
10
33.212110
20
339.205365
30
0.0
11
33.212160
21
340.021935
31
0.0
0
LINE
8
0
6
CONTINUOUS
10
10.368830
20
329.081845
30
0.0
11
10.368770
21
328.265265
31
0.0
0
LINE
8
0
6
CONTINUOUS
10
11.597880
20
329.490095
30
0.0
11
10.368830
21
329.081845
31
0.0
0
LINE
8
0
6
CONTINUOUS
10
12.826880
20
329.081765
30
0.0
11
11.597880
21
329.490095
31
0.0
0
LINE
8
0
6
CONTINUOUS
10
12.826820
20
328.265195
30
0.0
11
12.826880
21
329.081765
31
0.0
0
LINE
8
0
6
CONTINUOUS
10
11.597770
20
327.856945
30
0.0
11
12.826820
21
328.265195
31
0.0
0
LINE
8
0
6
CONTINUOUS
10
10.368770
20
328.265265
30
0.0
11
11.597770
21
327.856945
31
0.0
0
LINE
8
0
6
CONTINUOUS
10
12.014770
20
317.298775
30
0.0
11
11.639470
21
316.511265
31
0.0
0
LINE
8
0
6
CONTINUOUS
10
13.387690
20
317.505535
30
0.0
11
12.014770
21
317.298775
31
0.0
0
LINE
8
0
6
CONTINUOUS
10
14.385320
20
316.924705
30
0.0
11
13.387690
21
317.505535
31
0.0
0
LINE
8
0
6
CONTINUOUS
10
14.010010
20
316.137275
30
0.0
11
14.385320
21
316.924705
31
0.0
0
LINE
8
0
6
CONTINUOUS
10
12.637090
20
315.930515
30
0.0
11
14.010010
21
316.137275
31
0.0
0
LINE
8
0
6
CONTINUOUS
10
11.639470
20
316.511265
30
0.0
11
12.637090
21
315.930515
31
0.0
0
LINE
8
0
6
CONTINUOUS
10
59.188530
20
345.790445
30
0.0
11
57.789970
21
344.894525
31
0.0
0
LINE
8
0
6
CONTINUOUS
10
61.236210
20
345.541345
30
0.0
11
59.188530
21
345.790445
31
0.0
0
LINE
8
0
6
CONTINUOUS
10
61.885320
20
344.396475
30
0.0
11
61.236210
21
345.541345
31
0.0
0
LINE
8
0
6
CONTINUOUS
10
60.486730
20
343.500635
30
0.0
11
61.885320
21
344.396475
31
0.0
0
LINE
8
0
6
CONTINUOUS
10
58.439070
20
343.749655
30
0.0
11
60.486730
21
343.500635
31
0.0
0
LINE
8
0
6
CONTINUOUS
10
57.789970
20
344.894525
30
0.0
11
58.439070
21
343.749655
31
0.0
0
LINE
8
0
6
CONTINUOUS
10
54.091000
20
342.303655
30
0.0
11
52.692430
21
341.407895
31
0.0
0
LINE
8
0
6
CONTINUOUS
10
56.138670
20
342.054715
30
0.0
11
54.091000
21
342.303655
31
0.0
0
LINE
8
0
6
CONTINUOUS
10
56.787780
20
340.909845
30
0.0
11
56.138670
21
342.054715
31
0.0
0
LINE
8
0
6
CONTINUOUS
10
55.389200
20
340.013925
30
0.0
11
56.787780
21
340.909845
31
0.0
0
LINE
8
0
6
CONTINUOUS
10
53.341530
20
340.262945
30
0.0
11
55.389200
21
340.013925
31
0.0
0
LINE
8
0
6
CONTINUOUS
10
52.692430
20
341.407895
30
0.0
11
53.341530
21
340.262945
31
0.0
0
LINE
8
0
6
CONTINUOUS
10
41.915080
20
354.020275
30
0.0
11
41.687350
21
352.823065
31
0.0
0
LINE
8
0
6
CONTINUOUS
10
43.830680
20
354.505345
30
0.0
11
41.915080
21
354.020275
31
0.0
0
LINE
8
0
6
CONTINUOUS
10
45.518560
20
353.793225
30
0.0
11
43.830680
21
354.505345
31
0.0
0
LINE
8
0
6
CONTINUOUS
10
45.290820
20
352.596165
30
0.0
11
45.518560
21
353.793225
31
0.0
0
LINE
8
0
6
CONTINUOUS
10
43.375220
20
352.111015
30
0.0
11
45.290820
21
352.596165
31
0.0
0
LINE
8
0
6
CONTINUOUS
10
41.687350
20
352.823065
30
0.0
11
43.375220
21
352.111015
31
0.0
0
LINE
8
0
6
CONTINUOUS
10
11.812150
20
310.316045
30
0.0
11
9.719270
21
310.311245
31
0.0
0
LINE
8
0
6
CONTINUOUS
10
12.865730
20
309.275475
30
0.0
11
11.812150
21
310.316045
31
0.0
0
LINE
8
0
6
CONTINUOUS
10
11.826420
20
308.230175
30
0.0
11
12.865730
21
309.275475
31
0.0
0
LINE
8
0
6
CONTINUOUS
10
9.733550
20
308.225445
30
0.0
11
11.826420
21
308.230175
31
0.0
0
LINE
8
0
6
CONTINUOUS
10
8.679960
20
309.266015
30
0.0
11
9.733550
21
308.225445
31
0.0
0
LINE
8
0
6
CONTINUOUS
10
9.719270
20
310.311245
30
0.0
11
8.679960
21
309.266015
31
0.0
0
LINE
8
0
6
CONTINUOUS
10
41.107440
20
311.346165
30
0.0
11
41.107380
21
310.491755
31
0.0
0
LINE
8
0
6
CONTINUOUS
10
42.393450
20
311.773335
30
0.0
11
41.107440
21
311.346165
31
0.0
0
LINE
8
0
6
CONTINUOUS
10
43.679400
20
311.346095
30
0.0
11
42.393450
21
311.773335
31
0.0
0
LINE
8
0
6
CONTINUOUS
10
43.679350
20
310.491675
30
0.0
11
43.679400
21
311.346095
31
0.0
0
LINE
8
0
6
CONTINUOUS
10
42.393340
20
310.064435
30
0.0
11
43.679350
21
310.491675
31
0.0
0
LINE
8
0
6
CONTINUOUS
10
41.107380
20
310.491755
30
0.0
11
42.393340
21
310.064435
31
0.0
0
LINE
8
0
6
CONTINUOUS
10
27.596800
20
334.934045
30
0.0
11
27.596740
21
334.079625
31
0.0
0
LINE
8
0
6
CONTINUOUS
10
28.882810
20
335.361215
30
0.0
11
27.596800
21
334.934045
31
0.0
0
LINE
8
0
6
CONTINUOUS
10
30.168760
20
334.933965
30
0.0
11
28.882810
21
335.361215
31
0.0
0
LINE
8
0
6
CONTINUOUS
10
30.168710
20
334.079555
30
0.0
11
30.168760
21
334.933965
31
0.0
0
LINE
8
0
6
CONTINUOUS
10
28.882700
20
333.652385
30
0.0
11
30.168710
21
334.079555
31
0.0
0
LINE
8
0
6
CONTINUOUS
10
27.596740
20
334.079625
30
0.0
11
28.882700
21
333.652385
31
0.0
0
LINE
8
0
6
CONTINUOUS
10
70.032850
20
319.795115
30
0.0
11
67.988660
21
319.536935
31
0.0
0
LINE
8
0
6
CONTINUOUS
10
71.443640
20
318.905605
30
0.0
11
70.032850
21
319.795115
31
0.0
0
LINE
8
0
6
CONTINUOUS
10
70.810220
20
317.757835
30
0.0
11
71.443640
21
318.905605
31
0.0
0
LINE
8
0
6
CONTINUOUS
10
68.766030
20
317.499585
30
0.0
11
70.810220
21
317.757835
31
0.0
0
LINE
8
0
6
CONTINUOUS
10
67.355220
20
318.389095
30
0.0
11
68.766030
21
317.499585
31
0.0
0
LINE
8
0
6
CONTINUOUS
10
67.988660
20
319.536935
30
0.0
11
67.355220
21
318.389095
31
0.0
0
LINE
8
0
6
CONTINUOUS
10
-0.083260
20
343.503455
30
0.0
11
-0.716690
21
342.355695
31
0.0
0
LINE
8
0
6
CONTINUOUS
10
1.960930
20
343.761715
30
0.0
11
-0.083260
21
343.503455
31
0.0
0
LINE
8
0
6
CONTINUOUS
10
3.371720
20
342.872205
30
0.0
11
1.960930
21
343.761715
31
0.0
0
LINE
8
0
6
CONTINUOUS
10
2.738310
20
341.724435
30
0.0
11
3.371720
21
342.872205
31
0.0
0
LINE
8
0
6
CONTINUOUS
10
0.694120
20
341.466105
30
0.0
11
2.738310
21
341.724435
31
0.0
0
LINE
8
0
6
CONTINUOUS
10
-0.716690
20
342.355695
30
0.0
11
0.694120
21
341.466105
31
0.0
0
LINE
8
0
6
CONTINUOUS
10
71.166020
20
323.995785
30
0.0
11
73.050620
21
324.519535
31
0.0
0
LINE
8
0
6
CONTINUOUS
10
69.435460
20
324.673045
30
0.0
11
71.166020
21
323.995785
31
0.0
0
LINE
8
0
6
CONTINUOUS
10
69.589490
20
325.874065
30
0.0
11
69.435460
21
324.673045
31
0.0
0
LINE
8
0
6
CONTINUOUS
10
71.474090
20
326.397745
30
0.0
11
69.589490
21
325.874065
31
0.0
0
LINE
8
0
6
CONTINUOUS
10
73.204650
20
325.720485
30
0.0
11
71.474090
21
326.397745
31
0.0
0
LINE
8
0
6
CONTINUOUS
10
73.050620
20
324.519535
30
0.0
11
73.204650
21
325.720485
31
0.0
0
LINE
8
0
6
CONTINUOUS
10
73.303910
20
334.855465
30
0.0
11
72.670500
21
333.707775
31
0.0
0
LINE
8
0
6
CONTINUOUS
10
75.348100
20
335.113795
30
0.0
11
73.303910
21
334.855465
31
0.0
0
LINE
8
0
6
CONTINUOUS
10
76.758910
20
334.224205
30
0.0
11
75.348100
21
335.113795
31
0.0
0
LINE
8
0
6
CONTINUOUS
10
76.125480
20
333.076435
30
0.0
11
76.758910
21
334.224205
31
0.0
0
LINE
8
0
6
CONTINUOUS
10
74.081290
20
332.818185
30
0.0
11
76.125480
21
333.076435
31
0.0
0
LINE
8
0
6
CONTINUOUS
10
72.670500
20
333.707775
30
0.0
11
74.081290
21
332.818185
31
0.0
0
LINE
8
0
6
CONTINUOUS
10
43.721540
20
325.418205
30
0.0
11
45.007560
21
325.845375
31
0.0
0
LINE
8
0
6
CONTINUOUS
10
42.435600
20
325.845455
30
0.0
11
43.721540
21
325.418205
31
0.0
0
LINE
8
0
6
CONTINUOUS
10
42.435640
20
326.699865
30
0.0
11
42.435600
21
325.845455
31
0.0
0
LINE
8
0
6
CONTINUOUS
10
43.721670
20
327.127035
30
0.0
11
42.435640
21
326.699865
31
0.0
0
LINE
8
0
6
CONTINUOUS
10
45.007610
20
326.699795
30
0.0
11
43.721670
21
327.127035
31
0.0
0
LINE
8
0
6
CONTINUOUS
10
45.007560
20
325.845375
30
0.0
11
45.007610
21
326.699795
31
0.0
0
LINE
8
0
6
CONTINUOUS
10
46.642850
20
335.295985
30
0.0
11
45.356840
21
334.868815
31
0.0
0
LINE
8
0
6
CONTINUOUS
10
47.928810
20
334.868735
30
0.0
11
46.642850
21
335.295985
31
0.0
0
LINE
8
0
6
CONTINUOUS
10
47.928750
20
334.014325
30
0.0
11
47.928810
21
334.868735
31
0.0
0
LINE
8
0
6
CONTINUOUS
10
46.642740
20
333.587155
30
0.0
11
47.928750
21
334.014325
31
0.0
0
LINE
8
0
6
CONTINUOUS
10
45.356790
20
334.014395
30
0.0
11
46.642740
21
333.587155
31
0.0
0
LINE
8
0
6
CONTINUOUS
10
45.356840
20
334.868815
30
0.0
11
45.356790
21
334.014395
31
0.0
0
LINE
8
0
6
CONTINUOUS
10
42.662140
20
308.495145
30
0.0
11
42.286840
21
307.707555
31
0.0
0
LINE
8
0
6
CONTINUOUS
10
44.035060
20
308.701825
30
0.0
11
42.662140
21
308.495145
31
0.0
0
LINE
8
0
6
CONTINUOUS
10
45.032680
20
308.121075
30
0.0
11
44.035060
21
308.701825
31
0.0
0
LINE
8
0
6
CONTINUOUS
10
44.657380
20
307.333565
30
0.0
11
45.032680
21
308.121075
31
0.0
0
LINE
8
0
6
CONTINUOUS
10
43.284460
20
307.126805
30
0.0
11
44.657380
21
307.333565
31
0.0
0
LINE
8
0
6
CONTINUOUS
10
42.286840
20
307.707555
30
0.0
11
43.284460
21
307.126805
31
0.0
0
LINE
8
0
6
CONTINUOUS
10
72.787230
20
343.638035
30
0.0
11
72.153820
21
342.490275
31
0.0
0
LINE
8
0
6
CONTINUOUS
10
74.831430
20
343.896375
30
0.0
11
72.787230
21
343.638035
31
0.0
0
LINE
8
0
6
CONTINUOUS
10
76.242230
20
343.006855
30
0.0
11
74.831430
21
343.896375
31
0.0
0
LINE
8
0
6
CONTINUOUS
10
75.608790
20
341.859015
30
0.0
11
76.242230
21
343.006855
31
0.0
0
LINE
8
0
6
CONTINUOUS
10
73.564620
20
341.600765
30
0.0
11
75.608790
21
341.859015
31
0.0
0
LINE
8
0
6
CONTINUOUS
10
72.153820
20
342.490275
30
0.0
11
73.564620
21
341.600765
31
0.0
0
LINE
8
0
6
CONTINUOUS
10
27.027620
20
315.532265
30
0.0
11
28.313630
21
315.959355
31
0.0
0
LINE
8
0
6
CONTINUOUS
10
25.741670
20
315.959435
30
0.0
11
27.027620
21
315.532265
31
0.0
0
LINE
8
0
6
CONTINUOUS
10
25.741730
20
316.813855
30
0.0
11
25.741670
21
315.959435
31
0.0
0
LINE
8
0
6
CONTINUOUS
10
27.027740
20
317.241095
30
0.0
11
25.741730
21
316.813855
31
0.0
0
LINE
8
0
6
CONTINUOUS
10
28.313700
20
316.813775
30
0.0
11
27.027740
21
317.241095
31
0.0
0
LINE
8
0
6
CONTINUOUS
10
28.313630
20
315.959355
30
0.0
11
28.313700
21
316.813775
31
0.0
0
LINE
8
0
6
CONTINUOUS
10
32.241090
20
308.791315
30
0.0
11
30.868180
21
308.584555
31
0.0
0
LINE
8
0
6
CONTINUOUS
10
33.238720
20
308.210485
30
0.0
11
32.241090
21
308.791315
31
0.0
0
LINE
8
0
6
CONTINUOUS
10
32.863410
20
307.423055
30
0.0
11
33.238720
21
308.210485
31
0.0
0
LINE
8
0
6
CONTINUOUS
10
31.490490
20
307.216225
30
0.0
11
32.863410
21
307.423055
31
0.0
0
LINE
8
0
6
CONTINUOUS
10
30.492880
20
307.797055
30
0.0
11
31.490490
21
307.216225
31
0.0
0
LINE
8
0
6
CONTINUOUS
10
30.868180
20
308.584555
30
0.0
11
30.492880
21
307.797055
31
0.0
0
LINE
8
0
6
CONTINUOUS
10
14.568910
20
314.119225
30
0.0
11
15.941830
21
314.325985
31
0.0
0
LINE
8
0
6
CONTINUOUS
10
13.571290
20
314.699975
30
0.0
11
14.568910
21
314.119225
31
0.0
0
LINE
8
0
6
CONTINUOUS
10
13.946590
20
315.487555
30
0.0
11
13.571290
21
314.699975
31
0.0
0
LINE
8
0
6
CONTINUOUS
10
15.319510
20
315.694235
30
0.0
11
13.946590
21
315.487555
31
0.0
0
LINE
8
0
6
CONTINUOUS
10
16.317130
20
315.113415
30
0.0
11
15.319510
21
315.694235
31
0.0
0
LINE
8
0
6
CONTINUOUS
10
15.941830
20
314.325985
30
0.0
11
16.317130
21
315.113415
31
0.0
0
LINE
8
0
6
CONTINUOUS
10
33.587540
20
313.260915
30
0.0
11
34.873550
21
313.688085
31
0.0
0
LINE
8
0
6
CONTINUOUS
10
32.301590
20
313.688165
30
0.0
11
33.587540
21
313.260915
31
0.0
0
LINE
8
0
6
CONTINUOUS
10
32.301640
20
314.542585
30
0.0
11
32.301590
21
313.688165
31
0.0
0
LINE
8
0
6
CONTINUOUS
10
33.587650
20
314.969825
30
0.0
11
32.301640
21
314.542585
31
0.0
0
LINE
8
0
6
CONTINUOUS
10
34.873610
20
314.542505
30
0.0
11
33.587650
21
314.969825
31
0.0
0
LINE
8
0
6
CONTINUOUS
10
34.873550
20
313.688085
30
0.0
11
34.873610
21
314.542505
31
0.0
0
LINE
8
0
6
CONTINUOUS
10
77.105390
20
326.259955
30
0.0
11
78.989990
21
326.783635
31
0.0
0
LINE
8
0
6
CONTINUOUS
10
75.374830
20
326.937145
30
0.0
11
77.105390
21
326.259955
31
0.0
0
LINE
8
0
6
CONTINUOUS
10
75.528860
20
328.138165
30
0.0
11
75.374830
21
326.937145
31
0.0
0
LINE
8
0
6
CONTINUOUS
10
77.413470
20
328.661845
30
0.0
11
75.528860
21
328.138165
31
0.0
0
LINE
8
0
6
CONTINUOUS
10
79.144040
20
327.984655
30
0.0
11
77.413470
21
328.661845
31
0.0
0
LINE
8
0
6
CONTINUOUS
10
78.989990
20
326.783635
30
0.0
11
79.144040
21
327.984655
31
0.0
0
LINE
8
0
6
CONTINUOUS
10
78.423110
20
318.209725
30
0.0
11
78.269060
21
317.008705
31
0.0
0
LINE
8
0
6
CONTINUOUS
10
80.307710
20
318.733405
30
0.0
11
78.423110
21
318.209725
31
0.0
0
LINE
8
0
6
CONTINUOUS
10
82.038280
20
318.056065
30
0.0
11
80.307710
21
318.733405
31
0.0
0
LINE
8
0
6
CONTINUOUS
10
81.884230
20
316.855205
30
0.0
11
82.038280
21
318.056065
31
0.0
0
LINE
8
0
6
CONTINUOUS
10
79.999640
20
316.331365
30
0.0
11
81.884230
21
316.855205
31
0.0
0
LINE
8
0
6
CONTINUOUS
10
78.269060
20
317.008705
30
0.0
11
79.999640
21
316.331365
31
0.0
0
LINE
8
0
6
CONTINUOUS
10
47.211920
20
316.774945
30
0.0
11
47.211860
21
315.920525
31
0.0
0
LINE
8
0
6
CONTINUOUS
10
48.497930
20
317.202185
30
0.0
11
47.211920
21
316.774945
31
0.0
0
LINE
8
0
6
CONTINUOUS
10
49.783880
20
316.774865
30
0.0
11
48.497930
21
317.202185
31
0.0
0
LINE
8
0
6
CONTINUOUS
10
49.783820
20
315.920445
30
0.0
11
49.783880
21
316.774865
31
0.0
0
LINE
8
0
6
CONTINUOUS
10
48.497810
20
315.493275
30
0.0
11
49.783820
21
315.920445
31
0.0
0
LINE
8
0
6
CONTINUOUS
10
47.211860
20
315.920525
30
0.0
11
48.497810
21
315.493275
31
0.0
0
LINE
8
0
6
CONTINUOUS
10
-4.474090
20
318.619345
30
0.0
11
-6.358690
21
318.095665
31
0.0
0
LINE
8
0
6
CONTINUOUS
10
-2.743520
20
317.942165
30
0.0
11
-4.474090
21
318.619345
31
0.0
0
LINE
8
0
6
CONTINUOUS
10
-2.897570
20
316.741145
30
0.0
11
-2.743520
21
317.942165
31
0.0
0
LINE
8
0
6
CONTINUOUS
10
-4.782160
20
316.217465
30
0.0
11
-2.897570
21
316.741145
31
0.0
0
LINE
8
0
6
CONTINUOUS
10
-6.512730
20
316.894645
30
0.0
11
-4.782160
21
316.217465
31
0.0
0
LINE
8
0
6
CONTINUOUS
10
-6.358690
20
318.095665
30
0.0
11
-6.512730
21
316.894645
31
0.0
0
LINE
8
0
6
CONTINUOUS
10
5.657910
20
338.663295
30
0.0
11
7.750790
21
338.668025
31
0.0
0
LINE
8
0
6
CONTINUOUS
10
4.604320
20
339.703865
30
0.0
11
5.657910
21
338.663295
31
0.0
0
LINE
8
0
6
CONTINUOUS
10
5.643640
20
340.749095
30
0.0
11
4.604320
21
339.703865
31
0.0
0
LINE
8
0
6
CONTINUOUS
10
7.736510
20
340.753895
30
0.0
11
5.643640
21
340.749095
31
0.0
0
LINE
8
0
6
CONTINUOUS
10
8.790090
20
339.713325
30
0.0
11
7.736510
21
340.753895
31
0.0
0
LINE
8
0
6
CONTINUOUS
10
7.750790
20
338.668025
30
0.0
11
8.790090
21
339.713325
31
0.0
0
LINE
8
0
6
CONTINUOUS
10
63.713410
20
308.375205
30
0.0
11
65.806290
21
308.379935
31
0.0
0
LINE
8
0
6
CONTINUOUS
10
62.659810
20
309.415705
30
0.0
11
63.713410
21
308.375205
31
0.0
0
LINE
8
0
6
CONTINUOUS
10
63.699130
20
310.461005
30
0.0
11
62.659810
21
309.415705
31
0.0
0
LINE
8
0
6
CONTINUOUS
10
65.792010
20
310.465735
30
0.0
11
63.699130
21
310.461005
31
0.0
0
LINE
8
0
6
CONTINUOUS
10
66.845590
20
309.425245
30
0.0
11
65.792010
21
310.465735
31
0.0
0
LINE
8
0
6
CONTINUOUS
10
65.806290
20
308.379935
30
0.0
11
66.845590
21
309.425245
31
0.0
0
LINE
8
0
6
CONTINUOUS
10
72.787230
20
312.558785
30
0.0
11
72.153800
21
311.411015
31
0.0
0
LINE
8
0
6
CONTINUOUS
10
74.831430
20
312.817045
30
0.0
11
72.787230
21
312.558785
31
0.0
0
LINE
8
0
6
CONTINUOUS
10
76.242220
20
311.927455
30
0.0
11
74.831430
21
312.817045
31
0.0
0
LINE
8
0
6
CONTINUOUS
10
75.608800
20
310.779765
30
0.0
11
76.242220
21
311.927455
31
0.0
0
LINE
8
0
6
CONTINUOUS
10
73.564600
20
310.521505
30
0.0
11
75.608800
21
310.779765
31
0.0
0
LINE
8
0
6
CONTINUOUS
10
72.153800
20
311.411015
30
0.0
11
73.564600
21
310.521505
31
0.0
0
LINE
8
0
6
CONTINUOUS
10
47.341240
20
329.196355
30
0.0
11
47.341190
21
328.341945
31
0.0
0
LINE
8
0
6
CONTINUOUS
10
48.627260
20
329.623455
30
0.0
11
47.341240
21
329.196355
31
0.0
0
LINE
8
0
6
CONTINUOUS
10
49.913210
20
329.196285
30
0.0
11
48.627260
21
329.623455
31
0.0
0
LINE
8
0
6
CONTINUOUS
10
49.913150
20
328.341865
30
0.0
11
49.913210
21
329.196285
31
0.0
0
LINE
8
0
6
CONTINUOUS
10
48.627140
20
327.914625
30
0.0
11
49.913150
21
328.341865
31
0.0
0
LINE
8
0
6
CONTINUOUS
10
47.341190
20
328.341945
30
0.0
11
48.627140
21
327.914625
31
0.0
0
LINE
8
0
6
CONTINUOUS
10
31.694860
20
351.475865
30
0.0
11
33.610460
21
351.960945
31
0.0
0
LINE
8
0
6
CONTINUOUS
10
30.006990
20
352.187845
30
0.0
11
31.694860
21
351.475865
31
0.0
0
LINE
8
0
6
CONTINUOUS
10
30.234720
20
353.384975
30
0.0
11
30.006990
21
352.187845
31
0.0
0
LINE
8
0
6
CONTINUOUS
10
32.150330
20
353.870125
30
0.0
11
30.234720
21
353.384975
31
0.0
0
LINE
8
0
6
CONTINUOUS
10
33.838200
20
353.157995
30
0.0
11
32.150330
21
353.870125
31
0.0
0
LINE
8
0
6
CONTINUOUS
10
33.610460
20
351.960945
30
0.0
11
33.838200
21
353.157995
31
0.0
0
LINE
8
0
6
CONTINUOUS
10
36.027920
20
349.309345
30
0.0
11
35.800180
21
348.112225
31
0.0
0
LINE
8
0
6
CONTINUOUS
10
37.943510
20
349.794425
30
0.0
11
36.027920
21
349.309345
31
0.0
0
LINE
8
0
6
CONTINUOUS
10
39.631390
20
349.082375
30
0.0
11
37.943510
21
349.794425
31
0.0
0
LINE
8
0
6
CONTINUOUS
10
39.403660
20
347.885245
30
0.0
11
39.631390
21
349.082375
31
0.0
0
LINE
8
0
6
CONTINUOUS
10
37.488050
20
347.400245
30
0.0
11
39.403660
21
347.885245
31
0.0
0
LINE
8
0
6
CONTINUOUS
10
35.800180
20
348.112225
30
0.0
11
37.488050
21
347.400245
31
0.0
0
LINE
8
0
6
CONTINUOUS
10
46.920040
20
324.111675
30
0.0
11
45.634030
21
323.684505
31
0.0
0
LINE
8
0
6
CONTINUOUS
10
48.206000
20
323.684425
30
0.0
11
46.920040
21
324.111675
31
0.0
0
LINE
8
0
6
CONTINUOUS
10
48.205940
20
322.830015
30
0.0
11
48.206000
21
323.684425
31
0.0
0
LINE
8
0
6
CONTINUOUS
10
46.919920
20
322.402845
30
0.0
11
48.205940
21
322.830015
31
0.0
0
LINE
8
0
6
CONTINUOUS
10
45.633980
20
322.830085
30
0.0
11
46.919920
21
322.402845
31
0.0
0
LINE
8
0
6
CONTINUOUS
10
45.634030
20
323.684505
30
0.0
11
45.633980
21
322.830085
31
0.0
0
LINE
8
0
6
CONTINUOUS
10
35.857090
20
340.655405
30
0.0
11
34.628040
21
340.247075
31
0.0
0
LINE
8
0
6
CONTINUOUS
10
37.086090
20
340.247075
30
0.0
11
35.857090
21
340.655405
31
0.0
0
LINE
8
0
6
CONTINUOUS
10
37.086040
20
339.430505
30
0.0
11
37.086090
21
340.247075
31
0.0
0
LINE
8
0
6
CONTINUOUS
10
35.856980
20
339.022255
30
0.0
11
37.086040
21
339.430505
31
0.0
0
LINE
8
0
6
CONTINUOUS
10
34.627990
20
339.430505
30
0.0
11
35.856980
21
339.022255
31
0.0
0
LINE
8
0
6
CONTINUOUS
10
34.628040
20
340.247075
30
0.0
11
34.627990
21
339.430505
31
0.0
0
LINE
8
0
6
CONTINUOUS
10
58.318510
20
335.293775
30
0.0
11
57.089460
21
334.885445
31
0.0
0
LINE
8
0
6
CONTINUOUS
10
59.547510
20
334.885365
30
0.0
11
58.318510
21
335.293775
31
0.0
0
LINE
8
0
6
CONTINUOUS
10
59.547450
20
334.068875
30
0.0
11
59.547510
21
334.885365
31
0.0
0
LINE
8
0
6
CONTINUOUS
10
58.318400
20
333.660545
30
0.0
11
59.547450
21
334.068875
31
0.0
0
LINE
8
0
6
CONTINUOUS
10
57.089410
20
334.068875
30
0.0
11
58.318400
21
333.660545
31
0.0
0
LINE
8
0
6
CONTINUOUS
10
57.089460
20
334.885445
30
0.0
11
57.089410
21
334.068875
31
0.0
0
LINE
8
0
6
CONTINUOUS
10
14.983860
20
333.666805
30
0.0
11
13.754810
21
333.258475
31
0.0
0
LINE
8
0
6
CONTINUOUS
10
16.212860
20
333.258405
30
0.0
11
14.983860
21
333.666805
31
0.0
0
LINE
8
0
6
CONTINUOUS
10
16.212810
20
332.441905
30
0.0
11
16.212860
21
333.258405
31
0.0
0
LINE
8
0
6
CONTINUOUS
10
14.983750
20
332.033575
30
0.0
11
16.212810
21
332.441905
31
0.0
0
LINE
8
0
6
CONTINUOUS
10
13.754750
20
332.441975
30
0.0
11
14.983750
21
332.033575
31
0.0
0
LINE
8
0
6
CONTINUOUS
10
13.754810
20
333.258475
30
0.0
11
13.754750
21
332.441975
31
0.0
0
LINE
8
0
6
CONTINUOUS
10
21.434550
20
339.756435
30
0.0
11
22.833120
21
340.652195
31
0.0
0
LINE
8
0
6
CONTINUOUS
10
19.386880
20
340.005305
30
0.0
11
21.434550
21
339.756435
31
0.0
0
LINE
8
0
6
CONTINUOUS
10
18.737770
20
341.150245
30
0.0
11
19.386880
21
340.005305
31
0.0
0
LINE
8
0
6
CONTINUOUS
10
20.136350
20
342.046085
30
0.0
11
18.737770
21
341.150245
31
0.0
0
LINE
8
0
6
CONTINUOUS
10
22.184020
20
341.797065
30
0.0
11
20.136350
21
342.046085
31
0.0
0
LINE
8
0
6
CONTINUOUS
10
22.833120
20
340.652195
30
0.0
11
22.184020
21
341.797065
31
0.0
0
LINE
8
0
6
CONTINUOUS
10
10.755450
20
311.430245
30
0.0
11
12.848330
21
311.435055
31
0.0
0
LINE
8
0
6
CONTINUOUS
10
9.701880
20
312.470815
30
0.0
11
10.755450
21
311.430245
31
0.0
0
LINE
8
0
6
CONTINUOUS
10
10.741170
20
313.516125
30
0.0
11
9.701880
21
312.470815
31
0.0
0
LINE
8
0
6
CONTINUOUS
10
12.834050
20
313.520855
30
0.0
11
10.741170
21
313.516125
31
0.0
0
LINE
8
0
6
CONTINUOUS
10
13.887640
20
312.480275
30
0.0
11
12.834050
21
313.520855
31
0.0
0
LINE
8
0
6
CONTINUOUS
10
12.848330
20
311.435055
30
0.0
11
13.887640
21
312.480275
31
0.0
0
LINE
8
0
6
CONTINUOUS
10
15.038810
20
345.563085
30
0.0
11
13.640230
21
344.667165
31
0.0
0
LINE
8
0
6
CONTINUOUS
10
17.086480
20
345.314145
30
0.0
11
15.038810
21
345.563085
31
0.0
0
LINE
8
0
6
CONTINUOUS
10
17.735590
20
344.169195
30
0.0
11
17.086480
21
345.314145
31
0.0
0
LINE
8
0
6
CONTINUOUS
10
16.337020
20
343.273355
30
0.0
11
17.735590
21
344.169195
31
0.0
0
LINE
8
0
6
CONTINUOUS
10
14.289340
20
343.522305
30
0.0
11
16.337020
21
343.273355
31
0.0
0
LINE
8
0
6
CONTINUOUS
10
13.640230
20
344.667165
30
0.0
11
14.289340
21
343.522305
31
0.0
0
LINE
8
0
6
CONTINUOUS
10
41.035470
20
318.043325
30
0.0
11
39.749460
21
317.616155
31
0.0
0
LINE
8
0
6
CONTINUOUS
10
42.321420
20
317.616155
30
0.0
11
41.035470
21
318.043325
31
0.0
0
LINE
8
0
6
CONTINUOUS
10
42.321370
20
316.761665
30
0.0
11
42.321420
21
317.616155
31
0.0
0
LINE
8
0
6
CONTINUOUS
10
41.035360
20
316.334495
30
0.0
11
42.321370
21
316.761665
31
0.0
0
LINE
8
0
6
CONTINUOUS
10
39.749400
20
316.761665
30
0.0
11
41.035360
21
316.334495
31
0.0
0
LINE
8
0
6
CONTINUOUS
10
39.749460
20
317.616155
30
0.0
11
39.749400
21
316.761665
31
0.0
0
LINE
8
0
6
CONTINUOUS
10
11.119550
20
317.982525
30
0.0
11
12.492470
21
318.189275
31
0.0
0
LINE
8
0
6
CONTINUOUS
10
10.121930
20
318.563275
30
0.0
11
11.119550
21
317.982525
31
0.0
0
LINE
8
0
6
CONTINUOUS
10
10.497230
20
319.350855
30
0.0
11
10.121930
21
318.563275
31
0.0
0
LINE
8
0
6
CONTINUOUS
10
11.870160
20
319.557535
30
0.0
11
10.497230
21
319.350855
31
0.0
0
LINE
8
0
6
CONTINUOUS
10
12.867770
20
318.976705
30
0.0
11
11.870160
21
319.557535
31
0.0
0
LINE
8
0
6
CONTINUOUS
10
12.492470
20
318.189275
30
0.0
11
12.867770
21
318.976705
31
0.0
0
LINE
8
0
6
CONTINUOUS
10
-2.628420
20
321.958965
30
0.0
11
-2.782450
21
320.757945
31
0.0
0
LINE
8
0
6
CONTINUOUS
10
-0.743820
20
322.482645
30
0.0
11
-2.628420
21
321.958965
31
0.0
0
LINE
8
0
6
CONTINUOUS
10
0.986740
20
321.805385
30
0.0
11
-0.743820
21
322.482645
31
0.0
0
LINE
8
0
6
CONTINUOUS
10
0.832710
20
320.604435
30
0.0
11
0.986740
21
321.805385
31
0.0
0
LINE
8
0
6
CONTINUOUS
10
-1.051880
20
320.080685
30
0.0
11
0.832710
21
320.604435
31
0.0
0
LINE
8
0
6
CONTINUOUS
10
-2.782450
20
320.757945
30
0.0
11
-1.051880
21
320.080685
31
0.0
0
LINE
8
0
6
CONTINUOUS
10
33.132100
20
310.124775
30
0.0
11
34.418110
21
310.552025
31
0.0
0
LINE
8
0
6
CONTINUOUS
10
31.846150
20
310.552105
30
0.0
11
33.132100
21
310.124775
31
0.0
0
LINE
8
0
6
CONTINUOUS
10
31.846210
20
311.406515
30
0.0
11
31.846150
21
310.552105
31
0.0
0
LINE
8
0
6
CONTINUOUS
10
33.132220
20
311.833765
30
0.0
11
31.846210
21
311.406515
31
0.0
0
LINE
8
0
6
CONTINUOUS
10
34.418170
20
311.406445
30
0.0
11
33.132220
21
311.833765
31
0.0
0
LINE
8
0
6
CONTINUOUS
10
34.418110
20
310.552025
30
0.0
11
34.418170
21
311.406445
31
0.0
0
LINE
8
0
6
CONTINUOUS
10
25.002870
20
313.837015
30
0.0
11
23.716860
21
313.409765
31
0.0
0
LINE
8
0
6
CONTINUOUS
10
26.288830
20
313.409765
30
0.0
11
25.002870
21
313.837015
31
0.0
0
LINE
8
0
6
CONTINUOUS
10
26.288770
20
312.555275
30
0.0
11
26.288830
21
313.409765
31
0.0
0
LINE
8
0
6
CONTINUOUS
10
25.002760
20
312.128105
30
0.0
11
26.288770
21
312.555275
31
0.0
0
LINE
8
0
6
CONTINUOUS
10
23.716800
20
312.555355
30
0.0
11
25.002760
21
312.128105
31
0.0
0
LINE
8
0
6
CONTINUOUS
10
23.716860
20
313.409765
30
0.0
11
23.716800
21
312.555355
31
0.0
0
LINE
8
0
6
CONTINUOUS
10
34.490080
20
316.318705
30
0.0
11
35.776090
21
316.745945
31
0.0
0
LINE
8
0
6
CONTINUOUS
10
33.204130
20
316.746025
30
0.0
11
34.490080
21
316.318705
31
0.0
0
LINE
8
0
6
CONTINUOUS
10
33.204180
20
317.600445
30
0.0
11
33.204130
21
316.746025
31
0.0
0
LINE
8
0
6
CONTINUOUS
10
34.490190
20
318.027685
30
0.0
11
33.204180
21
317.600445
31
0.0
0
LINE
8
0
6
CONTINUOUS
10
35.776150
20
317.600365
30
0.0
11
34.490190
21
318.027685
31
0.0
0
LINE
8
0
6
CONTINUOUS
10
35.776090
20
316.745945
30
0.0
11
35.776150
21
317.600365
31
0.0
0
LINE
8
0
6
CONTINUOUS
10
53.782000
20
330.477485
30
0.0
11
55.068010
21
330.904735
31
0.0
0
LINE
8
0
6
CONTINUOUS
10
52.496040
20
330.904805
30
0.0
11
53.782000
21
330.477485
31
0.0
0
LINE
8
0
6
CONTINUOUS
10
52.496100
20
331.759225
30
0.0
11
52.496040
21
330.904805
31
0.0
0
LINE
8
0
6
CONTINUOUS
10
53.782110
20
332.186315
30
0.0
11
52.496100
21
331.759225
31
0.0
0
LINE
8
0
6
CONTINUOUS
10
55.068070
20
331.759145
30
0.0
11
53.782110
21
332.186315
31
0.0
0
LINE
8
0
6
CONTINUOUS
10
55.068010
20
330.904735
30
0.0
11
55.068070
21
331.759145
31
0.0
0
LINE
8
0
6
CONTINUOUS
10
1.960940
20
312.628595
30
0.0
11
-0.083260
21
312.370265
31
0.0
0
LINE
8
0
6
CONTINUOUS
10
3.371740
20
311.739085
30
0.0
11
1.960940
21
312.628595
31
0.0
0
LINE
8
0
6
CONTINUOUS
10
2.738310
20
310.591245
30
0.0
11
3.371740
21
311.739085
31
0.0
0
LINE
8
0
6
CONTINUOUS
10
0.694120
20
310.332985
30
0.0
11
2.738310
21
310.591245
31
0.0
0
LINE
8
0
6
CONTINUOUS
10
-0.716670
20
311.222495
30
0.0
11
0.694120
21
310.332985
31
0.0
0
LINE
8
0
6
CONTINUOUS
10
-0.083260
20
312.370265
30
0.0
11
-0.716670
21
311.222495
31
0.0
0
LINE
8
0
6
CONTINUOUS
10
41.876000
20
332.024955
30
0.0
11
40.589990
21
331.597785
31
0.0
0
LINE
8
0
6
CONTINUOUS
10
43.161960
20
331.597715
30
0.0
11
41.876000
21
332.024955
31
0.0
0
LINE
8
0
6
CONTINUOUS
10
43.161900
20
330.743295
30
0.0
11
43.161960
21
331.597715
31
0.0
0
LINE
8
0
6
CONTINUOUS
10
41.875890
20
330.316125
30
0.0
11
43.161900
21
330.743295
31
0.0
0
LINE
8
0
6
CONTINUOUS
10
40.589940
20
330.743375
30
0.0
11
41.875890
21
330.316125
31
0.0
0
LINE
8
0
6
CONTINUOUS
10
40.589990
20
331.597785
30
0.0
11
40.589940
21
330.743375
31
0.0
0
LINE
8
0
6
CONTINUOUS
10
0.177440
20
332.610365
30
0.0
11
2.221640
21
332.868535
31
0.0
0
LINE
8
0
6
CONTINUOUS
10
-1.233360
20
333.499875
30
0.0
11
0.177440
21
332.610365
31
0.0
0
LINE
8
0
6
CONTINUOUS
10
-0.599930
20
334.647565
30
0.0
11
-1.233360
21
333.499875
31
0.0
0
LINE
8
0
6
CONTINUOUS
10
1.444260
20
334.905895
30
0.0
11
-0.599930
21
334.647565
31
0.0
0
LINE
8
0
6
CONTINUOUS
10
2.855050
20
334.016385
30
0.0
11
1.444260
21
334.905895
31
0.0
0
LINE
8
0
6
CONTINUOUS
10
2.221640
20
332.868535
30
0.0
11
2.855050
21
334.016385
31
0.0
0
LINE
8
0
6
CONTINUOUS
10
47.612990
20
346.943325
30
0.0
11
49.523620
21
346.451765
31
0.0
0
LINE
8
0
6
CONTINUOUS
10
47.397490
20
348.141215
30
0.0
11
47.612990
21
346.943325
31
0.0
0
LINE
8
0
6
CONTINUOUS
10
49.092580
20
348.847465
30
0.0
11
47.397490
21
348.141215
31
0.0
0
LINE
8
0
6
CONTINUOUS
10
51.003210
20
348.356055
30
0.0
11
49.092580
21
348.847465
31
0.0
0
LINE
8
0
6
CONTINUOUS
10
51.218720
20
347.158085
30
0.0
11
51.003210
21
348.356055
31
0.0
0
LINE
8
0
6
CONTINUOUS
10
49.523620
20
346.451765
30
0.0
11
51.218720
21
347.158085
31
0.0
0
LINE
8
0
6
CONTINUOUS
10
41.937900
20
313.195915
30
0.0
11
43.223910
21
313.623005
31
0.0
0
LINE
8
0
6
CONTINUOUS
10
40.651950
20
313.623085
30
0.0
11
41.937900
21
313.195915
31
0.0
0
LINE
8
0
6
CONTINUOUS
10
40.652010
20
314.477505
30
0.0
11
40.651950
21
313.623085
31
0.0
0
LINE
8
0
6
CONTINUOUS
10
41.938020
20
314.904745
30
0.0
11
40.652010
21
314.477505
31
0.0
0
LINE
8
0
6
CONTINUOUS
10
43.223970
20
314.477425
30
0.0
11
41.938020
21
314.904745
31
0.0
0
LINE
8
0
6
CONTINUOUS
10
43.223910
20
313.623005
30
0.0
11
43.223970
21
314.477425
31
0.0
0
LINE
8
0
6
CONTINUOUS
10
60.541790
20
333.733715
30
0.0
11
59.312750
21
333.325465
31
0.0
0
LINE
8
0
6
CONTINUOUS
10
61.770800
20
333.325385
30
0.0
11
60.541790
21
333.733715
31
0.0
0
LINE
8
0
6
CONTINUOUS
10
61.770740
20
332.508815
30
0.0
11
61.770800
21
333.325385
31
0.0
0
LINE
8
0
6
CONTINUOUS
10
60.541680
20
332.100565
30
0.0
11
61.770740
21
332.508815
31
0.0
0
LINE
8
0
6
CONTINUOUS
10
59.312680
20
332.508885
30
0.0
11
60.541680
21
332.100565
31
0.0
0
LINE
8
0
6
CONTINUOUS
10
59.312750
20
333.325465
30
0.0
11
59.312680
21
332.508885
31
0.0
0
LINE
8
0
6
CONTINUOUS
10
18.519040
20
301.449775
30
0.0
11
20.429660
21
300.958295
31
0.0
0
LINE
8
0
6
CONTINUOUS
10
18.303520
20
302.647665
30
0.0
11
18.519040
21
301.449775
31
0.0
0
LINE
8
0
6
CONTINUOUS
10
19.998620
20
303.353995
30
0.0
11
18.303520
21
302.647665
31
0.0
0
LINE
8
0
6
CONTINUOUS
10
21.909250
20
302.862435
30
0.0
11
19.998620
21
303.353995
31
0.0
0
LINE
8
0
6
CONTINUOUS
10
22.124760
20
301.664545
30
0.0
11
21.909250
21
302.862435
31
0.0
0
LINE
8
0
6
CONTINUOUS
10
20.429660
20
300.958295
30
0.0
11
22.124760
21
301.664545
31
0.0
0
LINE
8
0
6
CONTINUOUS
10
36.274340
20
308.387265
30
0.0
11
34.901420
21
308.180505
31
0.0
0
LINE
8
0
6
CONTINUOUS
10
37.271960
20
307.806435
30
0.0
11
36.274340
21
308.387265
31
0.0
0
LINE
8
0
6
CONTINUOUS
10
36.896650
20
307.019005
30
0.0
11
37.271960
21
307.806435
31
0.0
0
LINE
8
0
6
CONTINUOUS
10
35.523740
20
306.812245
30
0.0
11
36.896650
21
307.019005
31
0.0
0
LINE
8
0
6
CONTINUOUS
10
34.526120
20
307.392995
30
0.0
11
35.523740
21
306.812245
31
0.0
0
LINE
8
0
6
CONTINUOUS
10
34.901420
20
308.180505
30
0.0
11
34.526120
21
307.392995
31
0.0
0
LINE
8
0
6
CONTINUOUS
10
31.619080
20
306.182285
30
0.0
11
29.923990
21
305.475965
31
0.0
0
LINE
8
0
6
CONTINUOUS
10
33.529710
20
305.690725
30
0.0
11
31.619080
21
306.182285
31
0.0
0
LINE
8
0
6
CONTINUOUS
10
33.745220
20
304.492835
30
0.0
11
33.529710
21
305.690725
31
0.0
0
LINE
8
0
6
CONTINUOUS
10
32.050120
20
303.786585
30
0.0
11
33.745220
21
304.492835
31
0.0
0
LINE
8
0
6
CONTINUOUS
10
30.139500
20
304.278065
30
0.0
11
32.050120
21
303.786585
31
0.0
0
LINE
8
0
6
CONTINUOUS
10
29.923990
20
305.475965
30
0.0
11
30.139500
21
304.278065
31
0.0
0
LINE
8
0
6
CONTINUOUS
10
10.741170
20
337.877155
30
0.0
11
9.701860
21
336.831935
31
0.0
0
LINE
8
0
6
CONTINUOUS
10
12.834050
20
337.881895
30
0.0
11
10.741170
21
337.877155
31
0.0
0
LINE
8
0
6
CONTINUOUS
10
13.887620
20
336.841395
30
0.0
11
12.834050
21
337.881895
31
0.0
0
LINE
8
0
6
CONTINUOUS
10
12.848330
20
335.796085
30
0.0
11
13.887620
21
336.841395
31
0.0
0
LINE
8
0
6
CONTINUOUS
10
10.755450
20
335.791355
30
0.0
11
12.848330
21
335.796085
31
0.0
0
LINE
8
0
6
CONTINUOUS
10
9.701860
20
336.831935
30
0.0
11
10.755450
21
335.791355
31
0.0
0
LINE
8
0
6
CONTINUOUS
10
62.691500
20
311.661115
30
0.0
11
64.784380
21
311.665845
31
0.0
0
LINE
8
0
6
CONTINUOUS
10
61.637910
20
312.701605
30
0.0
11
62.691500
21
311.661115
31
0.0
0
LINE
8
0
6
CONTINUOUS
10
62.677230
20
313.746835
30
0.0
11
61.637910
21
312.701605
31
0.0
0
LINE
8
0
6
CONTINUOUS
10
64.770100
20
313.751645
30
0.0
11
62.677230
21
313.746835
31
0.0
0
LINE
8
0
6
CONTINUOUS
10
65.823680
20
312.711065
30
0.0
11
64.770100
21
313.751645
31
0.0
0
LINE
8
0
6
CONTINUOUS
10
64.784380
20
311.665845
30
0.0
11
65.823680
21
312.711065
31
0.0
0
LINE
8
0
6
CONTINUOUS
10
8.419580
20
346.142465
30
0.0
11
10.467250
21
345.893515
31
0.0
0
LINE
8
0
6
CONTINUOUS
10
7.770460
20
347.287335
30
0.0
11
8.419580
21
346.142465
31
0.0
0
LINE
8
0
6
CONTINUOUS
10
9.169040
20
348.183255
30
0.0
11
7.770460
21
347.287335
31
0.0
0
LINE
8
0
6
CONTINUOUS
10
11.216710
20
347.934305
30
0.0
11
9.169040
21
348.183255
31
0.0
0
LINE
8
0
6
CONTINUOUS
10
11.865810
20
346.789365
30
0.0
11
11.216710
21
347.934305
31
0.0
0
LINE
8
0
6
CONTINUOUS
10
10.467250
20
345.893515
30
0.0
11
11.865810
21
346.789365
31
0.0
0
LINE
8
0
6
CONTINUOUS
10
53.616310
20
350.399055
30
0.0
11
55.526930
21
349.907495
31
0.0
0
LINE
8
0
6
CONTINUOUS
10
53.400800
20
351.596875
30
0.0
11
53.616310
21
350.399055
31
0.0
0
LINE
8
0
6
CONTINUOUS
10
55.095890
20
352.303205
30
0.0
11
53.400800
21
351.596875
31
0.0
0
LINE
8
0
6
CONTINUOUS
10
57.006520
20
351.811715
30
0.0
11
55.095890
21
352.303205
31
0.0
0
LINE
8
0
6
CONTINUOUS
10
57.222030
20
350.613905
30
0.0
11
57.006520
21
351.811715
31
0.0
0
LINE
8
0
6
CONTINUOUS
10
55.526930
20
349.907495
30
0.0
11
57.222030
21
350.613905
31
0.0
0
LINE
8
0
6
CONTINUOUS
10
4.715330
20
331.970785
30
0.0
11
4.081890
21
330.823025
31
0.0
0
LINE
8
0
6
CONTINUOUS
10
6.759520
20
332.229045
30
0.0
11
4.715330
21
331.970785
31
0.0
0
LINE
8
0
6
CONTINUOUS
10
8.170300
20
331.339535
30
0.0
11
6.759520
21
332.229045
31
0.0
0
LINE
8
0
6
CONTINUOUS
10
7.536890
20
330.191765
30
0.0
11
8.170300
21
331.339535
31
0.0
0
LINE
8
0
6
CONTINUOUS
10
5.492700
20
329.933515
30
0.0
11
7.536890
21
330.191765
31
0.0
0
LINE
8
0
6
CONTINUOUS
10
4.081890
20
330.823025
30
0.0
11
5.492700
21
329.933515
31
0.0
0
LINE
8
0
6
CONTINUOUS
10
2.012650
20
315.644115
30
0.0
11
1.379250
21
314.496345
31
0.0
0
LINE
8
0
6
CONTINUOUS
10
4.056850
20
315.902445
30
0.0
11
2.012650
21
315.644115
31
0.0
0
LINE
8
0
6
CONTINUOUS
10
5.467650
20
315.012935
30
0.0
11
4.056850
21
315.902445
31
0.0
0
LINE
8
0
6
CONTINUOUS
10
4.834220
20
313.865095
30
0.0
11
5.467650
21
315.012935
31
0.0
0
LINE
8
0
6
CONTINUOUS
10
2.790030
20
313.606835
30
0.0
11
4.834220
21
313.865095
31
0.0
0
LINE
8
0
6
CONTINUOUS
10
1.379250
20
314.496345
30
0.0
11
2.790030
21
313.606835
31
0.0
0
LINE
8
0
6
CONTINUOUS
10
61.515540
20
317.317315
30
0.0
11
61.140240
21
316.529885
31
0.0
0
LINE
8
0
6
CONTINUOUS
10
62.888470
20
317.524075
30
0.0
11
61.515540
21
317.317315
31
0.0
0
LINE
8
0
6
CONTINUOUS
10
63.886080
20
316.943325
30
0.0
11
62.888470
21
317.524075
31
0.0
0
LINE
8
0
6
CONTINUOUS
10
63.510780
20
316.155735
30
0.0
11
63.886080
21
316.943325
31
0.0
0
LINE
8
0
6
CONTINUOUS
10
62.137860
20
315.949055
30
0.0
11
63.510780
21
316.155735
31
0.0
0
LINE
8
0
6
CONTINUOUS
10
61.140240
20
316.529885
30
0.0
11
62.137860
21
315.949055
31
0.0
0
LINE
8
0
6
CONTINUOUS
10
-9.537360
20
329.613455
30
0.0
11
-7.597720
21
329.161185
31
0.0
0
LINE
8
0
6
CONTINUOUS
10
-9.826340
20
330.806235
30
0.0
11
-9.537360
21
329.613455
31
0.0
0
LINE
8
0
6
CONTINUOUS
10
-8.175710
20
331.546515
30
0.0
11
-9.826340
21
330.806235
31
0.0
0
LINE
8
0
6
CONTINUOUS
10
-6.236070
20
331.094245
30
0.0
11
-8.175710
21
331.546515
31
0.0
0
LINE
8
0
6
CONTINUOUS
10
-5.947090
20
329.901465
30
0.0
11
-6.236070
21
331.094245
31
0.0
0
LINE
8
0
6
CONTINUOUS
10
-7.597720
20
329.161185
30
0.0
11
-5.947090
21
329.901465
31
0.0
0
LINE
8
0
6
CONTINUOUS
10
64.308840
20
305.588795
30
0.0
11
66.356510
21
305.339855
31
0.0
0
LINE
8
0
6
CONTINUOUS
10
63.659740
20
306.733745
30
0.0
11
64.308840
21
305.588795
31
0.0
0
LINE
8
0
6
CONTINUOUS
10
65.058300
20
307.629585
30
0.0
11
63.659740
21
306.733745
31
0.0
0
LINE
8
0
6
CONTINUOUS
10
67.105970
20
307.380635
30
0.0
11
65.058300
21
307.629585
31
0.0
0
LINE
8
0
6
CONTINUOUS
10
67.755080
20
306.235775
30
0.0
11
67.105970
21
307.380635
31
0.0
0
LINE
8
0
6
CONTINUOUS
10
66.356510
20
305.339855
30
0.0
11
67.755080
21
306.235775
31
0.0
0
LINE
8
0
6
CONTINUOUS
10
57.165950
20
313.649255
30
0.0
11
56.790640
21
312.861745
31
0.0
0
LINE
8
0
6
CONTINUOUS
10
58.538860
20
313.856015
30
0.0
11
57.165950
21
313.649255
31
0.0
0
LINE
8
0
6
CONTINUOUS
10
59.536480
20
313.275185
30
0.0
11
58.538860
21
313.856015
31
0.0
0
LINE
8
0
6
CONTINUOUS
10
59.161170
20
312.487675
30
0.0
11
59.536480
21
313.275185
31
0.0
0
LINE
8
0
6
CONTINUOUS
10
57.788260
20
312.280925
30
0.0
11
59.161170
21
312.487675
31
0.0
0
LINE
8
0
6
CONTINUOUS
10
56.790640
20
312.861745
30
0.0
11
57.788260
21
312.280925
31
0.0
0
LINE
8
0
6
CONTINUOUS
10
49.236790
20
313.396955
30
0.0
11
49.236730
21
312.542535
31
0.0
0
LINE
8
0
6
CONTINUOUS
10
50.522800
20
313.824195
30
0.0
11
49.236790
21
313.396955
31
0.0
0
LINE
8
0
6
CONTINUOUS
10
51.808750
20
313.396875
30
0.0
11
50.522800
21
313.824195
31
0.0
0
LINE
8
0
6
CONTINUOUS
10
51.808690
20
312.542455
30
0.0
11
51.808750
21
313.396875
31
0.0
0
LINE
8
0
6
CONTINUOUS
10
50.522680
20
312.115365
30
0.0
11
51.808690
21
312.542455
31
0.0
0
LINE
8
0
6
CONTINUOUS
10
49.236730
20
312.542535
30
0.0
11
50.522680
21
312.115365
31
0.0
0
LINE
8
0
6
CONTINUOUS
10
20.159480
20
305.942805
30
0.0
11
18.760910
21
305.046885
31
0.0
0
LINE
8
0
6
CONTINUOUS
10
22.207150
20
305.693775
30
0.0
11
20.159480
21
305.942805
31
0.0
0
LINE
8
0
6
CONTINUOUS
10
22.856260
20
304.548915
30
0.0
11
22.207150
21
305.693775
31
0.0
0
LINE
8
0
6
CONTINUOUS
10
21.457680
20
303.653065
30
0.0
11
22.856260
21
304.548915
31
0.0
0
LINE
8
0
6
CONTINUOUS
10
19.410010
20
303.902015
30
0.0
11
21.457680
21
303.653065
31
0.0
0
LINE
8
0
6
CONTINUOUS
10
18.760910
20
305.046885
30
0.0
11
19.410010
21
303.902015
31
0.0
0
LINE
8
0
6
CONTINUOUS
10
38.628900
20
308.050955
30
0.0
11
38.253600
21
307.263455
31
0.0
0
LINE
8
0
6
CONTINUOUS
10
40.001820
20
308.257715
30
0.0
11
38.628900
21
308.050955
31
0.0
0
LINE
8
0
6
CONTINUOUS
10
40.999440
20
307.676965
30
0.0
11
40.001820
21
308.257715
31
0.0
0
LINE
8
0
6
CONTINUOUS
10
40.624130
20
306.889455
30
0.0
11
40.999440
21
307.676965
31
0.0
0
LINE
8
0
6
CONTINUOUS
10
39.251220
20
306.682705
30
0.0
11
40.624130
21
306.889455
31
0.0
0
LINE
8
0
6
CONTINUOUS
10
38.253600
20
307.263455
30
0.0
11
39.251220
21
306.682705
31
0.0
0
LINE
8
0
6
CONTINUOUS
10
12.876320
20
329.919935
30
0.0
11
14.105370
21
330.328175
31
0.0
0
LINE
8
0
6
CONTINUOUS
10
11.647320
20
330.328175
30
0.0
11
12.876320
21
329.919935
31
0.0
0
LINE
8
0
6
CONTINUOUS
10
11.647380
20
331.144825
30
0.0
11
11.647320
21
330.328175
31
0.0
0
LINE
8
0
6
CONTINUOUS
10
12.876420
20
331.553075
30
0.0
11
11.647380
21
331.144825
31
0.0
0
LINE
8
0
6
CONTINUOUS
10
14.105420
20
331.144755
30
0.0
11
12.876420
21
331.553075
31
0.0
0
LINE
8
0
6
CONTINUOUS
10
14.105370
20
330.328175
30
0.0
11
14.105420
21
331.144755
31
0.0
0
LINE
8
0
6
CONTINUOUS
10
-8.175710
20
325.389215
30
0.0
11
-9.826360
21
324.648855
31
0.0
0
LINE
8
0
6
CONTINUOUS
10
-6.236070
20
324.936865
30
0.0
11
-8.175710
21
325.389215
31
0.0
0
LINE
8
0
6
CONTINUOUS
10
-5.947100
20
323.744165
30
0.0
11
-6.236070
21
324.936865
31
0.0
0
LINE
8
0
6
CONTINUOUS
10
-7.597730
20
323.003735
30
0.0
11
-5.947100
21
323.744165
31
0.0
0
LINE
8
0
6
CONTINUOUS
10
-9.537370
20
323.456155
30
0.0
11
-7.597730
21
323.003735
31
0.0
0
LINE
8
0
6
CONTINUOUS
10
-9.826360
20
324.648855
30
0.0
11
-9.537370
21
323.456155
31
0.0
0
LINE
8
0
6
CONTINUOUS
10
15.723910
20
327.177395
30
0.0
11
15.723850
21
326.322975
31
0.0
0
LINE
8
0
6
CONTINUOUS
10
17.009920
20
327.604485
30
0.0
11
15.723910
21
327.177395
31
0.0
0
LINE
8
0
6
CONTINUOUS
10
18.295870
20
327.177315
30
0.0
11
17.009920
21
327.604485
31
0.0
0
LINE
8
0
6
CONTINUOUS
10
18.295820
20
326.322895
30
0.0
11
18.295870
21
327.177315
31
0.0
0
LINE
8
0
6
CONTINUOUS
10
17.009810
20
325.895655
30
0.0
11
18.295820
21
326.322895
31
0.0
0
LINE
8
0
6
CONTINUOUS
10
15.723850
20
326.322975
30
0.0
11
17.009810
21
325.895655
31
0.0
0
LINE
8
0
6
CONTINUOUS
10
2.474930
20
325.685925
30
0.0
11
2.320900
21
324.484905
31
0.0
0
LINE
8
0
6
CONTINUOUS
10
4.359530
20
326.209605
30
0.0
11
2.474930
21
325.685925
31
0.0
0
LINE
8
0
6
CONTINUOUS
10
6.090100
20
325.532415
30
0.0
11
4.359530
21
326.209605
31
0.0
0
LINE
8
0
6
CONTINUOUS
10
5.936060
20
324.331395
30
0.0
11
6.090100
21
325.532415
31
0.0
0
LINE
8
0
6
CONTINUOUS
10
4.051470
20
323.807715
30
0.0
11
5.936060
21
324.331395
31
0.0
0
LINE
8
0
6
CONTINUOUS
10
2.320900
20
324.484905
30
0.0
11
4.051470
21
323.807715
31
0.0
0
LINE
8
0
6
CONTINUOUS
10
62.649120
20
329.994465
30
0.0
11
63.878180
21
330.402715
31
0.0
0
LINE
8
0
6
CONTINUOUS
10
61.420120
20
330.402715
30
0.0
11
62.649120
21
329.994465
31
0.0
0
LINE
8
0
6
CONTINUOUS
10
61.420190
20
331.219365
30
0.0
11
61.420120
21
330.402715
31
0.0
0
LINE
8
0
6
CONTINUOUS
10
62.649230
20
331.627615
30
0.0
11
61.420190
21
331.219365
31
0.0
0
LINE
8
0
6
CONTINUOUS
10
63.878230
20
331.219295
30
0.0
11
62.649230
21
331.627615
31
0.0
0
LINE
8
0
6
CONTINUOUS
10
63.878180
20
330.402715
30
0.0
11
63.878230
21
331.219295
31
0.0
0
LINE
8
0
6
CONTINUOUS
10
45.885160
20
318.787425
30
0.0
11
47.171170
21
319.214665
31
0.0
0
LINE
8
0
6
CONTINUOUS
10
44.599210
20
319.214745
30
0.0
11
45.885160
21
318.787425
31
0.0
0
LINE
8
0
6
CONTINUOUS
10
44.599270
20
320.069165
30
0.0
11
44.599210
21
319.214745
31
0.0
0
LINE
8
0
6
CONTINUOUS
10
45.885280
20
320.496405
30
0.0
11
44.599270
21
320.069165
31
0.0
0
LINE
8
0
6
CONTINUOUS
10
47.171230
20
320.069085
30
0.0
11
45.885280
21
320.496405
31
0.0
0
LINE
8
0
6
CONTINUOUS
10
47.171170
20
319.214665
30
0.0
11
47.171230
21
320.069085
31
0.0
0
LINE
8
0
6
CONTINUOUS
10
26.432960
20
346.157345
30
0.0
11
28.128070
21
346.863675
31
0.0
0
LINE
8
0
6
CONTINUOUS
10
24.522340
20
346.648905
30
0.0
11
26.432960
21
346.157345
31
0.0
0
LINE
8
0
6
CONTINUOUS
10
24.306820
20
347.846715
30
0.0
11
24.522340
21
346.648905
31
0.0
0
LINE
8
0
6
CONTINUOUS
10
26.001930
20
348.553045
30
0.0
11
24.306820
21
347.846715
31
0.0
0
LINE
8
0
6
CONTINUOUS
10
27.912550
20
348.061565
30
0.0
11
26.001930
21
348.553045
31
0.0
0
LINE
8
0
6
CONTINUOUS
10
28.128070
20
346.863675
30
0.0
11
27.912550
21
348.061565
31
0.0
0
LINE
8
0
6
CONTINUOUS
10
54.091000
20
309.425015
30
0.0
11
52.692420
21
308.529165
31
0.0
0
LINE
8
0
6
CONTINUOUS
10
56.138670
20
309.176065
30
0.0
11
54.091000
21
309.425015
31
0.0
0
LINE
8
0
6
CONTINUOUS
10
56.787780
20
308.031195
30
0.0
11
56.138670
21
309.176065
31
0.0
0
LINE
8
0
6
CONTINUOUS
10
55.389210
20
307.135275
30
0.0
11
56.787780
21
308.031195
31
0.0
0
LINE
8
0
6
CONTINUOUS
10
53.341540
20
307.384305
30
0.0
11
55.389210
21
307.135275
31
0.0
0
LINE
8
0
6
CONTINUOUS
10
52.692420
20
308.529165
30
0.0
11
53.341540
21
307.384305
31
0.0
0
LINE
8
0
6
CONTINUOUS
10
20.429660
20
349.372975
30
0.0
11
22.124760
21
350.079235
31
0.0
0
LINE
8
0
6
CONTINUOUS
10
18.519030
20
349.864465
30
0.0
11
20.429660
21
349.372975
31
0.0
0
LINE
8
0
6
CONTINUOUS
10
18.303520
20
351.062355
30
0.0
11
18.519030
21
349.864465
31
0.0
0
LINE
8
0
6
CONTINUOUS
10
19.998620
20
351.768605
30
0.0
11
18.303520
21
351.062355
31
0.0
0
LINE
8
0
6
CONTINUOUS
10
21.909250
20
351.277125
30
0.0
11
19.998620
21
351.768605
31
0.0
0
LINE
8
0
6
CONTINUOUS
10
22.124760
20
350.079235
30
0.0
11
21.909250
21
351.277125
31
0.0
0
LINE
8
0
6
CONTINUOUS
10
25.612400
20
329.259375
30
0.0
11
25.612340
21
328.404965
31
0.0
0
LINE
8
0
6
CONTINUOUS
10
26.898410
20
329.686625
30
0.0
11
25.612400
21
329.259375
31
0.0
0
LINE
8
0
6
CONTINUOUS
10
28.184360
20
329.259375
30
0.0
11
26.898410
21
329.686625
31
0.0
0
LINE
8
0
6
CONTINUOUS
10
28.184310
20
328.404965
30
0.0
11
28.184360
21
329.259375
31
0.0
0
LINE
8
0
6
CONTINUOUS
10
26.898300
20
327.977715
30
0.0
11
28.184310
21
328.404965
31
0.0
0
LINE
8
0
6
CONTINUOUS
10
25.612340
20
328.404965
30
0.0
11
26.898300
21
327.977715
31
0.0
0
LINE
8
0
6
CONTINUOUS
10
83.123260
20
331.844905
30
0.0
11
81.472640
21
331.104475
31
0.0
0
LINE
8
0
6
CONTINUOUS
10
85.062900
20
331.392555
30
0.0
11
83.123260
21
331.844905
31
0.0
0
LINE
8
0
6
CONTINUOUS
10
85.351880
20
330.199855
30
0.0
11
85.062900
21
331.392555
31
0.0
0
LINE
8
0
6
CONTINUOUS
10
83.701260
20
329.459425
30
0.0
11
85.351880
21
330.199855
31
0.0
0
LINE
8
0
6
CONTINUOUS
10
81.761620
20
329.911845
30
0.0
11
83.701260
21
329.459425
31
0.0
0
LINE
8
0
6
CONTINUOUS
10
81.472640
20
331.104475
30
0.0
11
81.761620
21
329.911845
31
0.0
0
LINE
8
0
6
CONTINUOUS
10
30.517990
20
326.656995
30
0.0
11
30.517940
21
325.802575
31
0.0
0
LINE
8
0
6
CONTINUOUS
10
31.804010
20
327.084165
30
0.0
11
30.517990
21
326.656995
31
0.0
0
LINE
8
0
6
CONTINUOUS
10
33.089950
20
326.656915
30
0.0
11
31.804010
21
327.084165
31
0.0
0
LINE
8
0
6
CONTINUOUS
10
33.089910
20
325.802495
30
0.0
11
33.089950
21
326.656915
31
0.0
0
LINE
8
0
6
CONTINUOUS
10
31.803890
20
325.375255
30
0.0
11
33.089910
21
325.802495
31
0.0
0
LINE
8
0
6
CONTINUOUS
10
30.517940
20
325.802575
30
0.0
11
31.803890
21
325.375255
31
0.0
0
LINE
8
0
6
CONTINUOUS
10
-1.887920
20
326.068155
30
0.0
11
-0.003310
21
326.591985
31
0.0
0
LINE
8
0
6
CONTINUOUS
10
-3.618470
20
326.745495
30
0.0
11
-1.887920
21
326.068155
31
0.0
0
LINE
8
0
6
CONTINUOUS
10
-3.464440
20
327.946435
30
0.0
11
-3.618470
21
326.745495
31
0.0
0
LINE
8
0
6
CONTINUOUS
10
-1.579850
20
328.470195
30
0.0
11
-3.464440
21
327.946435
31
0.0
0
LINE
8
0
6
CONTINUOUS
10
0.150720
20
327.792935
30
0.0
11
-1.579850
21
328.470195
31
0.0
0
LINE
8
0
6
CONTINUOUS
10
-0.003310
20
326.591985
30
0.0
11
0.150720
21
327.792935
31
0.0
0
LINE
8
0
6
CONTINUOUS
10
22.907560
20
325.551495
30
0.0
11
21.621560
21
325.124325
31
0.0
0
LINE
8
0
6
CONTINUOUS
10
24.193520
20
325.124245
30
0.0
11
22.907560
21
325.551495
31
0.0
0
LINE
8
0
6
CONTINUOUS
10
24.193460
20
324.269825
30
0.0
11
24.193520
21
325.124245
31
0.0
0
LINE
8
0
6
CONTINUOUS
10
22.907450
20
323.842655
30
0.0
11
24.193460
21
324.269825
31
0.0
0
LINE
8
0
6
CONTINUOUS
10
21.621500
20
324.269905
30
0.0
11
22.907450
21
323.842655
31
0.0
0
LINE
8
0
6
CONTINUOUS
10
21.621560
20
325.124325
30
0.0
11
21.621500
21
324.269905
31
0.0
0
LINE
8
0
6
CONTINUOUS
10
6.759520
20
319.574395
30
0.0
11
4.715320
21
319.316145
31
0.0
0
LINE
8
0
6
CONTINUOUS
10
8.170320
20
318.684885
30
0.0
11
6.759520
21
319.574395
31
0.0
0
LINE
8
0
6
CONTINUOUS
10
7.536890
20
317.537045
30
0.0
11
8.170320
21
318.684885
31
0.0
0
LINE
8
0
6
CONTINUOUS
10
5.492700
20
317.278785
30
0.0
11
7.536890
21
317.537045
31
0.0
0
LINE
8
0
6
CONTINUOUS
10
4.081910
20
318.168295
30
0.0
11
5.492700
21
317.278785
31
0.0
0
LINE
8
0
6
CONTINUOUS
10
4.715320
20
319.316145
30
0.0
11
4.081910
21
318.168295
31
0.0
0
LINE
8
0
6
CONTINUOUS
10
9.169030
20
307.407115
30
0.0
11
7.770460
21
306.511195
31
0.0
0
LINE
8
0
6
CONTINUOUS
10
11.216710
20
307.158165
30
0.0
11
9.169030
21
307.407115
31
0.0
0
LINE
8
0
6
CONTINUOUS
10
11.865830
20
306.013295
30
0.0
11
11.216710
21
307.158165
31
0.0
0
LINE
8
0
6
CONTINUOUS
10
10.467250
20
305.117375
30
0.0
11
11.865830
21
306.013295
31
0.0
0
LINE
8
0
6
CONTINUOUS
10
8.419580
20
305.366325
30
0.0
11
10.467250
21
305.117375
31
0.0
0
LINE
8
0
6
CONTINUOUS
10
7.770460
20
306.511195
30
0.0
11
8.419580
21
305.366325
31
0.0
0
LINE
8
0
6
CONTINUOUS
10
79.999630
20
335.950435
30
0.0
11
81.884230
21
336.474195
31
0.0
0
LINE
8
0
6
CONTINUOUS
10
78.269060
20
336.627775
30
0.0
11
79.999630
21
335.950435
31
0.0
0
LINE
8
0
6
CONTINUOUS
10
78.423100
20
337.828715
30
0.0
11
78.269060
21
336.627775
31
0.0
0
LINE
8
0
6
CONTINUOUS
10
80.307690
20
338.352475
30
0.0
11
78.423100
21
337.828715
31
0.0
0
LINE
8
0
6
CONTINUOUS
10
82.038270
20
337.675205
30
0.0
11
80.307690
21
338.352475
31
0.0
0
LINE
8
0
6
CONTINUOUS
10
81.884230
20
336.474195
30
0.0
11
82.038270
21
337.675205
31
0.0
0
LINE
8
0
6
CONTINUOUS
10
22.648900
20
321.277275
30
0.0
11
21.362890
21
320.850105
31
0.0
0
LINE
8
0
6
CONTINUOUS
10
23.934850
20
320.850025
30
0.0
11
22.648900
21
321.277275
31
0.0
0
LINE
8
0
6
CONTINUOUS
10
23.934800
20
319.995615
30
0.0
11
23.934850
21
320.850025
31
0.0
0
LINE
8
0
6
CONTINUOUS
10
22.648790
20
319.568445
30
0.0
11
23.934800
21
319.995615
31
0.0
0
LINE
8
0
6
CONTINUOUS
10
21.362830
20
319.995695
30
0.0
11
22.648790
21
319.568445
31
0.0
0
LINE
8
0
6
CONTINUOUS
10
21.362890
20
320.850105
30
0.0
11
21.362830
21
319.995695
31
0.0
0
LINE
8
0
6
CONTINUOUS
10
60.206040
20
314.128835
30
0.0
11
61.578960
21
314.335595
31
0.0
0
LINE
8
0
6
CONTINUOUS
10
59.208420
20
314.709585
30
0.0
11
60.206040
21
314.128835
31
0.0
0
LINE
8
0
6
CONTINUOUS
10
59.583730
20
315.497175
30
0.0
11
59.208420
21
314.709585
31
0.0
0
LINE
8
0
6
CONTINUOUS
10
60.956650
20
315.703855
30
0.0
11
59.583730
21
315.497175
31
0.0
0
LINE
8
0
6
CONTINUOUS
10
61.954260
20
315.123105
30
0.0
11
60.956650
21
315.703855
31
0.0
0
LINE
8
0
6
CONTINUOUS
10
61.578960
20
314.335595
30
0.0
11
61.954260
21
315.123105
31
0.0
0
LINE
8
0
6
CONTINUOUS
10
59.420950
20
321.325265
30
0.0
11
60.706970
21
321.752435
31
0.0
0
LINE
8
0
6
CONTINUOUS
10
58.135000
20
321.752515
30
0.0
11
59.420950
21
321.325265
31
0.0
0
LINE
8
0
6
CONTINUOUS
10
58.135050
20
322.607005
30
0.0
11
58.135000
21
321.752515
31
0.0
0
LINE
8
0
6
CONTINUOUS
10
59.421060
20
323.034175
30
0.0
11
58.135050
21
322.607005
31
0.0
0
LINE
8
0
6
CONTINUOUS
10
60.707010
20
322.606925
30
0.0
11
59.421060
21
323.034175
31
0.0
0
LINE
8
0
6
CONTINUOUS
10
60.706970
20
321.752435
30
0.0
11
60.707010
21
322.606925
31
0.0
0
LINE
8
0
6
CONTINUOUS
10
28.605510
20
322.345775
30
0.0
11
29.891520
21
322.773015
31
0.0
0
LINE
8
0
6
CONTINUOUS
10
27.319550
20
322.773095
30
0.0
11
28.605510
21
322.345775
31
0.0
0
LINE
8
0
6
CONTINUOUS
10
27.319610
20
323.627515
30
0.0
11
27.319550
21
322.773095
31
0.0
0
LINE
8
0
6
CONTINUOUS
10
28.605630
20
324.054685
30
0.0
11
27.319610
21
323.627515
31
0.0
0
LINE
8
0
6
CONTINUOUS
10
29.891580
20
323.627435
30
0.0
11
28.605630
21
324.054685
31
0.0
0
LINE
8
0
6
CONTINUOUS
10
29.891520
20
322.773015
30
0.0
11
29.891580
21
323.627435
31
0.0
0
LINE
8
0
6
CONTINUOUS
10
65.058300
20
348.555795
30
0.0
11
63.659740
21
347.659875
31
0.0
0
LINE
8
0
6
CONTINUOUS
10
67.105970
20
348.306925
30
0.0
11
65.058300
21
348.555795
31
0.0
0
LINE
8
0
6
CONTINUOUS
10
67.755080
20
347.161985
30
0.0
11
67.105970
21
348.306925
31
0.0
0
LINE
8
0
6
CONTINUOUS
10
66.356500
20
346.266065
30
0.0
11
67.755080
21
347.161985
31
0.0
0
LINE
8
0
6
CONTINUOUS
10
64.308840
20
346.515005
30
0.0
11
66.356500
21
346.266065
31
0.0
0
LINE
8
0
6
CONTINUOUS
10
63.659740
20
347.659875
30
0.0
11
64.308840
21
346.515005
31
0.0
0
LINE
8
0
6
CONTINUOUS
10
67.789040
20
338.901785
30
0.0
11
69.881900
21
338.906595
31
0.0
0
LINE
8
0
6
CONTINUOUS
10
66.735460
20
339.942365
30
0.0
11
67.789040
21
338.901785
31
0.0
0
LINE
8
0
6
CONTINUOUS
10
67.774760
20
340.987665
30
0.0
11
66.735460
21
339.942365
31
0.0
0
LINE
8
0
6
CONTINUOUS
10
69.867640
20
340.992395
30
0.0
11
67.774760
21
340.987665
31
0.0
0
LINE
8
0
6
CONTINUOUS
10
70.921220
20
339.951825
30
0.0
11
69.867640
21
340.992395
31
0.0
0
LINE
8
0
6
CONTINUOUS
10
69.881900
20
338.906595
30
0.0
11
70.921220
21
339.951825
31
0.0
0
LINE
8
0
6
CONTINUOUS
10
-6.358690
20
337.676275
30
0.0
11
-6.512730
21
336.475255
31
0.0
0
LINE
8
0
6
CONTINUOUS
10
-4.474090
20
338.199955
30
0.0
11
-6.358690
21
337.676275
31
0.0
0
LINE
8
0
6
CONTINUOUS
10
-2.743530
20
337.522775
30
0.0
11
-4.474090
21
338.199955
31
0.0
0
LINE
8
0
6
CONTINUOUS
10
-2.897570
20
336.321755
30
0.0
11
-2.743530
21
337.522775
31
0.0
0
LINE
8
0
6
CONTINUOUS
10
-4.782160
20
335.798075
30
0.0
11
-2.897570
21
336.321755
31
0.0
0
LINE
8
0
6
CONTINUOUS
10
-6.512730
20
336.475255
30
0.0
11
-4.782160
21
335.798075
31
0.0
0
LINE
8
0
6
CONTINUOUS
10
25.249480
20
312.350195
30
0.0
11
25.679020
21
312.188605
31
0.0
0
LINE
8
0
6
CONTINUOUS
10
20.198440
20
314.628865
30
0.0
11
22.595180
21
313.397105
31
0.0
0
LINE
8
0
6
CONTINUOUS
10
23.115100
20
313.199885
30
0.0
11
20.799710
21
314.389835
31
0.0
0
LINE
8
0
6
CONTINUOUS
10
18.088750
20
316.028325
30
0.0
11
20.198440
21
314.628865
31
0.0
0
LINE
8
0
6
CONTINUOUS
10
20.799710
20
314.389835
30
0.0
11
18.761620
21
315.741695
31
0.0
0
LINE
8
0
6
CONTINUOUS
10
16.295710
20
317.578085
30
0.0
11
18.088750
21
316.028325
31
0.0
0
LINE
8
0
6
CONTINUOUS
10
14.849070
20
319.260905
30
0.0
11
16.295710
21
317.578085
31
0.0
0
LINE
8
0
6
CONTINUOUS
10
17.029590
20
317.238735
30
0.0
11
15.632390
21
318.864095
31
0.0
0
LINE
8
0
6
CONTINUOUS
10
13.778800
20
321.059455
30
0.0
11
14.849070
21
319.260905
31
0.0
0
LINE
8
0
6
CONTINUOUS
10
15.632390
20
318.864095
30
0.0
11
14.598770
21
320.600935
31
0.0
0
LINE
8
0
6
CONTINUOUS
10
13.114860
20
322.955895
30
0.0
11
13.778800
21
321.059455
31
0.0
0
LINE
8
0
6
CONTINUOUS
10
14.598770
20
320.600935
30
0.0
11
13.957510
21
322.432445
31
0.0
0
LINE
8
0
6
CONTINUOUS
10
12.887020
20
324.932065
30
0.0
11
13.114860
21
322.955895
31
0.0
0
LINE
8
0
6
CONTINUOUS
10
13.957510
20
322.432445
30
0.0
11
13.737350
21
324.341925
31
0.0
0
LINE
8
0
6
CONTINUOUS
10
13.114850
20
326.908225
30
0.0
11
12.887020
21
324.932065
31
0.0
0
LINE
8
0
6
CONTINUOUS
10
13.737350
20
324.341925
30
0.0
11
13.957510
21
326.251485
31
0.0
0
LINE
8
0
6
CONTINUOUS
10
13.778800
20
328.804665
30
0.0
11
13.114850
21
326.908225
31
0.0
0
LINE
8
0
6
CONTINUOUS
10
13.957510
20
326.251485
30
0.0
11
14.598770
21
328.083075
31
0.0
0
LINE
8
0
6
CONTINUOUS
10
14.849070
20
330.603215
30
0.0
11
13.778800
21
328.804665
31
0.0
0
LINE
8
0
6
CONTINUOUS
10
14.598770
20
328.083075
30
0.0
11
15.632390
21
329.819835
31
0.0
0
LINE
8
0
6
CONTINUOUS
10
16.295710
20
332.286115
30
0.0
11
14.849070
21
330.603215
31
0.0
0
LINE
8
0
6
CONTINUOUS
10
15.632390
20
329.819835
30
0.0
11
17.029580
21
331.445125
31
0.0
0
LINE
8
0
6
CONTINUOUS
10
18.088750
20
333.835945
30
0.0
11
16.295710
21
332.286115
31
0.0
0
LINE
8
0
6
CONTINUOUS
10
17.029580
20
331.445125
30
0.0
11
18.761610
21
332.942235
31
0.0
0
LINE
8
0
6
CONTINUOUS
10
20.198430
20
335.235255
30
0.0
11
18.088750
21
333.835945
31
0.0
0
LINE
8
0
6
CONTINUOUS
10
18.761610
20
332.942235
30
0.0
11
20.799700
21
334.294015
31
0.0
0
LINE
8
0
6
CONTINUOUS
10
22.595180
20
336.467095
30
0.0
11
20.198430
21
335.235255
31
0.0
0
LINE
8
0
6
CONTINUOUS
10
20.799700
20
334.294015
30
0.0
11
23.115100
21
335.484045
31
0.0
0
LINE
8
0
6
CONTINUOUS
10
23.115100
20
335.484045
30
0.0
11
25.679020
21
336.495325
31
0.0
0
LINE
8
0
6
CONTINUOUS
10
25.679020
20
336.495325
30
0.0
11
28.462710
21
337.311135
31
0.0
0
LINE
8
0
6
CONTINUOUS
10
28.462710
20
337.311135
30
0.0
11
31.437420
21
337.914625
31
0.0
0
LINE
8
0
6
CONTINUOUS
10
31.437420
20
337.914625
30
0.0
11
34.574370
21
338.288995
31
0.0
0
LINE
8
0
6
CONTINUOUS
10
34.574370
20
338.288995
30
0.0
11
37.844790
21
338.417545
31
0.0
0
LINE
8
0
6
CONTINUOUS
10
37.844790
20
338.417545
30
0.0
11
41.115220
21
338.288995
31
0.0
0
LINE
8
0
6
CONTINUOUS
10
41.115220
20
338.288995
30
0.0
11
44.252170
21
337.914625
31
0.0
0
LINE
8
0
6
CONTINUOUS
10
44.252170
20
337.914625
30
0.0
11
47.226870
21
337.311135
31
0.0
0
LINE
8
0
6
CONTINUOUS
10
47.226870
20
337.311135
30
0.0
11
50.010570
21
336.495325
31
0.0
0
LINE
8
0
6
CONTINUOUS
10
50.010570
20
336.495325
30
0.0
11
52.574490
21
335.484045
31
0.0
0
LINE
8
0
6
CONTINUOUS
10
52.574490
20
335.484045
30
0.0
11
54.889880
21
334.294095
31
0.0
0
LINE
8
0
6
CONTINUOUS
10
57.600840
20
333.835945
30
0.0
11
55.491140
21
335.235255
31
0.0
0
LINE
8
0
6
CONTINUOUS
10
54.889880
20
334.294095
30
0.0
11
56.927980
21
332.942235
31
0.0
0
LINE
8
0
6
CONTINUOUS
10
59.393880
20
332.286115
30
0.0
11
57.600840
21
333.835945
31
0.0
0
LINE
8
0
6
CONTINUOUS
10
56.927980
20
332.942235
30
0.0
11
58.660000
21
331.445125
31
0.0
0
LINE
8
0
6
CONTINUOUS
10
60.840510
20
330.603215
30
0.0
11
59.393880
21
332.286115
31
0.0
0
LINE
8
0
6
CONTINUOUS
10
58.660000
20
331.445125
30
0.0
11
60.057210
21
329.819835
31
0.0
0
LINE
8
0
6
CONTINUOUS
10
61.910780
20
328.804665
30
0.0
11
60.840510
21
330.603215
31
0.0
0
LINE
8
0
6
CONTINUOUS
10
60.057210
20
329.819835
30
0.0
11
61.090820
21
328.083075
31
0.0
0
LINE
8
0
6
CONTINUOUS
10
61.090820
20
328.083075
30
0.0
11
61.732080
21
326.251485
31
0.0
0
LINE
8
0
6
CONTINUOUS
10
62.802560
20
324.932065
30
0.0
11
62.574730
21
326.908225
31
0.0
0
LINE
8
0
6
CONTINUOUS
10
61.732080
20
326.251485
30
0.0
11
61.952230
21
324.341925
31
0.0
0
LINE
8
0
6
CONTINUOUS
10
62.574740
20
322.955895
30
0.0
11
62.802560
21
324.932065
31
0.0
0
LINE
8
0
6
CONTINUOUS
10
61.952230
20
324.341925
30
0.0
11
61.732080
21
322.432445
31
0.0
0
LINE
8
0
6
CONTINUOUS
10
61.910780
20
321.059455
30
0.0
11
62.574740
21
322.955895
31
0.0
0
LINE
8
0
6
CONTINUOUS
10
61.732080
20
322.432445
30
0.0
11
61.090830
21
320.600935
31
0.0
0
LINE
8
0
6
CONTINUOUS
10
60.840520
20
319.260905
30
0.0
11
61.910780
21
321.059455
31
0.0
0
LINE
8
0
6
CONTINUOUS
10
61.090830
20
320.600935
30
0.0
11
60.057210
21
318.864095
31
0.0
0
LINE
8
0
6
CONTINUOUS
10
59.393880
20
317.578085
30
0.0
11
60.840520
21
319.260905
31
0.0
0
LINE
8
0
6
CONTINUOUS
10
60.057210
20
318.864095
30
0.0
11
58.660000
21
317.238735
31
0.0
0
LINE
8
0
6
CONTINUOUS
10
57.600840
20
316.028325
30
0.0
11
59.393880
21
317.578085
31
0.0
0
LINE
8
0
6
CONTINUOUS
10
58.660000
20
317.238735
30
0.0
11
56.927980
21
315.741695
31
0.0
0
LINE
8
0
6
CONTINUOUS
10
55.491150
20
314.628865
30
0.0
11
57.600840
21
316.028325
31
0.0
0
LINE
8
0
6
CONTINUOUS
10
56.927980
20
315.741695
30
0.0
11
54.889880
21
314.389835
31
0.0
0
LINE
8
0
6
CONTINUOUS
10
53.094410
20
313.397105
30
0.0
11
55.491150
21
314.628865
31
0.0
0
LINE
8
0
6
CONTINUOUS
10
54.889880
20
314.389835
30
0.0
11
52.574490
21
313.199885
31
0.0
0
LINE
8
0
6
CONTINUOUS
10
30.517990
20
326.656995
30
0.0
11
31.804010
21
327.084165
31
0.0
0
LINE
8
0
6
CONTINUOUS
10
30.517940
20
325.802575
30
0.0
11
30.517990
21
326.656995
31
0.0
0
LINE
8
0
6
CONTINUOUS
10
31.804010
20
327.084165
30
0.0
11
33.089950
21
326.656915
31
0.0
0
LINE
8
0
6
CONTINUOUS
10
12.014770
20
317.298775
30
0.0
11
13.387690
21
317.505535
31
0.0
0
LINE
8
0
6
CONTINUOUS
10
11.639470
20
316.511265
30
0.0
11
12.014770
21
317.298775
31
0.0
0
LINE
8
0
6
CONTINUOUS
10
11.639470
20
319.488795
30
0.0
11
11.639470
21
316.511265
31
0.0
0
LINE
8
0
6
CONTINUOUS
10
13.387690
20
317.505535
30
0.0
11
14.385320
21
316.924705
31
0.0
0
LINE
8
0
6
CONTINUOUS
10
13.571290
20
314.699975
30
0.0
11
13.946590
21
315.487555
31
0.0
0
LINE
8
0
6
CONTINUOUS
10
15.319510
20
315.694235
30
0.0
11
16.317130
21
315.113415
31
0.0
0
LINE
8
0
6
CONTINUOUS
10
13.946590
20
315.487555
30
0.0
11
15.319510
21
315.694235
31
0.0
0
LINE
8
0
6
CONTINUOUS
10
32.241090
20
308.791315
30
0.0
11
33.238720
21
308.210485
31
0.0
0
LINE
8
0
6
CONTINUOUS
10
30.868180
20
308.584555
30
0.0
11
32.241090
21
308.791315
31
0.0
0
LINE
8
0
6
CONTINUOUS
10
30.492880
20
307.797055
30
0.0
11
30.868180
21
308.584555
31
0.0
0
LINE
8
0
6
CONTINUOUS
10
36.274340
20
308.387265
30
0.0
11
37.271960
21
307.806435
31
0.0
0
LINE
8
0
6
CONTINUOUS
10
34.901420
20
308.180505
30
0.0
11
36.274340
21
308.387265
31
0.0
0
LINE
8
0
6
CONTINUOUS
10
34.526120
20
307.392995
30
0.0
11
34.901420
21
308.180505
31
0.0
0
LINE
8
0
6
CONTINUOUS
10
11.870160
20
319.557535
30
0.0
11
12.867770
21
318.976705
31
0.0
0
LINE
8
0
6
CONTINUOUS
10
10.497230
20
319.350855
30
0.0
11
11.870160
21
319.557535
31
0.0
0
LINE
8
0
6
CONTINUOUS
10
10.121930
20
318.563275
30
0.0
11
10.497230
21
319.350855
31
0.0
0
LINE
8
0
6
CONTINUOUS
10
10.121930
20
321.540795
30
0.0
11
10.121930
21
318.563275
31
0.0
0
LINE
8
0
6
CONTINUOUS
10
10.497230
20
319.350855
30
0.0
11
10.497230
21
322.328375
31
0.0
0
LINE
8
0
6
CONTINUOUS
10
10.368770
20
328.265265
30
0.0
11
10.368830
21
329.081845
31
0.0
0
LINE
8
0
6
CONTINUOUS
10
11.597880
20
329.490095
30
0.0
11
12.826880
21
329.081765
31
0.0
0
LINE
8
0
6
CONTINUOUS
10
10.368830
20
332.059365
30
0.0
11
10.368830
21
329.081845
31
0.0
0
LINE
8
0
6
CONTINUOUS
10
10.368830
20
329.081845
30
0.0
11
11.597880
21
329.490095
31
0.0
0
LINE
8
0
6
CONTINUOUS
10
13.754750
20
332.441975
30
0.0
11
13.754810
21
333.258475
31
0.0
0
LINE
8
0
6
CONTINUOUS
10
14.983860
20
333.666805
30
0.0
11
16.212860
21
333.258405
31
0.0
0
LINE
8
0
6
CONTINUOUS
10
13.754810
20
336.236075
30
0.0
11
13.754810
21
333.258475
31
0.0
0
LINE
8
0
6
CONTINUOUS
10
13.754810
20
333.258475
30
0.0
11
14.983860
21
333.666805
31
0.0
0
LINE
8
0
6
CONTINUOUS
10
17.207150
20
335.235025
30
0.0
11
18.436150
21
334.826625
31
0.0
0
LINE
8
0
6
CONTINUOUS
10
15.978100
20
334.826695
30
0.0
11
17.207150
21
335.235025
31
0.0
0
LINE
8
0
6
CONTINUOUS
10
15.978100
20
334.826695
30
0.0
11
15.978100
21
337.804295
31
0.0
0
LINE
8
0
6
CONTINUOUS
10
15.978040
20
334.010125
30
0.0
11
15.978100
21
334.826695
31
0.0
0
LINE
8
0
6
CONTINUOUS
10
34.627990
20
339.430505
30
0.0
11
34.628040
21
340.247075
31
0.0
0
LINE
8
0
6
CONTINUOUS
10
34.628040
20
341.841196
30
0.0
11
34.628040
21
340.247075
31
0.0
0
LINE
8
0
6
CONTINUOUS
10
34.628040
20
340.247075
30
0.0
11
35.857090
21
340.655405
31
0.0
0
LINE
8
0
6
CONTINUOUS
10
35.857090
20
341.889527
30
0.0
11
35.857090
21
340.655405
31
0.0
0
LINE
8
0
6
CONTINUOUS
10
37.086090
20
340.247075
30
0.0
11
37.086090
21
341.937857
31
0.0
0
LINE
8
0
6
CONTINUOUS
10
35.857090
20
340.655405
30
0.0
11
37.086090
21
340.247075
31
0.0
0
LINE
8
0
6
CONTINUOUS
10
11.647320
20
330.328175
30
0.0
11
11.647380
21
331.144825
31
0.0
0
LINE
8
0
6
CONTINUOUS
10
12.876420
20
331.553075
30
0.0
11
14.105420
21
331.144755
31
0.0
0
LINE
8
0
6
CONTINUOUS
10
11.647380
20
334.122355
30
0.0
11
11.647380
21
331.144825
31
0.0
0
LINE
8
0
6
CONTINUOUS
10
11.647380
20
331.144825
30
0.0
11
12.876420
21
331.553075
31
0.0
0
LINE
8
0
6
CONTINUOUS
10
33.212160
20
340.021935
30
0.0
11
33.212160
21
341.771648
31
0.0
0
LINE
8
0
6
CONTINUOUS
10
31.983170
20
340.430265
30
0.0
11
33.212160
21
340.021935
31
0.0
0
LINE
8
0
6
CONTINUOUS
10
31.983170
20
340.430265
30
0.0
11
31.983170
21
341.624988
31
0.0
0
LINE
8
0
6
CONTINUOUS
10
30.754110
20
340.022015
30
0.0
11
31.983170
21
340.430265
31
0.0
0
LINE
8
0
6
CONTINUOUS
10
30.754110
20
340.022015
30
0.0
11
30.754110
21
341.478319
31
0.0
0
LINE
8
0
6
CONTINUOUS
10
30.754050
20
339.205365
30
0.0
11
30.754110
21
340.022015
31
0.0
0
LINE
8
0
6
CONTINUOUS
10
-6.236070
20
331.094245
30
0.0
11
-5.947090
21
329.901465
31
0.0
0
LINE
8
0
6
CONTINUOUS
10
-6.236070
20
331.094245
30
0.0
11
-6.236070
21
334.071775
31
0.0
0
LINE
8
0
6
CONTINUOUS
10
-8.175710
20
331.546515
30
0.0
11
-6.236070
21
331.094245
31
0.0
0
LINE
8
0
6
CONTINUOUS
10
-9.826340
20
333.783765
30
0.0
11
-9.826340
21
330.806235
31
0.0
0
LINE
8
0
6
CONTINUOUS
10
-8.175710
20
331.546515
30
0.0
11
-8.175710
21
334.524115
31
0.0
0
LINE
8
0
6
CONTINUOUS
10
-9.826340
20
330.806235
30
0.0
11
-8.175710
21
331.546515
31
0.0
0
LINE
8
0
6
CONTINUOUS
10
-6.512730
20
339.452855
30
0.0
11
-6.512730
21
336.475255
31
0.0
0
LINE
8
0
6
CONTINUOUS
10
-6.512730
20
336.475255
30
0.0
11
-6.358690
21
337.676275
31
0.0
0
LINE
8
0
6
CONTINUOUS
10
-6.358690
20
340.653805
30
0.0
11
-6.358690
21
337.676275
31
0.0
0
LINE
8
0
6
CONTINUOUS
10
-6.358690
20
337.676275
30
0.0
11
-4.474090
21
338.199955
31
0.0
0
LINE
8
0
6
CONTINUOUS
10
-4.474090
20
341.177555
30
0.0
11
-4.474090
21
338.199955
31
0.0
0
LINE
8
0
6
CONTINUOUS
10
-2.743530
20
337.522775
30
0.0
11
-2.743530
21
340.500295
31
0.0
0
LINE
8
0
6
CONTINUOUS
10
-4.474090
20
338.199955
30
0.0
11
-2.743530
21
337.522775
31
0.0
0
LINE
8
0
6
CONTINUOUS
10
-0.716690
20
345.333295
30
0.0
11
-0.716690
21
342.355695
31
0.0
0
LINE
8
0
6
CONTINUOUS
10
-0.716690
20
342.355695
30
0.0
11
-0.083260
21
343.503455
31
0.0
0
LINE
8
0
6
CONTINUOUS
10
1.960930
20
343.761715
30
0.0
11
3.371720
21
342.872205
31
0.0
0
LINE
8
0
6
CONTINUOUS
10
-0.083260
20
346.480985
30
0.0
11
-0.083260
21
343.503455
31
0.0
0
LINE
8
0
6
CONTINUOUS
10
1.960930
20
343.761715
30
0.0
11
1.960930
21
346.739235
31
0.0
0
LINE
8
0
6
CONTINUOUS
10
-0.083260
20
343.503455
30
0.0
11
1.960930
21
343.761715
31
0.0
0
LINE
8
0
6
CONTINUOUS
10
7.770460
20
350.264855
30
0.0
11
7.770460
21
347.287335
31
0.0
0
LINE
8
0
6
CONTINUOUS
10
7.770460
20
347.287335
30
0.0
11
9.169040
21
348.183255
31
0.0
0
LINE
8
0
6
CONTINUOUS
10
11.865810
20
346.789365
30
0.0
11
11.865810
21
349.766965
31
0.0
0
LINE
8
0
6
CONTINUOUS
10
11.216710
20
347.934305
30
0.0
11
11.865810
21
346.789365
31
0.0
0
LINE
8
0
6
CONTINUOUS
10
9.169040
20
351.160775
30
0.0
11
9.169040
21
348.183255
31
0.0
0
LINE
8
0
6
CONTINUOUS
10
11.216710
20
347.934305
30
0.0
11
11.216710
21
350.911825
31
0.0
0
LINE
8
0
6
CONTINUOUS
10
9.169040
20
348.183255
30
0.0
11
11.216710
21
347.934305
31
0.0
0
LINE
8
0
6
CONTINUOUS
10
18.303520
20
354.039875
30
0.0
11
18.303520
21
351.062355
31
0.0
0
LINE
8
0
6
CONTINUOUS
10
18.303520
20
351.062355
30
0.0
11
19.998620
21
351.768605
31
0.0
0
LINE
8
0
6
CONTINUOUS
10
22.124760
20
350.079235
30
0.0
11
22.124760
21
353.056755
31
0.0
0
LINE
8
0
6
CONTINUOUS
10
21.909250
20
351.277125
30
0.0
11
22.124760
21
350.079235
31
0.0
0
LINE
8
0
6
CONTINUOUS
10
19.998620
20
354.746205
30
0.0
11
19.998620
21
351.768605
31
0.0
0
LINE
8
0
6
CONTINUOUS
10
21.909250
20
351.277125
30
0.0
11
21.909250
21
354.254645
31
0.0
0
LINE
8
0
6
CONTINUOUS
10
19.998620
20
351.768605
30
0.0
11
21.909250
21
351.277125
31
0.0
0
LINE
8
0
6
CONTINUOUS
10
33.838200
20
353.157995
30
0.0
11
33.838200
21
356.135595
31
0.0
0
LINE
8
0
6
CONTINUOUS
10
32.150330
20
353.870125
30
0.0
11
33.838200
21
353.157995
31
0.0
0
LINE
8
0
6
CONTINUOUS
10
30.006990
20
355.165445
30
0.0
11
30.006990
21
352.187845
31
0.0
0
LINE
8
0
6
CONTINUOUS
10
30.006990
20
352.187845
30
0.0
11
30.234720
21
353.384975
31
0.0
0
LINE
8
0
6
CONTINUOUS
10
30.234720
20
356.362495
30
0.0
11
30.234720
21
353.384975
31
0.0
0
LINE
8
0
6
CONTINUOUS
10
32.150330
20
353.870125
30
0.0
11
32.150330
21
356.847575
31
0.0
0
LINE
8
0
6
CONTINUOUS
10
30.234720
20
353.384975
30
0.0
11
32.150330
21
353.870125
31
0.0
0
LINE
8
0
6
CONTINUOUS
10
28.882810
20
335.361215
30
0.0
11
30.168760
21
334.933965
31
0.0
0
LINE
8
0
6
CONTINUOUS
10
27.596800
20
334.934045
30
0.0
11
28.882810
21
335.361215
31
0.0
0
LINE
8
0
6
CONTINUOUS
10
27.596740
20
334.079625
30
0.0
11
27.596800
21
334.934045
31
0.0
0
LINE
8
0
6
CONTINUOUS
10
32.363590
20
330.832175
30
0.0
11
32.363660
21
331.686595
31
0.0
0
LINE
8
0
6
CONTINUOUS
10
33.649670
20
332.113835
30
0.0
11
34.935620
21
331.686595
31
0.0
0
LINE
8
0
6
CONTINUOUS
10
32.363660
20
331.686595
30
0.0
11
33.649670
21
332.113835
31
0.0
0
LINE
8
0
6
CONTINUOUS
10
26.898410
20
329.686625
30
0.0
11
28.184360
21
329.259375
31
0.0
0
LINE
8
0
6
CONTINUOUS
10
25.612340
20
328.404965
30
0.0
11
25.612400
21
329.259375
31
0.0
0
LINE
8
0
6
CONTINUOUS
10
25.612400
20
329.259375
30
0.0
11
26.898410
21
329.686625
31
0.0
0
LINE
8
0
6
CONTINUOUS
10
20.457490
20
330.884135
30
0.0
11
20.457540
21
331.738545
31
0.0
0
LINE
8
0
6
CONTINUOUS
10
21.743560
20
332.165645
30
0.0
11
23.029510
21
331.738475
31
0.0
0
LINE
8
0
6
CONTINUOUS
10
20.457540
20
334.716075
30
0.0
11
20.457540
21
331.738545
31
0.0
0
LINE
8
0
6
CONTINUOUS
10
21.743560
20
332.165645
30
0.0
11
21.743560
21
335.143245
31
0.0
0
LINE
8
0
6
CONTINUOUS
10
20.457540
20
331.738545
30
0.0
11
21.743560
21
332.165645
31
0.0
0
LINE
8
0
6
CONTINUOUS
10
21.621500
20
324.269905
30
0.0
11
21.621560
21
325.124325
31
0.0
0
LINE
8
0
6
CONTINUOUS
10
22.907560
20
325.551495
30
0.0
11
24.193520
21
325.124245
31
0.0
0
LINE
8
0
6
CONTINUOUS
10
21.621560
20
325.124325
30
0.0
11
22.907560
21
325.551495
31
0.0
0
LINE
8
0
6
CONTINUOUS
10
27.319550
20
322.773095
30
0.0
11
27.319610
21
323.627515
31
0.0
0
LINE
8
0
6
CONTINUOUS
10
28.605630
20
324.054685
30
0.0
11
29.891580
21
323.627435
31
0.0
0
LINE
8
0
6
CONTINUOUS
10
27.319610
20
323.627515
30
0.0
11
28.605630
21
324.054685
31
0.0
0
LINE
8
0
6
CONTINUOUS
10
15.723850
20
326.322975
30
0.0
11
15.723910
21
327.177395
31
0.0
0
LINE
8
0
6
CONTINUOUS
10
17.009920
20
327.604485
30
0.0
11
18.295870
21
327.177315
31
0.0
0
LINE
8
0
6
CONTINUOUS
10
15.723910
20
330.154915
30
0.0
11
15.723910
21
327.177395
31
0.0
0
LINE
8
0
6
CONTINUOUS
10
17.009920
20
327.604485
30
0.0
11
17.009920
21
330.582085
31
0.0
0
LINE
8
0
6
CONTINUOUS
10
15.723910
20
327.177395
30
0.0
11
17.009920
21
327.604485
31
0.0
0
LINE
8
0
6
CONTINUOUS
10
14.818530
20
321.617245
30
0.0
11
14.818580
21
322.471655
31
0.0
0
LINE
8
0
6
CONTINUOUS
10
14.818580
20
322.471655
30
0.0
11
16.104600
21
322.898825
31
0.0
0
LINE
8
0
6
CONTINUOUS
10
16.104600
20
322.898825
30
0.0
11
17.390550
21
322.471585
31
0.0
0
LINE
8
0
6
CONTINUOUS
10
33.204130
20
316.746025
30
0.0
11
33.204180
21
317.600445
31
0.0
0
LINE
8
0
6
CONTINUOUS
10
33.204180
20
317.600445
30
0.0
11
34.490190
21
318.027685
31
0.0
0
LINE
8
0
6
CONTINUOUS
10
34.490190
20
318.027685
30
0.0
11
35.776150
21
317.600365
31
0.0
0
LINE
8
0
6
CONTINUOUS
10
21.362830
20
319.995695
30
0.0
11
21.362890
21
320.850105
31
0.0
0
LINE
8
0
6
CONTINUOUS
10
21.362890
20
320.850105
30
0.0
11
22.648900
21
321.277275
31
0.0
0
LINE
8
0
6
CONTINUOUS
10
22.648900
20
321.277275
30
0.0
11
23.934850
21
320.850025
31
0.0
0
LINE
8
0
6
CONTINUOUS
10
17.676860
20
316.557355
30
0.0
11
17.676920
21
317.411765
31
0.0
0
LINE
8
0
6
CONTINUOUS
10
17.676920
20
317.411765
30
0.0
11
18.962930
21
317.838865
31
0.0
0
LINE
8
0
6
CONTINUOUS
10
18.962930
20
317.838865
30
0.0
11
20.248880
21
317.411695
31
0.0
0
LINE
8
0
6
CONTINUOUS
10
25.741670
20
315.959435
30
0.0
11
25.741730
21
316.813855
31
0.0
0
LINE
8
0
6
CONTINUOUS
10
25.741730
20
316.813855
30
0.0
11
27.027740
21
317.241095
31
0.0
0
LINE
8
0
6
CONTINUOUS
10
27.027740
20
317.241095
30
0.0
11
28.313700
21
316.813775
31
0.0
0
LINE
8
0
6
CONTINUOUS
10
29.640390
20
320.437435
30
0.0
11
30.926350
21
320.010105
31
0.0
0
LINE
8
0
6
CONTINUOUS
10
28.354320
20
319.155775
30
0.0
11
28.354380
21
320.010185
31
0.0
0
LINE
8
0
6
CONTINUOUS
10
28.354380
20
320.010185
30
0.0
11
29.640390
21
320.437435
31
0.0
0
LINE
8
0
6
CONTINUOUS
10
32.301590
20
313.688165
30
0.0
11
32.301640
21
314.542585
31
0.0
0
LINE
8
0
6
CONTINUOUS
10
32.301640
20
314.542585
30
0.0
11
33.587650
21
314.969825
31
0.0
0
LINE
8
0
6
CONTINUOUS
10
33.587650
20
314.969825
30
0.0
11
34.873610
21
314.542505
31
0.0
0
LINE
8
0
6
CONTINUOUS
10
23.716800
20
312.555355
30
0.0
11
23.716860
21
313.409765
31
0.0
0
LINE
8
0
6
CONTINUOUS
10
23.716860
20
313.409765
30
0.0
11
25.002870
21
313.837015
31
0.0
0
LINE
8
0
6
CONTINUOUS
10
25.002870
20
313.837015
30
0.0
11
26.288830
21
313.409765
31
0.0
0
LINE
8
0
6
CONTINUOUS
10
31.846150
20
310.552105
30
0.0
11
31.846210
21
311.406515
31
0.0
0
LINE
8
0
6
CONTINUOUS
10
31.846210
20
311.406515
30
0.0
11
33.132220
21
311.833765
31
0.0
0
LINE
8
0
6
CONTINUOUS
10
33.132220
20
311.833765
30
0.0
11
34.418170
21
311.406445
31
0.0
0
LINE
8
0
6
CONTINUOUS
10
17.737290
20
313.874015
30
0.0
11
18.734910
21
313.293195
31
0.0
0
LINE
8
0
6
CONTINUOUS
10
16.364370
20
313.667265
30
0.0
11
17.737290
21
313.874015
31
0.0
0
LINE
8
0
6
CONTINUOUS
10
15.989070
20
312.879755
30
0.0
11
16.364370
21
313.667265
31
0.0
0
LINE
8
0
6
CONTINUOUS
10
27.912550
20
348.061565
30
0.0
11
28.128070
21
346.863675
31
0.0
0
LINE
8
0
6
CONTINUOUS
10
27.912550
20
348.061565
30
0.0
11
27.912550
21
351.039085
31
0.0
0
LINE
8
0
6
CONTINUOUS
10
26.001930
20
348.553045
30
0.0
11
27.912550
21
348.061565
31
0.0
0
LINE
8
0
6
CONTINUOUS
10
24.306820
20
350.824245
30
0.0
11
24.306820
21
347.846715
31
0.0
0
LINE
8
0
6
CONTINUOUS
10
26.001930
20
348.553045
30
0.0
11
26.001930
21
351.530575
31
0.0
0
LINE
8
0
6
CONTINUOUS
10
24.306820
20
347.846715
30
0.0
11
26.001930
21
348.553045
31
0.0
0
LINE
8
0
6
CONTINUOUS
10
13.640230
20
347.644695
30
0.0
11
13.640230
21
344.667165
31
0.0
0
LINE
8
0
6
CONTINUOUS
10
13.640230
20
344.667165
30
0.0
11
15.038810
21
345.563085
31
0.0
0
LINE
8
0
6
CONTINUOUS
10
17.086480
20
345.314145
30
0.0
11
17.735590
21
344.169195
31
0.0
0
LINE
8
0
6
CONTINUOUS
10
15.038810
20
348.540615
30
0.0
11
15.038810
21
345.563085
31
0.0
0
LINE
8
0
6
CONTINUOUS
10
17.086480
20
345.314145
30
0.0
11
17.086480
21
348.291665
31
0.0
0
LINE
8
0
6
CONTINUOUS
10
15.038810
20
345.563085
30
0.0
11
17.086480
21
345.314145
31
0.0
0
LINE
8
0
6
CONTINUOUS
10
4.604320
20
342.681385
30
0.0
11
4.604320
21
339.703865
31
0.0
0
LINE
8
0
6
CONTINUOUS
10
4.604320
20
339.703865
30
0.0
11
5.643640
21
340.749095
31
0.0
0
LINE
8
0
6
CONTINUOUS
10
7.736510
20
340.753895
30
0.0
11
8.790090
21
339.713325
31
0.0
0
LINE
8
0
6
CONTINUOUS
10
5.643640
20
343.726615
30
0.0
11
5.643640
21
340.749095
31
0.0
0
LINE
8
0
6
CONTINUOUS
10
7.736510
20
340.753895
30
0.0
11
7.736510
21
343.731425
31
0.0
0
LINE
8
0
6
CONTINUOUS
10
5.643640
20
340.749095
30
0.0
11
7.736510
21
340.753895
31
0.0
0
LINE
8
0
6
CONTINUOUS
10
1.444260
20
334.905895
30
0.0
11
2.855050
21
334.016385
31
0.0
0
LINE
8
0
6
CONTINUOUS
10
-1.233360
20
336.477395
30
0.0
11
-1.233360
21
333.499875
31
0.0
0
LINE
8
0
6
CONTINUOUS
10
-1.233360
20
333.499875
30
0.0
11
-0.599930
21
334.647565
31
0.0
0
LINE
8
0
6
CONTINUOUS
10
-0.599930
20
337.625165
30
0.0
11
-0.599930
21
334.647565
31
0.0
0
LINE
8
0
6
CONTINUOUS
10
1.444260
20
334.905895
30
0.0
11
1.444260
21
337.883415
31
0.0
0
LINE
8
0
6
CONTINUOUS
10
-0.599930
20
334.647565
30
0.0
11
1.444260
21
334.905895
31
0.0
0
LINE
8
0
6
CONTINUOUS
10
-1.579850
20
328.470195
30
0.0
11
0.150720
21
327.792935
31
0.0
0
LINE
8
0
6
CONTINUOUS
10
-1.579850
20
328.470195
30
0.0
11
-1.579850
21
331.447715
31
0.0
0
LINE
8
0
6
CONTINUOUS
10
-3.464440
20
327.946435
30
0.0
11
-1.579850
21
328.470195
31
0.0
0
LINE
8
0
6
CONTINUOUS
10
-3.618470
20
329.723015
30
0.0
11
-3.618470
21
326.745495
31
0.0
0
LINE
8
0
6
CONTINUOUS
10
-3.464440
20
327.946435
30
0.0
11
-3.464440
21
330.924035
31
0.0
0
LINE
8
0
6
CONTINUOUS
10
-3.618470
20
326.745495
30
0.0
11
-3.464440
21
327.946435
31
0.0
0
LINE
8
0
6
CONTINUOUS
10
4.081890
20
333.800545
30
0.0
11
4.081890
21
330.823025
31
0.0
0
LINE
8
0
6
CONTINUOUS
10
4.081890
20
330.823025
30
0.0
11
4.715330
21
331.970785
31
0.0
0
LINE
8
0
6
CONTINUOUS
10
6.759520
20
332.229045
30
0.0
11
8.170300
21
331.339535
31
0.0
0
LINE
8
0
6
CONTINUOUS
10
4.715330
20
334.948315
30
0.0
11
4.715330
21
331.970785
31
0.0
0
LINE
8
0
6
CONTINUOUS
10
6.759520
20
332.229045
30
0.0
11
6.759520
21
335.206565
31
0.0
0
LINE
8
0
6
CONTINUOUS
10
4.715330
20
331.970785
30
0.0
11
6.759520
21
332.229045
31
0.0
0
LINE
8
0
6
CONTINUOUS
10
9.701860
20
339.809455
30
0.0
11
9.701860
21
336.831935
31
0.0
0
LINE
8
0
6
CONTINUOUS
10
9.701860
20
336.831935
30
0.0
11
10.741170
21
337.877155
31
0.0
0
LINE
8
0
6
CONTINUOUS
10
12.834050
20
337.881895
30
0.0
11
13.887620
21
336.841395
31
0.0
0
LINE
8
0
6
CONTINUOUS
10
10.741170
20
340.854685
30
0.0
11
10.741170
21
337.877155
31
0.0
0
LINE
8
0
6
CONTINUOUS
10
12.834050
20
337.881895
30
0.0
11
12.834050
21
340.859415
31
0.0
0
LINE
8
0
6
CONTINUOUS
10
10.741170
20
337.877155
30
0.0
11
12.834050
21
337.881895
31
0.0
0
LINE
8
0
6
CONTINUOUS
10
18.737770
20
344.127775
30
0.0
11
18.737770
21
341.150245
31
0.0
0
LINE
8
0
6
CONTINUOUS
10
18.737770
20
341.150245
30
0.0
11
20.136350
21
342.046085
31
0.0
0
LINE
8
0
6
CONTINUOUS
10
22.833120
20
340.652195
30
0.0
11
22.833120
21
341.273502
31
0.0
0
LINE
8
0
6
CONTINUOUS
10
22.184020
20
341.797065
30
0.0
11
22.833120
21
340.652195
31
0.0
0
LINE
8
0
6
CONTINUOUS
10
20.136350
20
345.023695
30
0.0
11
20.136350
21
342.046085
31
0.0
0
LINE
8
0
6
CONTINUOUS
10
22.184020
20
341.797065
30
0.0
11
22.184020
21
344.774665
31
0.0
0
LINE
8
0
6
CONTINUOUS
10
20.136350
20
342.046085
30
0.0
11
22.184020
21
341.797065
31
0.0
0
LINE
8
0
6
CONTINUOUS
10
29.923980
20
347.166715
30
0.0
11
29.923980
21
344.189185
31
0.0
0
LINE
8
0
6
CONTINUOUS
10
29.923980
20
344.189185
30
0.0
11
31.619080
21
344.895515
31
0.0
0
LINE
8
0
6
CONTINUOUS
10
33.529710
20
344.404035
30
0.0
11
33.745220
21
343.206135
31
0.0
0
LINE
8
0
6
CONTINUOUS
10
31.619080
20
347.873045
30
0.0
11
31.619080
21
344.895515
31
0.0
0
LINE
8
0
6
CONTINUOUS
10
33.529710
20
344.404035
30
0.0
11
33.529710
21
347.381555
31
0.0
0
LINE
8
0
6
CONTINUOUS
10
31.619080
20
344.895515
30
0.0
11
33.529710
21
344.404035
31
0.0
0
LINE
8
0
6
CONTINUOUS
10
31.619080
20
306.182285
30
0.0
11
33.529710
21
305.690725
31
0.0
0
LINE
8
0
6
CONTINUOUS
10
33.529710
20
307.432577
30
0.0
11
33.529710
21
305.690725
31
0.0
0
LINE
8
0
6
CONTINUOUS
10
33.529710
20
305.690725
30
0.0
11
33.745220
21
304.492835
31
0.0
0
LINE
8
0
6
CONTINUOUS
10
29.923990
20
307.851394
30
0.0
11
29.923990
21
305.475965
31
0.0
0
LINE
8
0
6
CONTINUOUS
10
31.619080
20
306.182285
30
0.0
11
31.619080
21
307.615728
31
0.0
0
LINE
8
0
6
CONTINUOUS
10
29.923990
20
305.475965
30
0.0
11
31.619080
21
306.182285
31
0.0
0
LINE
8
0
6
CONTINUOUS
10
18.737780
20
308.088795
30
0.0
11
20.136350
21
308.984715
31
0.0
0
LINE
8
0
6
CONTINUOUS
10
20.136350
20
308.984715
30
0.0
11
22.184020
21
308.735775
31
0.0
0
LINE
8
0
6
CONTINUOUS
10
22.184020
20
309.612300
30
0.0
11
22.184020
21
308.735775
31
0.0
0
LINE
8
0
6
CONTINUOUS
10
22.833130
20
307.590825
30
0.0
11
22.833130
21
309.422089
31
0.0
0
LINE
8
0
6
CONTINUOUS
10
22.184020
20
308.735775
30
0.0
11
22.833130
21
307.590825
31
0.0
0
LINE
8
0
6
CONTINUOUS
10
10.741170
20
313.516125
30
0.0
11
12.834050
21
313.520855
31
0.0
0
LINE
8
0
6
CONTINUOUS
10
9.701880
20
312.470815
30
0.0
11
10.741170
21
313.516125
31
0.0
0
LINE
8
0
6
CONTINUOUS
10
12.834050
20
313.520855
30
0.0
11
13.887640
21
312.480275
31
0.0
0
LINE
8
0
6
CONTINUOUS
10
4.715320
20
319.316145
30
0.0
11
6.759520
21
319.574395
31
0.0
0
LINE
8
0
6
CONTINUOUS
10
6.759520
20
319.574395
30
0.0
11
8.170320
21
318.684885
31
0.0
0
LINE
8
0
6
CONTINUOUS
10
4.081910
20
318.168295
30
0.0
11
4.715320
21
319.316145
31
0.0
0
LINE
8
0
6
CONTINUOUS
10
2.320900
20
324.484905
30
0.0
11
2.474930
21
325.685925
31
0.0
0
LINE
8
0
6
CONTINUOUS
10
2.474930
20
325.685925
30
0.0
11
4.359530
21
326.209605
31
0.0
0
LINE
8
0
6
CONTINUOUS
10
4.359530
20
326.209605
30
0.0
11
6.090100
21
325.532415
31
0.0
0
LINE
8
0
6
CONTINUOUS
10
-2.782450
20
320.757945
30
0.0
11
-2.628420
21
321.958965
31
0.0
0
LINE
8
0
6
CONTINUOUS
10
-2.628420
20
321.958965
30
0.0
11
-0.743820
21
322.482645
31
0.0
0
LINE
8
0
6
CONTINUOUS
10
-0.743820
20
322.482645
30
0.0
11
0.986740
21
321.805385
31
0.0
0
LINE
8
0
6
CONTINUOUS
10
1.379250
20
314.496345
30
0.0
11
2.012650
21
315.644115
31
0.0
0
LINE
8
0
6
CONTINUOUS
10
2.012650
20
315.644115
30
0.0
11
4.056850
21
315.902445
31
0.0
0
LINE
8
0
6
CONTINUOUS
10
4.056850
20
315.902445
30
0.0
11
5.467650
21
315.012935
31
0.0
0
LINE
8
0
6
CONTINUOUS
10
9.719270
20
310.311245
30
0.0
11
11.812150
21
310.316045
31
0.0
0
LINE
8
0
6
CONTINUOUS
10
11.812150
20
310.316045
30
0.0
11
12.865730
21
309.275475
31
0.0
0
LINE
8
0
6
CONTINUOUS
10
8.679960
20
309.266015
30
0.0
11
9.719270
21
310.311245
31
0.0
0
LINE
8
0
6
CONTINUOUS
10
20.159480
20
305.942805
30
0.0
11
22.207150
21
305.693775
31
0.0
0
LINE
8
0
6
CONTINUOUS
10
18.760910
20
305.046885
30
0.0
11
20.159480
21
305.942805
31
0.0
0
LINE
8
0
6
CONTINUOUS
10
22.207150
20
305.693775
30
0.0
11
22.856260
21
304.548915
31
0.0
0
LINE
8
0
6
CONTINUOUS
10
29.923990
20
302.982145
30
0.0
11
31.619080
21
303.688465
31
0.0
0
LINE
8
0
6
CONTINUOUS
10
31.619080
20
303.688465
30
0.0
11
33.529710
21
303.196905
31
0.0
0
LINE
8
0
6
CONTINUOUS
10
33.529710
20
304.152847
30
0.0
11
33.529710
21
303.196905
31
0.0
0
LINE
8
0
6
CONTINUOUS
10
33.529710
20
303.196905
30
0.0
11
33.745220
21
301.999095
31
0.0
0
LINE
8
0
6
CONTINUOUS
10
18.303520
20
302.647665
30
0.0
11
19.998620
21
303.353995
31
0.0
0
LINE
8
0
6
CONTINUOUS
10
19.998620
20
303.353995
30
0.0
11
21.909250
21
302.862435
31
0.0
0
LINE
8
0
6
CONTINUOUS
10
21.909250
20
302.862435
30
0.0
11
22.124760
21
301.664545
31
0.0
0
LINE
8
0
6
CONTINUOUS
10
9.169030
20
307.407115
30
0.0
11
11.216710
21
307.158165
31
0.0
0
LINE
8
0
6
CONTINUOUS
10
11.216710
20
307.158165
30
0.0
11
11.865830
21
306.013295
31
0.0
0
LINE
8
0
6
CONTINUOUS
10
7.770460
20
306.511195
30
0.0
11
9.169030
21
307.407115
31
0.0
0
LINE
8
0
6
CONTINUOUS
10
-0.716670
20
311.222495
30
0.0
11
-0.083260
21
312.370265
31
0.0
0
LINE
8
0
6
CONTINUOUS
10
-0.083260
20
312.370265
30
0.0
11
1.960940
21
312.628595
31
0.0
0
LINE
8
0
6
CONTINUOUS
10
1.960940
20
312.628595
30
0.0
11
3.371740
21
311.739085
31
0.0
0
LINE
8
0
6
CONTINUOUS
10
-6.358690
20
318.095665
30
0.0
11
-4.474090
21
318.619345
31
0.0
0
LINE
8
0
6
CONTINUOUS
10
-6.512730
20
319.872245
30
0.0
11
-6.512730
21
316.894645
31
0.0
0
LINE
8
0
6
CONTINUOUS
10
-6.512730
20
316.894645
30
0.0
11
-6.358690
21
318.095665
31
0.0
0
LINE
8
0
6
CONTINUOUS
10
-4.474090
20
318.619345
30
0.0
11
-2.743520
21
317.942165
31
0.0
0
LINE
8
0
6
CONTINUOUS
10
-9.826360
20
326.147456
30
0.0
11
-9.826360
21
324.648855
31
0.0
0
LINE
8
0
6
CONTINUOUS
10
-9.826360
20
324.648855
30
0.0
11
-8.175710
21
325.389215
31
0.0
0
LINE
8
0
6
CONTINUOUS
10
-8.175710
20
326.434966
30
0.0
11
-8.175710
21
325.389215
31
0.0
0
LINE
8
0
6
CONTINUOUS
10
-8.175710
20
325.389215
30
0.0
11
-6.236070
21
324.936865
31
0.0
0
LINE
8
0
6
CONTINUOUS
10
-6.236070
20
325.591887
30
0.0
11
-6.236070
21
324.936865
31
0.0
0
LINE
8
0
6
CONTINUOUS
10
-5.947100
20
323.744165
30
0.0
11
-5.947100
21
324.461309
31
0.0
0
LINE
8
0
6
CONTINUOUS
10
-6.236070
20
324.936865
30
0.0
11
-5.947100
21
323.744165
31
0.0
0
LINE
8
0
6
CONTINUOUS
10
85.351900
20
323.933605
30
0.0
11
85.351900
21
325.234731
31
0.0
0
LINE
8
0
6
CONTINUOUS
10
85.062930
20
325.126385
30
0.0
11
85.351900
21
323.933605
31
0.0
0
LINE
8
0
6
CONTINUOUS
10
85.062930
20
325.126385
30
0.0
11
85.062930
21
326.234499
31
0.0
0
LINE
8
0
6
CONTINUOUS
10
83.123290
20
325.578655
30
0.0
11
85.062930
21
325.126385
31
0.0
0
LINE
8
0
6
CONTINUOUS
10
81.472650
20
325.164480
30
0.0
11
81.472650
21
324.838295
31
0.0
0
LINE
8
0
6
CONTINUOUS
10
83.123290
20
325.578655
30
0.0
11
83.123290
21
326.199349
31
0.0
0
LINE
8
0
6
CONTINUOUS
10
81.472650
20
324.838295
30
0.0
11
83.123290
21
325.578655
31
0.0
0
LINE
8
0
6
CONTINUOUS
10
78.269060
20
317.466519
30
0.0
11
78.269060
21
317.008705
31
0.0
0
LINE
8
0
6
CONTINUOUS
10
78.269060
20
317.008705
30
0.0
11
78.423110
21
318.209725
31
0.0
0
LINE
8
0
6
CONTINUOUS
10
82.038280
20
318.056065
30
0.0
11
82.038280
21
319.188911
31
0.0
0
LINE
8
0
6
CONTINUOUS
10
80.307710
20
318.733405
30
0.0
11
82.038280
21
318.056065
31
0.0
0
LINE
8
0
6
CONTINUOUS
10
78.423110
20
318.446266
30
0.0
11
78.423110
21
318.209725
31
0.0
0
LINE
8
0
6
CONTINUOUS
10
80.307710
20
318.733405
30
0.0
11
80.307710
21
319.378444
31
0.0
0
LINE
8
0
6
CONTINUOUS
10
78.423110
20
318.209725
30
0.0
11
80.307710
21
318.733405
31
0.0
0
LINE
8
0
6
CONTINUOUS
10
76.242220
20
311.927455
30
0.0
11
76.242220
21
313.017994
31
0.0
0
LINE
8
0
6
CONTINUOUS
10
74.831430
20
312.817045
30
0.0
11
76.242220
21
311.927455
31
0.0
0
LINE
8
0
6
CONTINUOUS
10
72.153800
20
311.780527
30
0.0
11
72.153800
21
311.411015
31
0.0
0
LINE
8
0
6
CONTINUOUS
10
72.153800
20
311.411015
30
0.0
11
72.787230
21
312.558785
31
0.0
0
LINE
8
0
6
CONTINUOUS
10
72.787230
20
312.735011
30
0.0
11
72.787230
21
312.558785
31
0.0
0
LINE
8
0
6
CONTINUOUS
10
74.831430
20
312.817045
30
0.0
11
74.831430
21
313.393990
31
0.0
0
LINE
8
0
6
CONTINUOUS
10
72.787230
20
312.558785
30
0.0
11
74.831430
21
312.817045
31
0.0
0
LINE
8
0
6
CONTINUOUS
10
63.659740
20
306.733745
30
0.0
11
65.058300
21
307.629585
31
0.0
0
LINE
8
0
6
CONTINUOUS
10
67.755080
20
306.235775
30
0.0
11
67.755080
21
307.243006
31
0.0
0
LINE
8
0
6
CONTINUOUS
10
67.105970
20
307.380635
30
0.0
11
67.755080
21
306.235775
31
0.0
0
LINE
8
0
6
CONTINUOUS
10
67.105970
20
307.380635
30
0.0
11
67.105970
21
307.923297
31
0.0
0
LINE
8
0
6
CONTINUOUS
10
65.058300
20
307.629585
30
0.0
11
67.105970
21
307.380635
31
0.0
0
LINE
8
0
6
CONTINUOUS
10
57.006520
20
302.860985
30
0.0
11
57.222030
21
301.663095
31
0.0
0
LINE
8
0
6
CONTINUOUS
10
53.400800
20
302.646145
30
0.0
11
55.095900
21
303.352475
31
0.0
0
LINE
8
0
6
CONTINUOUS
10
55.095900
20
303.352475
30
0.0
11
57.006520
21
302.860985
31
0.0
0
LINE
8
0
6
CONTINUOUS
10
41.780330
20
303.066215
30
0.0
11
43.475430
21
303.772545
31
0.0
0
LINE
8
0
6
CONTINUOUS
10
45.386060
20
303.281065
30
0.0
11
45.601570
21
302.083165
31
0.0
0
LINE
8
0
6
CONTINUOUS
10
43.475430
20
303.772545
30
0.0
11
45.386060
21
303.281065
31
0.0
0
LINE
8
0
6
CONTINUOUS
10
52.669300
20
305.138585
30
0.0
11
54.067880
21
306.034505
31
0.0
0
LINE
8
0
6
CONTINUOUS
10
56.115540
20
305.785565
30
0.0
11
56.764650
21
304.640695
31
0.0
0
LINE
8
0
6
CONTINUOUS
10
54.067880
20
306.034505
30
0.0
11
56.115540
21
305.785565
31
0.0
0
LINE
8
0
6
CONTINUOUS
10
63.699130
20
310.461005
30
0.0
11
65.792010
21
310.465735
31
0.0
0
LINE
8
0
6
CONTINUOUS
10
63.699130
20
310.461005
30
0.0
11
63.699130
21
310.856118
31
0.0
0
LINE
8
0
6
CONTINUOUS
10
62.659810
20
309.415705
30
0.0
11
63.699130
21
310.461005
31
0.0
0
LINE
8
0
6
CONTINUOUS
10
65.792010
20
311.167607
30
0.0
11
65.792010
21
310.465735
31
0.0
0
LINE
8
0
6
CONTINUOUS
10
66.845590
20
309.425245
30
0.0
11
66.845590
21
310.459273
31
0.0
0
LINE
8
0
6
CONTINUOUS
10
65.792010
20
310.465735
30
0.0
11
66.845590
21
309.425245
31
0.0
0
LINE
8
0
6
CONTINUOUS
10
74.146310
20
315.224875
30
0.0
11
74.146310
21
316.214278
31
0.0
0
LINE
8
0
6
CONTINUOUS
10
72.735520
20
316.114385
30
0.0
11
74.146310
21
315.224875
31
0.0
0
LINE
8
0
6
CONTINUOUS
10
72.735520
20
316.114385
30
0.0
11
72.735520
21
316.590264
31
0.0
0
LINE
8
0
6
CONTINUOUS
10
70.691330
20
315.856205
30
0.0
11
72.735520
21
316.114385
31
0.0
0
LINE
8
0
6
CONTINUOUS
10
70.057900
20
314.989616
30
0.0
11
70.057900
21
314.708365
31
0.0
0
LINE
8
0
6
CONTINUOUS
10
70.691330
20
315.856205
30
0.0
11
70.691330
21
316.061920
31
0.0
0
LINE
8
0
6
CONTINUOUS
10
70.057900
20
314.708365
30
0.0
11
70.691330
21
315.856205
31
0.0
0
LINE
8
0
6
CONTINUOUS
10
74.538810
20
321.205614
30
0.0
11
74.538810
21
320.989805
31
0.0
0
LINE
8
0
6
CONTINUOUS
10
74.538810
20
320.989805
30
0.0
11
74.692850
21
322.190815
31
0.0
0
LINE
8
0
6
CONTINUOUS
10
74.692850
20
322.364289
30
0.0
11
74.692850
21
322.190815
31
0.0
0
LINE
8
0
6
CONTINUOUS
10
74.692850
20
322.190815
30
0.0
11
76.577440
21
322.714575
31
0.0
0
LINE
8
0
6
CONTINUOUS
10
76.577440
20
323.258540
30
0.0
11
76.577440
21
322.714575
31
0.0
0
LINE
8
0
6
CONTINUOUS
10
78.308010
20
322.037315
30
0.0
11
78.308010
21
323.069015
31
0.0
0
LINE
8
0
6
CONTINUOUS
10
76.577440
20
322.714575
30
0.0
11
78.308010
21
322.037315
31
0.0
0
LINE
8
0
6
CONTINUOUS
10
69.435460
20
325.201472
30
0.0
11
69.435460
21
324.673045
31
0.0
0
LINE
8
0
6
CONTINUOUS
10
69.435460
20
324.673045
30
0.0
11
69.589490
21
325.874065
31
0.0
0
LINE
8
0
6
CONTINUOUS
10
73.204650
20
325.720485
30
0.0
11
73.204650
21
326.799308
31
0.0
0
LINE
8
0
6
CONTINUOUS
10
71.474090
20
326.397745
30
0.0
11
73.204650
21
325.720485
31
0.0
0
LINE
8
0
6
CONTINUOUS
10
69.589490
20
326.360149
30
0.0
11
69.589490
21
325.874065
31
0.0
0
LINE
8
0
6
CONTINUOUS
10
71.474090
20
326.397745
30
0.0
11
71.474090
21
327.221339
31
0.0
0
LINE
8
0
6
CONTINUOUS
10
69.589490
20
325.874065
30
0.0
11
71.474090
21
326.397745
31
0.0
0
LINE
8
0
6
CONTINUOUS
10
67.355220
20
318.788665
30
0.0
11
67.355220
21
318.389095
31
0.0
0
LINE
8
0
6
CONTINUOUS
10
67.355220
20
318.389095
30
0.0
11
67.988660
21
319.536935
31
0.0
0
LINE
8
0
6
CONTINUOUS
10
71.443640
20
318.905605
30
0.0
11
71.443640
21
319.962369
31
0.0
0
LINE
8
0
6
CONTINUOUS
10
70.032850
20
319.795115
30
0.0
11
71.443640
21
318.905605
31
0.0
0
LINE
8
0
6
CONTINUOUS
10
67.988660
20
319.994455
30
0.0
11
67.988660
21
319.536935
31
0.0
0
LINE
8
0
6
CONTINUOUS
10
70.032850
20
319.795115
30
0.0
11
70.032850
21
320.581288
31
0.0
0
LINE
8
0
6
CONTINUOUS
10
67.988660
20
319.536935
30
0.0
11
70.032850
21
319.795115
31
0.0
0
LINE
8
0
6
CONTINUOUS
10
61.637910
20
313.120764
30
0.0
11
61.637910
21
312.701605
31
0.0
0
LINE
8
0
6
CONTINUOUS
10
61.637910
20
312.701605
30
0.0
11
62.677230
21
313.746835
31
0.0
0
LINE
8
0
6
CONTINUOUS
10
65.823680
20
312.711065
30
0.0
11
65.823680
21
313.746357
31
0.0
0
LINE
8
0
6
CONTINUOUS
10
64.770100
20
313.751645
30
0.0
11
65.823680
21
312.711065
31
0.0
0
LINE
8
0
6
CONTINUOUS
10
62.677230
20
314.162404
30
0.0
11
62.677230
21
313.746835
31
0.0
0
LINE
8
0
6
CONTINUOUS
10
64.770100
20
313.751645
30
0.0
11
64.770100
21
314.475226
31
0.0
0
LINE
8
0
6
CONTINUOUS
10
62.677230
20
313.746835
30
0.0
11
64.770100
21
313.751645
31
0.0
0
LINE
8
0
6
CONTINUOUS
10
52.692420
20
309.626885
30
0.0
11
52.692420
21
308.529165
31
0.0
0
LINE
8
0
6
CONTINUOUS
10
52.692420
20
308.529165
30
0.0
11
54.091000
21
309.425015
31
0.0
0
LINE
8
0
6
CONTINUOUS
10
54.091000
20
309.425015
30
0.0
11
56.138670
21
309.176065
31
0.0
0
LINE
8
0
6
CONTINUOUS
10
56.138670
20
309.176065
30
0.0
11
56.787780
21
308.031195
31
0.0
0
LINE
8
0
6
CONTINUOUS
10
41.780330
20
305.702405
30
0.0
11
43.475430
21
306.408655
31
0.0
0
LINE
8
0
6
CONTINUOUS
10
45.386060
20
305.917165
30
0.0
11
45.601570
21
304.719275
31
0.0
0
LINE
8
0
6
CONTINUOUS
10
43.475430
20
307.681045
30
0.0
11
43.475430
21
306.408655
31
0.0
0
LINE
8
0
6
CONTINUOUS
10
43.475430
20
306.408655
30
0.0
11
45.386060
21
305.917165
31
0.0
0
LINE
8
0
6
CONTINUOUS
10
45.386050
20
344.693485
30
0.0
11
45.601570
21
343.495595
31
0.0
0
LINE
8
0
6
CONTINUOUS
10
41.780330
20
344.478725
30
0.0
11
43.475420
21
345.184975
31
0.0
0
LINE
8
0
6
CONTINUOUS
10
43.475420
20
348.162495
30
0.0
11
43.475420
21
345.184975
31
0.0
0
LINE
8
0
6
CONTINUOUS
10
43.475420
20
345.184975
30
0.0
11
45.386050
21
344.693485
31
0.0
0
LINE
8
0
6
CONTINUOUS
10
52.692430
20
341.407895
30
0.0
11
54.091000
21
342.303655
31
0.0
0
LINE
8
0
6
CONTINUOUS
10
54.091000
20
345.281255
30
0.0
11
54.091000
21
342.303655
31
0.0
0
LINE
8
0
6
CONTINUOUS
10
54.091000
20
342.303655
30
0.0
11
56.138670
21
342.054715
31
0.0
0
LINE
8
0
6
CONTINUOUS
10
56.138670
20
345.032235
30
0.0
11
56.138670
21
342.054715
31
0.0
0
LINE
8
0
6
CONTINUOUS
10
56.787780
20
340.909845
30
0.0
11
56.787780
21
343.887365
31
0.0
0
LINE
8
0
6
CONTINUOUS
10
56.138670
20
342.054715
30
0.0
11
56.787780
21
340.909845
31
0.0
0
LINE
8
0
6
CONTINUOUS
10
65.823690
20
337.002675
30
0.0
11
65.823690
21
338.691469
31
0.0
0
LINE
8
0
6
CONTINUOUS
10
64.770100
20
338.043175
30
0.0
11
65.823690
21
337.002675
31
0.0
0
LINE
8
0
6
CONTINUOUS
10
61.637910
20
336.993145
30
0.0
11
62.677220
21
338.038445
31
0.0
0
LINE
8
0
6
CONTINUOUS
10
62.677220
20
341.015965
30
0.0
11
62.677220
21
338.038445
31
0.0
0
LINE
8
0
6
CONTINUOUS
10
64.770100
20
338.043175
30
0.0
11
64.770100
21
339.763641
31
0.0
0
LINE
8
0
6
CONTINUOUS
10
62.677220
20
338.038445
30
0.0
11
64.770100
21
338.043175
31
0.0
0
LINE
8
0
6
CONTINUOUS
10
67.355240
20
332.104535
30
0.0
11
67.355240
21
331.013065
31
0.0
0
LINE
8
0
6
CONTINUOUS
10
67.355240
20
331.013065
30
0.0
11
67.988660
21
332.160755
31
0.0
0
LINE
8
0
6
CONTINUOUS
10
67.988660
20
333.472163
30
0.0
11
67.988660
21
332.160755
31
0.0
0
LINE
8
0
6
CONTINUOUS
10
67.988660
20
332.160755
30
0.0
11
70.032850
21
332.419095
31
0.0
0
LINE
8
0
6
CONTINUOUS
10
70.032850
20
334.034196
30
0.0
11
70.032850
21
332.419095
31
0.0
0
LINE
8
0
6
CONTINUOUS
10
71.443660
20
331.529575
30
0.0
11
71.443660
21
333.296752
31
0.0
0
LINE
8
0
6
CONTINUOUS
10
70.032850
20
332.419095
30
0.0
11
71.443660
21
331.529575
31
0.0
0
LINE
8
0
6
CONTINUOUS
10
75.528860
20
328.138165
30
0.0
11
77.413470
21
328.661845
31
0.0
0
LINE
8
0
6
CONTINUOUS
10
77.413470
20
330.230301
30
0.0
11
77.413470
21
328.661845
31
0.0
0
LINE
8
0
6
CONTINUOUS
10
79.144040
20
327.984655
30
0.0
11
79.144033
21
329.973254
31
0.0
0
LINE
8
0
6
CONTINUOUS
10
77.413470
20
328.661845
30
0.0
11
79.144040
21
327.984655
31
0.0
0
LINE
8
0
6
CONTINUOUS
10
75.374830
20
328.027005
30
0.0
11
75.374830
21
326.937145
31
0.0
0
LINE
8
0
6
CONTINUOUS
10
75.528860
20
328.138165
30
0.0
11
75.528860
21
329.298407
31
0.0
0
LINE
8
0
6
CONTINUOUS
10
75.374830
20
326.937145
30
0.0
11
75.528860
21
328.138165
31
0.0
0
LINE
8
0
6
CONTINUOUS
10
76.758910
20
334.224205
30
0.0
11
76.758910
21
336.075672
31
0.0
0
LINE
8
0
6
CONTINUOUS
10
75.348100
20
335.113795
30
0.0
11
76.758910
21
334.224205
31
0.0
0
LINE
8
0
6
CONTINUOUS
10
72.670500
20
334.782802
30
0.0
11
72.670500
21
333.707775
31
0.0
0
LINE
8
0
6
CONTINUOUS
10
72.670500
20
333.707775
30
0.0
11
73.303910
21
334.855465
31
0.0
0
LINE
8
0
6
CONTINUOUS
10
73.303910
20
336.226232
30
0.0
11
73.303910
21
334.855465
31
0.0
0
LINE
8
0
6
CONTINUOUS
10
75.348100
20
335.113795
30
0.0
11
75.348100
21
336.817876
31
0.0
0
LINE
8
0
6
CONTINUOUS
10
73.303910
20
334.855465
30
0.0
11
75.348100
21
335.113795
31
0.0
0
LINE
8
0
6
CONTINUOUS
10
70.921220
20
339.951825
30
0.0
11
70.921220
21
341.741971
31
0.0
0
LINE
8
0
6
CONTINUOUS
10
69.867640
20
340.992395
30
0.0
11
70.921220
21
339.951825
31
0.0
0
LINE
8
0
6
CONTINUOUS
10
66.735460
20
341.080323
30
0.0
11
66.735460
21
339.942365
31
0.0
0
LINE
8
0
6
CONTINUOUS
10
66.735460
20
339.942365
30
0.0
11
67.774760
21
340.987665
31
0.0
0
LINE
8
0
6
CONTINUOUS
10
67.774760
20
342.550370
30
0.0
11
67.774760
21
340.987665
31
0.0
0
LINE
8
0
6
CONTINUOUS
10
69.867640
20
340.992395
30
0.0
11
69.867640
21
342.815510
31
0.0
0
LINE
8
0
6
CONTINUOUS
10
67.774760
20
340.987665
30
0.0
11
69.867640
21
340.992395
31
0.0
0
LINE
8
0
6
CONTINUOUS
10
57.789970
20
344.894525
30
0.0
11
59.188530
21
345.790445
31
0.0
0
LINE
8
0
6
CONTINUOUS
10
59.188530
20
345.790445
30
0.0
11
61.236210
21
345.541345
31
0.0
0
LINE
8
0
6
CONTINUOUS
10
61.236210
20
348.518945
30
0.0
11
61.236210
21
345.541345
31
0.0
0
LINE
8
0
6
CONTINUOUS
10
61.236210
20
345.541345
30
0.0
11
61.885320
21
344.396475
31
0.0
0
LINE
8
0
6
CONTINUOUS
10
47.397490
20
348.141215
30
0.0
11
49.092580
21
348.847465
31
0.0
0
LINE
8
0
6
CONTINUOUS
10
49.092580
20
351.824995
30
0.0
11
49.092580
21
348.847465
31
0.0
0
LINE
8
0
6
CONTINUOUS
10
49.092580
20
348.847465
30
0.0
11
51.003210
21
348.356055
31
0.0
0
LINE
8
0
6
CONTINUOUS
10
51.003210
20
348.356055
30
0.0
11
51.218720
21
347.158085
31
0.0
0
LINE
8
0
6
CONTINUOUS
10
56.790640
20
312.861745
30
0.0
11
57.165950
21
313.649255
31
0.0
0
LINE
8
0
6
CONTINUOUS
10
57.165950
20
313.649255
30
0.0
11
58.538860
21
313.856015
31
0.0
0
LINE
8
0
6
CONTINUOUS
10
58.538860
20
313.856015
30
0.0
11
59.536480
21
313.275185
31
0.0
0
LINE
8
0
6
CONTINUOUS
10
42.393450
20
311.773335
30
0.0
11
43.679400
21
311.346095
31
0.0
0
LINE
8
0
6
CONTINUOUS
10
41.107440
20
311.346165
30
0.0
11
42.393450
21
311.773335
31
0.0
0
LINE
8
0
6
CONTINUOUS
10
41.107380
20
310.491755
30
0.0
11
41.107440
21
311.346165
31
0.0
0
LINE
8
0
6
CONTINUOUS
10
49.236730
20
312.542535
30
0.0
11
49.236790
21
313.396955
31
0.0
0
LINE
8
0
6
CONTINUOUS
10
50.522800
20
313.824195
30
0.0
11
51.808750
21
313.396875
31
0.0
0
LINE
8
0
6
CONTINUOUS
10
49.236790
20
313.396955
30
0.0
11
50.522800
21
313.824195
31
0.0
0
LINE
8
0
6
CONTINUOUS
10
40.651950
20
313.623085
30
0.0
11
40.652010
21
314.477505
31
0.0
0
LINE
8
0
6
CONTINUOUS
10
40.652010
20
314.477505
30
0.0
11
41.938020
21
314.904745
31
0.0
0
LINE
8
0
6
CONTINUOUS
10
41.938020
20
314.904745
30
0.0
11
43.223970
21
314.477425
31
0.0
0
LINE
8
0
6
CONTINUOUS
10
44.599210
20
319.214745
30
0.0
11
44.599270
21
320.069165
31
0.0
0
LINE
8
0
6
CONTINUOUS
10
45.885280
20
320.496405
30
0.0
11
47.171230
21
320.069085
31
0.0
0
LINE
8
0
6
CONTINUOUS
10
44.599270
20
320.069165
30
0.0
11
45.885280
21
320.496405
31
0.0
0
LINE
8
0
6
CONTINUOUS
10
48.497930
20
317.202185
30
0.0
11
49.783880
21
316.774865
31
0.0
0
LINE
8
0
6
CONTINUOUS
10
47.211860
20
315.920525
30
0.0
11
47.211920
21
316.774945
31
0.0
0
LINE
8
0
6
CONTINUOUS
10
47.211920
20
316.774945
30
0.0
11
48.497930
21
317.202185
31
0.0
0
LINE
8
0
6
CONTINUOUS
10
56.562740
20
317.895315
30
0.0
11
57.848690
21
317.467995
31
0.0
0
LINE
8
0
6
CONTINUOUS
10
55.276670
20
316.613655
30
0.0
11
55.276720
21
317.468075
31
0.0
0
LINE
8
0
6
CONTINUOUS
10
55.276720
20
317.468075
30
0.0
11
56.562740
21
317.895315
31
0.0
0
LINE
8
0
6
CONTINUOUS
10
51.590700
20
320.119435
30
0.0
11
51.590750
21
320.973855
31
0.0
0
LINE
8
0
6
CONTINUOUS
10
52.876770
20
321.401025
30
0.0
11
54.162720
21
320.973775
31
0.0
0
LINE
8
0
6
CONTINUOUS
10
51.590750
20
320.973855
30
0.0
11
52.876770
21
321.401025
31
0.0
0
LINE
8
0
6
CONTINUOUS
10
39.749400
20
316.761665
30
0.0
11
39.749460
21
317.616155
31
0.0
0
LINE
8
0
6
CONTINUOUS
10
41.035470
20
318.043325
30
0.0
11
42.321420
21
317.616155
31
0.0
0
LINE
8
0
6
CONTINUOUS
10
39.749460
20
317.616155
30
0.0
11
41.035470
21
318.043325
31
0.0
0
LINE
8
0
6
CONTINUOUS
10
59.421060
20
323.034175
30
0.0
11
60.707010
21
322.606925
31
0.0
0
LINE
8
0
6
CONTINUOUS
10
58.135000
20
321.752515
30
0.0
11
58.135050
21
322.607005
31
0.0
0
LINE
8
0
6
CONTINUOUS
10
58.135050
20
322.607005
30
0.0
11
59.421060
21
323.034175
31
0.0
0
LINE
8
0
6
CONTINUOUS
10
57.229740
20
327.247425
30
0.0
11
58.515740
21
327.674525
31
0.0
0
LINE
8
0
6
CONTINUOUS
10
59.801700
20
327.247355
30
0.0
11
59.801700
21
330.224875
31
0.0
0
LINE
8
0
6
CONTINUOUS
10
58.515740
20
327.674525
30
0.0
11
59.801700
21
327.247355
31
0.0
0
LINE
8
0
6
CONTINUOUS
10
57.229680
20
326.393015
30
0.0
11
57.229740
21
327.247425
31
0.0
0
LINE
8
0
6
CONTINUOUS
10
46.920040
20
324.111675
30
0.0
11
48.206000
21
323.684425
31
0.0
0
LINE
8
0
6
CONTINUOUS
10
45.633980
20
322.830085
30
0.0
11
45.634030
21
323.684505
31
0.0
0
LINE
8
0
6
CONTINUOUS
10
45.634030
20
323.684505
30
0.0
11
46.920040
21
324.111675
31
0.0
0
LINE
8
0
6
CONTINUOUS
10
51.332080
20
325.204815
30
0.0
11
52.618100
21
325.631985
31
0.0
0
LINE
8
0
6
CONTINUOUS
10
52.618100
20
325.631985
30
0.0
11
53.904050
21
325.204735
31
0.0
0
LINE
8
0
6
CONTINUOUS
10
51.332030
20
324.350395
30
0.0
11
51.332080
21
325.204815
31
0.0
0
LINE
8
0
6
CONTINUOUS
10
52.496040
20
330.904805
30
0.0
11
52.496100
21
331.759225
31
0.0
0
LINE
8
0
6
CONTINUOUS
10
52.496100
20
331.759225
30
0.0
11
53.782110
21
332.186315
31
0.0
0
LINE
8
0
6
CONTINUOUS
10
53.782110
20
335.163995
30
0.0
11
53.782110
21
332.186315
31
0.0
0
LINE
8
0
6
CONTINUOUS
10
55.068070
20
331.759145
30
0.0
11
55.068070
21
334.736675
31
0.0
0
LINE
8
0
6
CONTINUOUS
10
53.782110
20
332.186315
30
0.0
11
55.068070
21
331.759145
31
0.0
0
LINE
8
0
6
CONTINUOUS
10
47.341190
20
328.341945
30
0.0
11
47.341240
21
329.196355
31
0.0
0
LINE
8
0
6
CONTINUOUS
10
47.341240
20
329.196355
30
0.0
11
48.627260
21
329.623455
31
0.0
0
LINE
8
0
6
CONTINUOUS
10
48.627260
20
329.623455
30
0.0
11
49.913210
21
329.196285
31
0.0
0
LINE
8
0
6
CONTINUOUS
10
42.435640
20
326.699865
30
0.0
11
43.721670
21
327.127035
31
0.0
0
LINE
8
0
6
CONTINUOUS
10
42.435600
20
325.845455
30
0.0
11
42.435640
21
326.699865
31
0.0
0
LINE
8
0
6
CONTINUOUS
10
43.721670
20
327.127035
30
0.0
11
45.007610
21
326.699795
31
0.0
0
LINE
8
0
6
CONTINUOUS
10
40.589990
20
331.597785
30
0.0
11
41.876000
21
332.024955
31
0.0
0
LINE
8
0
6
CONTINUOUS
10
41.876000
20
332.024955
30
0.0
11
43.161960
21
331.597715
31
0.0
0
LINE
8
0
6
CONTINUOUS
10
40.589940
20
330.743375
30
0.0
11
40.589990
21
331.597785
31
0.0
0
LINE
8
0
6
CONTINUOUS
10
45.356790
20
334.014395
30
0.0
11
45.356840
21
334.868815
31
0.0
0
LINE
8
0
6
CONTINUOUS
10
45.356840
20
334.868815
30
0.0
11
46.642850
21
335.295985
31
0.0
0
LINE
8
0
6
CONTINUOUS
10
46.642850
20
335.295985
30
0.0
11
47.928810
21
334.868735
31
0.0
0
LINE
8
0
6
CONTINUOUS
10
41.915080
20
354.020275
30
0.0
11
43.830680
21
354.505345
31
0.0
0
LINE
8
0
6
CONTINUOUS
10
43.830680
20
357.482795
30
0.0
11
43.830680
21
354.505345
31
0.0
0
LINE
8
0
6
CONTINUOUS
10
45.518560
20
353.793225
30
0.0
11
45.518560
21
356.770825
31
0.0
0
LINE
8
0
6
CONTINUOUS
10
43.830680
20
354.505345
30
0.0
11
45.518560
21
353.793225
31
0.0
0
LINE
8
0
6
CONTINUOUS
10
41.915080
20
354.020275
30
0.0
11
41.915080
21
356.997715
31
0.0
0
LINE
8
0
6
CONTINUOUS
10
41.687350
20
352.823065
30
0.0
11
41.915080
21
354.020275
31
0.0
0
LINE
8
0
6
CONTINUOUS
10
53.400800
20
351.596875
30
0.0
11
55.095890
21
352.303205
31
0.0
0
LINE
8
0
6
CONTINUOUS
10
55.095890
20
355.280805
30
0.0
11
55.095890
21
352.303205
31
0.0
0
LINE
8
0
6
CONTINUOUS
10
55.095890
20
352.303205
30
0.0
11
57.006520
21
351.811715
31
0.0
0
LINE
8
0
6
CONTINUOUS
10
57.006520
20
354.789165
30
0.0
11
57.006520
21
351.811715
31
0.0
0
LINE
8
0
6
CONTINUOUS
10
57.006520
20
351.811715
30
0.0
11
57.222030
21
350.613905
31
0.0
0
LINE
8
0
6
CONTINUOUS
10
63.659740
20
347.659875
30
0.0
11
65.058300
21
348.555795
31
0.0
0
LINE
8
0
6
CONTINUOUS
10
65.058300
20
350.456877
30
0.0
11
65.058300
21
348.555795
31
0.0
0
LINE
8
0
6
CONTINUOUS
10
65.058300
20
348.555795
30
0.0
11
67.105970
21
348.306925
31
0.0
0
LINE
8
0
6
CONTINUOUS
10
67.105970
20
350.471486
30
0.0
11
67.105970
21
348.306925
31
0.0
0
LINE
8
0
6
CONTINUOUS
10
67.755080
20
347.161985
30
0.0
11
67.755080
21
348.957897
31
0.0
0
LINE
8
0
6
CONTINUOUS
10
67.105970
20
348.306925
30
0.0
11
67.755080
21
347.161985
31
0.0
0
LINE
8
0
6
CONTINUOUS
10
72.153820
20
343.614778
30
0.0
11
72.153820
21
342.490275
31
0.0
0
LINE
8
0
6
CONTINUOUS
10
72.153820
20
342.490275
30
0.0
11
72.787230
21
343.638035
31
0.0
0
LINE
8
0
6
CONTINUOUS
10
72.787230
20
345.055857
30
0.0
11
72.787230
21
343.638035
31
0.0
0
LINE
8
0
6
CONTINUOUS
10
72.787230
20
343.638035
30
0.0
11
74.831430
21
343.896375
31
0.0
0
LINE
8
0
6
CONTINUOUS
10
74.831430
20
345.799790
30
0.0
11
74.831430
21
343.896375
31
0.0
0
LINE
8
0
6
CONTINUOUS
10
76.242230
20
343.006855
30
0.0
11
76.242230
21
344.952546
31
0.0
0
LINE
8
0
6
CONTINUOUS
10
74.831430
20
343.896375
30
0.0
11
76.242230
21
343.006855
31
0.0
0
LINE
8
0
6
CONTINUOUS
10
78.269060
20
337.741997
30
0.0
11
78.269060
21
336.627775
31
0.0
0
LINE
8
0
6
CONTINUOUS
10
78.269060
20
336.627775
30
0.0
11
78.423100
21
337.828715
31
0.0
0
LINE
8
0
6
CONTINUOUS
10
78.423100
20
339.178138
30
0.0
11
78.423100
21
337.828715
31
0.0
0
LINE
8
0
6
CONTINUOUS
10
78.423100
20
337.828715
30
0.0
11
80.307690
21
338.352475
31
0.0
0
LINE
8
0
6
CONTINUOUS
10
80.307690
20
340.272642
30
0.0
11
80.307690
21
338.352475
31
0.0
0
LINE
8
0
6
CONTINUOUS
10
82.038270
20
337.675205
30
0.0
11
82.038270
21
339.900985
31
0.0
0
LINE
8
0
6
CONTINUOUS
10
80.307690
20
338.352475
30
0.0
11
82.038270
21
337.675205
31
0.0
0
LINE
8
0
6
CONTINUOUS
10
81.472640
20
332.158782
30
0.0
11
81.472640
21
331.104475
31
0.0
0
LINE
8
0
6
CONTINUOUS
10
81.472640
20
331.104475
30
0.0
11
83.123260
21
331.844905
31
0.0
0
LINE
8
0
6
CONTINUOUS
10
83.123260
20
333.254354
30
0.0
11
83.123260
21
331.844905
31
0.0
0
LINE
8
0
6
CONTINUOUS
10
83.123260
20
331.844905
30
0.0
11
85.062900
21
331.392555
31
0.0
0
LINE
8
0
6
CONTINUOUS
10
85.062900
20
333.227970
30
0.0
11
85.062900
21
331.392555
31
0.0
0
LINE
8
0
6
CONTINUOUS
10
85.351880
20
330.199855
30
0.0
11
85.351880
21
332.106015
31
0.0
0
LINE
8
0
6
CONTINUOUS
10
85.062900
20
331.392555
30
0.0
11
85.351880
21
330.199855
31
0.0
0
LINE
8
0
6
CONTINUOUS
10
42.313390
20
339.037205
30
0.0
11
42.313440
21
339.853855
31
0.0
0
LINE
8
0
6
CONTINUOUS
10
42.313440
20
341.688242
30
0.0
11
42.313440
21
339.853855
31
0.0
0
LINE
8
0
6
CONTINUOUS
10
42.313440
20
339.853855
30
0.0
11
43.542500
21
340.262105
31
0.0
0
LINE
8
0
6
CONTINUOUS
10
43.542500
20
341.541573
30
0.0
11
43.542500
21
340.262105
31
0.0
0
LINE
8
0
6
CONTINUOUS
10
44.771500
20
339.853785
30
0.0
11
44.771500
21
341.394911
31
0.0
0
LINE
8
0
6
CONTINUOUS
10
43.542500
20
340.262105
30
0.0
11
44.771500
21
339.853785
31
0.0
0
LINE
8
0
6
CONTINUOUS
10
61.420120
20
330.402715
30
0.0
11
61.420190
21
331.219365
31
0.0
0
LINE
8
0
6
CONTINUOUS
10
61.420190
20
331.219365
30
0.0
11
62.649230
21
331.627615
31
0.0
0
LINE
8
0
6
CONTINUOUS
10
62.649230
20
331.627615
30
0.0
11
63.878230
21
331.219295
31
0.0
0
LINE
8
0
6
CONTINUOUS
10
40.897560
20
340.064505
30
0.0
11
40.897560
21
341.813711
31
0.0
0
LINE
8
0
6
CONTINUOUS
10
39.668570
20
340.472835
30
0.0
11
40.897560
21
340.064505
31
0.0
0
LINE
8
0
6
CONTINUOUS
10
38.439460
20
339.248005
30
0.0
11
38.439510
21
340.064585
31
0.0
0
LINE
8
0
6
CONTINUOUS
10
38.439510
20
341.910372
30
0.0
11
38.439510
21
340.064585
31
0.0
0
LINE
8
0
6
CONTINUOUS
10
39.668570
20
340.472835
30
0.0
11
39.668570
21
341.862040
31
0.0
0
LINE
8
0
6
CONTINUOUS
10
38.439510
20
340.064585
30
0.0
11
39.668570
21
340.472835
31
0.0
0
LINE
8
0
6
CONTINUOUS
10
57.089410
20
334.068875
30
0.0
11
57.089460
21
334.885445
31
0.0
0
LINE
8
0
6
CONTINUOUS
10
57.089460
20
334.885445
30
0.0
11
58.318510
21
335.293775
31
0.0
0
LINE
8
0
6
CONTINUOUS
10
58.318510
20
335.293775
30
0.0
11
59.547510
21
334.885365
31
0.0
0
LINE
8
0
6
CONTINUOUS
10
59.312680
20
332.508885
30
0.0
11
59.312750
21
333.325465
31
0.0
0
LINE
8
0
6
CONTINUOUS
10
59.312750
20
333.325465
30
0.0
11
60.541790
21
333.733715
31
0.0
0
LINE
8
0
6
CONTINUOUS
10
60.541790
20
333.733715
30
0.0
11
61.770800
21
333.325385
31
0.0
0
LINE
8
0
6
CONTINUOUS
10
62.698680
20
328.344155
30
0.0
11
62.698720
21
329.160805
31
0.0
0
LINE
8
0
6
CONTINUOUS
10
62.698720
20
329.160805
30
0.0
11
63.927780
21
329.569055
31
0.0
0
LINE
8
0
6
CONTINUOUS
10
63.927780
20
329.569055
30
0.0
11
65.156780
21
329.160725
31
0.0
0
LINE
8
0
6
CONTINUOUS
10
62.657770
20
318.699305
30
0.0
11
63.033090
21
319.486735
31
0.0
0
LINE
8
0
6
CONTINUOUS
10
63.033090
20
319.486735
30
0.0
11
64.406010
21
319.693485
31
0.0
0
LINE
8
0
6
CONTINUOUS
10
64.406010
20
319.693485
30
0.0
11
65.403620
21
319.112745
31
0.0
0
LINE
8
0
6
CONTINUOUS
10
65.403620
20
319.112745
30
0.0
11
65.403620
21
320.563377
31
0.0
0
LINE
8
0
6
CONTINUOUS
10
38.628900
20
308.050955
30
0.0
11
40.001820
21
308.257715
31
0.0
0
LINE
8
0
6
CONTINUOUS
10
40.001820
20
308.257715
30
0.0
11
40.999440
21
307.676965
31
0.0
0
LINE
8
0
6
CONTINUOUS
10
38.253600
20
307.263455
30
0.0
11
38.628900
21
308.050955
31
0.0
0
LINE
8
0
6
CONTINUOUS
10
38.253600
20
307.312961
30
0.0
11
38.253600
21
307.263455
31
0.0
0
LINE
8
0
6
CONTINUOUS
10
42.662140
20
308.495145
30
0.0
11
44.035060
21
308.701825
31
0.0
0
LINE
8
0
6
CONTINUOUS
10
42.286840
20
307.707555
30
0.0
11
42.662140
21
308.495145
31
0.0
0
LINE
8
0
6
CONTINUOUS
10
44.035060
20
308.701825
30
0.0
11
45.032680
21
308.121075
31
0.0
0
LINE
8
0
6
CONTINUOUS
10
59.208420
20
314.709585
30
0.0
11
59.583730
21
315.497175
31
0.0
0
LINE
8
0
6
CONTINUOUS
10
59.583730
20
315.497175
30
0.0
11
60.956650
21
315.703855
31
0.0
0
LINE
8
0
6
CONTINUOUS
10
60.956650
20
315.703855
30
0.0
11
61.954260
21
315.123105
31
0.0
0
LINE
8
0
6
CONTINUOUS
10
61.140240
20
316.529885
30
0.0
11
61.515540
21
317.317315
31
0.0
0
LINE
8
0
6
CONTINUOUS
10
61.515540
20
317.317315
30
0.0
11
62.888470
21
317.524075
31
0.0
0
LINE
8
0
6
CONTINUOUS
10
62.888470
20
317.524075
30
0.0
11
63.886080
21
316.943325
31
0.0
0
LINE
8
0
6
CONTINUOUS
10
63.886080
20
316.943325
30
0.0
11
63.886080
21
318.333204
31
0.0
0
LINE
8
0
6
CONTINUOUS
10
36.344950
20
334.911305
30
0.0
11
36.345000
21
335.765805
31
0.0
0
LINE
8
0
6
CONTINUOUS
10
36.345000
20
335.765805
30
0.0
11
37.631010
21
336.192975
31
0.0
0
LINE
8
0
6
CONTINUOUS
10
37.631010
20
336.192975
30
0.0
11
38.916970
21
335.765725
31
0.0
0
LINE
8
0
6
CONTINUOUS
10
36.027920
20
349.309345
30
0.0
11
37.943510
21
349.794425
31
0.0
0
LINE
8
0
6
CONTINUOUS
10
37.943510
20
352.771955
30
0.0
11
37.943510
21
349.794425
31
0.0
0
LINE
8
0
6
CONTINUOUS
10
37.943510
20
349.794425
30
0.0
11
39.631390
21
349.082375
31
0.0
0
LINE
8
0
6
CONTINUOUS
10
35.800180
20
348.112225
30
0.0
11
36.027920
21
349.309345
31
0.0
0
LINE
8
0
6
CONTINUOUS
10
41.780330
20
307.478727
30
0.0
11
41.441160
21
307.438245
31
0.0
0
LINE
8
0
6
CONTINUOUS
10
48.968200
20
308.642615
30
0.0
11
45.304590
21
307.899365
31
0.0
0
LINE
8
0
6
CONTINUOUS
10
49.469450
20
308.682445
30
0.0
11
53.047020
21
309.730795
31
0.0
0
LINE
8
0
6
CONTINUOUS
10
52.396570
20
309.647335
30
0.0
11
48.968200
21
308.642615
31
0.0
0
LINE
8
0
6
CONTINUOUS
10
53.047020
20
309.730795
30
0.0
11
56.341600
21
311.030235
31
0.0
0
LINE
8
0
6
CONTINUOUS
10
55.554280
20
310.892835
30
0.0
11
52.396570
21
309.647335
31
0.0
0
LINE
8
0
6
CONTINUOUS
10
56.341600
20
311.030235
30
0.0
11
59.316510
21
312.559245
31
0.0
0
LINE
8
0
6
CONTINUOUS
10
58.405870
20
312.358435
30
0.0
11
55.554280
21
310.892835
31
0.0
0
LINE
8
0
6
CONTINUOUS
10
59.316510
20
312.559245
30
0.0
11
61.935120
21
314.296155
31
0.0
0
LINE
8
0
6
CONTINUOUS
10
60.915990
20
314.023405
30
0.0
11
58.405870
21
312.358435
31
0.0
0
LINE
8
0
6
CONTINUOUS
10
61.935120
20
314.296155
30
0.0
11
64.160700
21
316.219755
31
0.0
0
LINE
8
0
6
CONTINUOUS
10
63.049120
20
315.867045
30
0.0
11
60.915990
21
314.023405
31
0.0
0
LINE
8
0
6
CONTINUOUS
10
64.160700
20
316.219755
30
0.0
11
65.956290
21
318.308605
31
0.0
0
LINE
8
0
6
CONTINUOUS
10
64.769900
20
317.868765
30
0.0
11
63.049120
21
315.867045
31
0.0
0
LINE
8
0
6
CONTINUOUS
10
65.956290
20
318.308605
30
0.0
11
67.284750
21
320.541035
31
0.0
0
LINE
8
0
6
CONTINUOUS
10
66.042900
20
320.007825
30
0.0
11
64.769900
21
317.868765
31
0.0
0
LINE
8
0
6
CONTINUOUS
10
67.284750
20
320.541035
30
0.0
11
68.108870
21
322.894935
31
0.0
0
LINE
8
0
6
CONTINUOUS
10
66.832660
20
322.263525
30
0.0
11
66.042900
21
320.007825
31
0.0
0
LINE
8
0
6
CONTINUOUS
10
68.108870
20
322.894935
30
0.0
11
68.391640
21
325.347785
31
0.0
0
LINE
8
0
6
CONTINUOUS
10
67.103780
20
324.615365
30
0.0
11
66.832660
21
322.263525
31
0.0
0
LINE
8
0
6
CONTINUOUS
10
68.391640
20
325.347785
30
0.0
11
68.108860
21
327.800635
31
0.0
0
LINE
8
0
6
CONTINUOUS
10
66.832660
20
326.967045
30
0.0
11
67.103780
21
324.615365
31
0.0
0
LINE
8
0
6
CONTINUOUS
10
68.108860
20
327.800635
30
0.0
11
67.284750
21
330.154615
31
0.0
0
LINE
8
0
6
CONTINUOUS
10
66.042890
20
329.222755
30
0.0
11
66.832660
21
326.967045
31
0.0
0
LINE
8
0
6
CONTINUOUS
10
67.284750
20
330.154615
30
0.0
11
65.956290
21
332.387045
31
0.0
0
LINE
8
0
6
CONTINUOUS
10
64.769900
20
331.361885
30
0.0
11
66.042890
21
329.222755
31
0.0
0
LINE
8
0
6
CONTINUOUS
10
65.956290
20
332.387045
30
0.0
11
64.160700
21
334.475825
31
0.0
0
LINE
8
0
6
CONTINUOUS
10
63.049120
20
333.363535
30
0.0
11
64.769900
21
331.361885
31
0.0
0
LINE
8
0
6
CONTINUOUS
10
64.160700
20
334.475825
30
0.0
11
61.935120
21
336.399425
31
0.0
0
LINE
8
0
6
CONTINUOUS
10
60.915980
20
335.207255
30
0.0
11
63.049120
21
333.363535
31
0.0
0
LINE
8
0
6
CONTINUOUS
10
61.935120
20
336.399425
30
0.0
11
59.316510
21
338.136405
31
0.0
0
LINE
8
0
6
CONTINUOUS
10
58.405870
20
336.872295
30
0.0
11
60.915980
21
335.207255
31
0.0
0
LINE
8
0
6
CONTINUOUS
10
59.316510
20
338.136405
30
0.0
11
56.341600
21
339.665335
31
0.0
0
LINE
8
0
6
CONTINUOUS
10
55.554270
20
338.337825
30
0.0
11
58.405870
21
336.872295
31
0.0
0
LINE
8
0
6
CONTINUOUS
10
52.396570
20
339.583325
30
0.0
11
55.554270
21
338.337825
31
0.0
0
LINE
8
0
6
CONTINUOUS
10
53.047000
20
340.964775
30
0.0
11
49.469450
21
342.013205
31
0.0
0
LINE
8
0
6
CONTINUOUS
10
48.968200
20
340.588035
30
0.0
11
52.396570
21
339.583325
31
0.0
0
LINE
8
0
6
CONTINUOUS
10
49.469450
20
342.013205
30
0.0
11
45.646030
21
342.788815
31
0.0
0
LINE
8
0
6
CONTINUOUS
10
45.304590
20
341.331295
30
0.0
11
48.968200
21
340.588035
31
0.0
0
LINE
8
0
6
CONTINUOUS
10
41.441160
20
341.792335
30
0.0
11
45.304590
21
341.331295
31
0.0
0
LINE
8
0
6
CONTINUOUS
10
41.614390
20
343.270075
30
0.0
11
37.413330
21
343.435095
31
0.0
0
LINE
8
0
6
CONTINUOUS
10
37.413330
20
341.950725
30
0.0
11
41.441160
21
341.792335
31
0.0
0
LINE
8
0
6
CONTINUOUS
10
37.413330
20
343.435095
30
0.0
11
33.745220
21
343.291010
31
0.0
0
LINE
8
0
6
CONTINUOUS
10
33.385510
20
341.792335
30
0.0
11
37.413330
21
341.950725
31
0.0
0
LINE
8
0
6
CONTINUOUS
10
29.522070
20
341.331295
30
0.0
11
33.385510
21
341.792335
31
0.0
0
LINE
8
0
6
CONTINUOUS
10
29.180640
20
342.788815
30
0.0
11
25.357210
21
342.013205
31
0.0
0
LINE
8
0
6
CONTINUOUS
10
25.858460
20
340.588035
30
0.0
11
29.522070
21
341.331295
31
0.0
0
LINE
8
0
6
CONTINUOUS
10
25.357210
20
342.013205
30
0.0
11
22.833120
21
341.273502
31
0.0
0
LINE
8
0
6
CONTINUOUS
10
22.430090
20
339.583325
30
0.0
11
25.858460
21
340.588035
31
0.0
0
LINE
8
0
6
CONTINUOUS
10
19.272390
20
338.337825
30
0.0
11
22.430090
21
339.583325
31
0.0
0
LINE
8
0
6
CONTINUOUS
10
18.485060
20
339.665335
30
0.0
11
15.510150
21
338.136405
31
0.0
0
LINE
8
0
6
CONTINUOUS
10
16.420770
20
336.872295
30
0.0
11
19.272390
21
338.337825
31
0.0
0
LINE
8
0
6
CONTINUOUS
10
15.510150
20
338.136405
30
0.0
11
12.891540
21
336.399425
31
0.0
0
LINE
8
0
6
CONTINUOUS
10
13.910680
20
335.207255
30
0.0
11
16.420770
21
336.872295
31
0.0
0
LINE
8
0
6
CONTINUOUS
10
12.891540
20
336.399425
30
0.0
11
10.665970
21
334.475825
31
0.0
0
LINE
8
0
6
CONTINUOUS
10
11.777540
20
333.363535
30
0.0
11
13.910680
21
335.207255
31
0.0
0
LINE
8
0
6
CONTINUOUS
10
10.665970
20
334.475825
30
0.0
11
8.870370
21
332.387045
31
0.0
0
LINE
8
0
6
CONTINUOUS
10
10.056750
20
331.361885
30
0.0
11
11.777540
21
333.363535
31
0.0
0
LINE
8
0
6
CONTINUOUS
10
8.870370
20
332.387045
30
0.0
11
7.541910
21
330.154615
31
0.0
0
LINE
8
0
6
CONTINUOUS
10
8.783770
20
329.222755
30
0.0
11
10.056750
21
331.361885
31
0.0
0
LINE
8
0
6
CONTINUOUS
10
7.541910
20
330.154615
30
0.0
11
6.717800
21
327.800715
31
0.0
0
LINE
8
0
6
CONTINUOUS
10
7.993990
20
326.967045
30
0.0
11
8.783770
21
329.222755
31
0.0
0
LINE
8
0
6
CONTINUOUS
10
6.717800
20
327.800715
30
0.0
11
6.435010
21
325.347785
31
0.0
0
LINE
8
0
6
CONTINUOUS
10
7.722870
20
324.615365
30
0.0
11
7.993990
21
326.967045
31
0.0
0
LINE
8
0
6
CONTINUOUS
10
6.435010
20
325.347785
30
0.0
11
6.717810
21
322.894935
31
0.0
0
LINE
8
0
6
CONTINUOUS
10
7.994010
20
322.263525
30
0.0
11
7.722870
21
324.615365
31
0.0
0
LINE
8
0
6
CONTINUOUS
10
6.717810
20
322.894935
30
0.0
11
7.541910
21
320.541035
31
0.0
0
LINE
8
0
6
CONTINUOUS
10
8.783770
20
320.007825
30
0.0
11
7.994010
21
322.263525
31
0.0
0
LINE
8
0
6
CONTINUOUS
10
7.541910
20
320.541035
30
0.0
11
8.870370
21
318.308605
31
0.0
0
LINE
8
0
6
CONTINUOUS
10
10.056760
20
317.868765
30
0.0
11
8.783770
21
320.007825
31
0.0
0
LINE
8
0
6
CONTINUOUS
10
8.870370
20
318.308605
30
0.0
11
10.665970
21
316.219755
31
0.0
0
LINE
8
0
6
CONTINUOUS
10
11.777540
20
315.867045
30
0.0
11
10.056760
21
317.868765
31
0.0
0
LINE
8
0
6
CONTINUOUS
10
10.665970
20
316.219755
30
0.0
11
12.891550
21
314.296155
31
0.0
0
LINE
8
0
6
CONTINUOUS
10
13.910690
20
314.023405
30
0.0
11
11.777540
21
315.867045
31
0.0
0
LINE
8
0
6
CONTINUOUS
10
12.891550
20
314.296155
30
0.0
11
15.510160
21
312.559245
31
0.0
0
LINE
8
0
6
CONTINUOUS
10
16.420780
20
312.358435
30
0.0
11
13.910690
21
314.023405
31
0.0
0
LINE
8
0
6
CONTINUOUS
10
15.510160
20
312.559245
30
0.0
11
18.485060
21
311.030235
31
0.0
0
LINE
8
0
6
CONTINUOUS
10
19.272390
20
310.892835
30
0.0
11
16.420780
21
312.358435
31
0.0
0
LINE
8
0
6
CONTINUOUS
10
18.485060
20
311.030235
30
0.0
11
21.779650
21
309.730795
31
0.0
0
LINE
8
0
6
CONTINUOUS
10
22.430090
20
309.647335
30
0.0
11
19.272390
21
310.892835
31
0.0
0
LINE
8
0
6
CONTINUOUS
10
21.779650
20
309.730795
30
0.0
11
25.357210
21
308.682445
31
0.0
0
LINE
8
0
6
CONTINUOUS
10
25.858460
20
308.642615
30
0.0
11
22.430090
21
309.647335
31
0.0
0
LINE
8
0
6
CONTINUOUS
10
29.522070
20
307.899365
30
0.0
11
25.858460
21
308.642615
31
0.0
0
LINE
8
0
6
CONTINUOUS
10
29.923990
20
307.851394
30
0.0
11
29.522070
21
307.899365
31
0.0
0
LINE
8
0
6
CONTINUOUS
10
34.526120
20
307.393414
30
0.0
11
33.385510
21
307.438245
31
0.0
0
LINE
8
0
6
CONTINUOUS
10
38.253600
20
307.312961
30
0.0
11
37.413330
21
307.279935
31
0.0
0
LINE
8
0
6
CONTINUOUS
10
6.824630
20
-725.760635
30
0.0
11
8.012970
21
-704.271515
31
0.0
0
LINE
8
0
6
CONTINUOUS
10
-15.473800
20
-704.271535
30
0.0
11
-14.285420
21
-725.760655
31
0.0
0
LINE
8
0
6
CONTINUOUS
10
6.781620
20
-726.521865
30
0.0
11
6.824630
21
-725.760635
31
0.0
0
LINE
8
0
6
CONTINUOUS
10
-14.285420
20
-725.760655
30
0.0
11
-14.242410
21
-726.521885
31
0.0
0
LINE
8
0
6
CONTINUOUS
10
6.781620
20
-726.521865
30
0.0
11
5.423420
21
-726.521865
31
0.0
0
LINE
8
0
6
CONTINUOUS
10
5.925900
20
-726.733875
30
0.0
11
6.781620
21
-726.521865
31
0.0
0
LINE
8
0
6
CONTINUOUS
10
4.678260
20
-726.733875
30
0.0
11
5.925900
21
-726.733875
31
0.0
0
LINE
8
0
6
CONTINUOUS
10
5.423420
20
-726.521865
30
0.0
11
2.482430
21
-726.521865
31
0.0
0
LINE
8
0
6
CONTINUOUS
10
1.976670
20
-726.733885
30
0.0
11
4.678260
21
-726.733875
31
0.0
0
LINE
8
0
6
CONTINUOUS
10
2.482430
20
-726.521865
30
0.0
11
-1.532790
21
-726.521875
31
0.0
0
LINE
8
0
6
CONTINUOUS
10
-1.711700
20
-726.733885
30
0.0
11
1.976670
21
-726.733885
31
0.0
0
LINE
8
0
6
CONTINUOUS
10
-1.532790
20
-726.521875
30
0.0
11
-5.928040
21
-726.521875
31
0.0
0
LINE
8
0
6
CONTINUOUS
10
-5.749130
20
-726.733885
30
0.0
11
-1.711700
21
-726.733885
31
0.0
0
LINE
8
0
6
CONTINUOUS
10
-5.928040
20
-726.521875
30
0.0
11
-9.943260
21
-726.521875
31
0.0
0
LINE
8
0
6
CONTINUOUS
10
-9.437500
20
-726.733895
30
0.0
11
-5.749130
21
-726.733885
31
0.0
0
LINE
8
0
6
CONTINUOUS
10
-9.943260
20
-726.521875
30
0.0
11
-12.884250
21
-726.521885
31
0.0
0
LINE
8
0
6
CONTINUOUS
10
-12.139050
20
-726.733895
30
0.0
11
-9.437500
21
-726.733895
31
0.0
0
LINE
8
0
6
CONTINUOUS
10
-14.242410
20
-726.521885
30
0.0
11
-13.386690
21
-726.733895
31
0.0
0
LINE
8
0
6
CONTINUOUS
10
-12.884250
20
-726.521885
30
0.0
11
-14.242410
21
-726.521885
31
0.0
0
LINE
8
0
6
CONTINUOUS
10
-13.386690
20
-726.733895
30
0.0
11
-12.139050
21
-726.733895
31
0.0
0
LINE
8
0
6
CONTINUOUS
10
3.210210
20
-703.521685
30
0.0
11
-1.275390
21
-703.521685
31
0.0
0
LINE
8
0
6
CONTINUOUS
10
-10.671010
20
-703.521695
30
0.0
11
-13.956520
21
-703.521695
31
0.0
0
LINE
8
0
6
CONTINUOUS
10
8.012970
20
-703.521685
30
0.0
11
6.495680
21
-703.521685
31
0.0
0
LINE
8
0
6
CONTINUOUS
10
8.012970
20
-704.271515
30
0.0
11
8.012970
21
-703.521685
31
0.0
0
LINE
8
0
6
CONTINUOUS
10
-1.275390
20
-703.521685
30
0.0
11
-6.185440
21
-703.521695
31
0.0
0
LINE
8
0
6
CONTINUOUS
10
-15.473810
20
-703.521695
30
0.0
11
-15.473800
21
-704.271535
31
0.0
0
LINE
8
0
6
CONTINUOUS
10
-13.956520
20
-703.521695
30
0.0
11
-15.473810
21
-703.521695
31
0.0
0
LINE
8
0
6
CONTINUOUS
10
6.495680
20
-703.521685
30
0.0
11
3.210210
21
-703.521685
31
0.0
0
LINE
8
0
6
CONTINUOUS
10
-6.185440
20
-703.521695
30
0.0
11
-10.671010
21
-703.521695
31
0.0
0
LINE
8
0
6
CONTINUOUS
10
96.494370
20
-187.503775
30
0.0
11
106.450460
21
-221.731145
31
0.0
0
LINE
8
0
6
CONTINUOUS
10
115.580040
20
-256.057015
30
0.0
11
123.675530
21
-291.663055
31
0.0
0
LINE
8
0
6
CONTINUOUS
10
63.807820
20
-73.729665
30
0.0
11
74.954130
21
-114.663395
31
0.0
0
LINE
8
0
6
CONTINUOUS
10
90.721230
20
-880.507105
30
0.0
11
107.560680
21
-872.604235
31
0.0
0
LINE
8
0
6
CONTINUOUS
10
149.068110
20
-370.389365
30
0.0
11
143.605970
21
-328.197745
31
0.0
0
LINE
8
0
6
CONTINUOUS
10
114.758740
20
-849.805165
30
0.0
11
101.891050
21
-859.614865
31
0.0
0
LINE
8
0
6
CONTINUOUS
10
46.459130
20
100.549665
30
0.0
11
45.422350
21
118.647115
31
0.0
0
LINE
8
0
6
CONTINUOUS
10
121.164230
20
-254.135625
30
0.0
11
129.329580
21
-290.052145
31
0.0
0
LINE
8
0
6
CONTINUOUS
10
76.601820
20
-70.932045
30
0.0
11
65.532880
21
-25.581325
31
0.0
0
LINE
8
0
6
CONTINUOUS
10
107.560680
20
-872.604235
30
0.0
11
122.774020
21
-861.325875
31
0.0
0
LINE
8
0
6
CONTINUOUS
10
109.260170
20
-184.597815
30
0.0
11
98.667740
21
-149.224205
31
0.0
0
LINE
8
0
6
CONTINUOUS
10
32.782540
20
114.901925
30
0.0
11
33.821000
21
96.776005
31
0.0
0
LINE
8
0
6
CONTINUOUS
10
148.275710
20
-370.110665
30
0.0
11
142.790110
21
-327.737765
31
0.0
0
LINE
8
0
6
CONTINUOUS
10
101.891050
20
-859.614865
30
0.0
11
87.584520
21
-866.574365
31
0.0
0
LINE
8
0
6
CONTINUOUS
10
65.532880
20
-25.581325
30
0.0
11
60.436070
21
-1.914785
31
0.0
0
LINE
8
0
6
CONTINUOUS
10
5.067540
20
-813.545745
30
0.0
11
2.650380
21
-795.315695
31
0.0
0
LINE
8
0
6
CONTINUOUS
10
56.201580
20
20.582925
30
0.0
11
52.766140
21
41.958045
31
0.0
0
LINE
8
0
6
CONTINUOUS
10
52.439120
20
40.061685
30
0.0
11
55.769460
21
19.339405
31
0.0
0
LINE
8
0
6
CONTINUOUS
10
87.711090
20
-111.728745
30
0.0
11
76.601820
21
-70.932045
31
0.0
0
LINE
8
0
6
CONTINUOUS
10
136.022100
20
-846.917685
30
0.0
11
144.602060
21
-828.506035
31
0.0
0
LINE
8
0
6
CONTINUOUS
10
72.217940
20
-870.047115
30
0.0
11
56.618200
21
-869.246485
31
0.0
0
LINE
8
0
6
CONTINUOUS
10
-0.749990
20
-815.588875
30
0.0
11
-3.416510
21
-795.857655
31
0.0
0
LINE
8
0
6
CONTINUOUS
10
33.821000
20
96.776005
30
0.0
11
35.333700
21
78.085515
31
0.0
0
LINE
8
0
6
CONTINUOUS
10
86.893470
20
-111.173285
30
0.0
11
75.826480
21
-70.533335
31
0.0
0
LINE
8
0
6
CONTINUOUS
10
69.429500
20
-71.932185
30
0.0
11
80.514960
21
-112.640645
31
0.0
0
LINE
8
0
6
CONTINUOUS
10
74.954130
20
-114.663395
30
0.0
11
85.923300
21
-152.202375
31
0.0
0
LINE
8
0
6
CONTINUOUS
10
141.707890
20
-370.650975
30
0.0
11
136.252010
21
-328.507655
31
0.0
0
LINE
8
0
6
CONTINUOUS
10
130.529770
20
-329.737505
30
0.0
11
135.932410
21
-371.470065
31
0.0
0
LINE
8
0
6
CONTINUOUS
10
-10.120988
20
-726.733895
30
0.0
11
-10.111200
21
-795.927805
31
0.0
0
LINE
8
0
6
CONTINUOUS
10
152.826500
20
-788.304215
30
0.0
11
156.021330
21
-504.723815
31
0.0
0
LINE
8
0
6
CONTINUOUS
10
31.786585
20
164.799325
30
0.0
11
32.782540
21
114.901925
31
0.0
0
LINE
8
0
6
CONTINUOUS
10
38.935900
20
113.344615
30
0.0
11
37.933890
21
163.666076
31
0.0
0
LINE
8
0
6
CONTINUOUS
10
133.164090
20
-821.608965
30
0.0
11
125.836750
21
-837.318085
31
0.0
0
LINE
8
0
6
CONTINUOUS
10
87.584520
20
-866.574365
30
0.0
11
72.217940
21
-870.047115
31
0.0
0
LINE
8
0
6
CONTINUOUS
10
16.115380
20
-845.206255
30
0.0
11
9.261375
21
-830.964146
31
0.0
0
LINE
8
0
6
CONTINUOUS
10
-1.824330
20
-836.417965
30
0.0
11
6.985760
21
-854.689295
31
0.0
0
LINE
8
0
6
CONTINUOUS
10
136.093460
20
-844.223025
30
0.0
11
144.319050
21
-826.575865
31
0.0
0
LINE
8
0
6
CONTINUOUS
10
138.600060
20
-823.127335
30
0.0
11
131.000800
21
-839.423195
31
0.0
0
LINE
8
0
6
CONTINUOUS
10
108.902930
20
-868.943065
30
0.0
11
123.455030
21
-858.084015
31
0.0
0
LINE
8
0
6
CONTINUOUS
10
119.447410
20
-852.323665
30
0.0
11
106.068140
21
-862.448385
31
0.0
0
LINE
8
0
6
CONTINUOUS
10
85.923300
20
-152.202375
30
0.0
11
96.494370
21
-187.503775
31
0.0
0
LINE
8
0
6
CONTINUOUS
10
44.268150
20
164.771275
30
0.0
11
45.255790
21
115.217175
31
0.0
0
LINE
8
0
6
CONTINUOUS
10
45.422350
20
118.647115
30
0.0
11
44.498148
21
164.859809
31
0.0
0
LINE
8
0
6
CONTINUOUS
10
136.252010
20
-328.507655
30
0.0
11
129.329580
21
-290.052145
31
0.0
0
LINE
8
0
6
CONTINUOUS
10
123.675530
20
-291.663055
30
0.0
11
130.529770
21
-329.737505
31
0.0
0
LINE
8
0
6
CONTINUOUS
10
108.383820
20
-183.841135
30
0.0
11
97.814010
21
-148.544085
31
0.0
0
LINE
8
0
6
CONTINUOUS
10
91.441790
20
-150.033145
30
0.0
11
102.000970
21
-185.294115
31
0.0
0
LINE
8
0
6
CONTINUOUS
10
46.280410
20
97.329295
30
0.0
11
45.255790
21
115.217175
31
0.0
0
LINE
8
0
6
CONTINUOUS
10
38.935900
20
113.344615
30
0.0
11
39.961360
21
95.442395
31
0.0
0
LINE
8
0
6
CONTINUOUS
10
2.650380
20
-795.315695
30
0.0
11
2.660174
21
-726.733882
31
0.0
0
LINE
8
0
6
CONTINUOUS
10
53.483120
20
-3.894915
30
0.0
11
49.411780
21
17.735635
31
0.0
0
LINE
8
0
6
CONTINUOUS
10
43.486240
20
17.375525
30
0.0
11
47.666380
21
-4.833255
31
0.0
0
LINE
8
0
6
CONTINUOUS
10
36.873910
20
-877.892685
30
0.0
11
54.418280
21
-883.289065
31
0.0
0
LINE
8
0
6
CONTINUOUS
10
27.817210
20
-856.931455
30
0.0
11
16.115380
21
-845.206255
31
0.0
0
LINE
8
0
6
CONTINUOUS
10
75.270970
20
-873.211685
30
0.0
11
59.085560
21
-872.302245
31
0.0
0
LINE
8
0
6
CONTINUOUS
10
6.985760
20
-854.689295
30
0.0
11
20.838270
21
-868.306575
31
0.0
0
LINE
8
0
6
CONTINUOUS
10
52.766140
20
41.958045
30
0.0
11
50.050650
21
62.329445
31
0.0
0
LINE
8
0
6
CONTINUOUS
10
47.666380
20
-4.833255
30
0.0
11
52.723830
21
-28.317525
31
0.0
0
LINE
8
0
6
CONTINUOUS
10
54.418280
20
-883.289065
30
0.0
11
72.714810
21
-884.577215
31
0.0
0
LINE
8
0
6
CONTINUOUS
10
75.519400
20
-880.476765
30
0.0
11
57.985600
21
-879.323535
31
0.0
0
LINE
8
0
6
CONTINUOUS
10
72.714810
20
-884.577215
30
0.0
11
90.721230
21
-880.507105
31
0.0
0
LINE
8
0
6
CONTINUOUS
10
41.151290
20
-874.236795
30
0.0
11
57.985600
21
-879.323535
31
0.0
0
LINE
8
0
6
CONTINUOUS
10
64.834240
20
-25.497245
30
0.0
11
59.867970
21
-2.435725
31
0.0
0
LINE
8
0
6
CONTINUOUS
10
53.483120
20
-3.894915
30
0.0
11
58.429730
21
-26.865345
31
0.0
0
LINE
8
0
6
CONTINUOUS
10
128.484600
20
-253.661685
30
0.0
11
119.272740
21
-219.022335
31
0.0
0
LINE
8
0
6
CONTINUOUS
10
50.050650
20
62.329445
30
0.0
11
47.975110
21
81.818585
31
0.0
0
LINE
8
0
6
CONTINUOUS
10
47.769770
20
78.924065
30
0.0
11
49.797900
21
59.877735
31
0.0
0
LINE
8
0
6
CONTINUOUS
10
106.450460
20
-221.731145
30
0.0
11
115.580040
21
-256.057015
31
0.0
0
LINE
8
0
6
CONTINUOUS
10
52.439120
20
40.061685
30
0.0
11
49.797900
21
59.877735
31
0.0
0
LINE
8
0
6
CONTINUOUS
10
75.826480
20
-70.533335
30
0.0
11
64.834240
21
-25.497245
31
0.0
0
LINE
8
0
6
CONTINUOUS
10
80.514960
20
-112.640645
30
0.0
11
91.441790
21
-150.033145
31
0.0
0
LINE
8
0
6
CONTINUOUS
10
-9.814637
20
-726.733895
30
0.0
11
-9.797300
21
-796.163715
31
0.0
0
LINE
8
0
6
CONTINUOUS
10
-3.416510
20
-795.857655
30
0.0
11
-3.424057
21
-726.733885
31
0.0
0
LINE
8
0
6
CONTINUOUS
10
135.932410
20
-371.470065
30
0.0
11
139.669750
21
-418.065015
31
0.0
0
LINE
8
0
6
CONTINUOUS
10
39.961360
20
95.442395
30
0.0
11
41.449120
21
77.057535
31
0.0
0
LINE
8
0
6
CONTINUOUS
10
43.505450
20
-867.767585
30
0.0
11
59.085560
21
-872.302245
31
0.0
0
LINE
8
0
6
CONTINUOUS
10
56.618200
20
-869.246485
30
0.0
11
41.582200
21
-864.954285
31
0.0
0
LINE
8
0
6
CONTINUOUS
10
152.838440
20
-417.377715
30
0.0
11
149.068110
21
-370.389365
31
0.0
0
LINE
8
0
6
CONTINUOUS
10
12.516180
20
-852.007485
30
0.0
11
25.759170
21
-865.090595
31
0.0
0
LINE
8
0
6
CONTINUOUS
10
29.248640
20
-859.402995
30
0.0
11
17.080990
21
-847.265965
31
0.0
0
LINE
8
0
6
CONTINUOUS
10
136.670770
20
-289.670795
30
0.0
11
128.484600
21
-253.661685
31
0.0
0
LINE
8
0
6
CONTINUOUS
10
127.616540
20
-252.937965
30
0.0
11
135.827190
21
-289.056015
31
0.0
0
LINE
8
0
6
CONTINUOUS
10
144.602060
20
-828.506035
30
0.0
11
149.951520
21
-808.872925
31
0.0
0
LINE
8
0
6
CONTINUOUS
10
149.334190
20
-807.717555
30
0.0
11
144.319050
21
-826.575865
31
0.0
0
LINE
8
0
6
CONTINUOUS
10
60.436070
20
-1.914785
30
0.0
11
56.201580
21
20.582925
31
0.0
0
LINE
8
0
6
CONTINUOUS
10
55.769460
20
19.339405
30
0.0
11
59.867970
21
-2.435725
31
0.0
0
LINE
8
0
6
CONTINUOUS
10
102.000970
20
-185.294115
30
0.0
11
111.980670
21
-219.603995
31
0.0
0
LINE
8
0
6
CONTINUOUS
10
139.669750
20
-418.065015
30
0.0
11
141.670930
21
-461.429135
31
0.0
0
LINE
8
0
6
CONTINUOUS
10
152.065670
20
-787.997705
30
0.0
11
155.245850
21
-504.694115
31
0.0
0
LINE
8
0
6
CONTINUOUS
10
49.411780
20
17.735635
30
0.0
11
46.100700
21
38.338505
31
0.0
0
LINE
8
0
6
CONTINUOUS
10
40.089290
20
38.511695
30
0.0
11
43.486240
21
17.375525
31
0.0
0
LINE
8
0
6
CONTINUOUS
10
145.493210
20
-787.415315
30
0.0
11
146.502048
21
-697.151737
31
0.0
0
LINE
8
0
6
CONTINUOUS
10
146.918464
20
-659.893801
30
0.0
11
148.651880
21
-504.800205
31
0.0
0
LINE
8
0
6
CONTINUOUS
10
142.833340
20
-504.936005
30
0.0
11
141.103672
21
-659.810103
31
0.0
0
LINE
8
0
6
CONTINUOUS
10
140.685968
20
-697.211219
30
0.0
11
139.681630
21
-787.139435
31
0.0
0
LINE
8
0
6
CONTINUOUS
10
4.074580
20
-834.492085
30
0.0
11
12.516180
21
-852.007485
31
0.0
0
LINE
8
0
6
CONTINUOUS
10
17.080990
20
-847.265965
30
0.0
11
9.290830
21
-831.086485
31
0.0
0
LINE
8
0
6
CONTINUOUS
10
145.474350
20
-417.593005
30
0.0
11
147.485920
21
-461.166405
31
0.0
0
LINE
8
0
6
CONTINUOUS
10
154.853380
20
-461.018565
30
0.0
11
152.838440
21
-417.377715
31
0.0
0
LINE
8
0
6
CONTINUOUS
10
152.058680
20
-417.249335
30
0.0
11
154.077150
21
-460.961095
31
0.0
0
LINE
8
0
6
CONTINUOUS
10
43.471330
20
58.065985
30
0.0
11
41.449120
21
77.057535
31
0.0
0
LINE
8
0
6
CONTINUOUS
10
35.333700
20
78.085515
30
0.0
11
37.397540
21
58.705865
31
0.0
0
LINE
8
0
6
CONTINUOUS
10
92.779010
20
-876.575655
30
0.0
11
108.902930
21
-868.943065
31
0.0
0
LINE
8
0
6
CONTINUOUS
10
106.068140
20
-862.448385
30
0.0
11
91.210660
21
-869.609275
31
0.0
0
LINE
8
0
6
CONTINUOUS
10
152.058680
20
-417.249335
30
0.0
11
148.275710
21
-370.110665
31
0.0
0
LINE
8
0
6
CONTINUOUS
10
141.707890
20
-370.650975
30
0.0
11
145.474350
21
-417.593005
31
0.0
0
LINE
8
0
6
CONTINUOUS
10
138.600060
20
-823.127335
30
0.0
11
143.012920
21
-805.634345
31
0.0
0
LINE
8
0
6
CONTINUOUS
10
137.309170
20
-804.706555
30
0.0
11
133.164090
21
-821.608965
31
0.0
0
LINE
8
0
6
CONTINUOUS
10
47.975110
20
81.818585
30
0.0
11
46.459130
21
100.549665
31
0.0
0
LINE
8
0
6
CONTINUOUS
10
46.280410
20
97.329295
30
0.0
11
47.769770
21
78.924065
31
0.0
0
LINE
8
0
6
CONTINUOUS
10
143.605970
20
-328.197745
30
0.0
11
136.670770
21
-289.670795
31
0.0
0
LINE
8
0
6
CONTINUOUS
10
135.827190
20
-289.056015
30
0.0
11
142.790110
21
-327.737765
31
0.0
0
LINE
8
0
6
CONTINUOUS
10
46.100700
20
38.338505
30
0.0
11
43.471330
21
58.065985
31
0.0
0
LINE
8
0
6
CONTINUOUS
10
37.397540
20
58.705865
30
0.0
11
40.089290
21
38.511695
31
0.0
0
LINE
8
0
6
CONTINUOUS
10
119.272740
20
-219.022335
30
0.0
11
109.260170
21
-184.597815
31
0.0
0
LINE
8
0
6
CONTINUOUS
10
108.383820
20
-183.841135
30
0.0
11
118.391830
21
-218.249545
31
0.0
0
LINE
8
0
6
CONTINUOUS
10
148.651880
20
-504.800205
30
0.0
11
147.485920
21
-461.166405
31
0.0
0
LINE
8
0
6
CONTINUOUS
10
141.670930
20
-461.429135
30
0.0
11
142.833340
21
-504.936005
31
0.0
0
LINE
8
0
6
CONTINUOUS
10
69.429500
20
-71.932185
30
0.0
11
58.429730
21
-26.865345
31
0.0
0
LINE
8
0
6
CONTINUOUS
10
52.723830
20
-28.317525
30
0.0
11
63.807820
21
-73.729665
31
0.0
0
LINE
8
0
6
CONTINUOUS
10
98.667740
20
-149.224205
30
0.0
11
87.711090
21
-111.728745
31
0.0
0
LINE
8
0
6
CONTINUOUS
10
86.893470
20
-111.173285
30
0.0
11
97.814010
21
-148.544085
31
0.0
0
LINE
8
0
6
CONTINUOUS
10
75.519400
20
-880.476765
30
0.0
11
92.779010
21
-876.575655
31
0.0
0
LINE
8
0
6
CONTINUOUS
10
91.210660
20
-869.609275
30
0.0
11
75.270970
21
-873.211685
31
0.0
0
LINE
8
0
6
CONTINUOUS
10
127.616540
20
-252.937965
30
0.0
11
118.391830
21
-218.249545
31
0.0
0
LINE
8
0
6
CONTINUOUS
10
111.980670
20
-219.603995
30
0.0
11
121.164230
21
-254.135625
31
0.0
0
LINE
8
0
6
CONTINUOUS
10
-10.111200
20
-795.927805
30
0.0
11
-7.411820
21
-815.856505
31
0.0
0
LINE
8
0
6
CONTINUOUS
10
-6.988850
20
-816.744075
30
0.0
11
-9.797300
21
-796.163715
31
0.0
0
LINE
8
0
6
CONTINUOUS
10
156.021330
20
-504.723815
30
0.0
11
154.853380
21
-461.018565
31
0.0
0
LINE
8
0
6
CONTINUOUS
10
154.077150
20
-460.961095
30
0.0
11
155.245850
21
-504.694115
31
0.0
0
LINE
8
0
6
CONTINUOUS
10
139.681630
20
-787.139435
30
0.0
11
137.309170
21
-804.706555
31
0.0
0
LINE
8
0
6
CONTINUOUS
10
145.493210
20
-787.415315
30
0.0
11
143.012920
21
-805.634345
31
0.0
0
LINE
8
0
6
CONTINUOUS
10
9.290830
20
-831.086485
30
0.0
11
5.067540
21
-813.545745
31
0.0
0
LINE
8
0
6
CONTINUOUS
10
152.065670
20
-787.997705
30
0.0
11
149.334190
21
-807.717555
31
0.0
0
LINE
8
0
6
CONTINUOUS
10
149.951520
20
-808.872925
30
0.0
11
152.826500
21
-788.304215
31
0.0
0
LINE
8
0
6
CONTINUOUS
10
4.074580
20
-834.492085
30
0.0
11
-0.749990
21
-815.588875
31
0.0
0
LINE
8
0
6
CONTINUOUS
10
-1.824330
20
-836.417965
30
0.0
11
-6.988850
21
-816.744075
31
0.0
0
LINE
8
0
6
CONTINUOUS
10
-2.507240
20
-834.938565
30
0.0
11
-1.824330
21
-836.417965
31
0.0
0
LINE
8
0
6
CONTINUOUS
10
-7.411820
20
-815.856505
30
0.0
11
-2.507240
21
-834.938565
31
0.0
0
LINE
8
0
6
CONTINUOUS
10
122.774020
20
-861.325875
30
0.0
11
136.022100
21
-846.917685
31
0.0
0
LINE
8
0
6
CONTINUOUS
10
41.582200
20
-864.954285
30
0.0
11
27.817210
21
-856.931455
31
0.0
0
LINE
8
0
6
CONTINUOUS
10
43.505450
20
-867.767585
30
0.0
11
29.248640
21
-859.402995
31
0.0
0
LINE
8
0
6
CONTINUOUS
10
41.151290
20
-874.236795
30
0.0
11
25.759170
21
-865.090595
31
0.0
0
LINE
8
0
6
CONTINUOUS
10
20.838270
20
-868.306575
30
0.0
11
36.873910
21
-877.892685
31
0.0
0
LINE
8
0
6
CONTINUOUS
10
123.455030
20
-858.084015
30
0.0
11
136.093460
21
-844.223025
31
0.0
0
LINE
8
0
6
CONTINUOUS
10
125.836750
20
-837.318085
30
0.0
11
114.758740
21
-849.805165
31
0.0
0
LINE
8
0
6
CONTINUOUS
10
119.447410
20
-852.323665
30
0.0
11
131.000800
21
-839.423195
31
0.0
0
LINE
8
0
6
CONTINUOUS
10
7.113750
20
-659.543477
30
0.0
11
7.113750
21
113.874775
31
0.0
0
LINE
8
0
6
CONTINUOUS
10
7.113750
20
154.006535
30
0.0
11
7.113750
21
304.995971
31
0.0
0
LINE
8
0
6
CONTINUOUS
10
7.113750
20
368.892900
30
0.0
11
7.113750
21
751.546365
31
0.0
0
LINE
8
0
6
CONTINUOUS
10
7.113750
20
813.481335
30
0.0
11
7.113750
21
819.665351
31
0.0
0
LINE
8
0
6
CONTINUOUS
10
-14.585040
20
819.665403
30
0.0
11
-14.585040
21
813.481379
31
0.0
0
LINE
8
0
6
CONTINUOUS
10
-14.585040
20
751.644635
30
0.0
11
-14.585040
21
349.839040
31
0.0
0
LINE
8
0
6
CONTINUOUS
10
-14.585040
20
326.841066
30
0.0
11
-14.585040
21
154.006535
31
0.0
0
LINE
8
0
6
CONTINUOUS
10
-14.585040
20
113.874775
30
0.0
11
-14.585040
21
-659.543477
31
0.0
0
LINE
8
0
6
CONTINUOUS
10
-14.585040
20
840.075115
30
0.0
11
-14.585040
21
833.296245
31
0.0
0
LINE
8
0
6
CONTINUOUS
10
7.113750
20
833.647195
30
0.0
11
7.113750
21
840.075115
31
0.0
0
LINE
8
0
6
CONTINUOUS
10
-14.585040
20
841.796455
30
0.0
11
-14.585040
21
840.075115
31
0.0
0
LINE
8
0
6
CONTINUOUS
10
7.113750
20
840.075115
30
0.0
11
7.113750
21
841.796455
31
0.0
0
LINE
8
0
6
CONTINUOUS
10
-14.585040
20
873.727915
30
0.0
11
-14.585040
21
873.415715
31
0.0
0
LINE
8
0
6
CONTINUOUS
10
-13.131490
20
879.152415
30
0.0
11
-14.585040
21
873.727915
31
0.0
0
LINE
8
0
6
CONTINUOUS
10
7.113750
20
873.415715
30
0.0
11
7.113750
21
873.727915
31
0.0
0
LINE
8
0
6
CONTINUOUS
10
7.113750
20
873.727915
30
0.0
11
5.660210
21
879.152415
31
0.0
0
LINE
8
0
6
CONTINUOUS
10
-3.735640
20
884.577215
30
0.0
11
-9.160340
21
883.123665
31
0.0
0
LINE
8
0
6
CONTINUOUS
10
5.660210
20
879.152415
30
0.0
11
1.689050
21
883.123665
31
0.0
0
LINE
8
0
6
CONTINUOUS
10
-9.160340
20
883.123665
30
0.0
11
-13.131490
21
879.152415
31
0.0
0
LINE
8
0
6
CONTINUOUS
10
1.689050
20
883.123665
30
0.0
11
-3.735640
21
884.577215
31
0.0
0
LINE
8
0
6
CONTINUOUS
10
-14.585040
20
873.415715
30
0.0
11
-14.585040
21
871.393925
31
0.0
0
LINE
8
0
6
CONTINUOUS
10
7.113750
20
871.393925
30
0.0
11
7.113750
21
873.415715
31
0.0
0
LINE
8
0
6
CONTINUOUS
10
-14.585040
20
871.393925
30
0.0
11
-14.585040
21
867.763865
31
0.0
0
LINE
8
0
6
CONTINUOUS
10
7.113750
20
867.763865
30
0.0
11
7.113750
21
871.393925
31
0.0
0
LINE
8
0
6
CONTINUOUS
10
7.113750
20
862.707865
30
0.0
11
7.113750
21
867.763865
31
0.0
0
LINE
8
0
6
CONTINUOUS
10
-14.585040
20
867.763865
30
0.0
11
-14.585040
21
862.707865
31
0.0
0
LINE
8
0
6
CONTINUOUS
10
-14.585040
20
856.479075
30
0.0
11
-14.585040
21
849.390145
31
0.0
0
LINE
8
0
6
CONTINUOUS
10
7.113750
20
856.479075
30
0.0
11
7.113750
21
862.707865
31
0.0
0
LINE
8
0
6
CONTINUOUS
10
-14.585040
20
862.707865
30
0.0
11
-14.585040
21
856.479075
31
0.0
0
LINE
8
0
6
CONTINUOUS
10
7.113750
20
849.390145
30
0.0
11
7.113750
21
856.479075
31
0.0
0
LINE
8
0
6
CONTINUOUS
10
-14.585040
20
849.390145
30
0.0
11
-14.585040
21
841.796455
31
0.0
0
LINE
8
0
6
CONTINUOUS
10
7.113750
20
841.796455
30
0.0
11
7.113750
21
849.390145
31
0.0
0
LINE
8
0
6
CONTINUOUS
10
-14.585040
20
841.796455
30
0.0
11
-13.371636
21
833.647195
31
0.0
0
LINE
8
0
6
CONTINUOUS
10
5.900346
20
833.647195
30
0.0
11
7.113750
21
841.796455
31
0.0
0
LINE
8
0
6
CONTINUOUS
10
-31.413819
20
752.590481
30
0.0
11
-34.607150
21
749.397165
31
0.0
0
LINE
8
0
6
CONTINUOUS
10
-42.231810
20
733.564335
30
0.0
11
-43.221820
21
724.778025
31
0.0
0
LINE
8
0
6
CONTINUOUS
10
34.760550
20
715.991405
30
0.0
11
35.750550
21
724.777875
31
0.0
0
LINE
8
0
6
CONTINUOUS
10
35.750550
20
724.777875
30
0.0
11
34.760550
21
733.564335
31
0.0
0
LINE
8
0
6
CONTINUOUS
10
27.135900
20
749.397165
30
0.0
11
24.452170
21
752.080891
31
0.0
0
LINE
8
0
6
CONTINUOUS
10
26.738550
20
749.080085
30
0.0
11
23.275731
21
752.542932
31
0.0
0
LINE
8
0
6
CONTINUOUS
10
31.382280
20
741.689795
30
0.0
11
26.738550
21
749.080085
31
0.0
0
LINE
8
0
6
CONTINUOUS
10
34.265050
20
733.451275
30
0.0
11
31.382280
21
741.689795
31
0.0
0
LINE
8
0
6
CONTINUOUS
10
35.242310
20
724.777875
30
0.0
11
34.265050
21
733.451275
31
0.0
0
LINE
8
0
6
CONTINUOUS
10
34.265050
20
716.104315
30
0.0
11
35.242310
21
724.777875
31
0.0
0
LINE
8
0
6
CONTINUOUS
10
31.382290
20
707.865945
30
0.0
11
34.265050
21
716.104315
31
0.0
0
LINE
8
0
6
CONTINUOUS
10
26.738550
20
700.475505
30
0.0
11
31.382290
21
707.865945
31
0.0
0
LINE
8
0
6
CONTINUOUS
10
20.566710
20
694.303625
30
0.0
11
26.738550
21
700.475505
31
0.0
0
LINE
8
0
6
CONTINUOUS
10
13.176260
20
689.659765
30
0.0
11
20.566710
21
694.303625
31
0.0
0
LINE
8
0
6
CONTINUOUS
10
7.113750
20
687.538464
30
0.0
11
13.176260
21
689.659765
31
0.0
0
LINE
8
0
6
CONTINUOUS
10
-20.647550
20
689.659925
30
0.0
11
-14.585040
21
687.538504
31
0.0
0
LINE
8
0
6
CONTINUOUS
10
-28.038010
20
694.303625
30
0.0
11
-20.647550
21
689.659925
31
0.0
0
LINE
8
0
6
CONTINUOUS
10
-34.209850
20
700.475505
30
0.0
11
-28.038010
21
694.303625
31
0.0
0
LINE
8
0
6
CONTINUOUS
10
-38.853570
20
707.865945
30
0.0
11
-34.209850
21
700.475505
31
0.0
0
LINE
8
0
6
CONTINUOUS
10
-41.736340
20
716.104475
30
0.0
11
-38.853570
21
707.865945
31
0.0
0
LINE
8
0
6
CONTINUOUS
10
-42.713590
20
724.777875
30
0.0
11
-41.736340
21
716.104475
31
0.0
0
LINE
8
0
6
CONTINUOUS
10
-41.736320
20
733.451275
30
0.0
11
-42.713590
21
724.777875
31
0.0
0
LINE
8
0
6
CONTINUOUS
10
-38.853540
20
741.689795
30
0.0
11
-41.736320
21
733.451275
31
0.0
0
LINE
8
0
6
CONTINUOUS
10
-34.209800
20
749.080235
30
0.0
11
-38.853540
21
741.689795
31
0.0
0
LINE
8
0
6
CONTINUOUS
10
-30.747017
20
752.542951
30
0.0
11
-34.209800
21
749.080235
31
0.0
0
LINE
8
0
6
CONTINUOUS
10
-34.607150
20
749.397165
30
0.0
11
-39.311440
21
741.910285
31
0.0
0
LINE
8
0
6
CONTINUOUS
10
-39.311440
20
741.910285
30
0.0
11
-42.231810
21
733.564335
31
0.0
0
LINE
8
0
6
CONTINUOUS
10
-43.221820
20
724.778025
30
0.0
11
-42.231830
21
715.991405
31
0.0
0
LINE
8
0
6
CONTINUOUS
10
-42.231830
20
715.991405
30
0.0
11
-39.311470
21
707.645455
31
0.0
0
LINE
8
0
6
CONTINUOUS
10
-39.311470
20
707.645455
30
0.0
11
-34.607200
21
700.158735
31
0.0
0
LINE
8
0
6
CONTINUOUS
10
-34.607200
20
700.158735
30
0.0
11
-28.354890
21
693.906285
31
0.0
0
LINE
8
0
6
CONTINUOUS
10
-28.354890
20
693.906285
30
0.0
11
-20.868070
21
689.202005
31
0.0
0
LINE
8
0
6
CONTINUOUS
10
-20.868070
20
689.202005
30
0.0
11
-14.585040
21
687.003463
31
0.0
0
LINE
8
0
6
CONTINUOUS
10
7.113750
20
687.003466
30
0.0
11
13.396770
21
689.202005
31
0.0
0
LINE
8
0
6
CONTINUOUS
10
13.396770
20
689.202005
30
0.0
11
20.883590
21
693.906285
31
0.0
0
LINE
8
0
6
CONTINUOUS
10
20.883590
20
693.906285
30
0.0
11
27.135900
21
700.158735
31
0.0
0
LINE
8
0
6
CONTINUOUS
10
27.135900
20
700.158735
30
0.0
11
31.840190
21
707.645455
31
0.0
0
LINE
8
0
6
CONTINUOUS
10
31.840190
20
707.645455
30
0.0
11
34.760550
21
715.991405
31
0.0
0
LINE
8
0
6
CONTINUOUS
10
34.760550
20
733.564335
30
0.0
11
31.840180
21
741.910285
31
0.0
0
LINE
8
0
6
CONTINUOUS
10
31.840180
20
741.910285
30
0.0
11
27.135900
21
749.397165
31
0.0
0
LINE
8
0
6
CONTINUOUS
10
-49.704790
20
153.322865
30
0.0
11
-49.704790
21
151.318245
31
0.0
0
LINE
8
0
6
CONTINUOUS
10
21.276780
20
113.874775
30
0.0
11
21.555120
21
113.874775
31
0.0
0
LINE
8
0
6
CONTINUOUS
10
-49.704790
20
151.318245
30
0.0
11
-49.704800
21
148.129385
31
0.0
0
LINE
8
0
6
CONTINUOUS
10
-49.704800
20
148.129385
30
0.0
11
-49.704800
21
143.973655
31
0.0
0
LINE
8
0
6
CONTINUOUS
10
-49.704800
20
143.973655
30
0.0
11
-49.704810
21
139.134105
31
0.0
0
LINE
8
0
6
CONTINUOUS
10
-49.704810
20
139.134105
30
0.0
11
-49.704810
21
133.940695
31
0.0
0
LINE
8
0
6
CONTINUOUS
10
-49.704810
20
133.940695
30
0.0
11
-49.704810
21
128.747215
31
0.0
0
LINE
8
0
6
CONTINUOUS
10
-49.704810
20
128.747215
30
0.0
11
-49.704820
21
123.907735
31
0.0
0
LINE
8
0
6
CONTINUOUS
10
-49.704820
20
123.907735
30
0.0
11
-49.704820
21
119.752005
31
0.0
0
LINE
8
0
6
CONTINUOUS
10
-49.704830
20
116.563145
30
0.0
11
-49.704830
21
114.558525
31
0.0
0
LINE
8
0
6
CONTINUOUS
10
-49.704830
20
114.558525
30
0.0
11
-49.704830
21
113.874775
31
0.0
0
LINE
8
0
6
CONTINUOUS
10
-49.704830
20
113.874775
30
0.0
11
-48.947110
21
113.874775
31
0.0
0
LINE
8
0
6
CONTINUOUS
10
21.555140
20
154.006535
30
0.0
11
21.276810
21
154.006535
31
0.0
0
LINE
8
0
6
CONTINUOUS
10
-49.704830
20
116.563145
30
0.0
11
-49.704820
21
119.752005
31
0.0
0
LINE
8
0
6
CONTINUOUS
10
-55.232750
20
165.849115
30
0.0
11
-49.704804
21
142.085424
31
0.0
0
LINE
8
0
6
CONTINUOUS
10
-47.716660
20
167.597465
30
0.0
11
-47.769630
21
167.825205
31
0.0
0
LINE
8
0
6
CONTINUOUS
10
-51.527670
20
166.950955
30
0.0
11
-53.406690
21
166.513865
31
0.0
0
LINE
8
0
6
CONTINUOUS
10
-44.555113
20
154.006601
30
0.0
11
-47.716660
21
167.597465
31
0.0
0
LINE
8
0
6
CONTINUOUS
10
-53.406690
20
166.513865
30
0.0
11
-54.782250
21
166.193885
31
0.0
0
LINE
8
0
6
CONTINUOUS
10
-55.285720
20
166.076775
30
0.0
11
-55.232750
21
165.849115
31
0.0
0
LINE
8
0
6
CONTINUOUS
10
-54.782250
20
166.193885
30
0.0
11
-55.285720
21
166.076775
31
0.0
0
LINE
8
0
6
CONTINUOUS
10
-48.273120
20
167.708095
30
0.0
11
-47.769630
21
167.825205
31
0.0
0
LINE
8
0
6
CONTINUOUS
10
-49.648660
20
167.388115
30
0.0
11
-48.273120
21
167.708095
31
0.0
0
LINE
8
0
6
CONTINUOUS
10
-51.527670
20
166.950955
30
0.0
11
-49.648660
21
167.388115
31
0.0
0
LINE
8
0
6
CONTINUOUS
10
-55.031130
20
166.135975
30
0.0
11
-54.561760
21
166.245155
31
0.0
0
LINE
8
0
6
CONTINUOUS
10
-48.947110
20
113.874775
30
0.0
11
-23.478990
21
113.874775
31
0.0
0
LINE
8
0
6
CONTINUOUS
10
-23.478940
20
154.006535
30
0.0
11
-44.555113
21
154.006601
31
0.0
0
LINE
8
0
6
CONTINUOUS
10
27.931260
20
115.226255
30
0.0
11
27.931260
21
115.863915
31
0.0
0
LINE
8
0
6
CONTINUOUS
10
27.931270
20
124.583395
30
0.0
11
27.931270
21
129.096945
31
0.0
0
LINE
8
0
6
CONTINUOUS
10
27.931260
20
115.863915
30
0.0
11
27.931260
21
117.733495
31
0.0
0
LINE
8
0
6
CONTINUOUS
10
27.931270
20
129.096945
30
0.0
11
27.931270
21
133.940625
31
0.0
0
LINE
8
0
6
CONTINUOUS
10
27.931260
20
117.733495
30
0.0
11
27.931260
21
120.707515
31
0.0
0
LINE
8
0
6
CONTINUOUS
10
27.931270
20
133.940625
30
0.0
11
27.931270
21
138.784295
31
0.0
0
LINE
8
0
6
CONTINUOUS
10
27.931260
20
120.707515
30
0.0
11
27.931270
21
124.583395
31
0.0
0
LINE
8
0
6
CONTINUOUS
10
27.931270
20
138.784295
30
0.0
11
27.931280
21
143.297845
31
0.0
0
LINE
8
0
6
CONTINUOUS
10
21.555120
20
113.874775
30
0.0
11
22.196530
21
114.029355
31
0.0
0
LINE
8
0
6
CONTINUOUS
10
21.794856
20
153.948768
30
0.0
11
21.555140
21
154.006535
31
0.0
0
LINE
8
0
6
CONTINUOUS
10
22.196530
20
114.029355
30
0.0
11
27.513230
21
115.135915
31
0.0
0
LINE
8
0
6
CONTINUOUS
10
-22.242960
20
113.874775
30
0.0
11
-14.536002
21
113.874775
31
0.0
0
LINE
8
0
6
CONTINUOUS
10
7.064707
20
113.874775
30
0.0
11
21.276780
21
113.874775
31
0.0
0
LINE
8
0
6
CONTINUOUS
10
21.276810
20
154.006535
30
0.0
11
7.113750
21
154.006535
31
0.0
0
LINE
8
0
6
CONTINUOUS
10
-14.585040
20
154.006535
30
0.0
11
-22.242920
21
154.006535
31
0.0
0
LINE
8
0
6
CONTINUOUS
10
-22.551970
20
113.874775
30
0.0
11
-22.242960
21
113.874775
31
0.0
0
LINE
8
0
6
CONTINUOUS
10
-22.860980
20
114.795495
30
0.0
11
-22.551970
21
113.874775
31
0.0
0
LINE
8
0
6
CONTINUOUS
10
-22.551970
20
113.874775
30
0.0
11
-22.551970
21
114.558525
31
0.0
0
LINE
8
0
6
CONTINUOUS
10
-23.169980
20
113.874775
30
0.0
11
-22.860980
21
114.795495
31
0.0
0
LINE
8
0
6
CONTINUOUS
10
-22.860980
20
114.795495
30
0.0
11
-22.860980
21
115.447805
31
0.0
0
LINE
8
0
6
CONTINUOUS
10
-23.478990
20
113.874775
30
0.0
11
-23.169980
21
113.874775
31
0.0
0
LINE
8
0
6
CONTINUOUS
10
-23.169980
20
113.874775
30
0.0
11
-23.169980
21
114.558525
31
0.0
0
LINE
8
0
6
CONTINUOUS
10
-22.551970
20
114.558525
30
0.0
11
-22.551970
21
116.563145
31
0.0
0
LINE
8
0
6
CONTINUOUS
10
-22.860980
20
115.447805
30
0.0
11
-22.860980
21
117.360495
31
0.0
0
LINE
8
0
6
CONTINUOUS
10
-23.169980
20
114.558525
30
0.0
11
-23.169980
21
116.563145
31
0.0
0
LINE
8
0
6
CONTINUOUS
10
-22.551970
20
116.563145
30
0.0
11
-22.551960
21
119.752005
31
0.0
0
LINE
8
0
6
CONTINUOUS
10
-22.860980
20
117.360495
30
0.0
11
-22.860970
21
120.403025
31
0.0
0
LINE
8
0
6
CONTINUOUS
10
-23.169980
20
116.563145
30
0.0
11
-23.169980
21
119.752005
31
0.0
0
LINE
8
0
6
CONTINUOUS
10
-22.551960
20
119.752005
30
0.0
11
-22.551960
21
123.907735
31
0.0
0
LINE
8
0
6
CONTINUOUS
10
-22.860970
20
120.403025
30
0.0
11
-22.860970
21
124.368095
31
0.0
0
LINE
8
0
6
CONTINUOUS
10
-23.169980
20
119.752005
30
0.0
11
-23.169970
21
123.907735
31
0.0
0
LINE
8
0
6
CONTINUOUS
10
-22.551960
20
123.907735
30
0.0
11
-22.551950
21
128.747215
31
0.0
0
LINE
8
0
6
CONTINUOUS
10
-22.860970
20
124.368095
30
0.0
11
-22.860950
21
128.985555
31
0.0
0
LINE
8
0
6
CONTINUOUS
10
-23.169970
20
123.907735
30
0.0
11
-23.169960
21
128.747215
31
0.0
0
LINE
8
0
6
CONTINUOUS
10
-22.551950
20
128.747215
30
0.0
11
-22.551950
21
133.940695
31
0.0
0
LINE
8
0
6
CONTINUOUS
10
-22.860950
20
128.985555
30
0.0
11
-22.860950
21
133.940695
31
0.0
0
LINE
8
0
6
CONTINUOUS
10
-23.169960
20
128.747215
30
0.0
11
-23.169960
21
133.940695
31
0.0
0
LINE
8
0
6
CONTINUOUS
10
-22.551950
20
133.940695
30
0.0
11
-22.551940
21
139.134105
31
0.0
0
LINE
8
0
6
CONTINUOUS
10
-22.860950
20
133.940695
30
0.0
11
-22.860950
21
138.895835
31
0.0
0
LINE
8
0
6
CONTINUOUS
10
-23.169960
20
133.940695
30
0.0
11
-23.169960
21
139.134105
31
0.0
0
LINE
8
0
6
CONTINUOUS
10
-22.551940
20
139.134105
30
0.0
11
-22.551930
21
143.973585
31
0.0
0
LINE
8
0
6
CONTINUOUS
10
-22.860950
20
138.895835
30
0.0
11
-22.860940
21
143.513225
31
0.0
0
LINE
8
0
6
CONTINUOUS
10
-23.169960
20
139.134105
30
0.0
11
-23.169950
21
143.973585
31
0.0
0
LINE
8
0
6
CONTINUOUS
10
-22.551930
20
143.973585
30
0.0
11
-22.551930
21
148.129385
31
0.0
0
LINE
8
0
6
CONTINUOUS
10
-22.860940
20
143.513225
30
0.0
11
-22.860940
21
147.478375
31
0.0
0
LINE
8
0
6
CONTINUOUS
10
-23.169950
20
143.973585
30
0.0
11
-23.169950
21
148.129385
31
0.0
0
LINE
8
0
6
CONTINUOUS
10
-22.551930
20
148.129385
30
0.0
11
-22.551930
21
151.318245
31
0.0
0
LINE
8
0
6
CONTINUOUS
10
-22.860940
20
147.478375
30
0.0
11
-22.860930
21
150.520895
31
0.0
0
LINE
8
0
6
CONTINUOUS
10
-23.169950
20
148.129385
30
0.0
11
-23.169940
21
151.318245
31
0.0
0
LINE
8
0
6
CONTINUOUS
10
-22.551930
20
151.318245
30
0.0
11
-22.551930
21
153.322795
31
0.0
0
LINE
8
0
6
CONTINUOUS
10
-22.860930
20
150.520895
30
0.0
11
-22.860930
21
152.433435
31
0.0
0
LINE
8
0
6
CONTINUOUS
10
-23.169940
20
151.318245
30
0.0
11
-23.169940
21
153.322795
31
0.0
0
LINE
8
0
6
CONTINUOUS
10
-22.242920
20
154.006535
30
0.0
11
-22.551930
21
154.006535
31
0.0
0
LINE
8
0
6
CONTINUOUS
10
-22.551930
20
154.006535
30
0.0
11
-22.860930
21
153.085905
31
0.0
0
LINE
8
0
6
CONTINUOUS
10
-22.551930
20
153.322795
30
0.0
11
-22.551930
21
154.006535
31
0.0
0
LINE
8
0
6
CONTINUOUS
10
-22.860930
20
153.085905
30
0.0
11
-23.169940
21
154.006535
31
0.0
0
LINE
8
0
6
CONTINUOUS
10
-22.860930
20
152.433435
30
0.0
11
-22.860930
21
153.085905
31
0.0
0
LINE
8
0
6
CONTINUOUS
10
-23.169940
20
154.006535
30
0.0
11
-23.478940
21
154.006535
31
0.0
0
LINE
8
0
6
CONTINUOUS
10
-23.169940
20
153.322795
30
0.0
11
-23.169940
21
154.006535
31
0.0
0
LINE
8
0
6
CONTINUOUS
10
49.195640
20
113.981595
30
0.0
11
51.396840
21
114.139215
31
0.0
0
LINE
8
0
6
CONTINUOUS
10
51.396840
20
114.139215
30
0.0
11
52.981610
21
115.157665
31
0.0
0
LINE
8
0
6
CONTINUOUS
10
25.970010
20
113.992425
30
0.0
11
26.441420
21
113.958705
31
0.0
0
LINE
8
0
6
CONTINUOUS
10
53.522170
20
116.884805
30
0.0
11
53.522170
21
117.204245
31
0.0
0
LINE
8
0
6
CONTINUOUS
10
52.981610
20
115.157665
30
0.0
11
53.522170
21
116.884805
31
0.0
0
LINE
8
0
6
CONTINUOUS
10
28.062180
20
173.174555
30
0.0
11
28.062170
21
173.630025
31
0.0
0
LINE
8
0
6
CONTINUOUS
10
47.260560
20
173.630025
30
0.0
11
47.260560
21
173.174555
31
0.0
0
LINE
8
0
6
CONTINUOUS
10
47.280970
20
177.384375
30
0.0
11
47.280970
21
175.408215
31
0.0
0
LINE
8
0
6
CONTINUOUS
10
26.847463
20
185.370652
30
0.0
11
26.441060
21
185.209695
31
0.0
0
LINE
8
0
6
CONTINUOUS
10
26.441060
20
185.209695
30
0.0
11
23.920030
21
183.513835
31
0.0
0
LINE
8
0
6
CONTINUOUS
10
23.920030
20
183.513835
30
0.0
11
22.335260
21
181.539045
31
0.0
0
LINE
8
0
6
CONTINUOUS
10
22.335260
20
181.539045
30
0.0
11
21.794710
21
179.419825
31
0.0
0
LINE
8
0
6
CONTINUOUS
10
28.062600
20
114.278145
30
0.0
11
28.062180
21
173.174555
31
0.0
0
LINE
8
0
6
CONTINUOUS
10
21.794710
20
179.419825
30
0.0
11
21.794710
21
178.964425
31
0.0
0
LINE
8
0
6
CONTINUOUS
10
22.335260
20
177.300605
30
0.0
11
21.794710
21
179.419825
31
0.0
0
LINE
8
0
6
CONTINUOUS
10
23.920030
20
175.325735
30
0.0
11
22.335260
21
177.300605
31
0.0
0
LINE
8
0
6
CONTINUOUS
10
53.521810
20
178.964505
30
0.0
11
53.521810
21
179.419895
31
0.0
0
LINE
8
0
6
CONTINUOUS
10
47.260560
20
173.174555
30
0.0
11
47.260990
21
114.278145
31
0.0
0
LINE
8
0
6
CONTINUOUS
10
26.835470
20
173.630025
30
0.0
11
26.441060
21
173.630025
31
0.0
0
LINE
8
0
6
CONTINUOUS
10
48.875460
20
173.174555
30
0.0
11
48.875450
21
173.630025
31
0.0
0
LINE
8
0
6
CONTINUOUS
10
51.396490
20
183.513905
30
0.0
11
49.254006
21
184.955148
31
0.0
0
LINE
8
0
6
CONTINUOUS
10
52.981250
20
181.539115
30
0.0
11
51.396490
21
183.513905
31
0.0
0
LINE
8
0
6
CONTINUOUS
10
53.521810
20
179.419895
30
0.0
11
52.981250
21
181.539115
31
0.0
0
LINE
8
0
6
CONTINUOUS
10
52.981250
20
177.300685
30
0.0
11
53.521810
21
179.419895
31
0.0
0
LINE
8
0
6
CONTINUOUS
10
51.396490
20
175.325815
30
0.0
11
52.981250
21
177.300685
31
0.0
0
LINE
8
0
6
CONTINUOUS
10
27.601620
20
173.630025
30
0.0
11
26.835470
21
173.630025
31
0.0
0
LINE
8
0
6
CONTINUOUS
10
48.875830
20
113.958705
30
0.0
11
49.195640
21
113.981595
31
0.0
0
LINE
8
0
6
CONTINUOUS
10
47.280970
20
175.408215
30
0.0
11
47.263150
21
173.855555
31
0.0
0
LINE
8
0
6
CONTINUOUS
10
27.978190
20
177.384305
30
0.0
11
27.978190
21
179.144988
31
0.0
0
LINE
8
0
6
CONTINUOUS
10
27.978190
20
175.408135
30
0.0
11
27.978190
21
177.384305
31
0.0
0
LINE
8
0
6
CONTINUOUS
10
28.062170
20
173.630025
30
0.0
11
28.046470
21
173.962515
31
0.0
0
LINE
8
0
6
CONTINUOUS
10
27.601620
20
173.630025
30
0.0
11
28.062170
21
173.630025
31
0.0
0
LINE
8
0
6
CONTINUOUS
10
48.875450
20
173.630025
30
0.0
11
49.195280
21
173.845175
31
0.0
0
LINE
8
0
6
CONTINUOUS
10
48.481040
20
173.630025
30
0.0
11
48.875450
21
173.630025
31
0.0
0
LINE
8
0
6
CONTINUOUS
10
51.396490
20
175.325815
30
0.0
11
49.195280
21
173.845175
31
0.0
0
LINE
8
0
6
CONTINUOUS
10
23.920390
20
114.139215
30
0.0
11
25.970010
21
113.992425
31
0.0
0
LINE
8
0
6
CONTINUOUS
10
47.721120
20
173.630025
30
0.0
11
48.481040
21
173.630025
31
0.0
0
LINE
8
0
6
CONTINUOUS
10
47.263150
20
173.855555
30
0.0
11
47.260560
21
173.630025
31
0.0
0
LINE
8
0
6
CONTINUOUS
10
47.260560
20
173.630025
30
0.0
11
47.721120
21
173.630025
31
0.0
0
LINE
8
0
6
CONTINUOUS
10
23.920030
20
175.325735
30
0.0
11
25.969650
21
173.947105
31
0.0
0
LINE
8
0
6
CONTINUOUS
10
26.441060
20
173.174555
30
0.0
11
26.441060
21
173.630025
31
0.0
0
LINE
8
0
6
CONTINUOUS
10
26.441060
20
173.630025
30
0.0
11
25.969650
21
173.947105
31
0.0
0
LINE
8
0
6
CONTINUOUS
10
28.046470
20
173.962515
30
0.0
11
27.978190
21
175.408135
31
0.0
0
LINE
8
0
6
CONTINUOUS
10
21.794710
20
178.964425
30
0.0
11
21.794856
21
153.948768
31
0.0
0
LINE
8
0
6
CONTINUOUS
10
26.441420
20
114.278145
30
0.0
11
26.441416
21
114.912839
31
0.0
0
LINE
8
0
6
CONTINUOUS
10
26.441184
20
152.968471
30
0.0
11
26.441060
21
173.174555
31
0.0
0
LINE
8
0
6
CONTINUOUS
10
53.522170
20
117.204245
30
0.0
11
53.521810
21
178.964505
31
0.0
0
LINE
8
0
6
CONTINUOUS
10
28.062610
20
113.958705
30
0.0
11
28.062600
21
114.278145
31
0.0
0
LINE
8
0
6
CONTINUOUS
10
27.602050
20
113.958705
30
0.0
11
28.062610
21
113.958705
31
0.0
0
LINE
8
0
6
CONTINUOUS
10
47.261000
20
113.958705
30
0.0
11
47.721550
21
113.958705
31
0.0
0
LINE
8
0
6
CONTINUOUS
10
47.260990
20
114.278145
30
0.0
11
47.261000
21
113.958705
31
0.0
0
LINE
8
0
6
CONTINUOUS
10
28.976860
20
123.774835
30
0.0
11
31.122680
21
125.982475
31
0.0
0
LINE
8
0
6
CONTINUOUS
10
31.122680
20
125.982475
30
0.0
11
32.547114
21
126.696784
31
0.0
0
LINE
8
0
6
CONTINUOUS
10
28.062547
20
121.693753
30
0.0
11
28.976860
21
123.774835
31
0.0
0
LINE
8
0
6
CONTINUOUS
10
46.283160
20
123.774835
30
0.0
11
47.260937
21
121.549279
31
0.0
0
LINE
8
0
6
CONTINUOUS
10
45.299270
20
124.801447
30
0.0
11
46.283160
21
123.774835
31
0.0
0
LINE
8
0
6
CONTINUOUS
10
26.441420
20
114.278145
30
0.0
11
26.441420
21
113.958705
31
0.0
0
LINE
8
0
6
CONTINUOUS
10
26.441420
20
113.958705
30
0.0
11
26.835840
21
113.958705
31
0.0
0
LINE
8
0
6
CONTINUOUS
10
48.481410
20
113.958705
30
0.0
11
48.875830
21
113.958705
31
0.0
0
LINE
8
0
6
CONTINUOUS
10
48.875830
20
113.958705
30
0.0
11
48.875830
21
114.278145
31
0.0
0
LINE
8
0
6
CONTINUOUS
10
26.835840
20
113.958705
30
0.0
11
27.602050
21
113.958705
31
0.0
0
LINE
8
0
6
CONTINUOUS
10
47.721550
20
113.958705
30
0.0
11
48.481410
21
113.958705
31
0.0
0
LINE
8
0
6
CONTINUOUS
10
48.875460
20
173.174555
30
0.0
11
48.875830
21
114.278145
31
0.0
0
LINE
8
0
6
CONTINUOUS
10
6.671776
20
-703.521685
30
0.0
11
6.671775
21
-702.821755
31
0.0
0
LINE
8
0
6
CONTINUOUS
10
-14.132575
20
-702.821767
30
0.0
11
-14.132574
21
-703.521695
31
0.0
0
LINE
8
0
6
CONTINUOUS
10
9.992910
20
-702.309295
30
0.0
11
9.992905
21
-694.878203
31
0.0
0
LINE
8
0
6
CONTINUOUS
10
-17.453751
20
-694.883036
30
0.0
11
-17.453740
21
-702.309315
31
0.0
0
LINE
8
0
6
CONTINUOUS
10
-10.610380
20
-654.321845
30
0.0
11
-10.610380
21
-659.544051
31
0.0
0
LINE
8
0
6
CONTINUOUS
10
3.149520
20
-659.544049
30
0.0
11
3.149520
21
-654.321855
31
0.0
0
LINE
8
0
6
CONTINUOUS
10
5.979410
20
-645.188745
30
0.0
11
5.979410
21
-640.380825
31
0.0
0
LINE
8
0
6
CONTINUOUS
10
-13.440280
20
-640.380825
30
0.0
11
-13.440280
21
-645.188735
31
0.0
0
LINE
8
0
6
CONTINUOUS
10
-8.522530
20
-638.572625
30
0.0
11
-11.005390
21
-638.868145
31
0.0
0
LINE
8
0
6
CONTINUOUS
10
3.544510
20
-638.868145
30
0.0
11
1.061650
21
-638.572655
31
0.0
0
LINE
8
0
6
CONTINUOUS
10
-6.028920
20
-638.383925
30
0.0
11
-8.522530
21
-638.572625
31
0.0
0
LINE
8
0
6
CONTINUOUS
10
1.061650
20
-638.572655
30
0.0
11
-1.431950
21
-638.383935
31
0.0
0
LINE
8
0
6
CONTINUOUS
10
-1.431950
20
-638.383935
30
0.0
11
-3.730430
21
-638.321795
31
0.0
0
LINE
8
0
6
CONTINUOUS
10
-3.730430
20
-638.321795
30
0.0
11
-6.028920
21
-638.383925
31
0.0
0
LINE
8
0
6
CONTINUOUS
10
5.038040
20
-639.212695
30
0.0
11
3.544510
21
-638.868145
31
0.0
0
LINE
8
0
6
CONTINUOUS
10
-11.005390
20
-638.868145
30
0.0
11
-12.498920
21
-639.212685
31
0.0
0
LINE
8
0
6
CONTINUOUS
10
-11.941760
20
-654.321845
30
0.0
11
-10.146700
21
-654.321845
31
0.0
0
LINE
8
0
6
CONTINUOUS
10
5.562590
20
-653.370865
30
0.0
11
5.562580
21
-645.119765
31
0.0
0
LINE
8
0
6
CONTINUOUS
10
-13.023450
20
-645.374337
30
0.0
11
-13.023450
21
-653.370855
31
0.0
0
LINE
8
0
6
CONTINUOUS
10
-11.841190
20
-702.821775
30
0.0
11
-6.599360
21
-702.821765
31
0.0
0
LINE
8
0
6
CONTINUOUS
10
-17.453740
20
-702.309315
30
0.0
11
-17.453740
21
-702.821775
31
0.0
0
LINE
8
0
6
CONTINUOUS
10
-17.453740
20
-702.821775
30
0.0
11
-15.680630
21
-702.821775
31
0.0
0
LINE
8
0
6
CONTINUOUS
10
-15.680630
20
-702.821775
30
0.0
11
-11.841190
21
-702.821775
31
0.0
0
LINE
8
0
6
CONTINUOUS
10
9.992910
20
-702.821755
30
0.0
11
9.992910
21
-702.309295
31
0.0
0
LINE
8
0
6
CONTINUOUS
10
8.219800
20
-702.821755
30
0.0
11
9.992910
21
-702.821755
31
0.0
0
LINE
8
0
6
CONTINUOUS
10
4.380400
20
-702.821755
30
0.0
11
8.219800
21
-702.821755
31
0.0
0
LINE
8
0
6
CONTINUOUS
10
-0.861480
20
-702.821765
30
0.0
11
4.380400
21
-702.821755
31
0.0
0
LINE
8
0
6
CONTINUOUS
10
-6.599360
20
-702.821765
30
0.0
11
-0.861480
21
-702.821765
31
0.0
0
LINE
8
0
6
CONTINUOUS
10
-7.242160
20
-654.321845
30
0.0
11
-3.730430
21
-654.321855
31
0.0
0
LINE
8
0
6
CONTINUOUS
10
-10.146700
20
-654.321845
30
0.0
11
-7.242160
21
-654.321845
31
0.0
0
LINE
8
0
6
CONTINUOUS
10
5.979410
20
-640.124605
30
0.0
11
5.777970
21
-639.586855
31
0.0
0
LINE
8
0
6
CONTINUOUS
10
5.979410
20
-640.380825
30
0.0
11
5.979410
21
-640.124605
31
0.0
0
LINE
8
0
6
CONTINUOUS
10
5.777970
20
-639.586855
30
0.0
11
5.291670
21
-639.271195
31
0.0
0
LINE
8
0
6
CONTINUOUS
10
5.291670
20
-639.271195
30
0.0
11
5.038040
21
-639.212695
31
0.0
0
LINE
8
0
6
CONTINUOUS
10
-13.238850
20
-639.586865
30
0.0
11
-13.440280
21
-640.124595
31
0.0
0
LINE
8
0
6
CONTINUOUS
10
-13.440280
20
-640.124595
30
0.0
11
-13.440280
21
-640.380825
31
0.0
0
LINE
8
0
6
CONTINUOUS
10
-12.752550
20
-639.271195
30
0.0
11
-13.238850
21
-639.586865
31
0.0
0
LINE
8
0
6
CONTINUOUS
10
-12.498920
20
-639.212685
30
0.0
11
-12.752550
21
-639.271195
31
0.0
0
LINE
8
0
6
CONTINUOUS
10
-3.730430
20
-654.321855
30
0.0
11
-0.218710
21
-654.321845
31
0.0
0
LINE
8
0
6
CONTINUOUS
10
2.685840
20
-654.321855
30
0.0
11
4.480900
21
-654.321855
31
0.0
0
LINE
8
0
6
CONTINUOUS
10
4.480900
20
-654.321855
30
0.0
11
4.856190
21
-654.321855
31
0.0
0
LINE
8
0
6
CONTINUOUS
10
4.856190
20
-654.321855
30
0.0
11
5.355690
21
-654.118375
31
0.0
0
LINE
8
0
6
CONTINUOUS
10
5.355690
20
-654.118375
30
0.0
11
5.562590
21
-653.627095
31
0.0
0
LINE
8
0
6
CONTINUOUS
10
5.562590
20
-653.627095
30
0.0
11
5.562590
21
-653.370865
31
0.0
0
LINE
8
0
6
CONTINUOUS
10
-12.317050
20
-654.321845
30
0.0
11
-11.941760
21
-654.321845
31
0.0
0
LINE
8
0
6
CONTINUOUS
10
-12.816550
20
-654.118365
30
0.0
11
-12.317050
21
-654.321845
31
0.0
0
LINE
8
0
6
CONTINUOUS
10
-13.023450
20
-653.627085
30
0.0
11
-12.816550
21
-654.118365
31
0.0
0
LINE
8
0
6
CONTINUOUS
10
-13.023450
20
-653.370855
30
0.0
11
-13.023450
21
-653.627085
31
0.0
0
LINE
8
0
6
CONTINUOUS
10
-13.015890
20
-645.374335
30
0.0
11
-10.986010
21
-645.374335
31
0.0
0
LINE
8
0
6
CONTINUOUS
10
-7.701500
20
-645.374325
30
0.0
11
-3.730400
21
-645.374345
31
0.0
0
LINE
8
0
6
CONTINUOUS
10
-3.730400
20
-645.374345
30
0.0
11
0.240700
21
-645.374345
31
0.0
0
LINE
8
0
6
CONTINUOUS
10
0.240700
20
-645.374345
30
0.0
11
3.525200
21
-645.374345
31
0.0
0
LINE
8
0
6
CONTINUOUS
10
5.979410
20
-645.374355
30
0.0
11
5.979410
21
-645.188745
31
0.0
0
LINE
8
0
6
CONTINUOUS
10
5.555030
20
-645.374355
30
0.0
11
5.979410
21
-645.374355
31
0.0
0
LINE
8
0
6
CONTINUOUS
10
-13.440280
20
-645.188735
30
0.0
11
-13.440280
21
-645.374335
31
0.0
0
LINE
8
0
6
CONTINUOUS
10
-13.440280
20
-645.374335
30
0.0
11
-13.015890
21
-645.374335
31
0.0
0
LINE
8
0
6
CONTINUOUS
10
-7.701500
20
-645.374325
30
0.0
11
-10.986010
21
-645.374335
31
0.0
0
LINE
8
0
6
CONTINUOUS
10
5.555030
20
-645.374355
30
0.0
11
3.525200
21
-645.374345
31
0.0
0
LINE
8
0
6
CONTINUOUS
10
-110.114230
20
-661.507035
30
0.0
11
-110.114730
21
-663.218835
31
0.0
0
LINE
8
0
6
CONTINUOUS
10
-110.115600
20
-674.025495
30
0.0
11
-110.115740
21
-678.700095
31
0.0
0
LINE
8
0
6
CONTINUOUS
10
-110.115650
20
-691.418075
30
0.0
11
-110.115270
21
-694.247885
31
0.0
0
LINE
8
0
6
CONTINUOUS
10
-110.113890
20
-660.938415
30
0.0
11
-110.114230
21
-661.507035
31
0.0
0
LINE
8
0
6
CONTINUOUS
10
-98.735670
20
-660.938415
30
0.0
11
-110.113890
21
-660.938415
31
0.0
0
LINE
8
0
6
CONTINUOUS
10
-110.119070
20
-669.659805
30
0.0
11
-110.115600
21
-674.025495
31
0.0
0
LINE
8
0
6
CONTINUOUS
10
-110.115820
20
-687.698665
30
0.0
11
-110.115650
21
-691.418075
31
0.0
0
LINE
8
0
6
CONTINUOUS
10
-110.114890
20
-696.003715
30
0.0
11
-110.114510
21
-696.561045
31
0.0
0
LINE
8
0
6
CONTINUOUS
10
-110.114510
20
-696.561045
30
0.0
11
-98.735670
21
-696.561045
31
0.0
0
LINE
8
0
6
CONTINUOUS
10
-110.115840
20
-666.006005
30
0.0
11
-110.119070
21
-669.659805
31
0.0
0
LINE
8
0
6
CONTINUOUS
10
-110.115820
20
-683.390655
30
0.0
11
-110.115820
21
-687.698665
31
0.0
0
LINE
8
0
6
CONTINUOUS
10
-110.115740
20
-678.700095
30
0.0
11
-110.115820
21
-683.390655
31
0.0
0
LINE
8
0
6
CONTINUOUS
10
-110.115270
20
-694.247885
30
0.0
11
-110.114890
21
-696.003715
31
0.0
0
LINE
8
0
6
CONTINUOUS
10
-110.114730
20
-663.218835
30
0.0
11
-110.115840
21
-666.006005
31
0.0
0
LINE
8
0
6
CONTINUOUS
10
102.643430
20
-663.218835
30
0.0
11
102.642930
21
-661.507035
31
0.0
0
LINE
8
0
6
CONTINUOUS
10
102.644440
20
-678.700095
30
0.0
11
102.644300
21
-674.025495
31
0.0
0
LINE
8
0
6
CONTINUOUS
10
102.643970
20
-694.247885
30
0.0
11
102.644360
21
-691.418075
31
0.0
0
LINE
8
0
6
CONTINUOUS
10
102.642590
20
-660.938415
30
0.0
11
91.264370
21
-660.938415
31
0.0
0
LINE
8
0
6
CONTINUOUS
10
102.642930
20
-661.507035
30
0.0
11
102.642590
21
-660.938415
31
0.0
0
LINE
8
0
6
CONTINUOUS
10
102.644300
20
-674.025495
30
0.0
11
102.647770
21
-669.659805
31
0.0
0
LINE
8
0
6
CONTINUOUS
10
102.644360
20
-691.418075
30
0.0
11
102.644520
21
-687.698665
31
0.0
0
LINE
8
0
6
CONTINUOUS
10
91.264360
20
-696.561045
30
0.0
11
102.643210
21
-696.561045
31
0.0
0
LINE
8
0
6
CONTINUOUS
10
102.643210
20
-696.561045
30
0.0
11
102.643590
21
-696.003715
31
0.0
0
LINE
8
0
6
CONTINUOUS
10
102.647770
20
-669.659805
30
0.0
11
102.644540
21
-666.006005
31
0.0
0
LINE
8
0
6
CONTINUOUS
10
102.644520
20
-687.698665
30
0.0
11
102.644520
21
-683.390655
31
0.0
0
LINE
8
0
6
CONTINUOUS
10
102.644520
20
-683.390655
30
0.0
11
102.644440
21
-678.700095
31
0.0
0
LINE
8
0
6
CONTINUOUS
10
102.643590
20
-696.003715
30
0.0
11
102.643970
21
-694.247885
31
0.0
0
LINE
8
0
6
CONTINUOUS
10
102.644540
20
-666.006005
30
0.0
11
102.643430
21
-663.218835
31
0.0
0
LINE
8
0
6
CONTINUOUS
10
-20.644150
20
-685.128295
30
0.0
11
-20.561910
21
-686.336985
31
0.0
0
LINE
8
0
6
CONTINUOUS
10
-20.437050
20
-687.098855
30
0.0
11
-20.425580
21
-691.545865
31
0.0
0
LINE
8
0
6
CONTINUOUS
10
-20.561910
20
-686.336985
30
0.0
11
-20.475800
21
-687.708155
31
0.0
0
LINE
8
0
6
CONTINUOUS
10
-20.975750
20
-677.742345
30
0.0
11
-20.770170
21
-682.358525
31
0.0
0
LINE
8
0
6
CONTINUOUS
10
-20.701940
20
-684.114235
30
0.0
11
-20.644150
21
-685.128295
31
0.0
0
LINE
8
0
6
CONTINUOUS
10
-20.740620
20
-683.307175
30
0.0
11
-20.701940
21
-684.114235
31
0.0
0
LINE
8
0
6
CONTINUOUS
10
-20.425580
20
-691.545865
30
0.0
11
-20.424380
21
-691.736315
31
0.0
0
LINE
8
0
6
CONTINUOUS
10
-19.513360
20
-690.630345
30
0.0
11
-20.424380
21
-691.736315
31
0.0
0
LINE
8
0
6
CONTINUOUS
10
-3.735650
20
-687.624495
30
0.0
11
-8.423750
21
-687.794235
31
0.0
0
LINE
8
0
6
CONTINUOUS
10
-20.424380
20
-691.736315
30
0.0
11
-20.326990
21
-692.944915
31
0.0
0
LINE
8
0
6
CONTINUOUS
10
-16.889600
20
-695.143865
30
0.0
11
-15.254080
21
-695.620245
31
0.0
0
LINE
8
0
6
CONTINUOUS
10
-19.200610
20
-694.075395
30
0.0
11
-16.889600
21
-695.143865
31
0.0
0
LINE
8
0
6
CONTINUOUS
10
-8.423750
20
-687.794235
30
0.0
11
-11.975260
21
-688.177635
31
0.0
0
LINE
8
0
6
CONTINUOUS
10
-11.975260
20
-688.177635
30
0.0
11
-15.084810
21
-688.793755
31
0.0
0
LINE
8
0
6
CONTINUOUS
10
-15.084810
20
-688.793755
30
0.0
11
-17.661210
21
-689.622365
31
0.0
0
LINE
8
0
6
CONTINUOUS
10
-17.661210
20
-689.622365
30
0.0
11
-19.513360
21
-690.630345
31
0.0
0
LINE
8
0
6
CONTINUOUS
10
-20.326990
20
-692.944915
30
0.0
11
-19.200610
21
-694.075395
31
0.0
0
LINE
8
0
6
CONTINUOUS
10
-74.498210
20
-697.943315
30
0.0
11
-70.443460
21
-697.943315
31
0.0
0
LINE
8
0
6
CONTINUOUS
10
-68.011820
20
-659.541615
30
0.0
11
-70.465210
21
-659.590135
31
0.0
0
LINE
8
0
6
CONTINUOUS
10
-82.579130
20
-697.571925
30
0.0
11
-78.541200
21
-697.917205
31
0.0
0
LINE
8
0
6
CONTINUOUS
10
-78.541200
20
-697.917205
30
0.0
11
-74.498210
21
-697.943315
31
0.0
0
LINE
8
0
6
CONTINUOUS
10
-70.443460
20
-697.943315
30
0.0
11
-67.991020
21
-697.943315
31
0.0
0
LINE
8
0
6
CONTINUOUS
10
-33.982280
20
-659.540915
30
0.0
11
-68.011820
21
-659.541615
31
0.0
0
LINE
8
0
6
CONTINUOUS
10
-74.519250
20
-659.570035
30
0.0
11
-78.574510
21
-659.589695
31
0.0
0
LINE
8
0
6
CONTINUOUS
10
-82.614980
20
-697.708275
30
0.0
11
-78.574500
21
-697.708275
31
0.0
0
LINE
8
0
6
CONTINUOUS
10
-78.574510
20
-659.589695
30
0.0
11
-82.614990
21
-659.627075
31
0.0
0
LINE
8
0
6
CONTINUOUS
10
-86.668750
20
-697.708275
30
0.0
11
-82.614980
21
-697.708275
31
0.0
0
LINE
8
0
6
CONTINUOUS
10
-82.614990
20
-659.627075
30
0.0
11
-86.668760
21
-659.665375
31
0.0
0
LINE
8
0
6
CONTINUOUS
10
-92.702220
20
-697.708275
30
0.0
11
-86.668750
21
-697.708275
31
0.0
0
LINE
8
0
6
CONTINUOUS
10
-86.668760
20
-659.665375
30
0.0
11
-92.702230
21
-659.720885
31
0.0
0
LINE
8
0
6
CONTINUOUS
10
-98.410380
20
-697.708275
30
0.0
11
-92.702220
21
-697.708275
31
0.0
0
LINE
8
0
6
CONTINUOUS
10
-92.702230
20
-659.720885
30
0.0
11
-98.410390
21
-659.773405
31
0.0
0
LINE
8
0
6
CONTINUOUS
10
-98.735670
20
-669.119675
30
0.0
11
-98.735670
21
-673.716355
31
0.0
0
LINE
8
0
6
CONTINUOUS
10
-98.735670
20
-683.582055
30
0.0
11
-98.735660
21
-688.178745
31
0.0
0
LINE
8
0
6
CONTINUOUS
10
-98.735660
20
-697.708275
30
0.0
11
-98.410380
21
-697.708275
31
0.0
0
LINE
8
0
6
CONTINUOUS
10
-98.735660
20
-697.058855
30
0.0
11
-98.735660
21
-697.708275
31
0.0
0
LINE
8
0
6
CONTINUOUS
10
-98.735670
20
-673.716355
30
0.0
11
-98.735670
21
-678.649205
31
0.0
0
LINE
8
0
6
CONTINUOUS
10
-98.735660
20
-688.178745
30
0.0
11
-98.735660
21
-692.126005
31
0.0
0
LINE
8
0
6
CONTINUOUS
10
-98.735670
20
-660.239565
30
0.0
11
-98.735670
21
-662.143565
31
0.0
0
LINE
8
0
6
CONTINUOUS
10
-98.735670
20
-662.143565
30
0.0
11
-98.735670
21
-665.172405
31
0.0
0
LINE
8
0
6
CONTINUOUS
10
-98.735670
20
-665.172405
30
0.0
11
-98.735670
21
-669.119675
31
0.0
0
LINE
8
0
6
CONTINUOUS
10
-98.735670
20
-678.649205
30
0.0
11
-98.735670
21
-683.582055
31
0.0
0
LINE
8
0
6
CONTINUOUS
10
-98.735660
20
-695.154845
30
0.0
11
-98.735660
21
-697.058855
31
0.0
0
LINE
8
0
6
CONTINUOUS
10
-98.735660
20
-692.126005
30
0.0
11
-98.735660
21
-695.154845
31
0.0
0
LINE
8
0
6
CONTINUOUS
10
-70.465210
20
-659.590135
30
0.0
11
-74.519250
21
-659.570035
31
0.0
0
LINE
8
0
6
CONTINUOUS
10
-98.735670
20
-659.776385
30
0.0
11
-98.735670
21
-660.239565
31
0.0
0
LINE
8
0
6
CONTINUOUS
10
-98.410390
20
-659.773405
30
0.0
11
-98.735670
21
-659.776385
31
0.0
0
LINE
8
0
6
CONTINUOUS
10
-67.991020
20
-697.943315
30
0.0
11
-33.982170
21
-697.943315
31
0.0
0
LINE
8
0
6
CONTINUOUS
10
-33.982170
20
-697.943315
30
0.0
11
-17.453746
21
-697.943315
31
0.0
0
LINE
8
0
6
CONTINUOUS
10
-10.610380
20
-659.544051
30
0.0
11
-14.810030
21
-659.543445
31
0.0
0
LINE
8
0
6
CONTINUOUS
10
-14.810030
20
-659.543445
30
0.0
11
-33.982280
21
-659.540915
31
0.0
0
LINE
8
0
6
CONTINUOUS
10
13.090610
20
-686.336985
30
0.0
11
13.172850
21
-685.128295
31
0.0
0
LINE
8
0
6
CONTINUOUS
10
12.954290
20
-691.545865
30
0.0
11
12.965750
21
-687.098855
31
0.0
0
LINE
8
0
6
CONTINUOUS
10
13.004500
20
-687.708155
30
0.0
11
13.090610
21
-686.336985
31
0.0
0
LINE
8
0
6
CONTINUOUS
10
13.298870
20
-682.358525
30
0.0
11
13.504450
21
-677.742345
31
0.0
0
LINE
8
0
6
CONTINUOUS
10
13.172850
20
-685.128295
30
0.0
11
13.230640
21
-684.114235
31
0.0
0
LINE
8
0
6
CONTINUOUS
10
13.230640
20
-684.114235
30
0.0
11
13.269320
21
-683.307175
31
0.0
0
LINE
8
0
6
CONTINUOUS
10
12.953080
20
-691.736315
30
0.0
11
12.954290
21
-691.545865
31
0.0
0
LINE
8
0
6
CONTINUOUS
10
12.953080
20
-691.736315
30
0.0
11
12.042060
21
-690.630345
31
0.0
0
LINE
8
0
6
CONTINUOUS
10
0.952450
20
-687.794235
30
0.0
11
-3.735650
21
-687.624495
31
0.0
0
LINE
8
0
6
CONTINUOUS
10
12.855690
20
-692.944915
30
0.0
11
12.953080
21
-691.736315
31
0.0
0
LINE
8
0
6
CONTINUOUS
10
8.032210
20
-695.547594
30
0.0
11
9.418300
21
-695.143865
31
0.0
0
LINE
8
0
6
CONTINUOUS
10
9.418300
20
-695.143865
30
0.0
11
11.729310
21
-694.075395
31
0.0
0
LINE
8
0
6
CONTINUOUS
10
4.503960
20
-688.177635
30
0.0
11
0.952450
21
-687.794235
31
0.0
0
LINE
8
0
6
CONTINUOUS
10
7.613510
20
-688.793755
30
0.0
11
4.503960
21
-688.177635
31
0.0
0
LINE
8
0
6
CONTINUOUS
10
10.189910
20
-689.622365
30
0.0
11
7.613510
21
-688.793755
31
0.0
0
LINE
8
0
6
CONTINUOUS
10
12.042060
20
-690.630345
30
0.0
11
10.189910
21
-689.622365
31
0.0
0
LINE
8
0
6
CONTINUOUS
10
11.729310
20
-694.075395
30
0.0
11
12.855690
21
-692.944915
31
0.0
0
LINE
8
0
6
CONTINUOUS
10
62.972160
20
-697.943315
30
0.0
11
67.026910
21
-697.943315
31
0.0
0
LINE
8
0
6
CONTINUOUS
10
62.993910
20
-659.590135
30
0.0
11
60.540520
21
-659.541615
31
0.0
0
LINE
8
0
6
CONTINUOUS
10
71.069900
20
-697.917205
30
0.0
11
75.107830
21
-697.571925
31
0.0
0
LINE
8
0
6
CONTINUOUS
10
67.026910
20
-697.943315
30
0.0
11
71.069900
21
-697.917205
31
0.0
0
LINE
8
0
6
CONTINUOUS
10
60.519720
20
-697.943315
30
0.0
11
62.972160
21
-697.943315
31
0.0
0
LINE
8
0
6
CONTINUOUS
10
60.540520
20
-659.541615
30
0.0
11
26.510980
21
-659.540915
31
0.0
0
LINE
8
0
6
CONTINUOUS
10
71.103210
20
-659.589695
30
0.0
11
67.047950
21
-659.570035
31
0.0
0
LINE
8
0
6
CONTINUOUS
10
71.103200
20
-697.708275
30
0.0
11
75.143680
21
-697.708275
31
0.0
0
LINE
8
0
6
CONTINUOUS
10
75.143690
20
-659.627075
30
0.0
11
71.103210
21
-659.589695
31
0.0
0
LINE
8
0
6
CONTINUOUS
10
75.143680
20
-697.708275
30
0.0
11
79.197450
21
-697.708275
31
0.0
0
LINE
8
0
6
CONTINUOUS
10
79.197460
20
-659.665375
30
0.0
11
75.143690
21
-659.627075
31
0.0
0
LINE
8
0
6
CONTINUOUS
10
79.197450
20
-697.708275
30
0.0
11
85.230920
21
-697.708275
31
0.0
0
LINE
8
0
6
CONTINUOUS
10
85.230930
20
-659.720885
30
0.0
11
79.197460
21
-659.665375
31
0.0
0
LINE
8
0
6
CONTINUOUS
10
85.230920
20
-697.708275
30
0.0
11
90.939080
21
-697.708275
31
0.0
0
LINE
8
0
6
CONTINUOUS
10
90.939090
20
-659.773405
30
0.0
11
85.230930
21
-659.720885
31
0.0
0
LINE
8
0
6
CONTINUOUS
10
91.264370
20
-673.716355
30
0.0
11
91.264370
21
-669.119675
31
0.0
0
LINE
8
0
6
CONTINUOUS
10
91.264360
20
-688.178745
30
0.0
11
91.264370
21
-683.582055
31
0.0
0
LINE
8
0
6
CONTINUOUS
10
91.264360
20
-697.708275
30
0.0
11
91.264360
21
-697.058855
31
0.0
0
LINE
8
0
6
CONTINUOUS
10
90.939080
20
-697.708275
30
0.0
11
91.264360
21
-697.708275
31
0.0
0
LINE
8
0
6
CONTINUOUS
10
91.264370
20
-678.649205
30
0.0
11
91.264370
21
-673.716355
31
0.0
0
LINE
8
0
6
CONTINUOUS
10
91.264360
20
-692.126005
30
0.0
11
91.264360
21
-688.178745
31
0.0
0
LINE
8
0
6
CONTINUOUS
10
91.264370
20
-662.143565
30
0.0
11
91.264370
21
-660.239565
31
0.0
0
LINE
8
0
6
CONTINUOUS
10
91.264370
20
-665.172405
30
0.0
11
91.264370
21
-662.143565
31
0.0
0
LINE
8
0
6
CONTINUOUS
10
91.264370
20
-669.119675
30
0.0
11
91.264370
21
-665.172405
31
0.0
0
LINE
8
0
6
CONTINUOUS
10
91.264370
20
-683.582055
30
0.0
11
91.264370
21
-678.649205
31
0.0
0
LINE
8
0
6
CONTINUOUS
10
91.264360
20
-697.058855
30
0.0
11
91.264360
21
-695.154845
31
0.0
0
LINE
8
0
6
CONTINUOUS
10
91.264360
20
-695.154845
30
0.0
11
91.264360
21
-692.126005
31
0.0
0
LINE
8
0
6
CONTINUOUS
10
67.047950
20
-659.570035
30
0.0
11
62.993910
21
-659.590135
31
0.0
0
LINE
8
0
6
CONTINUOUS
10
91.264370
20
-659.776385
30
0.0
11
90.939090
21
-659.773405
31
0.0
0
LINE
8
0
6
CONTINUOUS
10
91.264370
20
-660.239565
30
0.0
11
91.264370
21
-659.776385
31
0.0
0
LINE
8
0
6
CONTINUOUS
10
26.510870
20
-697.943315
30
0.0
11
60.519720
21
-697.943315
31
0.0
0
LINE
8
0
6
CONTINUOUS
10
9.992907
20
-697.943315
30
0.0
11
26.510870
21
-697.943315
31
0.0
0
LINE
8
0
6
CONTINUOUS
10
7.338730
20
-659.543445
30
0.0
11
3.149520
21
-659.544049
31
0.0
0
LINE
8
0
6
CONTINUOUS
10
26.510980
20
-659.540915
30
0.0
11
7.338730
21
-659.543445
31
0.0
0
LINE
8
0
6
CONTINUOUS
10
-154.911220
20
-697.142145
30
0.0
11
-110.633000
21
-697.594985
31
0.0
0
LINE
8
0
6
CONTINUOUS
10
-110.631660
20
-659.908675
30
0.0
11
-135.184177
21
-660.127110
31
0.0
0
LINE
8
0
6
CONTINUOUS
10
-110.633000
20
-697.594985
30
0.0
11
-110.373760
21
-697.596505
31
0.0
0
LINE
8
0
6
CONTINUOUS
10
-110.374370
20
-697.006755
30
0.0
11
-110.373760
21
-697.596505
31
0.0
0
LINE
8
0
6
CONTINUOUS
10
-110.114510
20
-696.561045
30
0.0
11
-110.114890
21
-696.003715
31
0.0
0
LINE
8
0
6
CONTINUOUS
10
-110.373760
20
-697.596505
30
0.0
11
-110.114510
21
-696.561045
31
0.0
0
LINE
8
0
6
CONTINUOUS
10
-110.374980
20
-695.149075
30
0.0
11
-110.374370
21
-697.006755
31
0.0
0
LINE
8
0
6
CONTINUOUS
10
-110.114890
20
-696.003715
30
0.0
11
-110.115270
21
-694.247885
31
0.0
0
LINE
8
0
6
CONTINUOUS
10
-110.375510
20
-692.155145
30
0.0
11
-110.374980
21
-695.149075
31
0.0
0
LINE
8
0
6
CONTINUOUS
10
-110.115270
20
-694.247885
30
0.0
11
-110.115650
21
-691.418075
31
0.0
0
LINE
8
0
6
CONTINUOUS
10
-110.375830
20
-688.220055
30
0.0
11
-110.375510
21
-692.155145
31
0.0
0
LINE
8
0
6
CONTINUOUS
10
-110.115650
20
-691.418075
30
0.0
11
-110.115820
21
-687.698665
31
0.0
0
LINE
8
0
6
CONTINUOUS
10
-110.375790
20
-683.661955
30
0.0
11
-110.375830
21
-688.220055
31
0.0
0
LINE
8
0
6
CONTINUOUS
10
-110.115820
20
-687.698665
30
0.0
11
-110.115820
21
-683.390655
31
0.0
0
LINE
8
0
6
CONTINUOUS
10
-110.375670
20
-678.699485
30
0.0
11
-110.375790
21
-683.661955
31
0.0
0
LINE
8
0
6
CONTINUOUS
10
-110.115820
20
-683.390655
30
0.0
11
-110.115740
21
-678.700095
31
0.0
0
LINE
8
0
6
CONTINUOUS
10
-110.375490
20
-673.753815
30
0.0
11
-110.375670
21
-678.699485
31
0.0
0
LINE
8
0
6
CONTINUOUS
10
-110.115740
20
-678.700095
30
0.0
11
-110.115600
21
-674.025495
31
0.0
0
LINE
8
0
6
CONTINUOUS
10
-110.380990
20
-669.134745
30
0.0
11
-110.375490
21
-673.753815
31
0.0
0
LINE
8
0
6
CONTINUOUS
10
-110.115600
20
-674.025495
30
0.0
11
-110.119070
21
-669.659805
31
0.0
0
LINE
8
0
6
CONTINUOUS
10
-110.375850
20
-665.269085
30
0.0
11
-110.380990
21
-669.134745
31
0.0
0
LINE
8
0
6
CONTINUOUS
10
-110.119070
20
-669.659805
30
0.0
11
-110.115840
21
-666.006005
31
0.0
0
LINE
8
0
6
CONTINUOUS
10
-110.374050
20
-662.320175
30
0.0
11
-110.375850
21
-665.269085
31
0.0
0
LINE
8
0
6
CONTINUOUS
10
-110.115840
20
-666.006005
30
0.0
11
-110.114730
21
-663.218835
31
0.0
0
LINE
8
0
6
CONTINUOUS
10
-110.373330
20
-660.508955
30
0.0
11
-110.374050
21
-662.320175
31
0.0
0
LINE
8
0
6
CONTINUOUS
10
-110.114730
20
-663.218835
30
0.0
11
-110.114230
21
-661.507035
31
0.0
0
LINE
8
0
6
CONTINUOUS
10
-110.372760
20
-659.907375
30
0.0
11
-110.631660
21
-659.908675
31
0.0
0
LINE
8
0
6
CONTINUOUS
10
-110.372760
20
-659.907375
30
0.0
11
-110.373330
21
-660.508955
31
0.0
0
LINE
8
0
6
CONTINUOUS
10
-110.113890
20
-660.938415
30
0.0
11
-110.372760
21
-659.907375
31
0.0
0
LINE
8
0
6
CONTINUOUS
10
-110.114230
20
-661.507035
30
0.0
11
-110.113890
21
-660.938415
31
0.0
0
LINE
8
0
6
CONTINUOUS
10
-155.720460
20
-669.344675
30
0.0
11
-155.720490
21
-673.891255
31
0.0
0
LINE
8
0
6
CONTINUOUS
10
-155.720490
20
-673.891255
30
0.0
11
-155.720480
21
-678.693355
31
0.0
0
LINE
8
0
6
CONTINUOUS
10
-155.720480
20
-678.693355
30
0.0
11
-155.720480
21
-683.499795
31
0.0
0
LINE
8
0
6
CONTINUOUS
10
-155.720480
20
-683.499795
30
0.0
11
-155.720480
21
-687.978785
31
0.0
0
LINE
8
0
6
CONTINUOUS
10
-155.720480
20
-687.978785
30
0.0
11
-155.720470
21
-691.800655
31
0.0
0
LINE
8
0
6
CONTINUOUS
10
-155.720470
20
-691.800655
30
0.0
11
-155.720470
21
-694.721565
31
0.0
0
LINE
8
0
6
CONTINUOUS
10
-155.720470
20
-694.721565
30
0.0
11
-155.720470
21
-696.539115
31
0.0
0
LINE
8
0
6
CONTINUOUS
10
-155.720470
20
-696.539115
30
0.0
11
-155.720470
21
-697.133825
31
0.0
0
LINE
8
0
6
CONTINUOUS
10
-155.720470
20
-697.133825
30
0.0
11
-154.911220
21
-697.142145
31
0.0
0
LINE
8
0
6
CONTINUOUS
10
-135.192550
20
-659.617325
30
0.0
11
-135.754530
21
-659.625565
31
0.0
0
LINE
8
0
6
CONTINUOUS
10
-156.004770
20
-664.940455
30
0.0
11
-155.951890
21
-670.601765
31
0.0
0
LINE
8
0
6
CONTINUOUS
10
-156.012940
20
-663.825265
30
0.0
11
-156.004770
21
-664.940455
31
0.0
0
LINE
8
0
6
CONTINUOUS
10
-156.019000
20
-662.415805
30
0.0
11
-156.012940
21
-663.825265
31
0.0
0
LINE
8
0
6
CONTINUOUS
10
-156.021330
20
-661.089665
30
0.0
11
-156.019000
21
-662.415805
31
0.0
0
LINE
8
0
6
CONTINUOUS
10
-156.013510
20
-659.922145
30
0.0
11
-156.019310
21
-660.133095
31
0.0
0
LINE
8
0
6
CONTINUOUS
10
-155.468240
20
-659.909325
30
0.0
11
-156.013510
21
-659.922145
31
0.0
0
LINE
8
0
6
CONTINUOUS
10
-156.019310
20
-660.133095
30
0.0
11
-156.021330
21
-661.089665
31
0.0
0
LINE
8
0
6
CONTINUOUS
10
-135.754530
20
-659.625565
30
0.0
11
-155.468240
21
-659.909325
31
0.0
0
LINE
8
0
6
CONTINUOUS
10
-135.197810
20
-663.630615
30
0.0
11
-135.190110
21
-664.747185
31
0.0
0
LINE
8
0
6
CONTINUOUS
10
-135.202700
20
-662.217195
30
0.0
11
-135.197810
21
-663.630615
31
0.0
0
LINE
8
0
6
CONTINUOUS
10
-135.203420
20
-660.885635
30
0.0
11
-135.202700
21
-662.217195
31
0.0
0
LINE
8
0
6
CONTINUOUS
10
-135.192550
20
-659.617325
30
0.0
11
-135.199570
21
-659.832245
31
0.0
0
LINE
8
0
6
CONTINUOUS
10
-135.184000
20
-660.137885
30
0.0
11
-135.192550
21
-659.617325
31
0.0
0
LINE
8
0
6
CONTINUOUS
10
-135.190110
20
-664.747185
30
0.0
11
-135.137230
21
-670.408495
31
0.0
0
LINE
8
0
6
CONTINUOUS
10
-135.131170
20
-665.799195
30
0.0
11
-135.184000
21
-660.137885
31
0.0
0
LINE
8
0
6
CONTINUOUS
10
-135.199570
20
-659.832245
30
0.0
11
-135.203420
21
-660.885635
31
0.0
0
LINE
8
0
6
CONTINUOUS
10
103.161700
20
-697.594985
30
0.0
11
147.439930
21
-697.142145
31
0.0
0
LINE
8
0
6
CONTINUOUS
10
127.712887
20
-660.127111
30
0.0
11
103.160360
21
-659.908675
31
0.0
0
LINE
8
0
6
CONTINUOUS
10
102.902460
20
-697.596505
30
0.0
11
103.161700
21
-697.594985
31
0.0
0
LINE
8
0
6
CONTINUOUS
10
102.643210
20
-696.561045
30
0.0
11
102.902460
21
-697.596505
31
0.0
0
LINE
8
0
6
CONTINUOUS
10
102.643590
20
-696.003715
30
0.0
11
102.643210
21
-696.561045
31
0.0
0
LINE
8
0
6
CONTINUOUS
10
102.902460
20
-697.596505
30
0.0
11
102.903070
21
-697.006755
31
0.0
0
LINE
8
0
6
CONTINUOUS
10
102.643970
20
-694.247885
30
0.0
11
102.643590
21
-696.003715
31
0.0
0
LINE
8
0
6
CONTINUOUS
10
102.903070
20
-697.006755
30
0.0
11
102.903680
21
-695.149075
31
0.0
0
LINE
8
0
6
CONTINUOUS
10
102.644360
20
-691.418075
30
0.0
11
102.643970
21
-694.247885
31
0.0
0
LINE
8
0
6
CONTINUOUS
10
102.903680
20
-695.149075
30
0.0
11
102.904210
21
-692.155145
31
0.0
0
LINE
8
0
6
CONTINUOUS
10
102.644520
20
-687.698665
30
0.0
11
102.644360
21
-691.418075
31
0.0
0
LINE
8
0
6
CONTINUOUS
10
102.904210
20
-692.155145
30
0.0
11
102.904530
21
-688.220055
31
0.0
0
LINE
8
0
6
CONTINUOUS
10
102.644520
20
-683.390655
30
0.0
11
102.644520
21
-687.698665
31
0.0
0
LINE
8
0
6
CONTINUOUS
10
102.904530
20
-688.220055
30
0.0
11
102.904490
21
-683.661955
31
0.0
0
LINE
8
0
6
CONTINUOUS
10
102.644440
20
-678.700095
30
0.0
11
102.644520
21
-683.390655
31
0.0
0
LINE
8
0
6
CONTINUOUS
10
102.904490
20
-683.661955
30
0.0
11
102.904370
21
-678.699485
31
0.0
0
LINE
8
0
6
CONTINUOUS
10
102.644300
20
-674.025495
30
0.0
11
102.644440
21
-678.700095
31
0.0
0
LINE
8
0
6
CONTINUOUS
10
102.904370
20
-678.699485
30
0.0
11
102.904190
21
-673.753815
31
0.0
0
LINE
8
0
6
CONTINUOUS
10
102.647770
20
-669.659805
30
0.0
11
102.644300
21
-674.025495
31
0.0
0
LINE
8
0
6
CONTINUOUS
10
102.904190
20
-673.753815
30
0.0
11
102.909690
21
-669.134745
31
0.0
0
LINE
8
0
6
CONTINUOUS
10
102.644540
20
-666.006005
30
0.0
11
102.647770
21
-669.659805
31
0.0
0
LINE
8
0
6
CONTINUOUS
10
102.909690
20
-669.134745
30
0.0
11
102.904550
21
-665.269085
31
0.0
0
LINE
8
0
6
CONTINUOUS
10
102.643430
20
-663.218835
30
0.0
11
102.644540
21
-666.006005
31
0.0
0
LINE
8
0
6
CONTINUOUS
10
102.904550
20
-665.269085
30
0.0
11
102.902750
21
-662.320175
31
0.0
0
LINE
8
0
6
CONTINUOUS
10
102.642930
20
-661.507035
30
0.0
11
102.643430
21
-663.218835
31
0.0
0
LINE
8
0
6
CONTINUOUS
10
102.902750
20
-662.320175
30
0.0
11
102.902030
21
-660.508955
31
0.0
0
LINE
8
0
6
CONTINUOUS
10
103.160360
20
-659.908675
30
0.0
11
102.901460
21
-659.907375
31
0.0
0
LINE
8
0
6
CONTINUOUS
10
102.642590
20
-660.938415
30
0.0
11
102.642930
21
-661.507035
31
0.0
0
LINE
8
0
6
CONTINUOUS
10
102.901460
20
-659.907375
30
0.0
11
102.642590
21
-660.938415
31
0.0
0
LINE
8
0
6
CONTINUOUS
10
102.902030
20
-660.508955
30
0.0
11
102.901460
21
-659.907375
31
0.0
0
LINE
8
0
6
CONTINUOUS
10
148.249190
20
-673.891255
30
0.0
11
148.249166
21
-670.256621
31
0.0
0
LINE
8
0
6
CONTINUOUS
10
148.249190
20
-678.693355
30
0.0
11
148.249190
21
-673.891255
31
0.0
0
LINE
8
0
6
CONTINUOUS
10
148.249190
20
-683.499795
30
0.0
11
148.249190
21
-678.693355
31
0.0
0
LINE
8
0
6
CONTINUOUS
10
148.249190
20
-687.978785
30
0.0
11
148.249190
21
-683.499795
31
0.0
0
LINE
8
0
6
CONTINUOUS
10
148.249180
20
-691.800655
30
0.0
11
148.249190
21
-687.978785
31
0.0
0
LINE
8
0
6
CONTINUOUS
10
148.249180
20
-694.721565
30
0.0
11
148.249180
21
-691.800655
31
0.0
0
LINE
8
0
6
CONTINUOUS
10
148.249180
20
-696.539115
30
0.0
11
148.249180
21
-694.721565
31
0.0
0
LINE
8
0
6
CONTINUOUS
10
147.439930
20
-697.142145
30
0.0
11
148.249180
21
-697.133825
31
0.0
0
LINE
8
0
6
CONTINUOUS
10
148.249180
20
-697.133825
30
0.0
11
148.249180
21
-696.539115
31
0.0
0
LINE
8
0
6
CONTINUOUS
10
128.283230
20
-659.625565
30
0.0
11
127.721250
21
-659.617325
31
0.0
0
LINE
8
0
6
CONTINUOUS
10
148.480590
20
-670.601765
30
0.0
11
148.533480
21
-664.940455
31
0.0
0
LINE
8
0
6
CONTINUOUS
10
148.533480
20
-664.940455
30
0.0
11
148.541640
21
-663.825265
31
0.0
0
LINE
8
0
6
CONTINUOUS
10
148.541640
20
-663.825265
30
0.0
11
148.547700
21
-662.415805
31
0.0
0
LINE
8
0
6
CONTINUOUS
10
148.547700
20
-662.415805
30
0.0
11
148.550030
21
-661.089665
31
0.0
0
LINE
8
0
6
CONTINUOUS
10
148.542210
20
-659.922145
30
0.0
11
147.996940
21
-659.909325
31
0.0
0
LINE
8
0
6
CONTINUOUS
10
148.548010
20
-660.133095
30
0.0
11
148.542210
21
-659.922145
31
0.0
0
LINE
8
0
6
CONTINUOUS
10
148.550030
20
-661.089665
30
0.0
11
148.548010
21
-660.133095
31
0.0
0
LINE
8
0
6
CONTINUOUS
10
147.996940
20
-659.909325
30
0.0
11
128.283230
21
-659.625565
31
0.0
0
LINE
8
0
6
CONTINUOUS
10
127.718810
20
-664.747185
30
0.0
11
127.726510
21
-663.630615
31
0.0
0
LINE
8
0
6
CONTINUOUS
10
127.726510
20
-663.630615
30
0.0
11
127.731400
21
-662.217195
31
0.0
0
LINE
8
0
6
CONTINUOUS
10
127.731400
20
-662.217195
30
0.0
11
127.732120
21
-660.885635
31
0.0
0
LINE
8
0
6
CONTINUOUS
10
127.728270
20
-659.832245
30
0.0
11
127.721250
21
-659.617325
31
0.0
0
LINE
8
0
6
CONTINUOUS
10
127.721250
20
-659.617325
30
0.0
11
127.712887
21
-660.127111
31
0.0
0
LINE
8
0
6
CONTINUOUS
10
127.668012
20
-670.185568
30
0.0
11
127.718810
21
-664.747185
31
0.0
0
LINE
8
0
6
CONTINUOUS
10
127.712710
20
-660.137885
30
0.0
11
127.662322
21
-665.536433
31
0.0
0
LINE
8
0
6
CONTINUOUS
10
127.732120
20
-660.885635
30
0.0
11
127.728270
21
-659.832245
31
0.0
0
LINE
8
0
6
CONTINUOUS
10
-15.254080
20
-696.478285
30
0.0
11
-15.254080
21
-696.914015
31
0.0
0
LINE
8
0
6
CONTINUOUS
10
8.032210
20
-696.478275
30
0.0
11
8.032210
21
-692.334825
31
0.0
0
LINE
8
0
6
CONTINUOUS
10
-15.254080
20
-692.334825
30
0.0
11
-15.254080
21
-696.478285
31
0.0
0
LINE
8
0
6
CONTINUOUS
10
8.032210
20
-696.914015
30
0.0
11
8.032210
21
-696.478275
31
0.0
0
LINE
8
0
6
CONTINUOUS
10
6.215910
20
-698.716905
30
0.0
11
7.333410
21
-697.980605
31
0.0
0
LINE
8
0
6
CONTINUOUS
10
-0.677110
20
-700.164085
30
0.0
11
2.024080
21
-699.859395
31
0.0
0
LINE
8
0
6
CONTINUOUS
10
2.024080
20
-699.859395
30
0.0
11
4.399590
21
-699.364345
31
0.0
0
LINE
8
0
6
CONTINUOUS
10
4.399590
20
-699.364345
30
0.0
11
6.215910
21
-698.716905
31
0.0
0
LINE
8
0
6
CONTINUOUS
10
-3.610940
20
-700.278335
30
0.0
11
-0.677110
21
-700.164085
31
0.0
0
LINE
8
0
6
CONTINUOUS
10
-11.621470
20
-699.364345
30
0.0
11
-9.245970
21
-699.859395
31
0.0
0
LINE
8
0
6
CONTINUOUS
10
-14.555300
20
-697.980605
30
0.0
11
-13.437790
21
-698.716905
31
0.0
0
LINE
8
0
6
CONTINUOUS
10
-13.437790
20
-698.716905
30
0.0
11
-11.621470
21
-699.364345
31
0.0
0
LINE
8
0
6
CONTINUOUS
10
-6.544770
20
-700.164085
30
0.0
11
-3.610940
21
-700.278335
31
0.0
0
LINE
8
0
6
CONTINUOUS
10
-9.245970
20
-699.859395
30
0.0
11
-6.544770
21
-700.164085
31
0.0
0
LINE
8
0
6
CONTINUOUS
10
-14.835340
20
-697.726505
30
0.0
11
-14.555300
21
-697.980605
31
0.0
0
LINE
8
0
6
CONTINUOUS
10
-15.254080
20
-696.914015
30
0.0
11
-14.835340
21
-697.726505
31
0.0
0
LINE
8
0
6
CONTINUOUS
10
7.333410
20
-697.980605
30
0.0
11
7.613460
21
-697.726505
31
0.0
0
LINE
8
0
6
CONTINUOUS
10
7.613460
20
-697.726505
30
0.0
11
8.032210
21
-696.914015
31
0.0
0
LINE
8
0
6
CONTINUOUS
10
-109.812990
20
-697.458195
30
0.0
11
-109.555690
21
-697.459705
31
0.0
0
LINE
8
0
6
CONTINUOUS
10
-109.812630
20
-660.046075
30
0.0
11
-109.555680
21
-660.044785
31
0.0
0
LINE
8
0
6
CONTINUOUS
10
-109.812782
20
-696.561045
30
0.0
11
-109.812800
21
-696.742245
31
0.0
0
LINE
8
0
6
CONTINUOUS
10
-109.812800
20
-696.742245
30
0.0
11
-109.812990
21
-697.458195
31
0.0
0
LINE
8
0
6
CONTINUOUS
10
-110.114890
20
-696.003715
30
0.0
11
-110.114510
21
-696.561045
31
0.0
0
LINE
8
0
6
CONTINUOUS
10
-109.812990
20
-697.458195
30
0.0
11
-109.813180
21
-696.872935
31
0.0
0
LINE
8
0
6
CONTINUOUS
10
-110.114510
20
-696.561045
30
0.0
11
-109.812990
21
-697.458195
31
0.0
0
LINE
8
0
6
CONTINUOUS
10
-110.115270
20
-694.247885
30
0.0
11
-110.114890
21
-696.003715
31
0.0
0
LINE
8
0
6
CONTINUOUS
10
-109.813180
20
-696.872935
30
0.0
11
-109.813410
21
-695.028885
31
0.0
0
LINE
8
0
6
CONTINUOUS
10
-110.115650
20
-691.418075
30
0.0
11
-110.115270
21
-694.247885
31
0.0
0
LINE
8
0
6
CONTINUOUS
10
-109.813410
20
-695.028885
30
0.0
11
-109.813560
21
-692.056945
31
0.0
0
LINE
8
0
6
CONTINUOUS
10
-110.115820
20
-687.698665
30
0.0
11
-110.115650
21
-691.418075
31
0.0
0
LINE
8
0
6
CONTINUOUS
10
-109.813560
20
-692.056945
30
0.0
11
-109.813680
21
-688.150595
31
0.0
0
LINE
8
0
6
CONTINUOUS
10
-110.115820
20
-683.390655
30
0.0
11
-110.115820
21
-687.698665
31
0.0
0
LINE
8
0
6
CONTINUOUS
10
-109.813680
20
-688.150595
30
0.0
11
-109.813640
21
-683.626205
31
0.0
0
LINE
8
0
6
CONTINUOUS
10
-110.115740
20
-678.700095
30
0.0
11
-110.115820
21
-683.390655
31
0.0
0
LINE
8
0
6
CONTINUOUS
10
-109.813640
20
-683.626205
30
0.0
11
-109.813640
21
-678.699885
31
0.0
0
LINE
8
0
6
CONTINUOUS
10
-110.115600
20
-674.025495
30
0.0
11
-110.115740
21
-678.700095
31
0.0
0
LINE
8
0
6
CONTINUOUS
10
-109.813640
20
-678.699885
30
0.0
11
-109.813580
21
-673.790445
31
0.0
0
LINE
8
0
6
CONTINUOUS
10
-110.119070
20
-669.659805
30
0.0
11
-110.115600
21
-674.025495
31
0.0
0
LINE
8
0
6
CONTINUOUS
10
-109.813580
20
-673.790445
30
0.0
11
-109.815390
21
-669.205475
31
0.0
0
LINE
8
0
6
CONTINUOUS
10
-110.115840
20
-666.006005
30
0.0
11
-110.119070
21
-669.659805
31
0.0
0
LINE
8
0
6
CONTINUOUS
10
-109.815390
20
-669.205475
30
0.0
11
-109.813660
21
-665.368115
31
0.0
0
LINE
8
0
6
CONTINUOUS
10
-110.114730
20
-663.218835
30
0.0
11
-110.115840
21
-666.006005
31
0.0
0
LINE
8
0
6
CONTINUOUS
10
-109.813660
20
-665.368115
30
0.0
11
-109.813090
21
-662.440855
31
0.0
0
LINE
8
0
6
CONTINUOUS
10
-110.114230
20
-661.507035
30
0.0
11
-110.114730
21
-663.218835
31
0.0
0
LINE
8
0
6
CONTINUOUS
10
-109.813090
20
-662.440855
30
0.0
11
-109.812860
21
-660.643215
31
0.0
0
LINE
8
0
6
CONTINUOUS
10
-110.113890
20
-660.938415
30
0.0
11
-110.114230
21
-661.507035
31
0.0
0
LINE
8
0
6
CONTINUOUS
10
-109.812860
20
-660.643215
30
0.0
11
-109.812630
21
-660.046075
31
0.0
0
LINE
8
0
6
CONTINUOUS
10
-109.812630
20
-660.046075
30
0.0
11
-109.812600
21
-660.739455
31
0.0
0
LINE
8
0
6
CONTINUOUS
10
-110.113890
20
-660.938415
30
0.0
11
-109.812630
21
-660.046075
31
0.0
0
LINE
8
0
6
CONTINUOUS
10
-109.812600
20
-660.739455
30
0.0
11
-109.812600
21
-660.938415
31
0.0
0
LINE
8
0
6
CONTINUOUS
10
-109.555680
20
-660.044785
30
0.0
11
-98.616350
21
-660.044785
31
0.0
0
LINE
8
0
6
CONTINUOUS
10
-109.555690
20
-697.459705
30
0.0
11
-98.735661
21
-697.459705
31
0.0
0
LINE
8
0
6
CONTINUOUS
10
102.084390
20
-697.459705
30
0.0
11
102.341690
21
-697.458195
31
0.0
0
LINE
8
0
6
CONTINUOUS
10
102.084380
20
-660.044785
30
0.0
11
102.341330
21
-660.046075
31
0.0
0
LINE
8
0
6
CONTINUOUS
10
102.341500
20
-696.742245
30
0.0
11
102.341482
21
-696.561045
31
0.0
0
LINE
8
0
6
CONTINUOUS
10
102.341690
20
-697.458195
30
0.0
11
102.341500
21
-696.742245
31
0.0
0
LINE
8
0
6
CONTINUOUS
10
102.341690
20
-697.458195
30
0.0
11
102.643210
21
-696.561045
31
0.0
0
LINE
8
0
6
CONTINUOUS
10
102.341880
20
-696.872935
30
0.0
11
102.341690
21
-697.458195
31
0.0
0
LINE
8
0
6
CONTINUOUS
10
102.643210
20
-696.561045
30
0.0
11
102.643590
21
-696.003715
31
0.0
0
LINE
8
0
6
CONTINUOUS
10
102.342110
20
-695.028885
30
0.0
11
102.341880
21
-696.872935
31
0.0
0
LINE
8
0
6
CONTINUOUS
10
102.643590
20
-696.003715
30
0.0
11
102.643970
21
-694.247885
31
0.0
0
LINE
8
0
6
CONTINUOUS
10
102.342260
20
-692.056945
30
0.0
11
102.342110
21
-695.028885
31
0.0
0
LINE
8
0
6
CONTINUOUS
10
102.643970
20
-694.247885
30
0.0
11
102.644360
21
-691.418075
31
0.0
0
LINE
8
0
6
CONTINUOUS
10
102.342380
20
-688.150595
30
0.0
11
102.342260
21
-692.056945
31
0.0
0
LINE
8
0
6
CONTINUOUS
10
102.644360
20
-691.418075
30
0.0
11
102.644520
21
-687.698665
31
0.0
0
LINE
8
0
6
CONTINUOUS
10
102.342350
20
-683.626205
30
0.0
11
102.342380
21
-688.150595
31
0.0
0
LINE
8
0
6
CONTINUOUS
10
102.644520
20
-687.698665
30
0.0
11
102.644520
21
-683.390655
31
0.0
0
LINE
8
0
6
CONTINUOUS
10
102.342350
20
-678.699885
30
0.0
11
102.342350
21
-683.626205
31
0.0
0
LINE
8
0
6
CONTINUOUS
10
102.644520
20
-683.390655
30
0.0
11
102.644440
21
-678.700095
31
0.0
0
LINE
8
0
6
CONTINUOUS
10
102.342280
20
-673.790445
30
0.0
11
102.342350
21
-678.699885
31
0.0
0
LINE
8
0
6
CONTINUOUS
10
102.644440
20
-678.700095
30
0.0
11
102.644300
21
-674.025495
31
0.0
0
LINE
8
0
6
CONTINUOUS
10
102.344090
20
-669.205475
30
0.0
11
102.342280
21
-673.790445
31
0.0
0
LINE
8
0
6
CONTINUOUS
10
102.644300
20
-674.025495
30
0.0
11
102.647770
21
-669.659805
31
0.0
0
LINE
8
0
6
CONTINUOUS
10
102.342360
20
-665.368115
30
0.0
11
102.344090
21
-669.205475
31
0.0
0
LINE
8
0
6
CONTINUOUS
10
102.647770
20
-669.659805
30
0.0
11
102.644540
21
-666.006005
31
0.0
0
LINE
8
0
6
CONTINUOUS
10
102.341790
20
-662.440855
30
0.0
11
102.342360
21
-665.368115
31
0.0
0
LINE
8
0
6
CONTINUOUS
10
102.644540
20
-666.006005
30
0.0
11
102.643430
21
-663.218835
31
0.0
0
LINE
8
0
6
CONTINUOUS
10
102.341560
20
-660.643215
30
0.0
11
102.341790
21
-662.440855
31
0.0
0
LINE
8
0
6
CONTINUOUS
10
102.643430
20
-663.218835
30
0.0
11
102.642930
21
-661.507035
31
0.0
0
LINE
8
0
6
CONTINUOUS
10
102.341330
20
-660.046075
30
0.0
11
102.341560
21
-660.643215
31
0.0
0
LINE
8
0
6
CONTINUOUS
10
102.642930
20
-661.507035
30
0.0
11
102.642590
21
-660.938415
31
0.0
0
LINE
8
0
6
CONTINUOUS
10
102.341330
20
-660.046075
30
0.0
11
102.642590
21
-660.938415
31
0.0
0
LINE
8
0
6
CONTINUOUS
10
102.341300
20
-660.739455
30
0.0
11
102.341330
21
-660.046075
31
0.0
0
LINE
8
0
6
CONTINUOUS
10
102.341300
20
-660.938415
30
0.0
11
102.341300
21
-660.739455
31
0.0
0
LINE
8
0
6
CONTINUOUS
10
91.145060
20
-660.044785
30
0.0
11
102.084380
21
-660.044785
31
0.0
0
LINE
8
0
6
CONTINUOUS
10
91.264360
20
-697.459705
30
0.0
11
102.084390
21
-697.459705
31
0.0
0
LINE
8
0
6
CONTINUOUS
10
71.334140
20
-649.887605
30
0.0
11
63.760810
21
-650.740905
31
0.0
0
LINE
8
0
6
CONTINUOUS
10
63.760810
20
-650.740905
30
0.0
11
56.567250
21
-653.258045
31
0.0
0
LINE
8
0
6
CONTINUOUS
10
56.567250
20
-653.258045
30
0.0
11
50.114160
21
-657.312795
31
0.0
0
LINE
8
0
6
CONTINUOUS
10
50.114160
20
-657.312795
30
0.0
11
47.885600
21
-659.541355
31
0.0
0
LINE
8
0
6
CONTINUOUS
10
40.409591
20
-697.943315
30
0.0
11
40.670400
21
-698.688665
31
0.0
0
LINE
8
0
6
CONTINUOUS
10
40.670400
20
-698.688665
30
0.0
11
44.725140
21
-705.141745
31
0.0
0
LINE
8
0
6
CONTINUOUS
10
44.725140
20
-705.141745
30
0.0
11
50.114170
21
-710.530785
31
0.0
0
LINE
8
0
6
CONTINUOUS
10
50.114170
20
-710.530785
30
0.0
11
56.567270
21
-714.585515
31
0.0
0
LINE
8
0
6
CONTINUOUS
10
56.567270
20
-714.585515
30
0.0
11
63.760830
21
-717.102645
31
0.0
0
LINE
8
0
6
CONTINUOUS
10
63.760830
20
-717.102645
30
0.0
11
71.334160
21
-717.955955
31
0.0
0
LINE
8
0
6
CONTINUOUS
10
71.334160
20
-717.955955
30
0.0
11
78.907470
21
-717.102655
31
0.0
0
LINE
8
0
6
CONTINUOUS
10
78.907470
20
-717.102655
30
0.0
11
86.101030
21
-714.585505
31
0.0
0
LINE
8
0
6
CONTINUOUS
10
86.101030
20
-714.585505
30
0.0
11
92.554130
21
-710.530765
31
0.0
0
LINE
8
0
6
CONTINUOUS
10
92.554130
20
-710.530765
30
0.0
11
97.943140
21
-705.141735
31
0.0
0
LINE
8
0
6
CONTINUOUS
10
97.943140
20
-705.141735
30
0.0
11
101.997890
21
-698.688635
31
0.0
0
LINE
8
0
6
CONTINUOUS
10
96.179733
20
-660.938415
30
0.0
11
92.554070
21
-657.312765
31
0.0
0
LINE
8
0
6
CONTINUOUS
10
92.554070
20
-657.312765
30
0.0
11
86.100970
21
-653.258025
31
0.0
0
LINE
8
0
6
CONTINUOUS
10
86.100970
20
-653.258025
30
0.0
11
78.907400
21
-650.740895
31
0.0
0
LINE
8
0
6
CONTINUOUS
10
78.907400
20
-650.740895
30
0.0
11
71.334140
21
-649.887605
31
0.0
0
LINE
8
0
6
CONTINUOUS
10
-78.805360
20
-649.887605
30
0.0
11
-86.378690
21
-650.740905
31
0.0
0
LINE
8
0
6
CONTINUOUS
10
-86.378690
20
-650.740905
30
0.0
11
-93.572250
21
-653.258045
31
0.0
0
LINE
8
0
6
CONTINUOUS
10
-93.572250
20
-653.258045
30
0.0
11
-100.025340
21
-657.312795
31
0.0
0
LINE
8
0
6
CONTINUOUS
10
-100.025340
20
-657.312795
30
0.0
11
-103.650960
21
-660.938415
31
0.0
0
LINE
8
0
6
CONTINUOUS
10
-109.469100
20
-698.688665
30
0.0
11
-105.414360
21
-705.141745
31
0.0
0
LINE
8
0
6
CONTINUOUS
10
-105.414360
20
-705.141745
30
0.0
11
-100.025330
21
-710.530785
31
0.0
0
LINE
8
0
6
CONTINUOUS
10
-100.025330
20
-710.530785
30
0.0
11
-93.572230
21
-714.585515
31
0.0
0
LINE
8
0
6
CONTINUOUS
10
-93.572230
20
-714.585515
30
0.0
11
-86.378670
21
-717.102645
31
0.0
0
LINE
8
0
6
CONTINUOUS
10
-86.378670
20
-717.102645
30
0.0
11
-78.805340
21
-717.955955
31
0.0
0
LINE
8
0
6
CONTINUOUS
10
-78.805340
20
-717.955955
30
0.0
11
-71.232030
21
-717.102655
31
0.0
0
LINE
8
0
6
CONTINUOUS
10
-71.232030
20
-717.102655
30
0.0
11
-64.038470
21
-714.585505
31
0.0
0
LINE
8
0
6
CONTINUOUS
10
-64.038470
20
-714.585505
30
0.0
11
-57.585370
21
-710.530765
31
0.0
0
LINE
8
0
6
CONTINUOUS
10
-57.585370
20
-710.530765
30
0.0
11
-52.196360
21
-705.141735
31
0.0
0
LINE
8
0
6
CONTINUOUS
10
-52.196360
20
-705.141735
30
0.0
11
-48.141610
21
-698.688635
31
0.0
0
LINE
8
0
6
CONTINUOUS
10
-48.141610
20
-698.688635
30
0.0
11
-47.880812
21
-697.943315
31
0.0
0
LINE
8
0
6
CONTINUOUS
10
-55.356832
20
-659.541355
30
0.0
11
-57.585430
21
-657.312765
31
0.0
0
LINE
8
0
6
CONTINUOUS
10
-57.585430
20
-657.312765
30
0.0
11
-64.038530
21
-653.258025
31
0.0
0
LINE
8
0
6
CONTINUOUS
10
-64.038530
20
-653.258025
30
0.0
11
-71.232100
21
-650.740895
31
0.0
0
LINE
8
0
6
CONTINUOUS
10
-71.232100
20
-650.740895
30
0.0
11
-78.805360
21
-649.887605
31
0.0
0
LINE
8
0
6
CONTINUOUS
10
64.627879
20
339.736608
30
0.0
11
64.770100
21
339.763641
31
0.0
0
LINE
8
0
6
CONTINUOUS
10
74.692850
20
322.364289
30
0.0
11
75.263008
21
322.599215
31
0.0
0
LINE
8
0
6
CONTINUOUS
10
75.263008
20
322.599215
30
0.0
11
76.577440
21
323.258540
31
0.0
0
LINE
8
0
6
CONTINUOUS
10
70.032850
20
320.581288
30
0.0
11
71.443640
21
319.962369
31
0.0
0
LINE
8
0
6
CONTINUOUS
10
70.691330
20
316.061920
30
0.0
11
72.699079
21
316.577984
31
0.0
0
LINE
8
0
6
CONTINUOUS
10
-6.236070
20
325.591887
30
0.0
11
-5.947100
21
324.461309
31
0.0
0
LINE
8
0
6
CONTINUOUS
10
-8.170035
20
326.432498
30
0.0
11
-6.236070
21
325.591887
31
0.0
0
LINE
8
0
6
CONTINUOUS
10
80.307690
20
340.272642
30
0.0
11
82.038270
21
339.900985
31
0.0
0
LINE
8
0
6
CONTINUOUS
10
67.755080
20
348.957897
30
0.0
11
67.105970
21
350.471486
31
0.0
0
LINE
8
0
6
CONTINUOUS
10
67.988660
20
319.994455
30
0.0
11
70.032850
21
320.581288
31
0.0
0
LINE
8
0
6
CONTINUOUS
10
75.528860
20
329.298407
30
0.0
11
76.363654
21
329.651806
31
0.0
0
LINE
8
0
6
CONTINUOUS
10
78.423100
20
339.178138
30
0.0
11
80.274974
21
340.255240
31
0.0
0
LINE
8
0
6
CONTINUOUS
10
76.577440
20
323.258540
30
0.0
11
78.308010
21
323.069015
31
0.0
0
LINE
8
0
6
CONTINUOUS
10
-13.716950
20
-690.763818
30
0.0
11
-14.835340
21
-691.523981
31
0.0
0
LINE
8
0
6
CONTINUOUS
10
-12.878977
20
-690.461759
30
0.0
11
-13.716950
21
-690.763818
31
0.0
0
LINE
8
0
6
CONTINUOUS
10
-6.591290
20
-689.281496
30
0.0
11
-3.735650
21
-689.172244
31
0.0
0
LINE
8
0
6
CONTINUOUS
10
-0.630580
20
-689.281496
30
0.0
11
1.649553
21
-689.529539
31
0.0
0
LINE
8
0
6
CONTINUOUS
10
7.613460
20
-691.523981
30
0.0
11
7.776087
21
-691.838884
31
0.0
0
LINE
8
0
6
CONTINUOUS
10
6.495060
20
-690.763818
30
0.0
11
7.613460
21
-691.523981
31
0.0
0
LINE
8
0
6
CONTINUOUS
10
48.427002
20
179.490292
30
0.0
11
48.644201
21
179.760344
31
0.0
0
LINE
8
0
6
CONTINUOUS
10
27.483351
20
179.760242
30
0.0
11
27.107521
21
181.223754
31
0.0
0
LINE
8
0
6
CONTINUOUS
10
-87.097230
20
758.461958
30
0.0
11
-87.888498
21
758.536302
31
0.0
0
LINE
8
0
6
CONTINUOUS
10
27.978190
20
179.144988
30
0.0
11
27.691540
21
179.501391
31
0.0
0
LINE
8
0
6
CONTINUOUS
10
48.644201
20
179.760344
30
0.0
11
49.020026
21
181.223853
31
0.0
0
LINE
8
0
6
CONTINUOUS
10
-9.160340
20
151.657938
30
0.0
11
-6.099623
21
151.318215
31
0.0
0
LINE
8
0
6
CONTINUOUS
10
3.698898
20
813.481343
30
0.0
11
4.895427
21
813.481357
31
0.0
0
LINE
8
0
6
CONTINUOUS
10
-11.250506
20
813.481343
30
0.0
11
-12.366705
21
813.481357
31
0.0
0
LINE
8
0
6
CONTINUOUS
10
0.510313
20
813.481333
30
0.0
11
3.698898
21
813.481343
31
0.0
0
ENDSEC
0
EOF
