999
Erzeugt mit innoplus bad 
0
SECTION
2
HEADER
9
$ACADVER
1
AC1009
9
$DWGCODEPAGE
3
ISO8859-1
0
ENDSEC
0
SECTION
2
TABLES
0
TABLE
2
LAYER
70
1
0
LAYER
2
0
70
0
62
7
6
CONTINUOUS
0
ENDTAB
0
ENDSEC
0
SECTION
2
ENTITIES
0
LINE
8
0
6
CONTINUOUS
10
6.671776
20
-703.521685
30
0.0
11
6.671775
21
-702.821755
31
0.0
0
LINE
8
0
6
CONTINUOUS
10
-14.132575
20
-702.821767
30
0.0
11
-14.132574
21
-703.521695
31
0.0
0
LINE
8
0
6
CONTINUOUS
10
9.992910
20
-702.309295
30
0.0
11
9.992905
21
-694.878203
31
0.0
0
LINE
8
0
6
CONTINUOUS
10
-17.453751
20
-694.883036
30
0.0
11
-17.453740
21
-702.309315
31
0.0
0
LINE
8
0
6
CONTINUOUS
10
-10.610380
20
-654.321845
30
0.0
11
-10.610380
21
-659.544051
31
0.0
0
LINE
8
0
6
CONTINUOUS
10
3.149520
20
-659.544049
30
0.0
11
3.149520
21
-654.321855
31
0.0
0
LINE
8
0
6
CONTINUOUS
10
5.979410
20
-645.188745
30
0.0
11
5.979410
21
-640.380825
31
0.0
0
LINE
8
0
6
CONTINUOUS
10
-13.440280
20
-640.380825
30
0.0
11
-13.440280
21
-645.188735
31
0.0
0
LINE
8
0
6
CONTINUOUS
10
-8.522530
20
-638.572625
30
0.0
11
-11.005390
21
-638.868145
31
0.0
0
LINE
8
0
6
CONTINUOUS
10
3.544510
20
-638.868145
30
0.0
11
1.061650
21
-638.572655
31
0.0
0
LINE
8
0
6
CONTINUOUS
10
-6.028920
20
-638.383925
30
0.0
11
-8.522530
21
-638.572625
31
0.0
0
LINE
8
0
6
CONTINUOUS
10
1.061650
20
-638.572655
30
0.0
11
-1.431950
21
-638.383935
31
0.0
0
LINE
8
0
6
CONTINUOUS
10
-1.431950
20
-638.383935
30
0.0
11
-3.730430
21
-638.321795
31
0.0
0
LINE
8
0
6
CONTINUOUS
10
-3.730430
20
-638.321795
30
0.0
11
-6.028920
21
-638.383925
31
0.0
0
LINE
8
0
6
CONTINUOUS
10
5.038040
20
-639.212695
30
0.0
11
3.544510
21
-638.868145
31
0.0
0
LINE
8
0
6
CONTINUOUS
10
-11.005390
20
-638.868145
30
0.0
11
-12.498920
21
-639.212685
31
0.0
0
LINE
8
0
6
CONTINUOUS
10
-11.941760
20
-654.321845
30
0.0
11
-10.146700
21
-654.321845
31
0.0
0
LINE
8
0
6
CONTINUOUS
10
5.562590
20
-653.370865
30
0.0
11
5.562580
21
-645.119765
31
0.0
0
LINE
8
0
6
CONTINUOUS
10
-13.023450
20
-645.374337
30
0.0
11
-13.023450
21
-653.370855
31
0.0
0
LINE
8
0
6
CONTINUOUS
10
-11.841190
20
-702.821775
30
0.0
11
-6.599360
21
-702.821765
31
0.0
0
LINE
8
0
6
CONTINUOUS
10
-17.453740
20
-702.309315
30
0.0
11
-17.453740
21
-702.821775
31
0.0
0
LINE
8
0
6
CONTINUOUS
10
-17.453740
20
-702.821775
30
0.0
11
-15.680630
21
-702.821775
31
0.0
0
LINE
8
0
6
CONTINUOUS
10
-15.680630
20
-702.821775
30
0.0
11
-11.841190
21
-702.821775
31
0.0
0
LINE
8
0
6
CONTINUOUS
10
9.992910
20
-702.821755
30
0.0
11
9.992910
21
-702.309295
31
0.0
0
LINE
8
0
6
CONTINUOUS
10
8.219800
20
-702.821755
30
0.0
11
9.992910
21
-702.821755
31
0.0
0
LINE
8
0
6
CONTINUOUS
10
4.380400
20
-702.821755
30
0.0
11
8.219800
21
-702.821755
31
0.0
0
LINE
8
0
6
CONTINUOUS
10
-0.861480
20
-702.821765
30
0.0
11
4.380400
21
-702.821755
31
0.0
0
LINE
8
0
6
CONTINUOUS
10
-6.599360
20
-702.821765
30
0.0
11
-0.861480
21
-702.821765
31
0.0
0
LINE
8
0
6
CONTINUOUS
10
-7.242160
20
-654.321845
30
0.0
11
-3.730430
21
-654.321855
31
0.0
0
LINE
8
0
6
CONTINUOUS
10
-10.146700
20
-654.321845
30
0.0
11
-7.242160
21
-654.321845
31
0.0
0
LINE
8
0
6
CONTINUOUS
10
5.979410
20
-640.124605
30
0.0
11
5.777970
21
-639.586855
31
0.0
0
LINE
8
0
6
CONTINUOUS
10
5.979410
20
-640.380825
30
0.0
11
5.979410
21
-640.124605
31
0.0
0
LINE
8
0
6
CONTINUOUS
10
5.777970
20
-639.586855
30
0.0
11
5.291670
21
-639.271195
31
0.0
0
LINE
8
0
6
CONTINUOUS
10
5.291670
20
-639.271195
30
0.0
11
5.038040
21
-639.212695
31
0.0
0
LINE
8
0
6
CONTINUOUS
10
-13.238850
20
-639.586865
30
0.0
11
-13.440280
21
-640.124595
31
0.0
0
LINE
8
0
6
CONTINUOUS
10
-13.440280
20
-640.124595
30
0.0
11
-13.440280
21
-640.380825
31
0.0
0
LINE
8
0
6
CONTINUOUS
10
-12.752550
20
-639.271195
30
0.0
11
-13.238850
21
-639.586865
31
0.0
0
LINE
8
0
6
CONTINUOUS
10
-12.498920
20
-639.212685
30
0.0
11
-12.752550
21
-639.271195
31
0.0
0
LINE
8
0
6
CONTINUOUS
10
-3.730430
20
-654.321855
30
0.0
11
-0.218710
21
-654.321845
31
0.0
0
LINE
8
0
6
CONTINUOUS
10
2.685840
20
-654.321855
30
0.0
11
4.480900
21
-654.321855
31
0.0
0
LINE
8
0
6
CONTINUOUS
10
4.480900
20
-654.321855
30
0.0
11
4.856190
21
-654.321855
31
0.0
0
LINE
8
0
6
CONTINUOUS
10
4.856190
20
-654.321855
30
0.0
11
5.355690
21
-654.118375
31
0.0
0
LINE
8
0
6
CONTINUOUS
10
5.355690
20
-654.118375
30
0.0
11
5.562590
21
-653.627095
31
0.0
0
LINE
8
0
6
CONTINUOUS
10
5.562590
20
-653.627095
30
0.0
11
5.562590
21
-653.370865
31
0.0
0
LINE
8
0
6
CONTINUOUS
10
-12.317050
20
-654.321845
30
0.0
11
-11.941760
21
-654.321845
31
0.0
0
LINE
8
0
6
CONTINUOUS
10
-12.816550
20
-654.118365
30
0.0
11
-12.317050
21
-654.321845
31
0.0
0
LINE
8
0
6
CONTINUOUS
10
-13.023450
20
-653.627085
30
0.0
11
-12.816550
21
-654.118365
31
0.0
0
LINE
8
0
6
CONTINUOUS
10
-13.023450
20
-653.370855
30
0.0
11
-13.023450
21
-653.627085
31
0.0
0
LINE
8
0
6
CONTINUOUS
10
-13.015890
20
-645.374335
30
0.0
11
-10.986010
21
-645.374335
31
0.0
0
LINE
8
0
6
CONTINUOUS
10
-7.701500
20
-645.374325
30
0.0
11
-3.730400
21
-645.374345
31
0.0
0
LINE
8
0
6
CONTINUOUS
10
-3.730400
20
-645.374345
30
0.0
11
0.240700
21
-645.374345
31
0.0
0
LINE
8
0
6
CONTINUOUS
10
0.240700
20
-645.374345
30
0.0
11
3.525200
21
-645.374345
31
0.0
0
LINE
8
0
6
CONTINUOUS
10
5.979410
20
-645.374355
30
0.0
11
5.979410
21
-645.188745
31
0.0
0
LINE
8
0
6
CONTINUOUS
10
5.555030
20
-645.374355
30
0.0
11
5.979410
21
-645.374355
31
0.0
0
LINE
8
0
6
CONTINUOUS
10
-13.440280
20
-645.188735
30
0.0
11
-13.440280
21
-645.374335
31
0.0
0
LINE
8
0
6
CONTINUOUS
10
-13.440280
20
-645.374335
30
0.0
11
-13.015890
21
-645.374335
31
0.0
0
LINE
8
0
6
CONTINUOUS
10
-7.701500
20
-645.374325
30
0.0
11
-10.986010
21
-645.374335
31
0.0
0
LINE
8
0
6
CONTINUOUS
10
5.555030
20
-645.374355
30
0.0
11
3.525200
21
-645.374345
31
0.0
0
LINE
8
0
6
CONTINUOUS
10
-110.114230
20
-661.507035
30
0.0
11
-110.114730
21
-663.218835
31
0.0
0
LINE
8
0
6
CONTINUOUS
10
-110.115600
20
-674.025495
30
0.0
11
-110.115740
21
-678.700095
31
0.0
0
LINE
8
0
6
CONTINUOUS
10
-110.115650
20
-691.418075
30
0.0
11
-110.115270
21
-694.247885
31
0.0
0
LINE
8
0
6
CONTINUOUS
10
-110.113890
20
-660.938415
30
0.0
11
-110.114230
21
-661.507035
31
0.0
0
LINE
8
0
6
CONTINUOUS
10
-98.735670
20
-660.938415
30
0.0
11
-110.113890
21
-660.938415
31
0.0
0
LINE
8
0
6
CONTINUOUS
10
-110.119070
20
-669.659805
30
0.0
11
-110.115600
21
-674.025495
31
0.0
0
LINE
8
0
6
CONTINUOUS
10
-110.115820
20
-687.698665
30
0.0
11
-110.115650
21
-691.418075
31
0.0
0
LINE
8
0
6
CONTINUOUS
10
-110.114890
20
-696.003715
30
0.0
11
-110.114510
21
-696.561045
31
0.0
0
LINE
8
0
6
CONTINUOUS
10
-110.114510
20
-696.561045
30
0.0
11
-98.735670
21
-696.561045
31
0.0
0
LINE
8
0
6
CONTINUOUS
10
-110.115840
20
-666.006005
30
0.0
11
-110.119070
21
-669.659805
31
0.0
0
LINE
8
0
6
CONTINUOUS
10
-110.115820
20
-683.390655
30
0.0
11
-110.115820
21
-687.698665
31
0.0
0
LINE
8
0
6
CONTINUOUS
10
-110.115740
20
-678.700095
30
0.0
11
-110.115820
21
-683.390655
31
0.0
0
LINE
8
0
6
CONTINUOUS
10
-110.115270
20
-694.247885
30
0.0
11
-110.114890
21
-696.003715
31
0.0
0
LINE
8
0
6
CONTINUOUS
10
-110.114730
20
-663.218835
30
0.0
11
-110.115840
21
-666.006005
31
0.0
0
LINE
8
0
6
CONTINUOUS
10
102.643430
20
-663.218835
30
0.0
11
102.642930
21
-661.507035
31
0.0
0
LINE
8
0
6
CONTINUOUS
10
102.644440
20
-678.700095
30
0.0
11
102.644300
21
-674.025495
31
0.0
0
LINE
8
0
6
CONTINUOUS
10
102.643970
20
-694.247885
30
0.0
11
102.644360
21
-691.418075
31
0.0
0
LINE
8
0
6
CONTINUOUS
10
102.642590
20
-660.938415
30
0.0
11
91.264370
21
-660.938415
31
0.0
0
LINE
8
0
6
CONTINUOUS
10
102.642930
20
-661.507035
30
0.0
11
102.642590
21
-660.938415
31
0.0
0
LINE
8
0
6
CONTINUOUS
10
102.644300
20
-674.025495
30
0.0
11
102.647770
21
-669.659805
31
0.0
0
LINE
8
0
6
CONTINUOUS
10
102.644360
20
-691.418075
30
0.0
11
102.644520
21
-687.698665
31
0.0
0
LINE
8
0
6
CONTINUOUS
10
91.264360
20
-696.561045
30
0.0
11
102.643210
21
-696.561045
31
0.0
0
LINE
8
0
6
CONTINUOUS
10
102.643210
20
-696.561045
30
0.0
11
102.643590
21
-696.003715
31
0.0
0
LINE
8
0
6
CONTINUOUS
10
102.647770
20
-669.659805
30
0.0
11
102.644540
21
-666.006005
31
0.0
0
LINE
8
0
6
CONTINUOUS
10
102.644520
20
-687.698665
30
0.0
11
102.644520
21
-683.390655
31
0.0
0
LINE
8
0
6
CONTINUOUS
10
102.644520
20
-683.390655
30
0.0
11
102.644440
21
-678.700095
31
0.0
0
LINE
8
0
6
CONTINUOUS
10
102.643590
20
-696.003715
30
0.0
11
102.643970
21
-694.247885
31
0.0
0
LINE
8
0
6
CONTINUOUS
10
102.644540
20
-666.006005
30
0.0
11
102.643430
21
-663.218835
31
0.0
0
LINE
8
0
6
CONTINUOUS
10
-20.644150
20
-685.128295
30
0.0
11
-20.561910
21
-686.336985
31
0.0
0
LINE
8
0
6
CONTINUOUS
10
-20.437050
20
-687.098855
30
0.0
11
-20.425580
21
-691.545865
31
0.0
0
LINE
8
0
6
CONTINUOUS
10
-20.561910
20
-686.336985
30
0.0
11
-20.475800
21
-687.708155
31
0.0
0
LINE
8
0
6
CONTINUOUS
10
-20.975750
20
-677.742345
30
0.0
11
-20.770170
21
-682.358525
31
0.0
0
LINE
8
0
6
CONTINUOUS
10
-20.701940
20
-684.114235
30
0.0
11
-20.644150
21
-685.128295
31
0.0
0
LINE
8
0
6
CONTINUOUS
10
-20.740620
20
-683.307175
30
0.0
11
-20.701940
21
-684.114235
31
0.0
0
LINE
8
0
6
CONTINUOUS
10
-20.425580
20
-691.545865
30
0.0
11
-20.424380
21
-691.736315
31
0.0
0
LINE
8
0
6
CONTINUOUS
10
-19.513360
20
-690.630345
30
0.0
11
-20.424380
21
-691.736315
31
0.0
0
LINE
8
0
6
CONTINUOUS
10
-3.735650
20
-687.624495
30
0.0
11
-8.423750
21
-687.794235
31
0.0
0
LINE
8
0
6
CONTINUOUS
10
-20.424380
20
-691.736315
30
0.0
11
-20.326990
21
-692.944915
31
0.0
0
LINE
8
0
6
CONTINUOUS
10
-16.889600
20
-695.143865
30
0.0
11
-15.254080
21
-695.620245
31
0.0
0
LINE
8
0
6
CONTINUOUS
10
-19.200610
20
-694.075395
30
0.0
11
-16.889600
21
-695.143865
31
0.0
0
LINE
8
0
6
CONTINUOUS
10
-8.423750
20
-687.794235
30
0.0
11
-11.975260
21
-688.177635
31
0.0
0
LINE
8
0
6
CONTINUOUS
10
-11.975260
20
-688.177635
30
0.0
11
-15.084810
21
-688.793755
31
0.0
0
LINE
8
0
6
CONTINUOUS
10
-15.084810
20
-688.793755
30
0.0
11
-17.661210
21
-689.622365
31
0.0
0
LINE
8
0
6
CONTINUOUS
10
-17.661210
20
-689.622365
30
0.0
11
-19.513360
21
-690.630345
31
0.0
0
LINE
8
0
6
CONTINUOUS
10
-20.326990
20
-692.944915
30
0.0
11
-19.200610
21
-694.075395
31
0.0
0
LINE
8
0
6
CONTINUOUS
10
-74.498210
20
-697.943315
30
0.0
11
-70.443460
21
-697.943315
31
0.0
0
LINE
8
0
6
CONTINUOUS
10
-68.011820
20
-659.541615
30
0.0
11
-70.465210
21
-659.590135
31
0.0
0
LINE
8
0
6
CONTINUOUS
10
-82.579130
20
-697.571925
30
0.0
11
-78.541200
21
-697.917205
31
0.0
0
LINE
8
0
6
CONTINUOUS
10
-78.541200
20
-697.917205
30
0.0
11
-74.498210
21
-697.943315
31
0.0
0
LINE
8
0
6
CONTINUOUS
10
-70.443460
20
-697.943315
30
0.0
11
-67.991020
21
-697.943315
31
0.0
0
LINE
8
0
6
CONTINUOUS
10
-33.982280
20
-659.540915
30
0.0
11
-68.011820
21
-659.541615
31
0.0
0
LINE
8
0
6
CONTINUOUS
10
-74.519250
20
-659.570035
30
0.0
11
-78.574510
21
-659.589695
31
0.0
0
LINE
8
0
6
CONTINUOUS
10
-82.614980
20
-697.708275
30
0.0
11
-78.574500
21
-697.708275
31
0.0
0
LINE
8
0
6
CONTINUOUS
10
-78.574510
20
-659.589695
30
0.0
11
-82.614990
21
-659.627075
31
0.0
0
LINE
8
0
6
CONTINUOUS
10
-86.668750
20
-697.708275
30
0.0
11
-82.614980
21
-697.708275
31
0.0
0
LINE
8
0
6
CONTINUOUS
10
-82.614990
20
-659.627075
30
0.0
11
-86.668760
21
-659.665375
31
0.0
0
LINE
8
0
6
CONTINUOUS
10
-92.702220
20
-697.708275
30
0.0
11
-86.668750
21
-697.708275
31
0.0
0
LINE
8
0
6
CONTINUOUS
10
-86.668760
20
-659.665375
30
0.0
11
-92.702230
21
-659.720885
31
0.0
0
LINE
8
0
6
CONTINUOUS
10
-98.410380
20
-697.708275
30
0.0
11
-92.702220
21
-697.708275
31
0.0
0
LINE
8
0
6
CONTINUOUS
10
-92.702230
20
-659.720885
30
0.0
11
-98.410390
21
-659.773405
31
0.0
0
LINE
8
0
6
CONTINUOUS
10
-98.735670
20
-669.119675
30
0.0
11
-98.735670
21
-673.716355
31
0.0
0
LINE
8
0
6
CONTINUOUS
10
-98.735670
20
-683.582055
30
0.0
11
-98.735660
21
-688.178745
31
0.0
0
LINE
8
0
6
CONTINUOUS
10
-98.735660
20
-697.708275
30
0.0
11
-98.410380
21
-697.708275
31
0.0
0
LINE
8
0
6
CONTINUOUS
10
-98.735660
20
-697.058855
30
0.0
11
-98.735660
21
-697.708275
31
0.0
0
LINE
8
0
6
CONTINUOUS
10
-98.735670
20
-673.716355
30
0.0
11
-98.735670
21
-678.649205
31
0.0
0
LINE
8
0
6
CONTINUOUS
10
-98.735660
20
-688.178745
30
0.0
11
-98.735660
21
-692.126005
31
0.0
0
LINE
8
0
6
CONTINUOUS
10
-98.735670
20
-660.239565
30
0.0
11
-98.735670
21
-662.143565
31
0.0
0
LINE
8
0
6
CONTINUOUS
10
-98.735670
20
-662.143565
30
0.0
11
-98.735670
21
-665.172405
31
0.0
0
LINE
8
0
6
CONTINUOUS
10
-98.735670
20
-665.172405
30
0.0
11
-98.735670
21
-669.119675
31
0.0
0
LINE
8
0
6
CONTINUOUS
10
-98.735670
20
-678.649205
30
0.0
11
-98.735670
21
-683.582055
31
0.0
0
LINE
8
0
6
CONTINUOUS
10
-98.735660
20
-695.154845
30
0.0
11
-98.735660
21
-697.058855
31
0.0
0
LINE
8
0
6
CONTINUOUS
10
-98.735660
20
-692.126005
30
0.0
11
-98.735660
21
-695.154845
31
0.0
0
LINE
8
0
6
CONTINUOUS
10
-70.465210
20
-659.590135
30
0.0
11
-74.519250
21
-659.570035
31
0.0
0
LINE
8
0
6
CONTINUOUS
10
-98.735670
20
-659.776385
30
0.0
11
-98.735670
21
-660.239565
31
0.0
0
LINE
8
0
6
CONTINUOUS
10
-98.410390
20
-659.773405
30
0.0
11
-98.735670
21
-659.776385
31
0.0
0
LINE
8
0
6
CONTINUOUS
10
-67.991020
20
-697.943315
30
0.0
11
-33.982170
21
-697.943315
31
0.0
0
LINE
8
0
6
CONTINUOUS
10
-33.982170
20
-697.943315
30
0.0
11
-17.453746
21
-697.943315
31
0.0
0
LINE
8
0
6
CONTINUOUS
10
-10.610380
20
-659.544051
30
0.0
11
-14.810030
21
-659.543445
31
0.0
0
LINE
8
0
6
CONTINUOUS
10
-14.810030
20
-659.543445
30
0.0
11
-33.982280
21
-659.540915
31
0.0
0
LINE
8
0
6
CONTINUOUS
10
13.090610
20
-686.336985
30
0.0
11
13.172850
21
-685.128295
31
0.0
0
LINE
8
0
6
CONTINUOUS
10
12.954290
20
-691.545865
30
0.0
11
12.965750
21
-687.098855
31
0.0
0
LINE
8
0
6
CONTINUOUS
10
13.004500
20
-687.708155
30
0.0
11
13.090610
21
-686.336985
31
0.0
0
LINE
8
0
6
CONTINUOUS
10
13.298870
20
-682.358525
30
0.0
11
13.504450
21
-677.742345
31
0.0
0
LINE
8
0
6
CONTINUOUS
10
13.172850
20
-685.128295
30
0.0
11
13.230640
21
-684.114235
31
0.0
0
LINE
8
0
6
CONTINUOUS
10
13.230640
20
-684.114235
30
0.0
11
13.269320
21
-683.307175
31
0.0
0
LINE
8
0
6
CONTINUOUS
10
12.953080
20
-691.736315
30
0.0
11
12.954290
21
-691.545865
31
0.0
0
LINE
8
0
6
CONTINUOUS
10
12.953080
20
-691.736315
30
0.0
11
12.042060
21
-690.630345
31
0.0
0
LINE
8
0
6
CONTINUOUS
10
0.952450
20
-687.794235
30
0.0
11
-3.735650
21
-687.624495
31
0.0
0
LINE
8
0
6
CONTINUOUS
10
12.855690
20
-692.944915
30
0.0
11
12.953080
21
-691.736315
31
0.0
0
LINE
8
0
6
CONTINUOUS
10
8.032210
20
-695.547594
30
0.0
11
9.418300
21
-695.143865
31
0.0
0
LINE
8
0
6
CONTINUOUS
10
9.418300
20
-695.143865
30
0.0
11
11.729310
21
-694.075395
31
0.0
0
LINE
8
0
6
CONTINUOUS
10
4.503960
20
-688.177635
30
0.0
11
0.952450
21
-687.794235
31
0.0
0
LINE
8
0
6
CONTINUOUS
10
7.613510
20
-688.793755
30
0.0
11
4.503960
21
-688.177635
31
0.0
0
LINE
8
0
6
CONTINUOUS
10
10.189910
20
-689.622365
30
0.0
11
7.613510
21
-688.793755
31
0.0
0
LINE
8
0
6
CONTINUOUS
10
12.042060
20
-690.630345
30
0.0
11
10.189910
21
-689.622365
31
0.0
0
LINE
8
0
6
CONTINUOUS
10
11.729310
20
-694.075395
30
0.0
11
12.855690
21
-692.944915
31
0.0
0
LINE
8
0
6
CONTINUOUS
10
62.972160
20
-697.943315
30
0.0
11
67.026910
21
-697.943315
31
0.0
0
LINE
8
0
6
CONTINUOUS
10
62.993910
20
-659.590135
30
0.0
11
60.540520
21
-659.541615
31
0.0
0
LINE
8
0
6
CONTINUOUS
10
71.069900
20
-697.917205
30
0.0
11
75.107830
21
-697.571925
31
0.0
0
LINE
8
0
6
CONTINUOUS
10
67.026910
20
-697.943315
30
0.0
11
71.069900
21
-697.917205
31
0.0
0
LINE
8
0
6
CONTINUOUS
10
60.519720
20
-697.943315
30
0.0
11
62.972160
21
-697.943315
31
0.0
0
LINE
8
0
6
CONTINUOUS
10
60.540520
20
-659.541615
30
0.0
11
26.510980
21
-659.540915
31
0.0
0
LINE
8
0
6
CONTINUOUS
10
71.103210
20
-659.589695
30
0.0
11
67.047950
21
-659.570035
31
0.0
0
LINE
8
0
6
CONTINUOUS
10
71.103200
20
-697.708275
30
0.0
11
75.143680
21
-697.708275
31
0.0
0
LINE
8
0
6
CONTINUOUS
10
75.143690
20
-659.627075
30
0.0
11
71.103210
21
-659.589695
31
0.0
0
LINE
8
0
6
CONTINUOUS
10
75.143680
20
-697.708275
30
0.0
11
79.197450
21
-697.708275
31
0.0
0
LINE
8
0
6
CONTINUOUS
10
79.197460
20
-659.665375
30
0.0
11
75.143690
21
-659.627075
31
0.0
0
LINE
8
0
6
CONTINUOUS
10
79.197450
20
-697.708275
30
0.0
11
85.230920
21
-697.708275
31
0.0
0
LINE
8
0
6
CONTINUOUS
10
85.230930
20
-659.720885
30
0.0
11
79.197460
21
-659.665375
31
0.0
0
LINE
8
0
6
CONTINUOUS
10
85.230920
20
-697.708275
30
0.0
11
90.939080
21
-697.708275
31
0.0
0
LINE
8
0
6
CONTINUOUS
10
90.939090
20
-659.773405
30
0.0
11
85.230930
21
-659.720885
31
0.0
0
LINE
8
0
6
CONTINUOUS
10
91.264370
20
-673.716355
30
0.0
11
91.264370
21
-669.119675
31
0.0
0
LINE
8
0
6
CONTINUOUS
10
91.264360
20
-688.178745
30
0.0
11
91.264370
21
-683.582055
31
0.0
0
LINE
8
0
6
CONTINUOUS
10
91.264360
20
-697.708275
30
0.0
11
91.264360
21
-697.058855
31
0.0
0
LINE
8
0
6
CONTINUOUS
10
90.939080
20
-697.708275
30
0.0
11
91.264360
21
-697.708275
31
0.0
0
LINE
8
0
6
CONTINUOUS
10
91.264370
20
-678.649205
30
0.0
11
91.264370
21
-673.716355
31
0.0
0
LINE
8
0
6
CONTINUOUS
10
91.264360
20
-692.126005
30
0.0
11
91.264360
21
-688.178745
31
0.0
0
LINE
8
0
6
CONTINUOUS
10
91.264370
20
-662.143565
30
0.0
11
91.264370
21
-660.239565
31
0.0
0
LINE
8
0
6
CONTINUOUS
10
91.264370
20
-665.172405
30
0.0
11
91.264370
21
-662.143565
31
0.0
0
LINE
8
0
6
CONTINUOUS
10
91.264370
20
-669.119675
30
0.0
11
91.264370
21
-665.172405
31
0.0
0
LINE
8
0
6
CONTINUOUS
10
91.264370
20
-683.582055
30
0.0
11
91.264370
21
-678.649205
31
0.0
0
LINE
8
0
6
CONTINUOUS
10
91.264360
20
-697.058855
30
0.0
11
91.264360
21
-695.154845
31
0.0
0
LINE
8
0
6
CONTINUOUS
10
91.264360
20
-695.154845
30
0.0
11
91.264360
21
-692.126005
31
0.0
0
LINE
8
0
6
CONTINUOUS
10
67.047950
20
-659.570035
30
0.0
11
62.993910
21
-659.590135
31
0.0
0
LINE
8
0
6
CONTINUOUS
10
91.264370
20
-659.776385
30
0.0
11
90.939090
21
-659.773405
31
0.0
0
LINE
8
0
6
CONTINUOUS
10
91.264370
20
-660.239565
30
0.0
11
91.264370
21
-659.776385
31
0.0
0
LINE
8
0
6
CONTINUOUS
10
26.510870
20
-697.943315
30
0.0
11
60.519720
21
-697.943315
31
0.0
0
LINE
8
0
6
CONTINUOUS
10
9.992907
20
-697.943315
30
0.0
11
26.510870
21
-697.943315
31
0.0
0
LINE
8
0
6
CONTINUOUS
10
7.338730
20
-659.543445
30
0.0
11
3.149520
21
-659.544049
31
0.0
0
LINE
8
0
6
CONTINUOUS
10
26.510980
20
-659.540915
30
0.0
11
7.338730
21
-659.543445
31
0.0
0
LINE
8
0
6
CONTINUOUS
10
-154.911220
20
-697.142145
30
0.0
11
-110.633000
21
-697.594985
31
0.0
0
LINE
8
0
6
CONTINUOUS
10
-110.631660
20
-659.908675
30
0.0
11
-135.184177
21
-660.127110
31
0.0
0
LINE
8
0
6
CONTINUOUS
10
-110.633000
20
-697.594985
30
0.0
11
-110.373760
21
-697.596505
31
0.0
0
LINE
8
0
6
CONTINUOUS
10
-110.374370
20
-697.006755
30
0.0
11
-110.373760
21
-697.596505
31
0.0
0
LINE
8
0
6
CONTINUOUS
10
-110.114510
20
-696.561045
30
0.0
11
-110.114890
21
-696.003715
31
0.0
0
LINE
8
0
6
CONTINUOUS
10
-110.373760
20
-697.596505
30
0.0
11
-110.114510
21
-696.561045
31
0.0
0
LINE
8
0
6
CONTINUOUS
10
-110.374980
20
-695.149075
30
0.0
11
-110.374370
21
-697.006755
31
0.0
0
LINE
8
0
6
CONTINUOUS
10
-110.114890
20
-696.003715
30
0.0
11
-110.115270
21
-694.247885
31
0.0
0
LINE
8
0
6
CONTINUOUS
10
-110.375510
20
-692.155145
30
0.0
11
-110.374980
21
-695.149075
31
0.0
0
LINE
8
0
6
CONTINUOUS
10
-110.115270
20
-694.247885
30
0.0
11
-110.115650
21
-691.418075
31
0.0
0
LINE
8
0
6
CONTINUOUS
10
-110.375830
20
-688.220055
30
0.0
11
-110.375510
21
-692.155145
31
0.0
0
LINE
8
0
6
CONTINUOUS
10
-110.115650
20
-691.418075
30
0.0
11
-110.115820
21
-687.698665
31
0.0
0
LINE
8
0
6
CONTINUOUS
10
-110.375790
20
-683.661955
30
0.0
11
-110.375830
21
-688.220055
31
0.0
0
LINE
8
0
6
CONTINUOUS
10
-110.115820
20
-687.698665
30
0.0
11
-110.115820
21
-683.390655
31
0.0
0
LINE
8
0
6
CONTINUOUS
10
-110.375670
20
-678.699485
30
0.0
11
-110.375790
21
-683.661955
31
0.0
0
LINE
8
0
6
CONTINUOUS
10
-110.115820
20
-683.390655
30
0.0
11
-110.115740
21
-678.700095
31
0.0
0
LINE
8
0
6
CONTINUOUS
10
-110.375490
20
-673.753815
30
0.0
11
-110.375670
21
-678.699485
31
0.0
0
LINE
8
0
6
CONTINUOUS
10
-110.115740
20
-678.700095
30
0.0
11
-110.115600
21
-674.025495
31
0.0
0
LINE
8
0
6
CONTINUOUS
10
-110.380990
20
-669.134745
30
0.0
11
-110.375490
21
-673.753815
31
0.0
0
LINE
8
0
6
CONTINUOUS
10
-110.115600
20
-674.025495
30
0.0
11
-110.119070
21
-669.659805
31
0.0
0
LINE
8
0
6
CONTINUOUS
10
-110.375850
20
-665.269085
30
0.0
11
-110.380990
21
-669.134745
31
0.0
0
LINE
8
0
6
CONTINUOUS
10
-110.119070
20
-669.659805
30
0.0
11
-110.115840
21
-666.006005
31
0.0
0
LINE
8
0
6
CONTINUOUS
10
-110.374050
20
-662.320175
30
0.0
11
-110.375850
21
-665.269085
31
0.0
0
LINE
8
0
6
CONTINUOUS
10
-110.115840
20
-666.006005
30
0.0
11
-110.114730
21
-663.218835
31
0.0
0
LINE
8
0
6
CONTINUOUS
10
-110.373330
20
-660.508955
30
0.0
11
-110.374050
21
-662.320175
31
0.0
0
LINE
8
0
6
CONTINUOUS
10
-110.114730
20
-663.218835
30
0.0
11
-110.114230
21
-661.507035
31
0.0
0
LINE
8
0
6
CONTINUOUS
10
-110.372760
20
-659.907375
30
0.0
11
-110.631660
21
-659.908675
31
0.0
0
LINE
8
0
6
CONTINUOUS
10
-110.372760
20
-659.907375
30
0.0
11
-110.373330
21
-660.508955
31
0.0
0
LINE
8
0
6
CONTINUOUS
10
-110.113890
20
-660.938415
30
0.0
11
-110.372760
21
-659.907375
31
0.0
0
LINE
8
0
6
CONTINUOUS
10
-110.114230
20
-661.507035
30
0.0
11
-110.113890
21
-660.938415
31
0.0
0
LINE
8
0
6
CONTINUOUS
10
-155.720460
20
-669.344675
30
0.0
11
-155.720490
21
-673.891255
31
0.0
0
LINE
8
0
6
CONTINUOUS
10
-155.720490
20
-673.891255
30
0.0
11
-155.720480
21
-678.693355
31
0.0
0
LINE
8
0
6
CONTINUOUS
10
-155.720480
20
-678.693355
30
0.0
11
-155.720480
21
-683.499795
31
0.0
0
LINE
8
0
6
CONTINUOUS
10
-155.720480
20
-683.499795
30
0.0
11
-155.720480
21
-687.978785
31
0.0
0
LINE
8
0
6
CONTINUOUS
10
-155.720480
20
-687.978785
30
0.0
11
-155.720470
21
-691.800655
31
0.0
0
LINE
8
0
6
CONTINUOUS
10
-155.720470
20
-691.800655
30
0.0
11
-155.720470
21
-694.721565
31
0.0
0
LINE
8
0
6
CONTINUOUS
10
-155.720470
20
-694.721565
30
0.0
11
-155.720470
21
-696.539115
31
0.0
0
LINE
8
0
6
CONTINUOUS
10
-155.720470
20
-696.539115
30
0.0
11
-155.720470
21
-697.133825
31
0.0
0
LINE
8
0
6
CONTINUOUS
10
-155.720470
20
-697.133825
30
0.0
11
-154.911220
21
-697.142145
31
0.0
0
LINE
8
0
6
CONTINUOUS
10
-135.192550
20
-659.617325
30
0.0
11
-135.754530
21
-659.625565
31
0.0
0
LINE
8
0
6
CONTINUOUS
10
-156.004770
20
-664.940455
30
0.0
11
-155.951890
21
-670.601765
31
0.0
0
LINE
8
0
6
CONTINUOUS
10
-156.012940
20
-663.825265
30
0.0
11
-156.004770
21
-664.940455
31
0.0
0
LINE
8
0
6
CONTINUOUS
10
-156.019000
20
-662.415805
30
0.0
11
-156.012940
21
-663.825265
31
0.0
0
LINE
8
0
6
CONTINUOUS
10
-156.021330
20
-661.089665
30
0.0
11
-156.019000
21
-662.415805
31
0.0
0
LINE
8
0
6
CONTINUOUS
10
-156.013510
20
-659.922145
30
0.0
11
-156.019310
21
-660.133095
31
0.0
0
LINE
8
0
6
CONTINUOUS
10
-155.468240
20
-659.909325
30
0.0
11
-156.013510
21
-659.922145
31
0.0
0
LINE
8
0
6
CONTINUOUS
10
-156.019310
20
-660.133095
30
0.0
11
-156.021330
21
-661.089665
31
0.0
0
LINE
8
0
6
CONTINUOUS
10
-135.754530
20
-659.625565
30
0.0
11
-155.468240
21
-659.909325
31
0.0
0
LINE
8
0
6
CONTINUOUS
10
-135.197810
20
-663.630615
30
0.0
11
-135.190110
21
-664.747185
31
0.0
0
LINE
8
0
6
CONTINUOUS
10
-135.202700
20
-662.217195
30
0.0
11
-135.197810
21
-663.630615
31
0.0
0
LINE
8
0
6
CONTINUOUS
10
-135.203420
20
-660.885635
30
0.0
11
-135.202700
21
-662.217195
31
0.0
0
LINE
8
0
6
CONTINUOUS
10
-135.192550
20
-659.617325
30
0.0
11
-135.199570
21
-659.832245
31
0.0
0
LINE
8
0
6
CONTINUOUS
10
-135.184000
20
-660.137885
30
0.0
11
-135.192550
21
-659.617325
31
0.0
0
LINE
8
0
6
CONTINUOUS
10
-135.190110
20
-664.747185
30
0.0
11
-135.137230
21
-670.408495
31
0.0
0
LINE
8
0
6
CONTINUOUS
10
-135.131170
20
-665.799195
30
0.0
11
-135.184000
21
-660.137885
31
0.0
0
LINE
8
0
6
CONTINUOUS
10
-135.199570
20
-659.832245
30
0.0
11
-135.203420
21
-660.885635
31
0.0
0
LINE
8
0
6
CONTINUOUS
10
103.161700
20
-697.594985
30
0.0
11
147.439930
21
-697.142145
31
0.0
0
LINE
8
0
6
CONTINUOUS
10
127.712887
20
-660.127111
30
0.0
11
103.160360
21
-659.908675
31
0.0
0
LINE
8
0
6
CONTINUOUS
10
102.902460
20
-697.596505
30
0.0
11
103.161700
21
-697.594985
31
0.0
0
LINE
8
0
6
CONTINUOUS
10
102.643210
20
-696.561045
30
0.0
11
102.902460
21
-697.596505
31
0.0
0
LINE
8
0
6
CONTINUOUS
10
102.643590
20
-696.003715
30
0.0
11
102.643210
21
-696.561045
31
0.0
0
LINE
8
0
6
CONTINUOUS
10
102.902460
20
-697.596505
30
0.0
11
102.903070
21
-697.006755
31
0.0
0
LINE
8
0
6
CONTINUOUS
10
102.643970
20
-694.247885
30
0.0
11
102.643590
21
-696.003715
31
0.0
0
LINE
8
0
6
CONTINUOUS
10
102.903070
20
-697.006755
30
0.0
11
102.903680
21
-695.149075
31
0.0
0
LINE
8
0
6
CONTINUOUS
10
102.644360
20
-691.418075
30
0.0
11
102.643970
21
-694.247885
31
0.0
0
LINE
8
0
6
CONTINUOUS
10
102.903680
20
-695.149075
30
0.0
11
102.904210
21
-692.155145
31
0.0
0
LINE
8
0
6
CONTINUOUS
10
102.644520
20
-687.698665
30
0.0
11
102.644360
21
-691.418075
31
0.0
0
LINE
8
0
6
CONTINUOUS
10
102.904210
20
-692.155145
30
0.0
11
102.904530
21
-688.220055
31
0.0
0
LINE
8
0
6
CONTINUOUS
10
102.644520
20
-683.390655
30
0.0
11
102.644520
21
-687.698665
31
0.0
0
LINE
8
0
6
CONTINUOUS
10
102.904530
20
-688.220055
30
0.0
11
102.904490
21
-683.661955
31
0.0
0
LINE
8
0
6
CONTINUOUS
10
102.644440
20
-678.700095
30
0.0
11
102.644520
21
-683.390655
31
0.0
0
LINE
8
0
6
CONTINUOUS
10
102.904490
20
-683.661955
30
0.0
11
102.904370
21
-678.699485
31
0.0
0
LINE
8
0
6
CONTINUOUS
10
102.644300
20
-674.025495
30
0.0
11
102.644440
21
-678.700095
31
0.0
0
LINE
8
0
6
CONTINUOUS
10
102.904370
20
-678.699485
30
0.0
11
102.904190
21
-673.753815
31
0.0
0
LINE
8
0
6
CONTINUOUS
10
102.647770
20
-669.659805
30
0.0
11
102.644300
21
-674.025495
31
0.0
0
LINE
8
0
6
CONTINUOUS
10
102.904190
20
-673.753815
30
0.0
11
102.909690
21
-669.134745
31
0.0
0
LINE
8
0
6
CONTINUOUS
10
102.644540
20
-666.006005
30
0.0
11
102.647770
21
-669.659805
31
0.0
0
LINE
8
0
6
CONTINUOUS
10
102.909690
20
-669.134745
30
0.0
11
102.904550
21
-665.269085
31
0.0
0
LINE
8
0
6
CONTINUOUS
10
102.643430
20
-663.218835
30
0.0
11
102.644540
21
-666.006005
31
0.0
0
LINE
8
0
6
CONTINUOUS
10
102.904550
20
-665.269085
30
0.0
11
102.902750
21
-662.320175
31
0.0
0
LINE
8
0
6
CONTINUOUS
10
102.642930
20
-661.507035
30
0.0
11
102.643430
21
-663.218835
31
0.0
0
LINE
8
0
6
CONTINUOUS
10
102.902750
20
-662.320175
30
0.0
11
102.902030
21
-660.508955
31
0.0
0
LINE
8
0
6
CONTINUOUS
10
103.160360
20
-659.908675
30
0.0
11
102.901460
21
-659.907375
31
0.0
0
LINE
8
0
6
CONTINUOUS
10
102.642590
20
-660.938415
30
0.0
11
102.642930
21
-661.507035
31
0.0
0
LINE
8
0
6
CONTINUOUS
10
102.901460
20
-659.907375
30
0.0
11
102.642590
21
-660.938415
31
0.0
0
LINE
8
0
6
CONTINUOUS
10
102.902030
20
-660.508955
30
0.0
11
102.901460
21
-659.907375
31
0.0
0
LINE
8
0
6
CONTINUOUS
10
148.249190
20
-673.891255
30
0.0
11
148.249166
21
-670.256621
31
0.0
0
LINE
8
0
6
CONTINUOUS
10
148.249190
20
-678.693355
30
0.0
11
148.249190
21
-673.891255
31
0.0
0
LINE
8
0
6
CONTINUOUS
10
148.249190
20
-683.499795
30
0.0
11
148.249190
21
-678.693355
31
0.0
0
LINE
8
0
6
CONTINUOUS
10
148.249190
20
-687.978785
30
0.0
11
148.249190
21
-683.499795
31
0.0
0
LINE
8
0
6
CONTINUOUS
10
148.249180
20
-691.800655
30
0.0
11
148.249190
21
-687.978785
31
0.0
0
LINE
8
0
6
CONTINUOUS
10
148.249180
20
-694.721565
30
0.0
11
148.249180
21
-691.800655
31
0.0
0
LINE
8
0
6
CONTINUOUS
10
148.249180
20
-696.539115
30
0.0
11
148.249180
21
-694.721565
31
0.0
0
LINE
8
0
6
CONTINUOUS
10
147.439930
20
-697.142145
30
0.0
11
148.249180
21
-697.133825
31
0.0
0
LINE
8
0
6
CONTINUOUS
10
148.249180
20
-697.133825
30
0.0
11
148.249180
21
-696.539115
31
0.0
0
LINE
8
0
6
CONTINUOUS
10
128.283230
20
-659.625565
30
0.0
11
127.721250
21
-659.617325
31
0.0
0
LINE
8
0
6
CONTINUOUS
10
148.480590
20
-670.601765
30
0.0
11
148.533480
21
-664.940455
31
0.0
0
LINE
8
0
6
CONTINUOUS
10
148.533480
20
-664.940455
30
0.0
11
148.541640
21
-663.825265
31
0.0
0
LINE
8
0
6
CONTINUOUS
10
148.541640
20
-663.825265
30
0.0
11
148.547700
21
-662.415805
31
0.0
0
LINE
8
0
6
CONTINUOUS
10
148.547700
20
-662.415805
30
0.0
11
148.550030
21
-661.089665
31
0.0
0
LINE
8
0
6
CONTINUOUS
10
148.542210
20
-659.922145
30
0.0
11
147.996940
21
-659.909325
31
0.0
0
LINE
8
0
6
CONTINUOUS
10
148.548010
20
-660.133095
30
0.0
11
148.542210
21
-659.922145
31
0.0
0
LINE
8
0
6
CONTINUOUS
10
148.550030
20
-661.089665
30
0.0
11
148.548010
21
-660.133095
31
0.0
0
LINE
8
0
6
CONTINUOUS
10
147.996940
20
-659.909325
30
0.0
11
128.283230
21
-659.625565
31
0.0
0
LINE
8
0
6
CONTINUOUS
10
127.718810
20
-664.747185
30
0.0
11
127.726510
21
-663.630615
31
0.0
0
LINE
8
0
6
CONTINUOUS
10
127.726510
20
-663.630615
30
0.0
11
127.731400
21
-662.217195
31
0.0
0
LINE
8
0
6
CONTINUOUS
10
127.731400
20
-662.217195
30
0.0
11
127.732120
21
-660.885635
31
0.0
0
LINE
8
0
6
CONTINUOUS
10
127.728270
20
-659.832245
30
0.0
11
127.721250
21
-659.617325
31
0.0
0
LINE
8
0
6
CONTINUOUS
10
127.721250
20
-659.617325
30
0.0
11
127.712887
21
-660.127111
31
0.0
0
LINE
8
0
6
CONTINUOUS
10
127.668012
20
-670.185568
30
0.0
11
127.718810
21
-664.747185
31
0.0
0
LINE
8
0
6
CONTINUOUS
10
127.712710
20
-660.137885
30
0.0
11
127.662322
21
-665.536433
31
0.0
0
LINE
8
0
6
CONTINUOUS
10
127.732120
20
-660.885635
30
0.0
11
127.728270
21
-659.832245
31
0.0
0
LINE
8
0
6
CONTINUOUS
10
-15.254080
20
-696.478285
30
0.0
11
-15.254080
21
-696.914015
31
0.0
0
LINE
8
0
6
CONTINUOUS
10
8.032210
20
-696.478275
30
0.0
11
8.032210
21
-692.334825
31
0.0
0
LINE
8
0
6
CONTINUOUS
10
-15.254080
20
-692.334825
30
0.0
11
-15.254080
21
-696.478285
31
0.0
0
LINE
8
0
6
CONTINUOUS
10
8.032210
20
-696.914015
30
0.0
11
8.032210
21
-696.478275
31
0.0
0
LINE
8
0
6
CONTINUOUS
10
6.215910
20
-698.716905
30
0.0
11
7.333410
21
-697.980605
31
0.0
0
LINE
8
0
6
CONTINUOUS
10
-0.677110
20
-700.164085
30
0.0
11
2.024080
21
-699.859395
31
0.0
0
LINE
8
0
6
CONTINUOUS
10
2.024080
20
-699.859395
30
0.0
11
4.399590
21
-699.364345
31
0.0
0
LINE
8
0
6
CONTINUOUS
10
4.399590
20
-699.364345
30
0.0
11
6.215910
21
-698.716905
31
0.0
0
LINE
8
0
6
CONTINUOUS
10
-3.610940
20
-700.278335
30
0.0
11
-0.677110
21
-700.164085
31
0.0
0
LINE
8
0
6
CONTINUOUS
10
-11.621470
20
-699.364345
30
0.0
11
-9.245970
21
-699.859395
31
0.0
0
LINE
8
0
6
CONTINUOUS
10
-14.555300
20
-697.980605
30
0.0
11
-13.437790
21
-698.716905
31
0.0
0
LINE
8
0
6
CONTINUOUS
10
-13.437790
20
-698.716905
30
0.0
11
-11.621470
21
-699.364345
31
0.0
0
LINE
8
0
6
CONTINUOUS
10
-6.544770
20
-700.164085
30
0.0
11
-3.610940
21
-700.278335
31
0.0
0
LINE
8
0
6
CONTINUOUS
10
-9.245970
20
-699.859395
30
0.0
11
-6.544770
21
-700.164085
31
0.0
0
LINE
8
0
6
CONTINUOUS
10
-14.835340
20
-697.726505
30
0.0
11
-14.555300
21
-697.980605
31
0.0
0
LINE
8
0
6
CONTINUOUS
10
-15.254080
20
-696.914015
30
0.0
11
-14.835340
21
-697.726505
31
0.0
0
LINE
8
0
6
CONTINUOUS
10
7.333410
20
-697.980605
30
0.0
11
7.613460
21
-697.726505
31
0.0
0
LINE
8
0
6
CONTINUOUS
10
7.613460
20
-697.726505
30
0.0
11
8.032210
21
-696.914015
31
0.0
0
LINE
8
0
6
CONTINUOUS
10
-109.812990
20
-697.458195
30
0.0
11
-109.555690
21
-697.459705
31
0.0
0
LINE
8
0
6
CONTINUOUS
10
-109.812630
20
-660.046075
30
0.0
11
-109.555680
21
-660.044785
31
0.0
0
LINE
8
0
6
CONTINUOUS
10
-109.812782
20
-696.561045
30
0.0
11
-109.812800
21
-696.742245
31
0.0
0
LINE
8
0
6
CONTINUOUS
10
-109.812800
20
-696.742245
30
0.0
11
-109.812990
21
-697.458195
31
0.0
0
LINE
8
0
6
CONTINUOUS
10
-110.114890
20
-696.003715
30
0.0
11
-110.114510
21
-696.561045
31
0.0
0
LINE
8
0
6
CONTINUOUS
10
-109.812990
20
-697.458195
30
0.0
11
-109.813180
21
-696.872935
31
0.0
0
LINE
8
0
6
CONTINUOUS
10
-110.114510
20
-696.561045
30
0.0
11
-109.812990
21
-697.458195
31
0.0
0
LINE
8
0
6
CONTINUOUS
10
-110.115270
20
-694.247885
30
0.0
11
-110.114890
21
-696.003715
31
0.0
0
LINE
8
0
6
CONTINUOUS
10
-109.813180
20
-696.872935
30
0.0
11
-109.813410
21
-695.028885
31
0.0
0
LINE
8
0
6
CONTINUOUS
10
-110.115650
20
-691.418075
30
0.0
11
-110.115270
21
-694.247885
31
0.0
0
LINE
8
0
6
CONTINUOUS
10
-109.813410
20
-695.028885
30
0.0
11
-109.813560
21
-692.056945
31
0.0
0
LINE
8
0
6
CONTINUOUS
10
-110.115820
20
-687.698665
30
0.0
11
-110.115650
21
-691.418075
31
0.0
0
LINE
8
0
6
CONTINUOUS
10
-109.813560
20
-692.056945
30
0.0
11
-109.813680
21
-688.150595
31
0.0
0
LINE
8
0
6
CONTINUOUS
10
-110.115820
20
-683.390655
30
0.0
11
-110.115820
21
-687.698665
31
0.0
0
LINE
8
0
6
CONTINUOUS
10
-109.813680
20
-688.150595
30
0.0
11
-109.813640
21
-683.626205
31
0.0
0
LINE
8
0
6
CONTINUOUS
10
-110.115740
20
-678.700095
30
0.0
11
-110.115820
21
-683.390655
31
0.0
0
LINE
8
0
6
CONTINUOUS
10
-109.813640
20
-683.626205
30
0.0
11
-109.813640
21
-678.699885
31
0.0
0
LINE
8
0
6
CONTINUOUS
10
-110.115600
20
-674.025495
30
0.0
11
-110.115740
21
-678.700095
31
0.0
0
LINE
8
0
6
CONTINUOUS
10
-109.813640
20
-678.699885
30
0.0
11
-109.813580
21
-673.790445
31
0.0
0
LINE
8
0
6
CONTINUOUS
10
-110.119070
20
-669.659805
30
0.0
11
-110.115600
21
-674.025495
31
0.0
0
LINE
8
0
6
CONTINUOUS
10
-109.813580
20
-673.790445
30
0.0
11
-109.815390
21
-669.205475
31
0.0
0
LINE
8
0
6
CONTINUOUS
10
-110.115840
20
-666.006005
30
0.0
11
-110.119070
21
-669.659805
31
0.0
0
LINE
8
0
6
CONTINUOUS
10
-109.815390
20
-669.205475
30
0.0
11
-109.813660
21
-665.368115
31
0.0
0
LINE
8
0
6
CONTINUOUS
10
-110.114730
20
-663.218835
30
0.0
11
-110.115840
21
-666.006005
31
0.0
0
LINE
8
0
6
CONTINUOUS
10
-109.813660
20
-665.368115
30
0.0
11
-109.813090
21
-662.440855
31
0.0
0
LINE
8
0
6
CONTINUOUS
10
-110.114230
20
-661.507035
30
0.0
11
-110.114730
21
-663.218835
31
0.0
0
LINE
8
0
6
CONTINUOUS
10
-109.813090
20
-662.440855
30
0.0
11
-109.812860
21
-660.643215
31
0.0
0
LINE
8
0
6
CONTINUOUS
10
-110.113890
20
-660.938415
30
0.0
11
-110.114230
21
-661.507035
31
0.0
0
LINE
8
0
6
CONTINUOUS
10
-109.812860
20
-660.643215
30
0.0
11
-109.812630
21
-660.046075
31
0.0
0
LINE
8
0
6
CONTINUOUS
10
-109.812630
20
-660.046075
30
0.0
11
-109.812600
21
-660.739455
31
0.0
0
LINE
8
0
6
CONTINUOUS
10
-110.113890
20
-660.938415
30
0.0
11
-109.812630
21
-660.046075
31
0.0
0
LINE
8
0
6
CONTINUOUS
10
-109.812600
20
-660.739455
30
0.0
11
-109.812600
21
-660.938415
31
0.0
0
LINE
8
0
6
CONTINUOUS
10
-109.555680
20
-660.044785
30
0.0
11
-98.616350
21
-660.044785
31
0.0
0
LINE
8
0
6
CONTINUOUS
10
-109.555690
20
-697.459705
30
0.0
11
-98.735661
21
-697.459705
31
0.0
0
LINE
8
0
6
CONTINUOUS
10
102.084390
20
-697.459705
30
0.0
11
102.341690
21
-697.458195
31
0.0
0
LINE
8
0
6
CONTINUOUS
10
102.084380
20
-660.044785
30
0.0
11
102.341330
21
-660.046075
31
0.0
0
LINE
8
0
6
CONTINUOUS
10
102.341500
20
-696.742245
30
0.0
11
102.341482
21
-696.561045
31
0.0
0
LINE
8
0
6
CONTINUOUS
10
102.341690
20
-697.458195
30
0.0
11
102.341500
21
-696.742245
31
0.0
0
LINE
8
0
6
CONTINUOUS
10
102.341690
20
-697.458195
30
0.0
11
102.643210
21
-696.561045
31
0.0
0
LINE
8
0
6
CONTINUOUS
10
102.341880
20
-696.872935
30
0.0
11
102.341690
21
-697.458195
31
0.0
0
LINE
8
0
6
CONTINUOUS
10
102.643210
20
-696.561045
30
0.0
11
102.643590
21
-696.003715
31
0.0
0
LINE
8
0
6
CONTINUOUS
10
102.342110
20
-695.028885
30
0.0
11
102.341880
21
-696.872935
31
0.0
0
LINE
8
0
6
CONTINUOUS
10
102.643590
20
-696.003715
30
0.0
11
102.643970
21
-694.247885
31
0.0
0
LINE
8
0
6
CONTINUOUS
10
102.342260
20
-692.056945
30
0.0
11
102.342110
21
-695.028885
31
0.0
0
LINE
8
0
6
CONTINUOUS
10
102.643970
20
-694.247885
30
0.0
11
102.644360
21
-691.418075
31
0.0
0
LINE
8
0
6
CONTINUOUS
10
102.342380
20
-688.150595
30
0.0
11
102.342260
21
-692.056945
31
0.0
0
LINE
8
0
6
CONTINUOUS
10
102.644360
20
-691.418075
30
0.0
11
102.644520
21
-687.698665
31
0.0
0
LINE
8
0
6
CONTINUOUS
10
102.342350
20
-683.626205
30
0.0
11
102.342380
21
-688.150595
31
0.0
0
LINE
8
0
6
CONTINUOUS
10
102.644520
20
-687.698665
30
0.0
11
102.644520
21
-683.390655
31
0.0
0
LINE
8
0
6
CONTINUOUS
10
102.342350
20
-678.699885
30
0.0
11
102.342350
21
-683.626205
31
0.0
0
LINE
8
0
6
CONTINUOUS
10
102.644520
20
-683.390655
30
0.0
11
102.644440
21
-678.700095
31
0.0
0
LINE
8
0
6
CONTINUOUS
10
102.342280
20
-673.790445
30
0.0
11
102.342350
21
-678.699885
31
0.0
0
LINE
8
0
6
CONTINUOUS
10
102.644440
20
-678.700095
30
0.0
11
102.644300
21
-674.025495
31
0.0
0
LINE
8
0
6
CONTINUOUS
10
102.344090
20
-669.205475
30
0.0
11
102.342280
21
-673.790445
31
0.0
0
LINE
8
0
6
CONTINUOUS
10
102.644300
20
-674.025495
30
0.0
11
102.647770
21
-669.659805
31
0.0
0
LINE
8
0
6
CONTINUOUS
10
102.342360
20
-665.368115
30
0.0
11
102.344090
21
-669.205475
31
0.0
0
LINE
8
0
6
CONTINUOUS
10
102.647770
20
-669.659805
30
0.0
11
102.644540
21
-666.006005
31
0.0
0
LINE
8
0
6
CONTINUOUS
10
102.341790
20
-662.440855
30
0.0
11
102.342360
21
-665.368115
31
0.0
0
LINE
8
0
6
CONTINUOUS
10
102.644540
20
-666.006005
30
0.0
11
102.643430
21
-663.218835
31
0.0
0
LINE
8
0
6
CONTINUOUS
10
102.341560
20
-660.643215
30
0.0
11
102.341790
21
-662.440855
31
0.0
0
LINE
8
0
6
CONTINUOUS
10
102.643430
20
-663.218835
30
0.0
11
102.642930
21
-661.507035
31
0.0
0
LINE
8
0
6
CONTINUOUS
10
102.341330
20
-660.046075
30
0.0
11
102.341560
21
-660.643215
31
0.0
0
LINE
8
0
6
CONTINUOUS
10
102.642930
20
-661.507035
30
0.0
11
102.642590
21
-660.938415
31
0.0
0
LINE
8
0
6
CONTINUOUS
10
102.341330
20
-660.046075
30
0.0
11
102.642590
21
-660.938415
31
0.0
0
LINE
8
0
6
CONTINUOUS
10
102.341300
20
-660.739455
30
0.0
11
102.341330
21
-660.046075
31
0.0
0
LINE
8
0
6
CONTINUOUS
10
102.341300
20
-660.938415
30
0.0
11
102.341300
21
-660.739455
31
0.0
0
LINE
8
0
6
CONTINUOUS
10
91.145060
20
-660.044785
30
0.0
11
102.084380
21
-660.044785
31
0.0
0
LINE
8
0
6
CONTINUOUS
10
91.264360
20
-697.459705
30
0.0
11
102.084390
21
-697.459705
31
0.0
0
LINE
8
0
6
CONTINUOUS
10
71.334140
20
-649.887605
30
0.0
11
63.760810
21
-650.740905
31
0.0
0
LINE
8
0
6
CONTINUOUS
10
63.760810
20
-650.740905
30
0.0
11
56.567250
21
-653.258045
31
0.0
0
LINE
8
0
6
CONTINUOUS
10
56.567250
20
-653.258045
30
0.0
11
50.114160
21
-657.312795
31
0.0
0
LINE
8
0
6
CONTINUOUS
10
50.114160
20
-657.312795
30
0.0
11
47.885600
21
-659.541355
31
0.0
0
LINE
8
0
6
CONTINUOUS
10
40.409591
20
-697.943315
30
0.0
11
40.670400
21
-698.688665
31
0.0
0
LINE
8
0
6
CONTINUOUS
10
40.670400
20
-698.688665
30
0.0
11
44.725140
21
-705.141745
31
0.0
0
LINE
8
0
6
CONTINUOUS
10
44.725140
20
-705.141745
30
0.0
11
50.114170
21
-710.530785
31
0.0
0
LINE
8
0
6
CONTINUOUS
10
50.114170
20
-710.530785
30
0.0
11
56.567270
21
-714.585515
31
0.0
0
LINE
8
0
6
CONTINUOUS
10
56.567270
20
-714.585515
30
0.0
11
63.760830
21
-717.102645
31
0.0
0
LINE
8
0
6
CONTINUOUS
10
63.760830
20
-717.102645
30
0.0
11
71.334160
21
-717.955955
31
0.0
0
LINE
8
0
6
CONTINUOUS
10
71.334160
20
-717.955955
30
0.0
11
78.907470
21
-717.102655
31
0.0
0
LINE
8
0
6
CONTINUOUS
10
78.907470
20
-717.102655
30
0.0
11
86.101030
21
-714.585505
31
0.0
0
LINE
8
0
6
CONTINUOUS
10
86.101030
20
-714.585505
30
0.0
11
92.554130
21
-710.530765
31
0.0
0
LINE
8
0
6
CONTINUOUS
10
92.554130
20
-710.530765
30
0.0
11
97.943140
21
-705.141735
31
0.0
0
LINE
8
0
6
CONTINUOUS
10
97.943140
20
-705.141735
30
0.0
11
101.997890
21
-698.688635
31
0.0
0
LINE
8
0
6
CONTINUOUS
10
96.179733
20
-660.938415
30
0.0
11
92.554070
21
-657.312765
31
0.0
0
LINE
8
0
6
CONTINUOUS
10
92.554070
20
-657.312765
30
0.0
11
86.100970
21
-653.258025
31
0.0
0
LINE
8
0
6
CONTINUOUS
10
86.100970
20
-653.258025
30
0.0
11
78.907400
21
-650.740895
31
0.0
0
LINE
8
0
6
CONTINUOUS
10
78.907400
20
-650.740895
30
0.0
11
71.334140
21
-649.887605
31
0.0
0
LINE
8
0
6
CONTINUOUS
10
-78.805360
20
-649.887605
30
0.0
11
-86.378690
21
-650.740905
31
0.0
0
LINE
8
0
6
CONTINUOUS
10
-86.378690
20
-650.740905
30
0.0
11
-93.572250
21
-653.258045
31
0.0
0
LINE
8
0
6
CONTINUOUS
10
-93.572250
20
-653.258045
30
0.0
11
-100.025340
21
-657.312795
31
0.0
0
LINE
8
0
6
CONTINUOUS
10
-100.025340
20
-657.312795
30
0.0
11
-103.650960
21
-660.938415
31
0.0
0
LINE
8
0
6
CONTINUOUS
10
-109.469100
20
-698.688665
30
0.0
11
-105.414360
21
-705.141745
31
0.0
0
LINE
8
0
6
CONTINUOUS
10
-105.414360
20
-705.141745
30
0.0
11
-100.025330
21
-710.530785
31
0.0
0
LINE
8
0
6
CONTINUOUS
10
-100.025330
20
-710.530785
30
0.0
11
-93.572230
21
-714.585515
31
0.0
0
LINE
8
0
6
CONTINUOUS
10
-93.572230
20
-714.585515
30
0.0
11
-86.378670
21
-717.102645
31
0.0
0
LINE
8
0
6
CONTINUOUS
10
-86.378670
20
-717.102645
30
0.0
11
-78.805340
21
-717.955955
31
0.0
0
LINE
8
0
6
CONTINUOUS
10
-78.805340
20
-717.955955
30
0.0
11
-71.232030
21
-717.102655
31
0.0
0
LINE
8
0
6
CONTINUOUS
10
-71.232030
20
-717.102655
30
0.0
11
-64.038470
21
-714.585505
31
0.0
0
LINE
8
0
6
CONTINUOUS
10
-64.038470
20
-714.585505
30
0.0
11
-57.585370
21
-710.530765
31
0.0
0
LINE
8
0
6
CONTINUOUS
10
-57.585370
20
-710.530765
30
0.0
11
-52.196360
21
-705.141735
31
0.0
0
LINE
8
0
6
CONTINUOUS
10
-52.196360
20
-705.141735
30
0.0
11
-48.141610
21
-698.688635
31
0.0
0
LINE
8
0
6
CONTINUOUS
10
-48.141610
20
-698.688635
30
0.0
11
-47.880812
21
-697.943315
31
0.0
0
LINE
8
0
6
CONTINUOUS
10
-55.356832
20
-659.541355
30
0.0
11
-57.585430
21
-657.312765
31
0.0
0
LINE
8
0
6
CONTINUOUS
10
-57.585430
20
-657.312765
30
0.0
11
-64.038530
21
-653.258025
31
0.0
0
LINE
8
0
6
CONTINUOUS
10
-64.038530
20
-653.258025
30
0.0
11
-71.232100
21
-650.740895
31
0.0
0
LINE
8
0
6
CONTINUOUS
10
-71.232100
20
-650.740895
30
0.0
11
-78.805360
21
-649.887605
31
0.0
0
LINE
8
0
6
CONTINUOUS
10
7.113750
20
-659.543477
30
0.0
11
7.113750
21
113.874775
31
0.0
0
LINE
8
0
6
CONTINUOUS
10
7.113750
20
154.006535
30
0.0
11
7.113750
21
270.423994
31
0.0
0
LINE
8
0
6
CONTINUOUS
10
7.113750
20
333.144449
30
0.0
11
7.113750
21
337.860863
31
0.0
0
LINE
8
0
6
CONTINUOUS
10
7.113750
20
342.233972
30
0.0
11
7.113750
21
748.349254
31
0.0
0
LINE
8
0
6
CONTINUOUS
10
7.113750
20
813.247265
30
0.0
11
7.113750
21
821.743626
31
0.0
0
LINE
8
0
6
CONTINUOUS
10
-14.585040
20
821.743853
30
0.0
11
-14.585040
21
813.247265
31
0.0
0
LINE
8
0
6
CONTINUOUS
10
-14.585040
20
748.363388
30
0.0
11
-14.585040
21
316.568244
31
0.0
0
LINE
8
0
6
CONTINUOUS
10
-14.585040
20
289.234565
30
0.0
11
-14.585040
21
154.006535
31
0.0
0
LINE
8
0
6
CONTINUOUS
10
-14.585040
20
113.874775
30
0.0
11
-14.585040
21
-659.543477
31
0.0
0
LINE
8
0
6
CONTINUOUS
10
-14.585040
20
840.075115
30
0.0
11
-14.585040
21
833.296245
31
0.0
0
LINE
8
0
6
CONTINUOUS
10
7.113750
20
833.647195
30
0.0
11
7.113750
21
840.075115
31
0.0
0
LINE
8
0
6
CONTINUOUS
10
-14.585040
20
841.796455
30
0.0
11
-14.585040
21
840.075115
31
0.0
0
LINE
8
0
6
CONTINUOUS
10
7.113750
20
840.075115
30
0.0
11
7.113750
21
841.796455
31
0.0
0
LINE
8
0
6
CONTINUOUS
10
-14.585040
20
873.727915
30
0.0
11
-14.585040
21
873.415715
31
0.0
0
LINE
8
0
6
CONTINUOUS
10
-13.131490
20
879.152415
30
0.0
11
-14.585040
21
873.727915
31
0.0
0
LINE
8
0
6
CONTINUOUS
10
7.113750
20
873.415715
30
0.0
11
7.113750
21
873.727915
31
0.0
0
LINE
8
0
6
CONTINUOUS
10
7.113750
20
873.727915
30
0.0
11
5.660210
21
879.152415
31
0.0
0
LINE
8
0
6
CONTINUOUS
10
-3.735640
20
884.577215
30
0.0
11
-9.160340
21
883.123665
31
0.0
0
LINE
8
0
6
CONTINUOUS
10
5.660210
20
879.152415
30
0.0
11
1.689050
21
883.123665
31
0.0
0
LINE
8
0
6
CONTINUOUS
10
-9.160340
20
883.123665
30
0.0
11
-13.131490
21
879.152415
31
0.0
0
LINE
8
0
6
CONTINUOUS
10
1.689050
20
883.123665
30
0.0
11
-3.735640
21
884.577215
31
0.0
0
LINE
8
0
6
CONTINUOUS
10
-14.585040
20
873.415715
30
0.0
11
-14.585040
21
871.393925
31
0.0
0
LINE
8
0
6
CONTINUOUS
10
7.113750
20
871.393925
30
0.0
11
7.113750
21
873.415715
31
0.0
0
LINE
8
0
6
CONTINUOUS
10
-14.585040
20
871.393925
30
0.0
11
-14.585040
21
867.763865
31
0.0
0
LINE
8
0
6
CONTINUOUS
10
7.113750
20
867.763865
30
0.0
11
7.113750
21
871.393925
31
0.0
0
LINE
8
0
6
CONTINUOUS
10
7.113750
20
862.707865
30
0.0
11
7.113750
21
867.763865
31
0.0
0
LINE
8
0
6
CONTINUOUS
10
-14.585040
20
867.763865
30
0.0
11
-14.585040
21
862.707865
31
0.0
0
LINE
8
0
6
CONTINUOUS
10
-14.585040
20
856.479075
30
0.0
11
-14.585040
21
849.390145
31
0.0
0
LINE
8
0
6
CONTINUOUS
10
7.113750
20
856.479075
30
0.0
11
7.113750
21
862.707865
31
0.0
0
LINE
8
0
6
CONTINUOUS
10
-14.585040
20
862.707865
30
0.0
11
-14.585040
21
856.479075
31
0.0
0
LINE
8
0
6
CONTINUOUS
10
7.113750
20
849.390145
30
0.0
11
7.113750
21
856.479075
31
0.0
0
LINE
8
0
6
CONTINUOUS
10
-14.585040
20
849.390145
30
0.0
11
-14.585040
21
841.796455
31
0.0
0
LINE
8
0
6
CONTINUOUS
10
7.113750
20
841.796455
30
0.0
11
7.113750
21
849.390145
31
0.0
0
LINE
8
0
6
CONTINUOUS
10
-14.585040
20
841.796455
30
0.0
11
-13.371649
21
833.647282
31
0.0
0
LINE
8
0
6
CONTINUOUS
10
5.900366
20
833.647333
30
0.0
11
7.113750
21
841.796455
31
0.0
0
LINE
8
0
6
CONTINUOUS
10
-42.231810
20
733.564335
30
0.0
11
-43.221820
21
724.778025
31
0.0
0
LINE
8
0
6
CONTINUOUS
10
34.760550
20
715.991405
30
0.0
11
35.750550
21
724.777875
31
0.0
0
LINE
8
0
6
CONTINUOUS
10
35.750550
20
724.777875
30
0.0
11
34.760550
21
733.564335
31
0.0
0
LINE
8
0
6
CONTINUOUS
10
31.382280
20
741.689795
30
0.0
11
26.788407
21
749.000739
31
0.0
0
LINE
8
0
6
CONTINUOUS
10
34.265050
20
733.451275
30
0.0
11
31.382280
21
741.689795
31
0.0
0
LINE
8
0
6
CONTINUOUS
10
35.242310
20
724.777875
30
0.0
11
34.265050
21
733.451275
31
0.0
0
LINE
8
0
6
CONTINUOUS
10
34.265050
20
716.104315
30
0.0
11
35.242310
21
724.777875
31
0.0
0
LINE
8
0
6
CONTINUOUS
10
31.382290
20
707.865945
30
0.0
11
34.265050
21
716.104315
31
0.0
0
LINE
8
0
6
CONTINUOUS
10
26.738550
20
700.475505
30
0.0
11
31.382290
21
707.865945
31
0.0
0
LINE
8
0
6
CONTINUOUS
10
20.566710
20
694.303625
30
0.0
11
26.738550
21
700.475505
31
0.0
0
LINE
8
0
6
CONTINUOUS
10
13.176260
20
689.659765
30
0.0
11
20.566710
21
694.303625
31
0.0
0
LINE
8
0
6
CONTINUOUS
10
7.113750
20
687.538464
30
0.0
11
13.176260
21
689.659765
31
0.0
0
LINE
8
0
6
CONTINUOUS
10
-20.647550
20
689.659925
30
0.0
11
-14.585040
21
687.538504
31
0.0
0
LINE
8
0
6
CONTINUOUS
10
-28.038010
20
694.303625
30
0.0
11
-20.647550
21
689.659925
31
0.0
0
LINE
8
0
6
CONTINUOUS
10
-34.209850
20
700.475505
30
0.0
11
-28.038010
21
694.303625
31
0.0
0
LINE
8
0
6
CONTINUOUS
10
-38.853570
20
707.865945
30
0.0
11
-34.209850
21
700.475505
31
0.0
0
LINE
8
0
6
CONTINUOUS
10
-41.736340
20
716.104475
30
0.0
11
-38.853570
21
707.865945
31
0.0
0
LINE
8
0
6
CONTINUOUS
10
-42.713590
20
724.777875
30
0.0
11
-41.736340
21
716.104475
31
0.0
0
LINE
8
0
6
CONTINUOUS
10
-41.736320
20
733.451275
30
0.0
11
-42.713590
21
724.777875
31
0.0
0
LINE
8
0
6
CONTINUOUS
10
-38.853540
20
741.689795
30
0.0
11
-41.736320
21
733.451275
31
0.0
0
LINE
8
0
6
CONTINUOUS
10
-34.248463
20
749.018704
30
0.0
11
-38.853540
21
741.689795
31
0.0
0
LINE
8
0
6
CONTINUOUS
10
-34.840418
20
749.025919
30
0.0
11
-39.311440
21
741.910285
31
0.0
0
LINE
8
0
6
CONTINUOUS
10
-39.311440
20
741.910285
30
0.0
11
-42.231810
21
733.564335
31
0.0
0
LINE
8
0
6
CONTINUOUS
10
-43.221820
20
724.778025
30
0.0
11
-42.231830
21
715.991405
31
0.0
0
LINE
8
0
6
CONTINUOUS
10
-42.231830
20
715.991405
30
0.0
11
-39.311470
21
707.645455
31
0.0
0
LINE
8
0
6
CONTINUOUS
10
-39.311470
20
707.645455
30
0.0
11
-34.607200
21
700.158735
31
0.0
0
LINE
8
0
6
CONTINUOUS
10
-34.607200
20
700.158735
30
0.0
11
-28.354890
21
693.906285
31
0.0
0
LINE
8
0
6
CONTINUOUS
10
-28.354890
20
693.906285
30
0.0
11
-20.868070
21
689.202005
31
0.0
0
LINE
8
0
6
CONTINUOUS
10
-20.868070
20
689.202005
30
0.0
11
-14.585040
21
687.003463
31
0.0
0
LINE
8
0
6
CONTINUOUS
10
7.113750
20
687.003466
30
0.0
11
13.396770
21
689.202005
31
0.0
0
LINE
8
0
6
CONTINUOUS
10
13.396770
20
689.202005
30
0.0
11
20.883590
21
693.906285
31
0.0
0
LINE
8
0
6
CONTINUOUS
10
20.883590
20
693.906285
30
0.0
11
27.135900
21
700.158735
31
0.0
0
LINE
8
0
6
CONTINUOUS
10
27.135900
20
700.158735
30
0.0
11
31.840190
21
707.645455
31
0.0
0
LINE
8
0
6
CONTINUOUS
10
31.840190
20
707.645455
30
0.0
11
34.760550
21
715.991405
31
0.0
0
LINE
8
0
6
CONTINUOUS
10
34.760550
20
733.564335
30
0.0
11
31.840180
21
741.910285
31
0.0
0
LINE
8
0
6
CONTINUOUS
10
31.840180
20
741.910285
30
0.0
11
27.381927
21
749.005613
31
0.0
0
LINE
8
0
6
CONTINUOUS
10
-49.704790
20
153.322865
30
0.0
11
-49.704790
21
151.318245
31
0.0
0
LINE
8
0
6
CONTINUOUS
10
21.276780
20
113.874775
30
0.0
11
21.555120
21
113.874775
31
0.0
0
LINE
8
0
6
CONTINUOUS
10
-49.704790
20
151.318245
30
0.0
11
-49.704800
21
148.129385
31
0.0
0
LINE
8
0
6
CONTINUOUS
10
-49.704800
20
148.129385
30
0.0
11
-49.704800
21
143.973655
31
0.0
0
LINE
8
0
6
CONTINUOUS
10
-49.704800
20
143.973655
30
0.0
11
-49.704810
21
139.134105
31
0.0
0
LINE
8
0
6
CONTINUOUS
10
-49.704810
20
139.134105
30
0.0
11
-49.704810
21
133.940695
31
0.0
0
LINE
8
0
6
CONTINUOUS
10
-49.704810
20
133.940695
30
0.0
11
-49.704810
21
128.747215
31
0.0
0
LINE
8
0
6
CONTINUOUS
10
-49.704810
20
128.747215
30
0.0
11
-49.704820
21
123.907735
31
0.0
0
LINE
8
0
6
CONTINUOUS
10
-49.704820
20
123.907735
30
0.0
11
-49.704820
21
119.752005
31
0.0
0
LINE
8
0
6
CONTINUOUS
10
-49.704830
20
116.563145
30
0.0
11
-49.704830
21
114.558525
31
0.0
0
LINE
8
0
6
CONTINUOUS
10
-49.704830
20
114.558525
30
0.0
11
-49.704830
21
113.874775
31
0.0
0
LINE
8
0
6
CONTINUOUS
10
-49.704830
20
113.874775
30
0.0
11
-48.947110
21
113.874775
31
0.0
0
LINE
8
0
6
CONTINUOUS
10
21.555140
20
154.006535
30
0.0
11
21.276810
21
154.006535
31
0.0
0
LINE
8
0
6
CONTINUOUS
10
-49.704830
20
116.563145
30
0.0
11
-49.704820
21
119.752005
31
0.0
0
LINE
8
0
6
CONTINUOUS
10
-55.232750
20
165.849115
30
0.0
11
-49.704804
21
142.085424
31
0.0
0
LINE
8
0
6
CONTINUOUS
10
-47.716660
20
167.597465
30
0.0
11
-47.769630
21
167.825205
31
0.0
0
LINE
8
0
6
CONTINUOUS
10
-51.527670
20
166.950955
30
0.0
11
-53.406690
21
166.513865
31
0.0
0
LINE
8
0
6
CONTINUOUS
10
-44.555113
20
154.006601
30
0.0
11
-47.716660
21
167.597465
31
0.0
0
LINE
8
0
6
CONTINUOUS
10
-53.406690
20
166.513865
30
0.0
11
-54.782250
21
166.193885
31
0.0
0
LINE
8
0
6
CONTINUOUS
10
-55.285720
20
166.076775
30
0.0
11
-55.232750
21
165.849115
31
0.0
0
LINE
8
0
6
CONTINUOUS
10
-54.782250
20
166.193885
30
0.0
11
-55.285720
21
166.076775
31
0.0
0
LINE
8
0
6
CONTINUOUS
10
-48.273120
20
167.708095
30
0.0
11
-47.769630
21
167.825205
31
0.0
0
LINE
8
0
6
CONTINUOUS
10
-49.648660
20
167.388115
30
0.0
11
-48.273120
21
167.708095
31
0.0
0
LINE
8
0
6
CONTINUOUS
10
-51.527670
20
166.950955
30
0.0
11
-49.648660
21
167.388115
31
0.0
0
LINE
8
0
6
CONTINUOUS
10
-55.031130
20
166.135975
30
0.0
11
-54.561760
21
166.245155
31
0.0
0
LINE
8
0
6
CONTINUOUS
10
-48.947110
20
113.874775
30
0.0
11
-23.478990
21
113.874775
31
0.0
0
LINE
8
0
6
CONTINUOUS
10
-23.478940
20
154.006535
30
0.0
11
-44.555113
21
154.006601
31
0.0
0
LINE
8
0
6
CONTINUOUS
10
27.931260
20
115.226255
30
0.0
11
27.931260
21
115.863915
31
0.0
0
LINE
8
0
6
CONTINUOUS
10
27.931270
20
124.583395
30
0.0
11
27.931270
21
129.096945
31
0.0
0
LINE
8
0
6
CONTINUOUS
10
27.931260
20
115.863915
30
0.0
11
27.931260
21
117.733495
31
0.0
0
LINE
8
0
6
CONTINUOUS
10
27.931270
20
129.096945
30
0.0
11
27.931270
21
133.940625
31
0.0
0
LINE
8
0
6
CONTINUOUS
10
27.931260
20
117.733495
30
0.0
11
27.931260
21
120.707515
31
0.0
0
LINE
8
0
6
CONTINUOUS
10
27.931270
20
133.940625
30
0.0
11
27.931270
21
138.784295
31
0.0
0
LINE
8
0
6
CONTINUOUS
10
27.931260
20
120.707515
30
0.0
11
27.931270
21
124.583395
31
0.0
0
LINE
8
0
6
CONTINUOUS
10
27.931270
20
138.784295
30
0.0
11
27.931280
21
143.297845
31
0.0
0
LINE
8
0
6
CONTINUOUS
10
21.555120
20
113.874775
30
0.0
11
22.196530
21
114.029355
31
0.0
0
LINE
8
0
6
CONTINUOUS
10
21.794856
20
153.948768
30
0.0
11
21.555140
21
154.006535
31
0.0
0
LINE
8
0
6
CONTINUOUS
10
22.196530
20
114.029355
30
0.0
11
27.513230
21
115.135915
31
0.0
0
LINE
8
0
6
CONTINUOUS
10
-22.242960
20
113.874775
30
0.0
11
-14.536002
21
113.874775
31
0.0
0
LINE
8
0
6
CONTINUOUS
10
7.064707
20
113.874775
30
0.0
11
21.276780
21
113.874775
31
0.0
0
LINE
8
0
6
CONTINUOUS
10
21.276810
20
154.006535
30
0.0
11
7.113750
21
154.006535
31
0.0
0
LINE
8
0
6
CONTINUOUS
10
-14.585040
20
154.006535
30
0.0
11
-22.242920
21
154.006535
31
0.0
0
LINE
8
0
6
CONTINUOUS
10
-22.551970
20
113.874775
30
0.0
11
-22.242960
21
113.874775
31
0.0
0
LINE
8
0
6
CONTINUOUS
10
-22.860980
20
114.795495
30
0.0
11
-22.551970
21
113.874775
31
0.0
0
LINE
8
0
6
CONTINUOUS
10
-22.551970
20
113.874775
30
0.0
11
-22.551970
21
114.558525
31
0.0
0
LINE
8
0
6
CONTINUOUS
10
-23.169980
20
113.874775
30
0.0
11
-22.860980
21
114.795495
31
0.0
0
LINE
8
0
6
CONTINUOUS
10
-22.860980
20
114.795495
30
0.0
11
-22.860980
21
115.447805
31
0.0
0
LINE
8
0
6
CONTINUOUS
10
-23.478990
20
113.874775
30
0.0
11
-23.169980
21
113.874775
31
0.0
0
LINE
8
0
6
CONTINUOUS
10
-23.169980
20
113.874775
30
0.0
11
-23.169980
21
114.558525
31
0.0
0
LINE
8
0
6
CONTINUOUS
10
-22.551970
20
114.558525
30
0.0
11
-22.551970
21
116.563145
31
0.0
0
LINE
8
0
6
CONTINUOUS
10
-22.860980
20
115.447805
30
0.0
11
-22.860980
21
117.360495
31
0.0
0
LINE
8
0
6
CONTINUOUS
10
-23.169980
20
114.558525
30
0.0
11
-23.169980
21
116.563145
31
0.0
0
LINE
8
0
6
CONTINUOUS
10
-22.551970
20
116.563145
30
0.0
11
-22.551960
21
119.752005
31
0.0
0
LINE
8
0
6
CONTINUOUS
10
-22.860980
20
117.360495
30
0.0
11
-22.860970
21
120.403025
31
0.0
0
LINE
8
0
6
CONTINUOUS
10
-23.169980
20
116.563145
30
0.0
11
-23.169980
21
119.752005
31
0.0
0
LINE
8
0
6
CONTINUOUS
10
-22.551960
20
119.752005
30
0.0
11
-22.551960
21
123.907735
31
0.0
0
LINE
8
0
6
CONTINUOUS
10
-22.860970
20
120.403025
30
0.0
11
-22.860970
21
124.368095
31
0.0
0
LINE
8
0
6
CONTINUOUS
10
-23.169980
20
119.752005
30
0.0
11
-23.169970
21
123.907735
31
0.0
0
LINE
8
0
6
CONTINUOUS
10
-22.551960
20
123.907735
30
0.0
11
-22.551950
21
128.747215
31
0.0
0
LINE
8
0
6
CONTINUOUS
10
-22.860970
20
124.368095
30
0.0
11
-22.860950
21
128.985555
31
0.0
0
LINE
8
0
6
CONTINUOUS
10
-23.169970
20
123.907735
30
0.0
11
-23.169960
21
128.747215
31
0.0
0
LINE
8
0
6
CONTINUOUS
10
-22.551950
20
128.747215
30
0.0
11
-22.551950
21
133.940695
31
0.0
0
LINE
8
0
6
CONTINUOUS
10
-22.860950
20
128.985555
30
0.0
11
-22.860950
21
133.940695
31
0.0
0
LINE
8
0
6
CONTINUOUS
10
-23.169960
20
128.747215
30
0.0
11
-23.169960
21
133.940695
31
0.0
0
LINE
8
0
6
CONTINUOUS
10
-22.551950
20
133.940695
30
0.0
11
-22.551940
21
139.134105
31
0.0
0
LINE
8
0
6
CONTINUOUS
10
-22.860950
20
133.940695
30
0.0
11
-22.860950
21
138.895835
31
0.0
0
LINE
8
0
6
CONTINUOUS
10
-23.169960
20
133.940695
30
0.0
11
-23.169960
21
139.134105
31
0.0
0
LINE
8
0
6
CONTINUOUS
10
-22.551940
20
139.134105
30
0.0
11
-22.551930
21
143.973585
31
0.0
0
LINE
8
0
6
CONTINUOUS
10
-22.860950
20
138.895835
30
0.0
11
-22.860940
21
143.513225
31
0.0
0
LINE
8
0
6
CONTINUOUS
10
-23.169960
20
139.134105
30
0.0
11
-23.169950
21
143.973585
31
0.0
0
LINE
8
0
6
CONTINUOUS
10
-22.551930
20
143.973585
30
0.0
11
-22.551930
21
148.129385
31
0.0
0
LINE
8
0
6
CONTINUOUS
10
-22.860940
20
143.513225
30
0.0
11
-22.860940
21
147.478375
31
0.0
0
LINE
8
0
6
CONTINUOUS
10
-23.169950
20
143.973585
30
0.0
11
-23.169950
21
148.129385
31
0.0
0
LINE
8
0
6
CONTINUOUS
10
-22.551930
20
148.129385
30
0.0
11
-22.551930
21
151.318245
31
0.0
0
LINE
8
0
6
CONTINUOUS
10
-22.860940
20
147.478375
30
0.0
11
-22.860930
21
150.520895
31
0.0
0
LINE
8
0
6
CONTINUOUS
10
-23.169950
20
148.129385
30
0.0
11
-23.169940
21
151.318245
31
0.0
0
LINE
8
0
6
CONTINUOUS
10
-22.551930
20
151.318245
30
0.0
11
-22.551930
21
153.322795
31
0.0
0
LINE
8
0
6
CONTINUOUS
10
-22.860930
20
150.520895
30
0.0
11
-22.860930
21
152.433435
31
0.0
0
LINE
8
0
6
CONTINUOUS
10
-23.169940
20
151.318245
30
0.0
11
-23.169940
21
153.322795
31
0.0
0
LINE
8
0
6
CONTINUOUS
10
-22.242920
20
154.006535
30
0.0
11
-22.551930
21
154.006535
31
0.0
0
LINE
8
0
6
CONTINUOUS
10
-22.551930
20
154.006535
30
0.0
11
-22.860930
21
153.085905
31
0.0
0
LINE
8
0
6
CONTINUOUS
10
-22.551930
20
153.322795
30
0.0
11
-22.551930
21
154.006535
31
0.0
0
LINE
8
0
6
CONTINUOUS
10
-22.860930
20
153.085905
30
0.0
11
-23.169940
21
154.006535
31
0.0
0
LINE
8
0
6
CONTINUOUS
10
-22.860930
20
152.433435
30
0.0
11
-22.860930
21
153.085905
31
0.0
0
LINE
8
0
6
CONTINUOUS
10
-23.169940
20
154.006535
30
0.0
11
-23.478940
21
154.006535
31
0.0
0
LINE
8
0
6
CONTINUOUS
10
-23.169940
20
153.322795
30
0.0
11
-23.169940
21
154.006535
31
0.0
0
LINE
8
0
6
CONTINUOUS
10
49.195640
20
113.981595
30
0.0
11
51.396840
21
114.139215
31
0.0
0
LINE
8
0
6
CONTINUOUS
10
51.396840
20
114.139215
30
0.0
11
52.981610
21
115.157665
31
0.0
0
LINE
8
0
6
CONTINUOUS
10
25.970010
20
113.992425
30
0.0
11
26.441420
21
113.958705
31
0.0
0
LINE
8
0
6
CONTINUOUS
10
53.522170
20
116.884805
30
0.0
11
53.522170
21
117.204245
31
0.0
0
LINE
8
0
6
CONTINUOUS
10
52.981610
20
115.157665
30
0.0
11
53.522170
21
116.884805
31
0.0
0
LINE
8
0
6
CONTINUOUS
10
28.062180
20
173.174555
30
0.0
11
28.062170
21
173.630025
31
0.0
0
LINE
8
0
6
CONTINUOUS
10
47.260560
20
173.630025
30
0.0
11
47.260560
21
173.174555
31
0.0
0
LINE
8
0
6
CONTINUOUS
10
47.280970
20
177.384375
30
0.0
11
47.280970
21
175.408215
31
0.0
0
LINE
8
0
6
CONTINUOUS
10
24.703701
20
184.040999
30
0.0
11
23.920030
21
183.513835
31
0.0
0
LINE
8
0
6
CONTINUOUS
10
23.920030
20
183.513835
30
0.0
11
22.335260
21
181.539045
31
0.0
0
LINE
8
0
6
CONTINUOUS
10
22.335260
20
181.539045
30
0.0
11
21.794710
21
179.419825
31
0.0
0
LINE
8
0
6
CONTINUOUS
10
28.062600
20
114.278145
30
0.0
11
28.062180
21
173.174555
31
0.0
0
LINE
8
0
6
CONTINUOUS
10
21.794710
20
179.419825
30
0.0
11
21.794710
21
178.964425
31
0.0
0
LINE
8
0
6
CONTINUOUS
10
22.335260
20
177.300605
30
0.0
11
21.794710
21
179.419825
31
0.0
0
LINE
8
0
6
CONTINUOUS
10
23.920030
20
175.325735
30
0.0
11
22.335260
21
177.300605
31
0.0
0
LINE
8
0
6
CONTINUOUS
10
53.521810
20
178.964505
30
0.0
11
53.521810
21
179.419895
31
0.0
0
LINE
8
0
6
CONTINUOUS
10
47.260560
20
173.174555
30
0.0
11
47.260990
21
114.278145
31
0.0
0
LINE
8
0
6
CONTINUOUS
10
26.835470
20
173.630025
30
0.0
11
26.441060
21
173.630025
31
0.0
0
LINE
8
0
6
CONTINUOUS
10
48.875460
20
173.174555
30
0.0
11
48.875450
21
173.630025
31
0.0
0
LINE
8
0
6
CONTINUOUS
10
52.981250
20
181.539115
30
0.0
11
51.396490
21
183.513905
31
0.0
0
LINE
8
0
6
CONTINUOUS
10
53.521810
20
179.419895
30
0.0
11
52.981250
21
181.539115
31
0.0
0
LINE
8
0
6
CONTINUOUS
10
52.981250
20
177.300685
30
0.0
11
53.521810
21
179.419895
31
0.0
0
LINE
8
0
6
CONTINUOUS
10
51.396490
20
175.325815
30
0.0
11
52.981250
21
177.300685
31
0.0
0
LINE
8
0
6
CONTINUOUS
10
27.601620
20
173.630025
30
0.0
11
26.835470
21
173.630025
31
0.0
0
LINE
8
0
6
CONTINUOUS
10
48.875830
20
113.958705
30
0.0
11
49.195640
21
113.981595
31
0.0
0
LINE
8
0
6
CONTINUOUS
10
47.280970
20
175.408215
30
0.0
11
47.263150
21
173.855555
31
0.0
0
LINE
8
0
6
CONTINUOUS
10
27.978190
20
175.408135
30
0.0
11
27.978190
21
177.090469
31
0.0
0
LINE
8
0
6
CONTINUOUS
10
28.062170
20
173.630025
30
0.0
11
28.046470
21
173.962515
31
0.0
0
LINE
8
0
6
CONTINUOUS
10
27.601620
20
173.630025
30
0.0
11
28.062170
21
173.630025
31
0.0
0
LINE
8
0
6
CONTINUOUS
10
48.875450
20
173.630025
30
0.0
11
49.195280
21
173.845175
31
0.0
0
LINE
8
0
6
CONTINUOUS
10
48.481040
20
173.630025
30
0.0
11
48.875450
21
173.630025
31
0.0
0
LINE
8
0
6
CONTINUOUS
10
51.396490
20
175.325815
30
0.0
11
49.195280
21
173.845175
31
0.0
0
LINE
8
0
6
CONTINUOUS
10
23.920390
20
114.139215
30
0.0
11
25.970010
21
113.992425
31
0.0
0
LINE
8
0
6
CONTINUOUS
10
47.721120
20
173.630025
30
0.0
11
48.481040
21
173.630025
31
0.0
0
LINE
8
0
6
CONTINUOUS
10
47.263150
20
173.855555
30
0.0
11
47.260560
21
173.630025
31
0.0
0
LINE
8
0
6
CONTINUOUS
10
47.260560
20
173.630025
30
0.0
11
47.721120
21
173.630025
31
0.0
0
LINE
8
0
6
CONTINUOUS
10
23.920030
20
175.325735
30
0.0
11
25.969650
21
173.947105
31
0.0
0
LINE
8
0
6
CONTINUOUS
10
26.441060
20
173.174555
30
0.0
11
26.441060
21
173.630025
31
0.0
0
LINE
8
0
6
CONTINUOUS
10
26.441060
20
173.630025
30
0.0
11
25.969650
21
173.947105
31
0.0
0
LINE
8
0
6
CONTINUOUS
10
28.046470
20
173.962515
30
0.0
11
27.978190
21
175.408135
31
0.0
0
LINE
8
0
6
CONTINUOUS
10
21.794710
20
178.964425
30
0.0
11
21.794856
21
153.948768
31
0.0
0
LINE
8
0
6
CONTINUOUS
10
26.441420
20
114.278145
30
0.0
11
26.441416
21
114.912839
31
0.0
0
LINE
8
0
6
CONTINUOUS
10
26.441184
20
152.968471
30
0.0
11
26.441060
21
173.174555
31
0.0
0
LINE
8
0
6
CONTINUOUS
10
53.522170
20
117.204245
30
0.0
11
53.521810
21
178.964505
31
0.0
0
LINE
8
0
6
CONTINUOUS
10
28.062610
20
113.958705
30
0.0
11
28.062600
21
114.278145
31
0.0
0
LINE
8
0
6
CONTINUOUS
10
27.602050
20
113.958705
30
0.0
11
28.062610
21
113.958705
31
0.0
0
LINE
8
0
6
CONTINUOUS
10
47.261000
20
113.958705
30
0.0
11
47.721550
21
113.958705
31
0.0
0
LINE
8
0
6
CONTINUOUS
10
47.260990
20
114.278145
30
0.0
11
47.261000
21
113.958705
31
0.0
0
LINE
8
0
6
CONTINUOUS
10
28.976860
20
123.774835
30
0.0
11
31.122680
21
125.982475
31
0.0
0
LINE
8
0
6
CONTINUOUS
10
31.122680
20
125.982475
30
0.0
11
32.547114
21
126.696784
31
0.0
0
LINE
8
0
6
CONTINUOUS
10
28.062547
20
121.693753
30
0.0
11
28.976860
21
123.774835
31
0.0
0
LINE
8
0
6
CONTINUOUS
10
46.283160
20
123.774835
30
0.0
11
47.260937
21
121.549279
31
0.0
0
LINE
8
0
6
CONTINUOUS
10
45.299270
20
124.801447
30
0.0
11
46.283160
21
123.774835
31
0.0
0
LINE
8
0
6
CONTINUOUS
10
26.441420
20
114.278145
30
0.0
11
26.441420
21
113.958705
31
0.0
0
LINE
8
0
6
CONTINUOUS
10
26.441420
20
113.958705
30
0.0
11
26.835840
21
113.958705
31
0.0
0
LINE
8
0
6
CONTINUOUS
10
48.481410
20
113.958705
30
0.0
11
48.875830
21
113.958705
31
0.0
0
LINE
8
0
6
CONTINUOUS
10
48.875830
20
113.958705
30
0.0
11
48.875830
21
114.278145
31
0.0
0
LINE
8
0
6
CONTINUOUS
10
26.835840
20
113.958705
30
0.0
11
27.602050
21
113.958705
31
0.0
0
LINE
8
0
6
CONTINUOUS
10
47.721550
20
113.958705
30
0.0
11
48.481410
21
113.958705
31
0.0
0
LINE
8
0
6
CONTINUOUS
10
48.875460
20
173.174555
30
0.0
11
48.875830
21
114.278145
31
0.0
0
LINE
8
0
6
CONTINUOUS
10
4.239850
20
833.647195
30
0.0
11
6.402360
21
833.647195
31
0.0
0
LINE
8
0
6
CONTINUOUS
10
-0.059730
20
833.647195
30
0.0
11
4.239850
21
833.647195
31
0.0
0
LINE
8
0
6
CONTINUOUS
10
-5.344380
20
833.647195
30
0.0
11
-0.059730
21
833.647195
31
0.0
0
LINE
8
0
6
CONTINUOUS
10
-10.197820
20
833.647195
30
0.0
11
-5.344380
21
833.647195
31
0.0
0
LINE
8
0
6
CONTINUOUS
10
-13.319840
20
833.647195
30
0.0
11
-10.197820
21
833.647195
31
0.0
0
LINE
8
0
6
CONTINUOUS
10
-13.873650
20
833.647195
30
0.0
11
-13.319840
21
833.647195
31
0.0
0
LINE
8
0
6
CONTINUOUS
10
-13.371636
20
833.647195
30
0.0
11
-13.873650
21
833.647195
31
0.0
0
LINE
8
0
6
CONTINUOUS
10
-14.870980
20
823.126565
30
0.0
11
-14.870980
21
822.726635
31
0.0
0
LINE
8
0
6
CONTINUOUS
10
7.399710
20
822.726475
30
0.0
11
7.399710
21
823.126565
31
0.0
0
LINE
8
0
6
CONTINUOUS
10
-14.870980
20
822.726635
30
0.0
11
-12.112961
21
813.247265
31
0.0
0
LINE
8
0
6
CONTINUOUS
10
4.641732
20
813.247265
30
0.0
11
7.399710
21
822.726475
31
0.0
0
LINE
8
0
6
CONTINUOUS
10
5.024450
20
833.647195
30
0.0
11
0.301900
21
833.647195
31
0.0
0
LINE
8
0
6
CONTINUOUS
10
-14.870990
20
833.647195
30
0.0
11
-14.870990
21
833.007395
31
0.0
0
LINE
8
0
6
CONTINUOUS
10
-14.262700
20
833.647195
30
0.0
11
-14.870990
21
833.647195
31
0.0
0
LINE
8
0
6
CONTINUOUS
10
7.399700
20
833.007245
30
0.0
11
7.399700
21
833.647195
31
0.0
0
LINE
8
0
6
CONTINUOUS
10
7.399700
20
833.647195
30
0.0
11
5.024450
21
833.647195
31
0.0
0
LINE
8
0
6
CONTINUOUS
10
-10.833540
20
833.647195
30
0.0
11
-14.262700
21
833.647195
31
0.0
0
LINE
8
0
6
CONTINUOUS
10
-5.502630
20
833.647195
30
0.0
11
-10.833540
21
833.647195
31
0.0
0
LINE
8
0
6
CONTINUOUS
10
0.301900
20
833.647195
30
0.0
11
-5.502630
21
833.647195
31
0.0
0
LINE
8
0
6
CONTINUOUS
10
-14.870990
20
833.007395
30
0.0
11
-14.870980
21
823.126565
31
0.0
0
LINE
8
0
6
CONTINUOUS
10
7.399710
20
823.126565
30
0.0
11
7.399700
21
833.007245
31
0.0
0
LINE
8
0
6
CONTINUOUS
10
6.791410
20
833.647345
30
0.0
11
5.848550
21
833.647345
31
0.0
0
LINE
8
0
6
CONTINUOUS
10
7.399700
20
833.647195
30
0.0
11
6.791410
21
833.647345
31
0.0
0
LINE
8
0
6
CONTINUOUS
10
6.402360
20
833.647195
30
0.0
11
7.399700
21
833.647195
31
0.0
0
LINE
8
0
6
CONTINUOUS
10
-18.983270
20
807.128485
30
0.0
11
-18.983229
21
787.860834
31
0.0
0
LINE
8
0
6
CONTINUOUS
10
11.512033
20
787.843874
30
0.0
11
11.512000
21
807.128485
31
0.0
0
LINE
8
0
6
CONTINUOUS
10
-18.074780
20
812.590825
30
0.0
11
-18.983270
21
807.128485
31
0.0
0
LINE
8
0
6
CONTINUOUS
10
11.512000
20
807.128485
30
0.0
11
10.603530
21
812.590825
31
0.0
0
LINE
8
0
6
CONTINUOUS
10
7.458990
20
813.247265
30
0.0
11
1.424000
21
813.247265
31
0.0
0
LINE
8
0
6
CONTINUOUS
10
-17.965610
20
813.247265
30
0.0
11
-18.074780
21
812.590825
31
0.0
0
LINE
8
0
6
CONTINUOUS
10
-17.188290
20
813.247265
30
0.0
11
-17.965610
21
813.247265
31
0.0
0
LINE
8
0
6
CONTINUOUS
10
10.603530
20
812.590825
30
0.0
11
10.494360
21
813.247265
31
0.0
0
LINE
8
0
6
CONTINUOUS
10
10.494360
20
813.247265
30
0.0
11
7.458990
21
813.247265
31
0.0
0
LINE
8
0
6
CONTINUOUS
10
-12.806120
20
813.247265
30
0.0
11
-17.188290
21
813.247265
31
0.0
0
LINE
8
0
6
CONTINUOUS
10
-5.993680
20
813.247265
30
0.0
11
-12.806120
21
813.247265
31
0.0
0
LINE
8
0
6
CONTINUOUS
10
1.424000
20
813.247265
30
0.0
11
-5.993680
21
813.247265
31
0.0
0
LINE
8
0
6
CONTINUOUS
10
89.364010
20
779.344365
30
0.0
11
89.364010
21
780.600775
31
0.0
0
LINE
8
0
6
CONTINUOUS
10
-96.944510
20
780.600775
30
0.0
11
-96.944510
21
779.344365
31
0.0
0
LINE
8
0
6
CONTINUOUS
10
-60.428980
20
780.600775
30
0.0
11
-51.164320
21
780.600775
31
0.0
0
LINE
8
0
6
CONTINUOUS
10
-41.717180
20
780.600775
30
0.0
11
-31.740940
21
780.600775
31
0.0
0
LINE
8
0
6
CONTINUOUS
10
-12.316860
20
780.600775
30
0.0
11
6.010880
21
780.600775
31
0.0
0
LINE
8
0
6
CONTINUOUS
10
6.010880
20
780.600775
30
0.0
11
26.968150
21
780.600775
31
0.0
0
LINE
8
0
6
CONTINUOUS
10
26.968150
20
780.600775
30
0.0
11
47.429240
21
780.600775
31
0.0
0
LINE
8
0
6
CONTINUOUS
10
56.806160
20
780.600775
30
0.0
11
64.679770
21
780.600775
31
0.0
0
LINE
8
0
6
CONTINUOUS
10
71.496970
20
780.600775
30
0.0
11
76.763860
21
780.600775
31
0.0
0
LINE
8
0
6
CONTINUOUS
10
80.768660
20
780.600775
30
0.0
11
83.927820
21
780.600775
31
0.0
0
LINE
8
0
6
CONTINUOUS
10
86.112290
20
780.600775
30
0.0
11
87.654740
21
780.600775
31
0.0
0
LINE
8
0
6
CONTINUOUS
10
89.364010
20
780.600775
30
0.0
11
87.173000
21
780.805095
31
0.0
0
LINE
8
0
6
CONTINUOUS
10
87.654740
20
780.600775
30
0.0
11
89.364010
21
780.600775
31
0.0
0
LINE
8
0
6
CONTINUOUS
10
-95.349300
20
780.600775
30
0.0
11
-91.056040
21
780.600775
31
0.0
0
LINE
8
0
6
CONTINUOUS
10
-96.944510
20
780.600775
30
0.0
11
-95.349300
21
780.600775
31
0.0
0
LINE
8
0
6
CONTINUOUS
10
-94.756210
20
780.805095
30
0.0
11
-96.944510
21
780.600775
31
0.0
0
LINE
8
0
6
CONTINUOUS
10
-87.437940
20
780.600775
30
0.0
11
-82.543800
21
780.600775
31
0.0
0
LINE
8
0
6
CONTINUOUS
10
-76.258780
20
780.600775
30
0.0
11
-68.853320
21
780.600775
31
0.0
0
LINE
8
0
6
CONTINUOUS
10
88.600460
20
759.753305
30
0.0
11
89.364010
21
761.998485
31
0.0
0
LINE
8
0
6
CONTINUOUS
10
-30.685750
20
759.077645
30
0.0
11
-11.976180
21
759.077645
31
0.0
0
LINE
8
0
6
CONTINUOUS
10
-12.246480
20
759.753305
30
0.0
11
-31.506108
21
759.753305
31
0.0
0
LINE
8
0
6
CONTINUOUS
10
-96.944510
20
761.998485
30
0.0
11
-96.181910
21
759.753305
31
0.0
0
LINE
8
0
6
CONTINUOUS
10
-66.516630
20
759.077645
30
0.0
11
-58.396050
21
759.077645
31
0.0
0
LINE
8
0
6
CONTINUOUS
10
-49.435140
20
759.077645
30
0.0
11
-40.324990
21
759.077645
31
0.0
0
LINE
8
0
6
CONTINUOUS
10
-11.976180
20
759.077645
30
0.0
11
5.623940
21
759.077645
31
0.0
0
LINE
8
0
6
CONTINUOUS
10
5.930940
20
759.753305
30
0.0
11
-12.246480
21
759.753305
31
0.0
0
LINE
8
0
6
CONTINUOUS
10
5.623940
20
759.077645
30
0.0
11
25.868470
21
759.077645
31
0.0
0
LINE
8
0
6
CONTINUOUS
10
26.740960
20
759.753305
30
0.0
11
5.930940
21
759.753305
31
0.0
0
LINE
8
0
6
CONTINUOUS
10
25.868470
20
759.077645
30
0.0
11
45.659090
21
759.077645
31
0.0
0
LINE
8
0
6
CONTINUOUS
10
47.063590
20
759.753305
30
0.0
11
26.740960
21
759.753305
31
0.0
0
LINE
8
0
6
CONTINUOUS
10
45.659090
20
759.077645
30
0.0
11
54.725107
21
759.077645
31
0.0
0
LINE
8
0
6
CONTINUOUS
10
62.307150
20
759.077645
30
0.0
11
68.868700
21
759.077645
31
0.0
0
LINE
8
0
6
CONTINUOUS
10
73.879950
20
759.077645
30
0.0
11
77.684510
21
759.077645
31
0.0
0
LINE
8
0
6
CONTINUOUS
10
80.643460
20
759.077645
30
0.0
11
82.690810
21
759.077645
31
0.0
0
LINE
8
0
6
CONTINUOUS
10
84.096120
20
759.077645
30
0.0
11
85.667910
21
759.077645
31
0.0
0
LINE
8
0
6
CONTINUOUS
10
88.600460
20
759.753305
30
0.0
11
86.919570
21
759.753305
31
0.0
0
LINE
8
0
6
CONTINUOUS
10
85.667910
20
759.077645
30
0.0
11
88.600460
21
759.753305
31
0.0
0
LINE
8
0
6
CONTINUOUS
10
-91.804200
20
759.077645
30
0.0
11
-87.793600
21
759.077645
31
0.0
0
LINE
8
0
6
CONTINUOUS
10
-90.382100
20
759.753305
30
0.0
11
-94.616970
21
759.753305
31
0.0
0
LINE
8
0
6
CONTINUOUS
10
-93.252990
20
759.077645
30
0.0
11
-91.804200
21
759.077645
31
0.0
0
LINE
8
0
6
CONTINUOUS
10
-96.181910
20
759.753305
30
0.0
11
-93.252990
21
759.077645
31
0.0
0
LINE
8
0
6
CONTINUOUS
10
-94.616970
20
759.753305
30
0.0
11
-96.181910
21
759.753305
31
0.0
0
LINE
8
0
6
CONTINUOUS
10
-87.793600
20
759.077645
30
0.0
11
-84.379500
21
759.077645
31
0.0
0
LINE
8
0
6
CONTINUOUS
10
-79.689370
20
759.077645
30
0.0
11
-73.663220
21
759.077645
31
0.0
0
LINE
8
0
6
CONTINUOUS
10
89.364010
20
762.865795
30
0.0
11
89.364010
21
779.344365
31
0.0
0
LINE
8
0
6
CONTINUOUS
10
-96.944510
20
779.344365
30
0.0
11
-96.944510
21
762.865795
31
0.0
0
LINE
8
0
6
CONTINUOUS
10
87.173000
20
780.805095
30
0.0
11
11.512033
21
787.861755
31
0.0
0
LINE
8
0
6
CONTINUOUS
10
-18.565846
20
787.899700
30
0.0
11
-94.756210
21
780.805095
31
0.0
0
LINE
8
0
6
CONTINUOUS
10
89.364010
20
761.998485
30
0.0
11
89.364010
21
762.865795
31
0.0
0
LINE
8
0
6
CONTINUOUS
10
-96.944510
20
762.865795
30
0.0
11
-96.944510
21
761.998485
31
0.0
0
LINE
8
0
6
CONTINUOUS
10
47.429240
20
780.600775
30
0.0
11
56.806160
21
780.600775
31
0.0
0
LINE
8
0
6
CONTINUOUS
10
47.063590
20
759.753305
30
0.0
11
56.378270
21
759.753305
31
0.0
0
LINE
8
0
6
CONTINUOUS
10
54.734770
20
759.077645
30
0.0
11
62.307150
21
759.077645
31
0.0
0
LINE
8
0
6
CONTINUOUS
10
64.189650
20
759.753305
30
0.0
11
56.392052
21
759.753305
31
0.0
0
LINE
8
0
6
CONTINUOUS
10
64.679770
20
780.600775
30
0.0
11
71.496970
21
780.600775
31
0.0
0
LINE
8
0
6
CONTINUOUS
10
64.189650
20
759.753305
30
0.0
11
70.917556
21
759.753305
31
0.0
0
LINE
8
0
6
CONTINUOUS
10
68.868700
20
759.077645
30
0.0
11
73.879950
21
759.077645
31
0.0
0
LINE
8
0
6
CONTINUOUS
10
76.168090
20
759.753305
30
0.0
11
70.954020
21
759.753305
31
0.0
0
LINE
8
0
6
CONTINUOUS
10
76.763860
20
780.600775
30
0.0
11
80.768660
21
780.600775
31
0.0
0
LINE
8
0
6
CONTINUOUS
10
76.168090
20
759.753305
30
0.0
11
80.131510
21
759.753305
31
0.0
0
LINE
8
0
6
CONTINUOUS
10
77.684510
20
759.077645
30
0.0
11
80.643460
21
759.077645
31
0.0
0
LINE
8
0
6
CONTINUOUS
10
83.249340
20
759.753305
30
0.0
11
80.131510
21
759.753305
31
0.0
0
LINE
8
0
6
CONTINUOUS
10
-91.056040
20
780.600775
30
0.0
11
-87.437940
21
780.600775
31
0.0
0
LINE
8
0
6
CONTINUOUS
10
-90.382100
20
759.753305
30
0.0
11
-86.806130
21
759.753305
31
0.0
0
LINE
8
0
6
CONTINUOUS
10
-84.379500
20
759.077645
30
0.0
11
-79.689370
21
759.077645
31
0.0
0
LINE
8
0
6
CONTINUOUS
10
-81.954120
20
759.753305
30
0.0
11
-86.806130
21
759.753305
31
0.0
0
LINE
8
0
6
CONTINUOUS
10
-82.543800
20
780.600775
30
0.0
11
-76.258780
21
780.600775
31
0.0
0
LINE
8
0
6
CONTINUOUS
10
-81.954120
20
759.753305
30
0.0
11
-75.744928
21
759.753305
31
0.0
0
LINE
8
0
6
CONTINUOUS
10
-73.663220
20
759.077645
30
0.0
11
-66.536151
21
759.077645
31
0.0
0
LINE
8
0
6
CONTINUOUS
10
-68.370610
20
759.753305
30
0.0
11
-75.722590
21
759.753305
31
0.0
0
LINE
8
0
6
CONTINUOUS
10
-68.370610
20
759.753305
30
0.0
11
-60.009010
21
759.753305
31
0.0
0
LINE
8
0
6
CONTINUOUS
10
-68.853320
20
780.600775
30
0.0
11
-60.428980
21
780.600775
31
0.0
0
LINE
8
0
6
CONTINUOUS
10
-58.396050
20
759.077645
30
0.0
11
-49.435140
21
759.077645
31
0.0
0
LINE
8
0
6
CONTINUOUS
10
-50.807100
20
759.753305
30
0.0
11
-60.009010
21
759.753305
31
0.0
0
LINE
8
0
6
CONTINUOUS
10
-51.164320
20
780.600775
30
0.0
11
-41.717180
21
780.600775
31
0.0
0
LINE
8
0
6
CONTINUOUS
10
-50.807100
20
759.753305
30
0.0
11
-41.429570
21
759.753305
31
0.0
0
LINE
8
0
6
CONTINUOUS
10
-40.324990
20
759.077645
30
0.0
11
-30.685750
21
759.077645
31
0.0
0
LINE
8
0
6
CONTINUOUS
10
-31.522970
20
759.753305
30
0.0
11
-41.429570
21
759.753305
31
0.0
0
LINE
8
0
6
CONTINUOUS
10
83.927820
20
780.600775
30
0.0
11
86.112290
21
780.600775
31
0.0
0
LINE
8
0
6
CONTINUOUS
10
83.249340
20
759.753305
30
0.0
11
85.405460
21
759.753305
31
0.0
0
LINE
8
0
6
CONTINUOUS
10
82.690810
20
759.077645
30
0.0
11
84.096120
21
759.077645
31
0.0
0
LINE
8
0
6
CONTINUOUS
10
86.919570
20
759.753305
30
0.0
11
85.405460
21
759.753305
31
0.0
0
LINE
8
0
6
CONTINUOUS
10
-12.316860
20
780.600775
30
0.0
11
-31.740940
21
780.600775
31
0.0
0
LINE
8
0
6
CONTINUOUS
10
68.868700
20
759.077645
30
0.0
11
62.460606
21
759.077645
31
0.0
0
LINE
8
0
6
CONTINUOUS
10
77.684510
20
759.077645
30
0.0
11
73.879950
21
759.077645
31
0.0
0
LINE
8
0
6
CONTINUOUS
10
82.690810
20
759.077645
30
0.0
11
80.643460
21
759.077645
31
0.0
0
LINE
8
0
6
CONTINUOUS
10
76.722073
20
757.158703
30
0.0
11
85.667910
21
759.077645
31
0.0
0
LINE
8
0
6
CONTINUOUS
10
85.667910
20
759.077645
30
0.0
11
84.096120
21
759.077645
31
0.0
0
LINE
8
0
6
CONTINUOUS
10
54.734770
20
759.077645
30
0.0
11
52.435143
21
759.077645
31
0.0
0
LINE
8
0
6
CONTINUOUS
10
-58.489985
20
753.306904
30
0.0
11
-58.319866
21
753.289094
31
0.0
0
LINE
8
0
6
CONTINUOUS
10
-75.771969
20
755.668786
30
0.0
11
-75.156727
21
755.573744
31
0.0
0
LINE
8
0
6
CONTINUOUS
10
-67.193504
20
754.343590
30
0.0
11
-66.570535
21
754.247355
31
0.0
0
LINE
8
0
6
CONTINUOUS
10
45.659090
20
759.077645
30
0.0
11
25.868470
21
759.077645
31
0.0
0
LINE
8
0
6
CONTINUOUS
10
-11.976180
20
759.077645
30
0.0
11
-30.685750
21
759.077645
31
0.0
0
LINE
8
0
6
CONTINUOUS
10
-87.793600
20
759.077645
30
0.0
11
-91.804200
21
759.077645
31
0.0
0
LINE
8
0
6
CONTINUOUS
10
25.868470
20
759.077645
30
0.0
11
25.620321
21
759.077645
31
0.0
0
LINE
8
0
6
CONTINUOUS
10
-40.324990
20
759.077645
30
0.0
11
-49.435140
21
759.077645
31
0.0
0
LINE
8
0
6
CONTINUOUS
10
-58.396050
20
759.077645
30
0.0
11
-66.516630
21
759.077645
31
0.0
0
LINE
8
0
6
CONTINUOUS
10
-73.663220
20
759.077645
30
0.0
11
-79.689370
21
759.077645
31
0.0
0
LINE
8
0
6
CONTINUOUS
10
-93.252990
20
759.077645
30
0.0
11
-83.525492
21
757.016167
31
0.0
0
LINE
8
0
6
CONTINUOUS
10
62.307150
20
759.077645
30
0.0
11
54.734770
21
759.077645
31
0.0
0
LINE
8
0
6
CONTINUOUS
10
73.879950
20
759.077645
30
0.0
11
68.868700
21
759.077645
31
0.0
0
LINE
8
0
6
CONTINUOUS
10
-2.216067
20
750.284144
30
0.0
11
0.281701
21
750.339227
31
0.0
0
LINE
8
0
6
CONTINUOUS
10
34.127284
20
751.743059
30
0.0
11
34.458991
21
751.769043
31
0.0
0
LINE
8
0
6
CONTINUOUS
10
58.953890
20
754.224735
30
0.0
11
59.040668
21
754.238125
31
0.0
0
LINE
8
0
6
CONTINUOUS
10
67.312278
20
755.514419
30
0.0
11
67.382068
21
755.525187
31
0.0
0
LINE
8
0
6
CONTINUOUS
10
58.112080
20
754.123820
30
0.0
11
58.953890
21
754.224735
31
0.0
0
LINE
8
0
6
CONTINUOUS
10
80.643460
20
759.077645
30
0.0
11
77.684510
21
759.077645
31
0.0
0
LINE
8
0
6
CONTINUOUS
10
-79.689370
20
759.077645
30
0.0
11
-84.042574
21
759.077645
31
0.0
0
LINE
8
0
6
CONTINUOUS
10
-42.534070
20
751.816355
30
0.0
11
-42.275997
21
751.796136
31
0.0
0
LINE
8
0
6
CONTINUOUS
10
-66.516630
20
759.077645
30
0.0
11
-73.663220
21
759.077645
31
0.0
0
LINE
8
0
6
CONTINUOUS
10
-9.150195
20
750.370297
30
0.0
11
-6.989798
21
750.322641
31
0.0
0
LINE
8
0
6
CONTINUOUS
10
-49.435140
20
759.077645
30
0.0
11
-58.396050
21
759.077645
31
0.0
0
LINE
8
0
6
CONTINUOUS
10
-30.685750
20
759.077645
30
0.0
11
-40.324990
21
759.077645
31
0.0
0
LINE
8
0
6
CONTINUOUS
10
84.096120
20
759.077645
30
0.0
11
82.690810
21
759.077645
31
0.0
0
LINE
8
0
6
CONTINUOUS
10
28.553810
20
750.406995
30
0.0
11
30.954590
21
750.401805
31
0.0
0
LINE
8
0
6
CONTINUOUS
10
28.553810
20
750.406995
30
0.0
11
28.555914
21
752.027775
31
0.0
0
LINE
8
0
6
CONTINUOUS
10
27.142360
20
750.392345
30
0.0
11
28.553810
21
750.406995
31
0.0
0
LINE
8
0
6
CONTINUOUS
10
27.143427
20
751.214942
30
0.0
11
27.142371
21
750.401195
31
0.0
0
LINE
8
0
6
CONTINUOUS
10
36.058860
20
751.237225
30
0.0
11
38.781320
21
751.231275
31
0.0
0
LINE
8
0
6
CONTINUOUS
10
47.794080
20
752.523235
30
0.0
11
47.794975
21
753.212863
31
0.0
0
LINE
8
0
6
CONTINUOUS
10
46.672190
20
752.545515
30
0.0
11
47.794080
21
752.523235
31
0.0
0
LINE
8
0
6
CONTINUOUS
10
39.903200
20
751.208995
30
0.0
11
39.906558
21
753.793192
31
0.0
0
LINE
8
0
6
CONTINUOUS
10
38.781320
20
751.231275
30
0.0
11
39.903200
21
751.208995
31
0.0
0
LINE
8
0
6
CONTINUOUS
10
38.784682
20
753.825482
30
0.0
11
38.781320
21
751.231275
31
0.0
0
LINE
8
0
6
CONTINUOUS
10
46.672190
20
752.545515
30
0.0
11
46.675715
21
755.263292
31
0.0
0
LINE
8
0
6
CONTINUOUS
10
43.949720
20
752.551305
30
0.0
11
46.672190
21
752.545515
31
0.0
0
LINE
8
0
6
CONTINUOUS
10
51.944770
20
753.832895
30
0.0
11
54.667230
21
753.827095
31
0.0
0
LINE
8
0
6
CONTINUOUS
10
23.963510
20
749.031255
30
0.0
11
26.182430
21
749.026375
31
0.0
0
LINE
8
0
6
CONTINUOUS
10
38.344480
20
750.406995
30
0.0
11
40.708240
21
750.401805
31
0.0
0
LINE
8
0
6
CONTINUOUS
10
26.897160
20
749.007915
30
0.0
11
26.897781
21
750.401195
31
0.0
0
LINE
8
0
6
CONTINUOUS
10
26.182430
20
749.026375
30
0.0
11
26.897160
21
749.007915
31
0.0
0
LINE
8
0
6
CONTINUOUS
10
26.183041
20
750.401195
30
0.0
11
26.182430
21
749.026375
31
0.0
0
LINE
8
0
6
CONTINUOUS
10
29.688460
20
749.545785
30
0.0
11
31.192640
21
749.559515
31
0.0
0
LINE
8
0
6
CONTINUOUS
10
29.688843
20
750.404541
30
0.0
11
29.688460
21
749.545785
31
0.0
0
LINE
8
0
6
CONTINUOUS
10
36.742090
20
750.392345
30
0.0
11
38.344480
21
750.406995
31
0.0
0
LINE
8
0
6
CONTINUOUS
10
36.742467
20
751.235731
30
0.0
11
36.742090
21
750.392345
31
0.0
0
LINE
8
0
6
CONTINUOUS
10
46.175090
20
751.237225
30
0.0
11
48.855570
21
751.231275
31
0.0
0
LINE
8
0
6
CONTINUOUS
10
41.469640
20
750.382115
30
0.0
11
41.470373
21
752.027775
31
0.0
0
LINE
8
0
6
CONTINUOUS
10
40.708240
20
750.401805
30
0.0
11
41.469640
21
750.382115
31
0.0
0
LINE
8
0
6
CONTINUOUS
10
40.708966
20
752.027775
30
0.0
11
40.708240
21
750.401805
31
0.0
0
LINE
8
0
6
CONTINUOUS
10
49.718970
20
751.208995
30
0.0
11
49.720271
21
754.131543
31
0.0
0
LINE
8
0
6
CONTINUOUS
10
48.855570
20
751.231275
30
0.0
11
49.718970
21
751.208995
31
0.0
0
LINE
8
0
6
CONTINUOUS
10
48.856895
20
754.207919
30
0.0
11
48.855570
21
751.231275
31
0.0
0
LINE
8
0
6
CONTINUOUS
10
62.323580
20
753.832895
30
0.0
11
65.004070
21
753.827095
31
0.0
0
LINE
8
0
6
CONTINUOUS
10
65.867490
20
753.804815
30
0.0
11
65.868776
21
756.694054
31
0.0
0
LINE
8
0
6
CONTINUOUS
10
65.004070
20
753.827095
30
0.0
11
65.867490
21
753.804815
31
0.0
0
LINE
8
0
6
CONTINUOUS
10
65.005350
20
756.694931
30
0.0
11
65.004070
21
753.827095
31
0.0
0
LINE
8
0
6
CONTINUOUS
10
23.963510
20
749.031255
30
0.0
11
23.963737
21
749.540170
31
0.0
0
LINE
8
0
6
CONTINUOUS
10
22.459330
20
749.017525
30
0.0
11
23.963510
21
749.031255
31
0.0
0
LINE
8
0
6
CONTINUOUS
10
22.459570
20
749.557065
30
0.0
11
22.459330
21
749.017525
31
0.0
0
LINE
8
0
6
CONTINUOUS
10
46.175090
20
751.237225
30
0.0
11
46.175784
21
752.799853
31
0.0
0
LINE
8
0
6
CONTINUOUS
10
44.357990
20
751.220585
30
0.0
11
46.175090
21
751.237225
31
0.0
0
LINE
8
0
6
CONTINUOUS
10
44.358608
20
752.609616
30
0.0
11
44.357990
21
751.220585
31
0.0
0
LINE
8
0
6
CONTINUOUS
10
19.625960
20
748.355595
30
0.0
11
19.626874
21
750.401195
31
0.0
0
LINE
8
0
6
CONTINUOUS
10
18.994340
20
748.372075
30
0.0
11
19.625960
21
748.355595
31
0.0
0
LINE
8
0
6
CONTINUOUS
10
18.994340
20
748.372075
30
0.0
11
18.995244
21
750.401195
31
0.0
0
LINE
8
0
6
CONTINUOUS
10
17.033460
20
748.376355
30
0.0
11
18.994340
21
748.372075
31
0.0
0
LINE
8
0
6
CONTINUOUS
10
52.385550
20
751.237225
30
0.0
11
55.034180
21
751.231275
31
0.0
0
LINE
8
0
6
CONTINUOUS
10
64.337960
20
752.523235
30
0.0
11
64.337987
21
755.055491
31
0.0
0
LINE
8
0
6
CONTINUOUS
10
63.609140
20
752.545515
30
0.0
11
64.337960
21
752.523235
31
0.0
0
LINE
8
0
6
CONTINUOUS
10
55.034180
20
751.231275
30
0.0
11
55.762990
21
751.208995
31
0.0
0
LINE
8
0
6
CONTINUOUS
10
55.034204
20
753.754847
30
0.0
11
55.034180
21
751.231275
31
0.0
0
LINE
8
0
6
CONTINUOUS
10
67.382050
20
753.816415
30
0.0
11
69.301880
21
753.832895
31
0.0
0
LINE
8
0
6
CONTINUOUS
10
67.382075
20
756.151084
30
0.0
11
67.382050
21
753.816415
31
0.0
0
LINE
8
0
6
CONTINUOUS
10
52.385550
20
751.237225
30
0.0
11
52.385572
21
753.859150
31
0.0
0
LINE
8
0
6
CONTINUOUS
10
50.465700
20
751.220585
30
0.0
11
52.385550
21
751.237225
31
0.0
0
LINE
8
0
6
CONTINUOUS
10
50.465722
20
753.547173
30
0.0
11
50.465700
21
751.220585
31
0.0
0
LINE
8
0
6
CONTINUOUS
10
48.670090
20
750.406075
30
0.0
11
48.663385
21
751.199421
31
0.0
0
LINE
8
0
6
CONTINUOUS
10
47.163170
20
750.393137
30
0.0
11
48.670090
21
750.406075
31
0.0
0
LINE
8
0
6
CONTINUOUS
10
51.175530
20
751.192515
30
0.0
11
51.888000
21
751.198315
31
0.0
0
LINE
8
0
6
CONTINUOUS
10
76.749990
20
753.855175
30
0.0
11
76.722073
21
757.158703
31
0.0
0
LINE
8
0
6
CONTINUOUS
10
1.378190
20
749.031255
30
0.0
11
3.643120
21
749.026375
31
0.0
0
LINE
8
0
6
CONTINUOUS
10
29.913780
20
752.534825
30
0.0
11
31.241980
21
752.551305
31
0.0
0
LINE
8
0
6
CONTINUOUS
10
29.916675
20
753.808970
30
0.0
11
29.913784
21
752.536802
31
0.0
0
LINE
8
0
6
CONTINUOUS
10
15.859660
20
750.406995
30
0.0
11
18.272430
21
750.401805
31
0.0
0
LINE
8
0
6
CONTINUOUS
10
4.808540
20
749.007915
30
0.0
11
4.811667
21
750.384201
31
0.0
0
LINE
8
0
6
CONTINUOUS
10
3.643120
20
749.026375
30
0.0
11
4.808540
21
749.007915
31
0.0
0
LINE
8
0
6
CONTINUOUS
10
3.646167
20
750.368461
30
0.0
11
3.643120
21
749.026375
31
0.0
0
LINE
8
0
6
CONTINUOUS
10
19.513950
20
750.382115
30
0.0
11
19.517689
21
752.027775
31
0.0
0
LINE
8
0
6
CONTINUOUS
10
18.272430
20
750.401805
30
0.0
11
19.513950
21
750.382115
31
0.0
0
LINE
8
0
6
CONTINUOUS
10
18.276127
20
752.027775
30
0.0
11
18.272430
21
750.401805
31
0.0
0
LINE
8
0
6
CONTINUOUS
10
38.053960
20
753.816415
30
0.0
11
39.382150
21
753.832895
31
0.0
0
LINE
8
0
6
CONTINUOUS
10
38.060332
20
756.620815
30
0.0
11
38.053960
21
753.816415
31
0.0
0
LINE
8
0
6
CONTINUOUS
10
39.382150
20
753.832895
30
0.0
11
42.118220
21
753.827095
31
0.0
0
LINE
8
0
6
CONTINUOUS
10
39.388492
20
756.622751
30
0.0
11
39.382150
21
753.832895
31
0.0
0
LINE
8
0
6
CONTINUOUS
10
-2.220450
20
748.355595
30
0.0
11
-2.215838
21
750.384955
31
0.0
0
LINE
8
0
6
CONTINUOUS
10
-3.250350
20
748.372075
30
0.0
11
-2.220450
21
748.355595
31
0.0
0
LINE
8
0
6
CONTINUOUS
10
21.021700
20
752.534825
30
0.0
11
21.031035
21
755.502020
31
0.0
0
LINE
8
0
6
CONTINUOUS
10
19.366750
20
752.557105
30
0.0
11
21.021700
21
752.534825
31
0.0
0
LINE
8
0
6
CONTINUOUS
10
19.366750
20
752.557105
30
0.0
11
19.379448
21
756.594546
31
0.0
0
LINE
8
0
6
CONTINUOUS
10
16.651950
20
752.563055
30
0.0
11
19.366750
21
752.557105
31
0.0
0
LINE
8
0
6
CONTINUOUS
10
-13.649100
20
749.017525
30
0.0
11
-12.771760
21
749.031255
31
0.0
0
LINE
8
0
6
CONTINUOUS
10
-13.644733
20
750.406028
30
0.0
11
-13.649100
21
749.017525
31
0.0
0
LINE
8
0
6
CONTINUOUS
10
7.662880
20
751.220585
30
0.0
11
8.722710
21
751.237225
31
0.0
0
LINE
8
0
6
CONTINUOUS
10
7.669143
20
753.212810
30
0.0
11
7.662880
21
751.220585
31
0.0
0
LINE
8
0
6
CONTINUOUS
10
-14.078740
20
750.406995
30
0.0
11
-11.748780
21
750.401805
31
0.0
0
LINE
8
0
6
CONTINUOUS
10
-21.033170
20
749.545785
30
0.0
11
-20.155850
21
749.559515
31
0.0
0
LINE
8
0
6
CONTINUOUS
10
-21.027862
20
751.234069
30
0.0
11
-21.033170
21
749.545785
31
0.0
0
LINE
8
0
6
CONTINUOUS
10
-10.039940
20
750.382115
30
0.0
11
-10.033043
21
752.027775
31
0.0
0
LINE
8
0
6
CONTINUOUS
10
-11.748780
20
750.401805
30
0.0
11
-10.039940
21
750.382115
31
0.0
0
LINE
8
0
6
CONTINUOUS
10
-11.741968
20
752.027775
30
0.0
11
-11.748672
21
750.427617
31
0.0
0
LINE
8
0
6
CONTINUOUS
10
-2.398800
20
751.208995
30
0.0
11
-2.387941
21
753.800647
31
0.0
0
LINE
8
0
6
CONTINUOUS
10
-4.336600
20
751.231275
30
0.0
11
-2.398800
21
751.208995
31
0.0
0
LINE
8
0
6
CONTINUOUS
10
-16.538550
20
749.536175
30
0.0
11
-16.530713
21
752.027775
31
0.0
0
LINE
8
0
6
CONTINUOUS
10
-17.908550
20
749.554635
30
0.0
11
-16.538550
21
749.536175
31
0.0
0
LINE
8
0
6
CONTINUOUS
10
-17.908550
20
749.554635
30
0.0
11
-17.903353
21
751.207053
31
0.0
0
LINE
8
0
6
CONTINUOUS
10
-20.155850
20
749.559515
30
0.0
11
-17.908550
21
749.554635
31
0.0
0
LINE
8
0
6
CONTINUOUS
10
-20.150589
20
751.232093
30
0.0
11
-20.155850
21
749.559515
31
0.0
0
LINE
8
0
6
CONTINUOUS
10
-23.133790
20
751.220585
30
0.0
11
-22.429460
21
751.237225
31
0.0
0
LINE
8
0
6
CONTINUOUS
10
-23.122761
20
753.854096
30
0.0
11
-23.133790
21
751.220585
31
0.0
0
LINE
8
0
6
CONTINUOUS
10
-24.377390
20
750.382725
30
0.0
11
-24.370497
21
752.027775
31
0.0
0
LINE
8
0
6
CONTINUOUS
10
-25.981530
20
750.401195
30
0.0
11
-24.377390
21
750.382725
31
0.0
0
LINE
8
0
6
CONTINUOUS
10
-15.879830
20
752.569775
30
0.0
11
-15.175510
21
752.586255
31
0.0
0
LINE
8
0
6
CONTINUOUS
10
-15.871344
20
754.596136
30
0.0
11
-15.879830
21
752.569775
31
0.0
0
LINE
8
0
6
CONTINUOUS
10
-19.034300
20
753.827095
30
0.0
11
-19.022729
21
756.588485
31
0.0
0
LINE
8
0
6
CONTINUOUS
10
-20.972100
20
753.849375
30
0.0
11
-19.034300
21
753.827095
31
0.0
0
LINE
8
0
6
CONTINUOUS
10
-20.972100
20
753.849375
30
0.0
11
-20.950193
21
759.077645
31
0.0
0
LINE
8
0
6
CONTINUOUS
10
-23.614250
20
753.855175
30
0.0
11
-20.972100
21
753.849375
31
0.0
0
LINE
8
0
6
CONTINUOUS
10
-52.994690
20
753.855175
30
0.0
11
-50.352540
21
753.849375
31
0.0
0
LINE
8
0
6
CONTINUOUS
10
-34.518750
20
753.827095
30
0.0
11
-34.509385
21
756.062110
31
0.0
0
LINE
8
0
6
CONTINUOUS
10
-36.456550
20
753.849375
30
0.0
11
-34.518750
21
753.827095
31
0.0
0
LINE
8
0
6
CONTINUOUS
10
-52.994690
20
753.855175
30
0.0
11
-52.977762
21
757.896262
31
0.0
0
LINE
8
0
6
CONTINUOUS
10
-53.699010
20
753.838695
30
0.0
11
-52.994690
21
753.855175
31
0.0
0
LINE
8
0
6
CONTINUOUS
10
-53.681967
20
757.907255
30
0.0
11
-53.699010
21
753.838695
31
0.0
0
LINE
8
0
6
CONTINUOUS
10
-64.434700
20
751.208995
30
0.0
11
-61.698430
21
751.192515
31
0.0
0
LINE
8
0
6
CONTINUOUS
10
-56.145780
20
750.401805
30
0.0
11
-54.961500
21
750.382115
31
0.0
0
LINE
8
0
6
CONTINUOUS
10
-56.140988
20
751.206758
30
0.0
11
-56.145780
21
750.401805
31
0.0
0
LINE
8
0
6
CONTINUOUS
10
-64.434700
20
751.208995
30
0.0
11
-64.426890
21
752.521069
31
0.0
0
LINE
8
0
6
CONTINUOUS
10
-65.777650
20
751.231275
30
0.0
11
-64.434700
21
751.208995
31
0.0
0
LINE
8
0
6
CONTINUOUS
10
-65.769886
20
752.535547
30
0.0
11
-65.777650
21
751.231275
31
0.0
0
LINE
8
0
6
CONTINUOUS
10
-73.831810
20
752.523235
30
0.0
11
-71.095520
21
752.506605
31
0.0
0
LINE
8
0
6
CONTINUOUS
10
-67.205441
20
752.539637
30
0.0
11
-65.769915
21
752.530698
31
0.0
0
LINE
8
0
6
CONTINUOUS
10
-60.692840
20
753.788335
30
0.0
11
-59.980410
21
753.794135
31
0.0
0
LINE
8
0
6
CONTINUOUS
10
-21.433750
20
748.999065
30
0.0
11
-21.423453
21
750.401195
31
0.0
0
LINE
8
0
6
CONTINUOUS
10
-22.023490
20
748.994335
30
0.0
11
-21.433750
21
748.999065
31
0.0
0
LINE
8
0
6
CONTINUOUS
10
-63.337090
20
753.804815
30
0.0
11
-60.692840
21
753.788335
31
0.0
0
LINE
8
0
6
CONTINUOUS
10
-36.002250
20
750.372815
30
0.0
11
-35.996117
21
751.208098
31
0.0
0
LINE
8
0
6
CONTINUOUS
10
-36.630520
20
750.367625
30
0.0
11
-36.002250
21
750.372815
31
0.0
0
LINE
8
0
6
CONTINUOUS
10
-33.262730
20
749.554635
30
0.0
11
-31.663540
21
749.536175
31
0.0
0
LINE
8
0
6
CONTINUOUS
10
-33.250463
20
751.225690
30
0.0
11
-33.262730
21
749.554635
31
0.0
0
LINE
8
0
6
CONTINUOUS
10
-17.140900
20
748.355595
30
0.0
11
-15.206510
21
748.343695
31
0.0
0
LINE
8
0
6
CONTINUOUS
10
-48.314950
20
750.382115
30
0.0
11
-45.954300
21
750.367625
31
0.0
0
LINE
8
0
6
CONTINUOUS
10
-34.877830
20
749.026375
30
0.0
11
-33.363250
21
749.007915
31
0.0
0
LINE
8
0
6
CONTINUOUS
10
-34.868053
20
750.401195
30
0.0
11
-34.877830
21
749.026375
31
0.0
0
LINE
8
0
6
CONTINUOUS
10
-37.859970
20
749.527475
30
0.0
11
-37.853936
21
750.375227
31
0.0
0
LINE
8
0
6
CONTINUOUS
10
-38.561360
20
749.522595
30
0.0
11
-37.859970
21
749.527475
31
0.0
0
LINE
8
0
6
CONTINUOUS
10
-38.561360
20
749.522595
30
0.0
11
-38.555257
21
750.379585
31
0.0
0
LINE
8
0
6
CONTINUOUS
10
-40.777330
20
749.536175
30
0.0
11
-38.561360
21
749.522595
31
0.0
0
LINE
8
0
6
CONTINUOUS
10
-40.777330
20
749.536175
30
0.0
11
-40.759601
21
752.027775
31
0.0
0
LINE
8
0
6
CONTINUOUS
10
-42.291950
20
749.554635
30
0.0
11
-40.777330
21
749.536175
31
0.0
0
LINE
8
0
6
CONTINUOUS
10
-42.274348
20
752.027775
30
0.0
11
-42.291950
21
749.554635
31
0.0
0
LINE
8
0
6
CONTINUOUS
10
-72.646930
20
752.545515
30
0.0
11
-71.032700
21
752.523075
31
0.0
0
LINE
8
0
6
CONTINUOUS
10
-72.638608
20
753.802586
30
0.0
11
-72.646930
21
752.545515
31
0.0
0
LINE
8
0
6
CONTINUOUS
10
-55.262880
20
750.401805
30
0.0
11
-53.839380
21
750.382115
31
0.0
0
LINE
8
0
6
CONTINUOUS
10
-55.257589
20
751.201317
30
0.0
11
-55.262880
21
750.401805
31
0.0
0
LINE
8
0
6
CONTINUOUS
10
-75.784380
20
753.794135
30
0.0
11
-75.771969
21
755.668786
31
0.0
0
LINE
8
0
6
CONTINUOUS
10
-76.890780
20
753.788335
30
0.0
11
-75.784380
21
753.794135
31
0.0
0
LINE
8
0
6
CONTINUOUS
10
-35.431370
20
748.994335
30
0.0
11
-34.515500
21
748.999065
31
0.0
0
LINE
8
0
6
CONTINUOUS
10
-76.890780
20
753.788335
30
0.0
11
-76.877200
21
755.839521
31
0.0
0
LINE
8
0
6
CONTINUOUS
10
-79.611420
20
753.804815
30
0.0
11
-76.890780
21
753.788335
31
0.0
0
LINE
8
0
6
CONTINUOUS
10
-35.431370
20
748.994335
30
0.0
11
-35.422058
21
750.401195
31
0.0
0
LINE
8
0
6
CONTINUOUS
10
-37.683530
20
749.007915
30
0.0
11
-35.431370
21
748.994335
31
0.0
0
LINE
8
0
6
CONTINUOUS
10
-29.534030
20
748.355595
30
0.0
11
-27.543760
21
748.343695
31
0.0
0
LINE
8
0
6
CONTINUOUS
10
-27.543760
20
748.343695
30
0.0
11
-26.734390
21
748.347965
31
0.0
0
LINE
8
0
6
CONTINUOUS
10
11.105035
20
749.011490
30
0.0
11
11.841320
21
749.017525
31
0.0
0
LINE
8
0
6
CONTINUOUS
10
12.758020
20
749.031255
30
0.0
11
12.754852
21
749.434095
31
0.0
0
LINE
8
0
6
CONTINUOUS
10
12.750023
20
750.048105
30
0.0
11
12.747345
21
750.388568
31
0.0
0
LINE
8
0
6
CONTINUOUS
10
11.841320
20
749.017525
30
0.0
11
12.758020
21
749.031255
31
0.0
0
LINE
8
0
6
CONTINUOUS
10
11.838044
20
749.434095
30
0.0
11
11.841320
21
749.017525
31
0.0
0
LINE
8
0
6
CONTINUOUS
10
11.110030
20
748.376355
30
0.0
11
11.101711
21
749.434095
31
0.0
0
LINE
8
0
6
CONTINUOUS
10
10.299930
20
748.364145
30
0.0
11
11.110030
21
748.376355
31
0.0
0
LINE
8
0
6
CONTINUOUS
10
7.129370
20
748.343695
30
0.0
11
8.309600
21
748.347965
31
0.0
0
LINE
8
0
6
CONTINUOUS
10
14.247200
20
749.031255
30
0.0
11
16.500860
21
749.026375
31
0.0
0
LINE
8
0
6
CONTINUOUS
10
21.328240
20
749.559515
30
0.0
11
23.581910
21
749.554635
31
0.0
0
LINE
8
0
6
CONTINUOUS
10
43.949720
20
752.551305
30
0.0
11
43.951356
21
753.811128
31
0.0
0
LINE
8
0
6
CONTINUOUS
10
42.349150
20
752.534825
30
0.0
11
43.949720
21
752.551305
31
0.0
0
LINE
8
0
6
CONTINUOUS
10
42.350823
20
753.823414
30
0.0
11
42.349163
21
752.545134
31
0.0
0
LINE
8
0
6
CONTINUOUS
10
17.429570
20
749.007915
30
0.0
11
17.431337
21
750.369585
31
0.0
0
LINE
8
0
6
CONTINUOUS
10
16.500860
20
749.026375
30
0.0
11
17.429570
21
749.007915
31
0.0
0
LINE
8
0
6
CONTINUOUS
10
16.502648
20
750.405612
30
0.0
11
16.500860
21
749.026375
31
0.0
0
LINE
8
0
6
CONTINUOUS
10
21.328240
20
749.559515
30
0.0
11
21.331444
21
752.027775
31
0.0
0
LINE
8
0
6
CONTINUOUS
10
20.003290
20
749.545785
30
0.0
11
21.328240
21
749.559515
31
0.0
0
LINE
8
0
6
CONTINUOUS
10
20.006512
20
752.027775
30
0.0
11
20.003290
21
749.545785
31
0.0
0
LINE
8
0
6
CONTINUOUS
10
31.943930
20
750.382115
30
0.0
11
31.946066
21
752.027775
31
0.0
0
LINE
8
0
6
CONTINUOUS
10
30.954590
20
750.401805
30
0.0
11
31.943930
21
750.382115
31
0.0
0
LINE
8
0
6
CONTINUOUS
10
30.956701
20
752.027775
30
0.0
11
30.954590
21
750.401805
31
0.0
0
LINE
8
0
6
CONTINUOUS
10
51.944770
20
753.832895
30
0.0
11
51.947934
21
756.269651
31
0.0
0
LINE
8
0
6
CONTINUOUS
10
50.344210
20
753.816415
30
0.0
11
51.944770
21
753.832895
31
0.0
0
LINE
8
0
6
CONTINUOUS
10
50.346959
20
755.935958
30
0.0
11
50.344210
21
753.816415
31
0.0
0
LINE
8
0
6
CONTINUOUS
10
55.789140
20
753.804815
30
0.0
11
55.792542
21
756.427168
31
0.0
0
LINE
8
0
6
CONTINUOUS
10
54.667230
20
753.827095
30
0.0
11
55.789140
21
753.804815
31
0.0
0
LINE
8
0
6
CONTINUOUS
10
54.670746
20
756.537371
30
0.0
11
54.667230
21
753.827095
31
0.0
0
LINE
8
0
6
CONTINUOUS
10
14.247200
20
749.031255
30
0.0
11
14.248976
21
750.401195
31
0.0
0
LINE
8
0
6
CONTINUOUS
10
12.922240
20
749.017525
30
0.0
11
14.247200
21
749.031255
31
0.0
0
LINE
8
0
6
CONTINUOUS
10
12.924036
20
750.401195
30
0.0
11
12.922240
21
749.017525
31
0.0
0
LINE
8
0
6
CONTINUOUS
10
24.510610
20
749.536175
30
0.0
11
24.512767
21
751.196073
31
0.0
0
LINE
8
0
6
CONTINUOUS
10
23.581910
20
749.554635
30
0.0
11
24.510610
21
749.536175
31
0.0
0
LINE
8
0
6
CONTINUOUS
10
23.584091
20
751.236771
30
0.0
11
23.581910
21
749.554635
31
0.0
0
LINE
8
0
6
CONTINUOUS
10
36.058860
20
751.237225
30
0.0
11
36.061420
21
753.212775
31
0.0
0
LINE
8
0
6
CONTINUOUS
10
34.458280
20
751.220585
30
0.0
11
36.058860
21
751.237225
31
0.0
0
LINE
8
0
6
CONTINUOUS
10
34.459989
20
752.537888
30
0.0
11
34.458280
21
751.220585
31
0.0
0
LINE
8
0
6
CONTINUOUS
10
6.358430
20
748.364145
30
0.0
11
7.179120
21
748.347965
31
0.0
0
LINE
8
0
6
CONTINUOUS
10
7.529310
20
748.376355
30
0.0
11
6.358430
21
748.364145
31
0.0
0
LINE
8
0
6
CONTINUOUS
10
9.520910
20
748.372075
30
0.0
11
7.529310
21
748.376355
31
0.0
0
LINE
8
0
6
CONTINUOUS
10
10.341630
20
748.355595
30
0.0
11
9.520910
21
748.372075
31
0.0
0
LINE
8
0
6
CONTINUOUS
10
9.170730
20
748.343695
30
0.0
11
10.341630
21
748.355595
31
0.0
0
LINE
8
0
6
CONTINUOUS
10
7.179120
20
748.347965
30
0.0
11
9.170730
21
748.343695
31
0.0
0
LINE
8
0
6
CONTINUOUS
10
6.358430
20
748.364145
30
0.0
11
7.529310
21
748.376355
31
0.0
0
LINE
8
0
6
CONTINUOUS
10
6.361073
20
750.401195
30
0.0
11
6.358430
21
748.364145
31
0.0
0
LINE
8
0
6
CONTINUOUS
10
10.341630
20
748.355595
30
0.0
11
10.343145
21
749.523543
31
0.0
0
LINE
8
0
6
CONTINUOUS
10
9.520910
20
748.372075
30
0.0
11
10.341630
21
748.355595
31
0.0
0
LINE
8
0
6
CONTINUOUS
10
9.520910
20
748.372075
30
0.0
11
9.522406
21
749.525311
31
0.0
0
LINE
8
0
6
CONTINUOUS
10
7.529310
20
748.376355
30
0.0
11
9.520910
21
748.372075
31
0.0
0
LINE
8
0
6
CONTINUOUS
10
7.530682
20
749.434095
30
0.0
11
7.529310
21
748.376355
31
0.0
0
LINE
8
0
6
CONTINUOUS
10
50.344210
20
753.816415
30
0.0
11
51.466080
21
753.794135
31
0.0
0
LINE
8
0
6
CONTINUOUS
10
51.944770
20
753.832895
30
0.0
11
50.344210
21
753.816415
31
0.0
0
LINE
8
0
6
CONTINUOUS
10
54.667230
20
753.827095
30
0.0
11
51.944770
21
753.832895
31
0.0
0
LINE
8
0
6
CONTINUOUS
10
55.789140
20
753.804815
30
0.0
11
54.667230
21
753.827095
31
0.0
0
LINE
8
0
6
CONTINUOUS
10
54.188540
20
753.788335
30
0.0
11
55.763017
21
753.804546
31
0.0
0
LINE
8
0
6
CONTINUOUS
10
51.466080
20
753.794135
30
0.0
11
54.188540
21
753.788335
31
0.0
0
LINE
8
0
6
CONTINUOUS
10
12.922240
20
749.017525
30
0.0
11
13.850930
21
748.999065
31
0.0
0
LINE
8
0
6
CONTINUOUS
10
14.247200
20
749.031255
30
0.0
11
12.922240
21
749.017525
31
0.0
0
LINE
8
0
6
CONTINUOUS
10
16.500860
20
749.026375
30
0.0
11
14.247200
21
749.031255
31
0.0
0
LINE
8
0
6
CONTINUOUS
10
17.429570
20
749.007915
30
0.0
11
16.500860
21
749.026375
31
0.0
0
LINE
8
0
6
CONTINUOUS
10
16.104600
20
748.994335
30
0.0
11
17.429570
21
749.007915
31
0.0
0
LINE
8
0
6
CONTINUOUS
10
13.850930
20
748.999065
30
0.0
11
16.079006
21
748.994389
31
0.0
0
LINE
8
0
6
CONTINUOUS
10
20.003290
20
749.545785
30
0.0
11
20.931970
21
749.527475
31
0.0
0
LINE
8
0
6
CONTINUOUS
10
21.328240
20
749.559515
30
0.0
11
20.003290
21
749.545785
31
0.0
0
LINE
8
0
6
CONTINUOUS
10
23.581910
20
749.554635
30
0.0
11
21.328240
21
749.559515
31
0.0
0
LINE
8
0
6
CONTINUOUS
10
24.510610
20
749.536175
30
0.0
11
23.581910
21
749.554635
31
0.0
0
LINE
8
0
6
CONTINUOUS
10
23.185640
20
749.522595
30
0.0
11
24.510610
21
749.536175
31
0.0
0
LINE
8
0
6
CONTINUOUS
10
20.931970
20
749.527475
30
0.0
11
23.185640
21
749.522595
31
0.0
0
LINE
8
0
6
CONTINUOUS
10
27.142360
20
750.392345
30
0.0
11
28.131680
21
750.372815
31
0.0
0
LINE
8
0
6
CONTINUOUS
10
28.553810
20
750.406995
30
0.0
11
27.142360
21
750.392345
31
0.0
0
LINE
8
0
6
CONTINUOUS
10
30.954590
20
750.401805
30
0.0
11
28.553810
21
750.406995
31
0.0
0
LINE
8
0
6
CONTINUOUS
10
31.943930
20
750.382115
30
0.0
11
30.954590
21
750.401805
31
0.0
0
LINE
8
0
6
CONTINUOUS
10
30.532460
20
750.367625
30
0.0
11
31.943930
21
750.382115
31
0.0
0
LINE
8
0
6
CONTINUOUS
10
28.131680
20
750.372815
30
0.0
11
30.532460
21
750.367625
31
0.0
0
LINE
8
0
6
CONTINUOUS
10
34.458280
20
751.220585
30
0.0
11
35.580140
21
751.198315
31
0.0
0
LINE
8
0
6
CONTINUOUS
10
36.058860
20
751.237225
30
0.0
11
34.458280
21
751.220585
31
0.0
0
LINE
8
0
6
CONTINUOUS
10
38.781320
20
751.231275
30
0.0
11
36.058860
21
751.237225
31
0.0
0
LINE
8
0
6
CONTINUOUS
10
39.903200
20
751.208995
30
0.0
11
38.781320
21
751.231275
31
0.0
0
LINE
8
0
6
CONTINUOUS
10
38.302620
20
751.192515
30
0.0
11
39.903200
21
751.208995
31
0.0
0
LINE
8
0
6
CONTINUOUS
10
35.580140
20
751.198315
30
0.0
11
38.302620
21
751.192515
31
0.0
0
LINE
8
0
6
CONTINUOUS
10
42.349150
20
752.534825
30
0.0
11
43.471020
21
752.512555
31
0.0
0
LINE
8
0
6
CONTINUOUS
10
43.949720
20
752.551305
30
0.0
11
42.349150
21
752.534825
31
0.0
0
LINE
8
0
6
CONTINUOUS
10
46.672190
20
752.545515
30
0.0
11
43.949720
21
752.551305
31
0.0
0
LINE
8
0
6
CONTINUOUS
10
47.794080
20
752.523235
30
0.0
11
46.672190
21
752.545515
31
0.0
0
LINE
8
0
6
CONTINUOUS
10
46.193500
20
752.506605
30
0.0
11
47.794080
21
752.523235
31
0.0
0
LINE
8
0
6
CONTINUOUS
10
43.471020
20
752.512555
30
0.0
11
46.193500
21
752.506605
31
0.0
0
LINE
8
0
6
CONTINUOUS
10
31.192640
20
749.559515
30
0.0
11
33.411560
21
749.554635
31
0.0
0
LINE
8
0
6
CONTINUOUS
10
31.193015
20
750.401195
30
0.0
11
31.192640
21
749.559515
31
0.0
0
LINE
8
0
6
CONTINUOUS
10
52.432230
20
752.534825
30
0.0
11
54.249310
21
752.551305
31
0.0
0
LINE
8
0
6
CONTINUOUS
10
52.432640
20
753.454873
30
0.0
11
52.432230
21
752.534825
31
0.0
0
LINE
8
0
6
CONTINUOUS
10
57.793200
20
752.523075
30
0.0
11
57.794428
21
755.273434
31
0.0
0
LINE
8
0
6
CONTINUOUS
10
56.929810
20
752.545515
30
0.0
11
57.793200
21
752.523075
31
0.0
0
LINE
8
0
6
CONTINUOUS
10
62.323580
20
753.832895
30
0.0
11
62.324725
21
756.390055
31
0.0
0
LINE
8
0
6
CONTINUOUS
10
60.506510
20
753.816415
30
0.0
11
62.323580
21
753.832895
31
0.0
0
LINE
8
0
6
CONTINUOUS
10
60.507489
20
756.019811
30
0.0
11
60.506510
21
753.816415
31
0.0
0
LINE
8
0
6
CONTINUOUS
10
56.929810
20
752.545515
30
0.0
11
56.931050
21
755.337429
31
0.0
0
LINE
8
0
6
CONTINUOUS
10
54.249310
20
752.551305
30
0.0
11
56.929810
21
752.545515
31
0.0
0
LINE
8
0
6
CONTINUOUS
10
54.249804
20
753.660814
30
0.0
11
54.249310
21
752.551305
31
0.0
0
LINE
8
0
6
CONTINUOUS
10
34.126300
20
749.536175
30
0.0
11
34.127411
21
752.027775
31
0.0
0
LINE
8
0
6
CONTINUOUS
10
33.411560
20
749.554635
30
0.0
11
34.126300
21
749.536175
31
0.0
0
LINE
8
0
6
CONTINUOUS
10
33.412659
20
752.027775
30
0.0
11
33.411560
21
749.554635
31
0.0
0
LINE
8
0
6
CONTINUOUS
10
15.704180
20
748.364145
30
0.0
11
16.335780
21
748.347965
31
0.0
0
LINE
8
0
6
CONTINUOUS
10
17.033460
20
748.376355
30
0.0
11
15.704180
21
748.364145
31
0.0
0
LINE
8
0
6
CONTINUOUS
10
18.994340
20
748.372075
30
0.0
11
17.033460
21
748.376355
31
0.0
0
LINE
8
0
6
CONTINUOUS
10
19.625960
20
748.355595
30
0.0
11
18.994340
21
748.372075
31
0.0
0
LINE
8
0
6
CONTINUOUS
10
18.296680
20
748.343695
30
0.0
11
19.625960
21
748.355595
31
0.0
0
LINE
8
0
6
CONTINUOUS
10
16.335780
20
748.347965
30
0.0
11
18.296680
21
748.343695
31
0.0
0
LINE
8
0
6
CONTINUOUS
10
15.704180
20
748.364145
30
0.0
11
17.033460
21
748.376355
31
0.0
0
LINE
8
0
6
CONTINUOUS
10
15.704476
20
749.028099
30
0.0
11
15.704180
21
748.364145
31
0.0
0
LINE
8
0
6
CONTINUOUS
10
60.506510
20
753.816415
30
0.0
11
61.369890
21
753.794135
31
0.0
0
LINE
8
0
6
CONTINUOUS
10
62.323580
20
753.832895
30
0.0
11
60.506510
21
753.816415
31
0.0
0
LINE
8
0
6
CONTINUOUS
10
65.004070
20
753.827095
30
0.0
11
62.323580
21
753.832895
31
0.0
0
LINE
8
0
6
CONTINUOUS
10
65.867490
20
753.804815
30
0.0
11
65.004070
21
753.827095
31
0.0
0
LINE
8
0
6
CONTINUOUS
10
64.050390
20
753.788335
30
0.0
11
65.867490
21
753.804815
31
0.0
0
LINE
8
0
6
CONTINUOUS
10
61.369890
20
753.794135
30
0.0
11
64.050390
21
753.788335
31
0.0
0
LINE
8
0
6
CONTINUOUS
10
22.459330
20
749.017525
30
0.0
11
23.174040
21
748.999065
31
0.0
0
LINE
8
0
6
CONTINUOUS
10
23.963510
20
749.031255
30
0.0
11
22.459330
21
749.017525
31
0.0
0
LINE
8
0
6
CONTINUOUS
10
26.182430
20
749.026375
30
0.0
11
23.963510
21
749.031255
31
0.0
0
LINE
8
0
6
CONTINUOUS
10
26.897160
20
749.007915
30
0.0
11
26.182430
21
749.026375
31
0.0
0
LINE
8
0
6
CONTINUOUS
10
25.392960
20
748.994335
30
0.0
11
26.897160
21
749.007915
31
0.0
0
LINE
8
0
6
CONTINUOUS
10
23.174040
20
748.999065
30
0.0
11
25.392960
21
748.994335
31
0.0
0
LINE
8
0
6
CONTINUOUS
10
29.688460
20
749.545785
30
0.0
11
30.403170
21
749.527475
31
0.0
0
LINE
8
0
6
CONTINUOUS
10
31.192640
20
749.559515
30
0.0
11
29.688460
21
749.545785
31
0.0
0
LINE
8
0
6
CONTINUOUS
10
33.411560
20
749.554635
30
0.0
11
31.192640
21
749.559515
31
0.0
0
LINE
8
0
6
CONTINUOUS
10
34.126300
20
749.536175
30
0.0
11
33.411560
21
749.554635
31
0.0
0
LINE
8
0
6
CONTINUOUS
10
32.622100
20
749.522595
30
0.0
11
34.126300
21
749.536175
31
0.0
0
LINE
8
0
6
CONTINUOUS
10
30.403170
20
749.527475
30
0.0
11
32.622100
21
749.522595
31
0.0
0
LINE
8
0
6
CONTINUOUS
10
36.742090
20
750.392345
30
0.0
11
37.503460
21
750.372815
31
0.0
0
LINE
8
0
6
CONTINUOUS
10
38.344480
20
750.406995
30
0.0
11
36.742090
21
750.392345
31
0.0
0
LINE
8
0
6
CONTINUOUS
10
40.708240
20
750.401805
30
0.0
11
38.344480
21
750.406995
31
0.0
0
LINE
8
0
6
CONTINUOUS
10
41.469640
20
750.382115
30
0.0
11
40.708240
21
750.401805
31
0.0
0
LINE
8
0
6
CONTINUOUS
10
39.867240
20
750.367625
30
0.0
11
41.469640
21
750.382115
31
0.0
0
LINE
8
0
6
CONTINUOUS
10
37.503460
20
750.372815
30
0.0
11
39.867240
21
750.367625
31
0.0
0
LINE
8
0
6
CONTINUOUS
10
44.357990
20
751.220585
30
0.0
11
45.221370
21
751.198315
31
0.0
0
LINE
8
0
6
CONTINUOUS
10
46.175090
20
751.237225
30
0.0
11
44.357990
21
751.220585
31
0.0
0
LINE
8
0
6
CONTINUOUS
10
48.855570
20
751.231275
30
0.0
11
46.175090
21
751.237225
31
0.0
0
LINE
8
0
6
CONTINUOUS
10
49.718970
20
751.208995
30
0.0
11
48.855570
21
751.231275
31
0.0
0
LINE
8
0
6
CONTINUOUS
10
47.901870
20
751.192515
30
0.0
11
49.718970
21
751.208995
31
0.0
0
LINE
8
0
6
CONTINUOUS
10
45.221370
20
751.198315
30
0.0
11
47.901870
21
751.192515
31
0.0
0
LINE
8
0
6
CONTINUOUS
10
52.432230
20
752.534825
30
0.0
11
53.295610
21
752.512555
31
0.0
0
LINE
8
0
6
CONTINUOUS
10
54.249310
20
752.551305
30
0.0
11
52.432230
21
752.534825
31
0.0
0
LINE
8
0
6
CONTINUOUS
10
56.929810
20
752.545515
30
0.0
11
54.249310
21
752.551305
31
0.0
0
LINE
8
0
6
CONTINUOUS
10
57.793200
20
752.523075
30
0.0
11
56.929810
21
752.545515
31
0.0
0
LINE
8
0
6
CONTINUOUS
10
55.976120
20
752.506605
30
0.0
11
57.793200
21
752.523075
31
0.0
0
LINE
8
0
6
CONTINUOUS
10
53.295610
20
752.512555
30
0.0
11
55.976120
21
752.506605
31
0.0
0
LINE
8
0
6
CONTINUOUS
10
28.568230
20
749.031255
30
0.0
11
30.760780
21
749.026375
31
0.0
0
LINE
8
0
6
CONTINUOUS
10
36.616370
20
749.559515
30
0.0
11
38.808930
21
749.554635
31
0.0
0
LINE
8
0
6
CONTINUOUS
10
59.040650
20
752.534825
30
0.0
11
60.960480
21
752.551305
31
0.0
0
LINE
8
0
6
CONTINUOUS
10
59.040674
20
754.791688
30
0.0
11
59.040650
21
752.534825
31
0.0
0
LINE
8
0
6
CONTINUOUS
10
44.184780
20
750.406995
30
0.0
11
46.520470
21
750.401805
31
0.0
0
LINE
8
0
6
CONTINUOUS
10
30.760780
20
749.026375
30
0.0
11
31.364100
21
749.007915
31
0.0
0
LINE
8
0
6
CONTINUOUS
10
36.616370
20
749.559515
30
0.0
11
36.616389
21
751.196107
31
0.0
0
LINE
8
0
6
CONTINUOUS
10
35.027130
20
749.545785
30
0.0
11
36.616370
21
749.559515
31
0.0
0
LINE
8
0
6
CONTINUOUS
10
35.027147
20
751.226499
30
0.0
11
35.027130
21
749.545785
31
0.0
0
LINE
8
0
6
CONTINUOUS
10
44.184780
20
750.406995
30
0.0
11
44.184797
21
752.027775
31
0.0
0
LINE
8
0
6
CONTINUOUS
10
42.491780
20
750.392345
30
0.0
11
44.184780
21
750.406995
31
0.0
0
LINE
8
0
6
CONTINUOUS
10
42.491797
20
752.027775
30
0.0
11
42.491780
21
750.392345
31
0.0
0
LINE
8
0
6
CONTINUOUS
10
46.520470
20
750.401805
30
0.0
11
47.163170
21
750.382115
31
0.0
0
LINE
8
0
6
CONTINUOUS
10
46.520478
20
751.195504
30
0.0
11
46.520470
21
750.401805
31
0.0
0
LINE
8
0
6
CONTINUOUS
10
63.609140
20
752.545515
30
0.0
11
63.609165
21
754.943035
31
0.0
0
LINE
8
0
6
CONTINUOUS
10
60.960480
20
752.551305
30
0.0
11
63.609140
21
752.545515
31
0.0
0
LINE
8
0
6
CONTINUOUS
10
60.960503
20
754.534352
30
0.0
11
60.960480
21
752.551305
31
0.0
0
LINE
8
0
6
CONTINUOUS
10
69.301880
20
753.832895
30
0.0
11
71.950530
21
753.827095
31
0.0
0
LINE
8
0
6
CONTINUOUS
10
69.301912
20
756.551859
30
0.0
11
69.301880
21
753.832895
31
0.0
0
LINE
8
0
6
CONTINUOUS
10
72.679360
20
753.804815
30
0.0
11
72.679389
21
756.947065
31
0.0
0
LINE
8
0
6
CONTINUOUS
10
71.950530
20
753.827095
30
0.0
11
72.679360
21
753.804815
31
0.0
0
LINE
8
0
6
CONTINUOUS
10
71.950563
20
756.935787
30
0.0
11
71.950530
21
753.827095
31
0.0
0
LINE
8
0
6
CONTINUOUS
10
28.568230
20
749.031255
30
0.0
11
28.568243
21
750.371871
31
0.0
0
LINE
8
0
6
CONTINUOUS
10
26.978980
20
749.017525
30
0.0
11
28.568230
21
749.031255
31
0.0
0
LINE
8
0
6
CONTINUOUS
10
26.978986
20
749.554079
30
0.0
11
26.978980
21
749.017525
31
0.0
0
LINE
8
0
6
CONTINUOUS
10
39.412250
20
749.536175
30
0.0
11
39.412259
21
750.368624
31
0.0
0
LINE
8
0
6
CONTINUOUS
10
38.808930
20
749.554635
30
0.0
11
39.412250
21
749.536175
31
0.0
0
LINE
8
0
6
CONTINUOUS
10
38.808938
20
750.405975
30
0.0
11
38.808930
21
749.554635
31
0.0
0
LINE
8
0
6
CONTINUOUS
10
19.448890
20
748.364145
30
0.0
11
19.982030
21
748.347965
31
0.0
0
LINE
8
0
6
CONTINUOUS
10
20.853340
20
748.376355
30
0.0
11
19.448890
21
748.364145
31
0.0
0
LINE
8
0
6
CONTINUOUS
10
22.790930
20
748.372075
30
0.0
11
20.853340
21
748.376355
31
0.0
0
LINE
8
0
6
CONTINUOUS
10
23.324090
20
748.355595
30
0.0
11
22.790930
21
748.372075
31
0.0
0
LINE
8
0
6
CONTINUOUS
10
21.919640
20
748.343695
30
0.0
11
23.324090
21
748.355595
31
0.0
0
LINE
8
0
6
CONTINUOUS
10
19.982030
20
748.347965
30
0.0
11
21.919640
21
748.343695
31
0.0
0
LINE
8
0
6
CONTINUOUS
10
19.448890
20
748.364145
30
0.0
11
20.853340
21
748.376355
31
0.0
0
LINE
8
0
6
CONTINUOUS
10
23.324090
20
748.355595
30
0.0
11
23.324097
21
748.998745
31
0.0
0
LINE
8
0
6
CONTINUOUS
10
22.790930
20
748.372075
30
0.0
11
23.324090
21
748.355595
31
0.0
0
LINE
8
0
6
CONTINUOUS
10
22.790930
20
748.372075
30
0.0
11
22.790941
21
749.523450
31
0.0
0
LINE
8
0
6
CONTINUOUS
10
20.853340
20
748.376355
30
0.0
11
22.790930
21
748.372075
31
0.0
0
LINE
8
0
6
CONTINUOUS
10
20.853346
20
749.005361
30
0.0
11
20.853340
21
748.376355
31
0.0
0
LINE
8
0
6
CONTINUOUS
10
67.382050
20
753.816415
30
0.0
11
68.110840
21
753.794135
31
0.0
0
LINE
8
0
6
CONTINUOUS
10
69.301880
20
753.832895
30
0.0
11
67.382050
21
753.816415
31
0.0
0
LINE
8
0
6
CONTINUOUS
10
71.950530
20
753.827095
30
0.0
11
69.301880
21
753.832895
31
0.0
0
LINE
8
0
6
CONTINUOUS
10
72.679360
20
753.804815
30
0.0
11
71.950530
21
753.827095
31
0.0
0
LINE
8
0
6
CONTINUOUS
10
70.759500
20
753.788335
30
0.0
11
72.679360
21
753.804815
31
0.0
0
LINE
8
0
6
CONTINUOUS
10
68.110840
20
753.794135
30
0.0
11
70.759500
21
753.788335
31
0.0
0
LINE
8
0
6
CONTINUOUS
10
26.978980
20
749.017525
30
0.0
11
27.582270
21
748.999065
31
0.0
0
LINE
8
0
6
CONTINUOUS
10
28.568230
20
749.031255
30
0.0
11
26.978980
21
749.017525
31
0.0
0
LINE
8
0
6
CONTINUOUS
10
30.760780
20
749.026375
30
0.0
11
28.568230
21
749.031255
31
0.0
0
LINE
8
0
6
CONTINUOUS
10
31.364100
20
749.007915
30
0.0
11
30.760780
21
749.026375
31
0.0
0
LINE
8
0
6
CONTINUOUS
10
29.774840
20
748.994335
30
0.0
11
31.364100
21
749.007915
31
0.0
0
LINE
8
0
6
CONTINUOUS
10
27.582270
20
748.999065
30
0.0
11
29.774840
21
748.994335
31
0.0
0
LINE
8
0
6
CONTINUOUS
10
35.027130
20
749.545785
30
0.0
11
35.630420
21
749.527475
31
0.0
0
LINE
8
0
6
CONTINUOUS
10
36.616370
20
749.559515
30
0.0
11
35.027130
21
749.545785
31
0.0
0
LINE
8
0
6
CONTINUOUS
10
38.808930
20
749.554635
30
0.0
11
36.616370
21
749.559515
31
0.0
0
LINE
8
0
6
CONTINUOUS
10
39.412250
20
749.536175
30
0.0
11
38.808930
21
749.554635
31
0.0
0
LINE
8
0
6
CONTINUOUS
10
37.822990
20
749.522595
30
0.0
11
39.412250
21
749.536175
31
0.0
0
LINE
8
0
6
CONTINUOUS
10
35.630420
20
749.527475
30
0.0
11
37.822990
21
749.522595
31
0.0
0
LINE
8
0
6
CONTINUOUS
10
42.491780
20
750.392345
30
0.0
11
43.134460
21
750.372815
31
0.0
0
LINE
8
0
6
CONTINUOUS
10
44.184780
20
750.406995
30
0.0
11
42.491780
21
750.392345
31
0.0
0
LINE
8
0
6
CONTINUOUS
10
46.520470
20
750.401805
30
0.0
11
44.184780
21
750.406995
31
0.0
0
LINE
8
0
6
CONTINUOUS
10
47.163170
20
750.382115
30
0.0
11
46.520470
21
750.401805
31
0.0
0
LINE
8
0
6
CONTINUOUS
10
45.470150
20
750.367625
30
0.0
11
47.163170
21
750.382115
31
0.0
0
LINE
8
0
6
CONTINUOUS
10
43.134460
20
750.372815
30
0.0
11
45.470150
21
750.367625
31
0.0
0
LINE
8
0
6
CONTINUOUS
10
50.465700
20
751.220585
30
0.0
11
51.194470
21
751.198315
31
0.0
0
LINE
8
0
6
CONTINUOUS
10
52.385550
20
751.237225
30
0.0
11
50.465700
21
751.220585
31
0.0
0
LINE
8
0
6
CONTINUOUS
10
55.034180
20
751.231275
30
0.0
11
52.385550
21
751.237225
31
0.0
0
LINE
8
0
6
CONTINUOUS
10
55.762990
20
751.208995
30
0.0
11
55.034180
21
751.231275
31
0.0
0
LINE
8
0
6
CONTINUOUS
10
53.843140
20
751.192515
30
0.0
11
55.762990
21
751.208995
31
0.0
0
LINE
8
0
6
CONTINUOUS
10
51.194470
20
751.198315
30
0.0
11
53.843140
21
751.192515
31
0.0
0
LINE
8
0
6
CONTINUOUS
10
59.040650
20
752.534825
30
0.0
11
59.769430
21
752.512555
31
0.0
0
LINE
8
0
6
CONTINUOUS
10
60.960480
20
752.551305
30
0.0
11
59.040650
21
752.534825
31
0.0
0
LINE
8
0
6
CONTINUOUS
10
63.609140
20
752.545515
30
0.0
11
60.960480
21
752.551305
31
0.0
0
LINE
8
0
6
CONTINUOUS
10
64.337960
20
752.523235
30
0.0
11
63.609140
21
752.545515
31
0.0
0
LINE
8
0
6
CONTINUOUS
10
62.418100
20
752.506605
30
0.0
11
64.337960
21
752.523235
31
0.0
0
LINE
8
0
6
CONTINUOUS
10
59.769430
20
752.512555
30
0.0
11
62.418100
21
752.506605
31
0.0
0
LINE
8
0
6
CONTINUOUS
10
16.084330
20
748.343695
30
0.0
11
17.061350
21
748.347965
31
0.0
0
LINE
8
0
6
CONTINUOUS
10
34.975210
20
749.559515
30
0.0
11
34.961275
21
751.225814
31
0.0
0
LINE
8
0
6
CONTINUOUS
10
33.610830
20
749.545785
30
0.0
11
34.975210
21
749.559515
31
0.0
0
LINE
8
0
6
CONTINUOUS
10
25.700770
20
748.994335
30
0.0
11
26.584510
21
748.999065
31
0.0
0
LINE
8
0
6
CONTINUOUS
10
26.584510
20
748.999065
30
0.0
11
27.381927
21
749.005613
31
0.0
0
LINE
8
0
6
CONTINUOUS
10
34.968386
20
750.375476
30
0.0
11
35.027138
21
750.375955
31
0.0
0
LINE
8
0
6
CONTINUOUS
10
35.080330
20
749.522595
30
0.0
11
35.964060
21
749.527475
31
0.0
0
LINE
8
0
6
CONTINUOUS
10
39.576530
20
749.559515
30
0.0
11
39.569766
21
750.368278
31
0.0
0
LINE
8
0
6
CONTINUOUS
10
41.709740
20
750.372815
30
0.0
11
41.695749
21
752.027775
31
0.0
0
LINE
8
0
6
CONTINUOUS
10
41.081500
20
750.367625
30
0.0
11
41.709740
21
750.372815
31
0.0
0
LINE
8
0
6
CONTINUOUS
10
49.718979
20
751.228133
30
0.0
11
50.465700
21
751.234565
31
0.0
0
LINE
8
0
6
CONTINUOUS
10
55.762990
20
751.216872
30
0.0
11
56.203870
21
751.220585
31
0.0
0
LINE
8
0
6
CONTINUOUS
10
58.124971
20
752.549058
30
0.0
11
59.040650
21
752.556774
31
0.0
0
LINE
8
0
6
CONTINUOUS
10
64.337960
20
752.548979
30
0.0
11
65.429340
21
752.558175
31
0.0
0
LINE
8
0
6
CONTINUOUS
10
67.361180
20
752.574655
30
0.0
11
67.336302
21
755.518126
31
0.0
0
LINE
8
0
6
CONTINUOUS
10
65.429340
20
752.558175
30
0.0
11
67.361180
21
752.574655
31
0.0
0
LINE
8
0
6
CONTINUOUS
10
58.135710
20
751.237225
30
0.0
11
58.111583
21
754.184498
31
0.0
0
LINE
8
0
6
CONTINUOUS
10
56.203870
20
751.220585
30
0.0
11
58.135710
21
751.237225
31
0.0
0
LINE
8
0
6
CONTINUOUS
10
72.679360
20
753.824834
30
0.0
11
74.324490
21
753.838695
31
0.0
0
LINE
8
0
6
CONTINUOUS
10
76.256300
20
753.855175
30
0.0
11
76.227958
21
757.208939
31
0.0
0
LINE
8
0
6
CONTINUOUS
10
74.324490
20
753.838695
30
0.0
11
76.256300
21
753.855175
31
0.0
0
LINE
8
0
6
CONTINUOUS
10
74.299020
20
756.852294
30
0.0
11
74.324490
21
753.838695
31
0.0
0
LINE
8
0
6
CONTINUOUS
10
64.714900
20
752.546575
30
0.0
11
66.646740
21
752.563055
31
0.0
0
LINE
8
0
6
CONTINUOUS
10
8.452170
20
749.559515
30
0.0
11
10.717090
21
749.554635
31
0.0
0
LINE
8
0
6
CONTINUOUS
10
8.452170
20
749.559515
30
0.0
11
8.455920
21
751.209913
31
0.0
0
LINE
8
0
6
CONTINUOUS
10
7.352680
20
749.545785
30
0.0
11
8.452170
21
749.559515
31
0.0
0
LINE
8
0
6
CONTINUOUS
10
7.358319
20
752.027775
30
0.0
11
7.352680
21
749.545785
31
0.0
0
LINE
8
0
6
CONTINUOUS
10
15.859660
20
750.406995
30
0.0
11
15.863343
21
752.027775
31
0.0
0
LINE
8
0
6
CONTINUOUS
10
14.688390
20
750.392345
30
0.0
11
15.859660
21
750.406995
31
0.0
0
LINE
8
0
6
CONTINUOUS
10
14.692106
20
752.027775
30
0.0
11
14.688410
21
750.401195
31
0.0
0
LINE
8
0
6
CONTINUOUS
10
23.375310
20
751.237225
30
0.0
11
26.111370
21
751.231275
31
0.0
0
LINE
8
0
6
CONTINUOUS
10
35.385910
20
752.523235
30
0.0
11
35.395204
21
756.613600
31
0.0
0
LINE
8
0
6
CONTINUOUS
10
33.978050
20
752.545515
30
0.0
11
35.385910
21
752.523235
31
0.0
0
LINE
8
0
6
CONTINUOUS
10
27.519230
20
751.208995
30
0.0
11
27.525090
21
753.789393
31
0.0
0
LINE
8
0
6
CONTINUOUS
10
26.111370
20
751.231275
30
0.0
11
27.519230
21
751.208995
31
0.0
0
LINE
8
0
6
CONTINUOUS
10
26.117271
20
753.829889
30
0.0
11
26.111370
21
751.231275
31
0.0
0
LINE
8
0
6
CONTINUOUS
10
33.978050
20
752.545515
30
0.0
11
33.987296
21
756.614790
31
0.0
0
LINE
8
0
6
CONTINUOUS
10
31.241980
20
752.551305
30
0.0
11
33.978050
21
752.545515
31
0.0
0
LINE
8
0
6
CONTINUOUS
10
31.244865
20
753.821286
30
0.0
11
31.241980
21
752.551305
31
0.0
0
LINE
8
0
6
CONTINUOUS
10
43.526100
20
753.804815
30
0.0
11
43.535432
21
757.914390
31
0.0
0
LINE
8
0
6
CONTINUOUS
10
42.118220
20
753.827095
30
0.0
11
43.526100
21
753.804815
31
0.0
0
LINE
8
0
6
CONTINUOUS
10
42.127479
20
757.902508
30
0.0
11
42.118220
21
753.827095
31
0.0
0
LINE
8
0
6
CONTINUOUS
10
1.378190
20
749.031255
30
0.0
11
1.381217
21
750.363475
31
0.0
0
LINE
8
0
6
CONTINUOUS
10
0.278700
20
749.017525
30
0.0
11
1.378190
21
749.031255
31
0.0
0
LINE
8
0
6
CONTINUOUS
10
0.281842
20
750.401195
30
0.0
11
0.278700
21
749.017525
31
0.0
0
LINE
8
0
6
CONTINUOUS
10
11.882530
20
749.536175
30
0.0
11
11.886294
21
751.192828
31
0.0
0
LINE
8
0
6
CONTINUOUS
10
10.717090
20
749.554635
30
0.0
11
11.882530
21
749.536175
31
0.0
0
LINE
8
0
6
CONTINUOUS
10
10.720900
20
751.232846
30
0.0
11
10.717090
21
749.554635
31
0.0
0
LINE
8
0
6
CONTINUOUS
10
23.375310
20
751.237225
30
0.0
11
23.379794
21
753.212797
31
0.0
0
LINE
8
0
6
CONTINUOUS
10
22.047100
20
751.220585
30
0.0
11
23.375310
21
751.237225
31
0.0
0
LINE
8
0
6
CONTINUOUS
10
22.051624
20
753.212785
30
0.0
11
22.047100
21
751.220585
31
0.0
0
LINE
8
0
6
CONTINUOUS
10
-6.223550
20
748.364145
30
0.0
11
-5.193650
21
748.347965
31
0.0
0
LINE
8
0
6
CONTINUOUS
10
-5.251900
20
748.376355
30
0.0
11
-6.223550
21
748.364145
31
0.0
0
LINE
8
0
6
CONTINUOUS
10
-3.250350
20
748.372075
30
0.0
11
-5.249208
21
748.376349
31
0.0
0
LINE
8
0
6
CONTINUOUS
10
-2.220450
20
748.355595
30
0.0
11
-3.250350
21
748.372075
31
0.0
0
LINE
8
0
6
CONTINUOUS
10
-3.192100
20
748.343695
30
0.0
11
-2.220450
21
748.355595
31
0.0
0
LINE
8
0
6
CONTINUOUS
10
-5.193650
20
748.347965
30
0.0
11
-3.192100
21
748.343695
31
0.0
0
LINE
8
0
6
CONTINUOUS
10
-6.223550
20
748.364145
30
0.0
11
-5.251900
21
748.376355
31
0.0
0
LINE
8
0
6
CONTINUOUS
10
-6.221120
20
749.434095
30
0.0
11
-6.223550
21
748.364145
31
0.0
0
LINE
8
0
6
CONTINUOUS
10
-3.250350
20
748.372075
30
0.0
11
-3.247720
21
749.530662
31
0.0
0
LINE
8
0
6
CONTINUOUS
10
-5.251900
20
748.376355
30
0.0
11
-3.250350
21
748.372075
31
0.0
0
LINE
8
0
6
CONTINUOUS
10
-5.249217
20
749.557635
30
0.0
11
-5.251900
21
748.376355
31
0.0
0
LINE
8
0
6
CONTINUOUS
10
38.053960
20
753.816415
30
0.0
11
39.461800
21
753.794135
31
0.0
0
LINE
8
0
6
CONTINUOUS
10
39.382150
20
753.832895
30
0.0
11
38.053960
21
753.816415
31
0.0
0
LINE
8
0
6
CONTINUOUS
10
42.118220
20
753.827095
30
0.0
11
39.412299
21
753.832831
31
0.0
0
LINE
8
0
6
CONTINUOUS
10
43.526100
20
753.804815
30
0.0
11
42.118220
21
753.827095
31
0.0
0
LINE
8
0
6
CONTINUOUS
10
42.197860
20
753.788335
30
0.0
11
43.526100
21
753.804815
31
0.0
0
LINE
8
0
6
CONTINUOUS
10
39.461800
20
753.794135
30
0.0
11
42.197860
21
753.788335
31
0.0
0
LINE
8
0
6
CONTINUOUS
10
0.278700
20
749.017525
30
0.0
11
1.444110
21
748.999065
31
0.0
0
LINE
8
0
6
CONTINUOUS
10
1.378190
20
749.031255
30
0.0
11
0.278700
21
749.017525
31
0.0
0
LINE
8
0
6
CONTINUOUS
10
3.643120
20
749.026375
30
0.0
11
1.378190
21
749.031255
31
0.0
0
LINE
8
0
6
CONTINUOUS
10
4.808540
20
749.007915
30
0.0
11
3.643120
21
749.026375
31
0.0
0
LINE
8
0
6
CONTINUOUS
10
3.709040
20
748.994335
30
0.0
11
4.808540
21
749.007915
31
0.0
0
LINE
8
0
6
CONTINUOUS
10
1.444110
20
748.999065
30
0.0
11
3.709040
21
748.994335
31
0.0
0
LINE
8
0
6
CONTINUOUS
10
7.352680
20
749.545785
30
0.0
11
8.518090
21
749.527475
31
0.0
0
LINE
8
0
6
CONTINUOUS
10
8.452170
20
749.559515
30
0.0
11
7.352680
21
749.545785
31
0.0
0
LINE
8
0
6
CONTINUOUS
10
10.717090
20
749.554635
30
0.0
11
8.452170
21
749.559515
31
0.0
0
LINE
8
0
6
CONTINUOUS
10
11.882530
20
749.536175
30
0.0
11
10.717090
21
749.554635
31
0.0
0
LINE
8
0
6
CONTINUOUS
10
10.783020
20
749.522595
30
0.0
11
11.882530
21
749.536175
31
0.0
0
LINE
8
0
6
CONTINUOUS
10
8.518090
20
749.527475
30
0.0
11
10.783020
21
749.522595
31
0.0
0
LINE
8
0
6
CONTINUOUS
10
14.688390
20
750.392345
30
0.0
11
15.929880
21
750.372815
31
0.0
0
LINE
8
0
6
CONTINUOUS
10
15.859660
20
750.406995
30
0.0
11
14.688390
21
750.392345
31
0.0
0
LINE
8
0
6
CONTINUOUS
10
18.272430
20
750.401805
30
0.0
11
15.859660
21
750.406995
31
0.0
0
LINE
8
0
6
CONTINUOUS
10
19.513950
20
750.382115
30
0.0
11
18.272430
21
750.401805
31
0.0
0
LINE
8
0
6
CONTINUOUS
10
18.342660
20
750.367625
30
0.0
11
19.513950
21
750.382115
31
0.0
0
LINE
8
0
6
CONTINUOUS
10
15.929880
20
750.372815
30
0.0
11
18.342660
21
750.367625
31
0.0
0
LINE
8
0
6
CONTINUOUS
10
22.047100
20
751.220585
30
0.0
11
23.454920
21
751.198315
31
0.0
0
LINE
8
0
6
CONTINUOUS
10
23.375310
20
751.237225
30
0.0
11
22.047100
21
751.220585
31
0.0
0
LINE
8
0
6
CONTINUOUS
10
26.111370
20
751.231275
30
0.0
11
23.375310
21
751.237225
31
0.0
0
LINE
8
0
6
CONTINUOUS
10
27.519230
20
751.208995
30
0.0
11
26.111370
21
751.231275
31
0.0
0
LINE
8
0
6
CONTINUOUS
10
26.191010
20
751.192515
30
0.0
11
27.519230
21
751.208995
31
0.0
0
LINE
8
0
6
CONTINUOUS
10
23.454920
20
751.198315
30
0.0
11
26.191010
21
751.192515
31
0.0
0
LINE
8
0
6
CONTINUOUS
10
29.913780
20
752.534825
30
0.0
11
31.321620
21
752.512555
31
0.0
0
LINE
8
0
6
CONTINUOUS
10
31.241980
20
752.551305
30
0.0
11
29.913780
21
752.534825
31
0.0
0
LINE
8
0
6
CONTINUOUS
10
33.978050
20
752.545515
30
0.0
11
31.241980
21
752.551305
31
0.0
0
LINE
8
0
6
CONTINUOUS
10
35.385910
20
752.523235
30
0.0
11
33.978050
21
752.545515
31
0.0
0
LINE
8
0
6
CONTINUOUS
10
34.057690
20
752.506605
30
0.0
11
35.385910
21
752.523235
31
0.0
0
LINE
8
0
6
CONTINUOUS
10
31.321620
20
752.512555
30
0.0
11
34.057690
21
752.506605
31
0.0
0
LINE
8
0
6
CONTINUOUS
10
-12.771760
20
749.031255
30
0.0
11
-10.524450
21
749.026375
31
0.0
0
LINE
8
0
6
CONTINUOUS
10
-12.767444
20
750.404074
30
0.0
11
-12.771760
21
749.031255
31
0.0
0
LINE
8
0
6
CONTINUOUS
10
-6.114920
20
749.559515
30
0.0
11
-3.867620
21
749.554635
31
0.0
0
LINE
8
0
6
CONTINUOUS
10
16.651950
20
752.563055
30
0.0
11
16.658406
21
754.615953
31
0.0
0
LINE
8
0
6
CONTINUOUS
10
15.592140
20
752.546575
30
0.0
11
16.651950
21
752.563055
31
0.0
0
LINE
8
0
6
CONTINUOUS
10
15.596131
20
753.816188
30
0.0
11
15.592140
21
752.546575
31
0.0
0
LINE
8
0
6
CONTINUOUS
10
1.112810
20
750.406995
30
0.0
11
3.506830
21
750.401805
31
0.0
0
LINE
8
0
6
CONTINUOUS
10
-9.154480
20
749.007915
30
0.0
11
-9.150195
21
750.370297
31
0.0
0
LINE
8
0
6
CONTINUOUS
10
-10.524450
20
749.026375
30
0.0
11
-9.154480
21
749.007915
31
0.0
0
LINE
8
0
6
CONTINUOUS
10
-10.520130
20
750.401195
30
0.0
11
-10.524450
21
749.026375
31
0.0
0
LINE
8
0
6
CONTINUOUS
10
-6.114920
20
749.559515
30
0.0
11
-6.109752
21
751.202503
31
0.0
0
LINE
8
0
6
CONTINUOUS
10
-6.992240
20
749.545785
30
0.0
11
-6.114920
21
749.559515
31
0.0
0
LINE
8
0
6
CONTINUOUS
10
-6.987000
20
751.212585
30
0.0
11
-6.992240
21
749.545785
31
0.0
0
LINE
8
0
6
CONTINUOUS
10
1.112810
20
750.406995
30
0.0
11
1.117908
21
752.027775
31
0.0
0
LINE
8
0
6
CONTINUOUS
10
0.178220
20
750.392345
30
0.0
11
1.112810
21
750.406995
31
0.0
0
LINE
8
0
6
CONTINUOUS
10
0.183362
20
752.027775
30
0.0
11
0.178248
21
750.401195
31
0.0
0
LINE
8
0
6
CONTINUOUS
10
8.722710
20
751.237225
30
0.0
11
11.437490
21
751.231275
31
0.0
0
LINE
8
0
6
CONTINUOUS
10
8.730797
20
753.809680
30
0.0
11
8.722710
21
751.237225
31
0.0
0
LINE
8
0
6
CONTINUOUS
10
4.966250
20
750.382115
30
0.0
11
4.971424
21
752.027775
31
0.0
0
LINE
8
0
6
CONTINUOUS
10
3.506830
20
750.401805
30
0.0
11
4.966250
21
750.382115
31
0.0
0
LINE
8
0
6
CONTINUOUS
10
3.511942
20
752.027775
30
0.0
11
3.506857
21
750.410351
31
0.0
0
LINE
8
0
6
CONTINUOUS
10
13.092450
20
751.208995
30
0.0
11
13.100585
21
753.795752
31
0.0
0
LINE
8
0
6
CONTINUOUS
10
11.437490
20
751.231275
30
0.0
11
13.092450
21
751.208995
31
0.0
0
LINE
8
0
6
CONTINUOUS
10
11.445654
20
753.827196
30
0.0
11
11.437490
21
751.231275
31
0.0
0
LINE
8
0
6
CONTINUOUS
10
23.650610
20
753.816415
30
0.0
11
24.710420
21
753.832895
31
0.0
0
LINE
8
0
6
CONTINUOUS
10
23.657767
20
756.092986
30
0.0
11
23.650610
21
753.816415
31
0.0
0
LINE
8
0
6
CONTINUOUS
10
24.710420
20
753.832895
30
0.0
11
27.425210
21
753.827095
31
0.0
0
LINE
8
0
6
CONTINUOUS
10
24.717534
20
756.094120
30
0.0
11
24.710420
21
753.832895
31
0.0
0
LINE
8
0
6
CONTINUOUS
10
29.080190
20
753.804815
30
0.0
11
29.087359
21
756.085319
31
0.0
0
LINE
8
0
6
CONTINUOUS
10
27.425210
20
753.827095
30
0.0
11
29.080190
21
753.804815
31
0.0
0
LINE
8
0
6
CONTINUOUS
10
27.432314
20
756.086068
30
0.0
11
27.425210
21
753.827095
31
0.0
0
LINE
8
0
6
CONTINUOUS
10
-2.497620
20
749.536175
30
0.0
11
-2.492360
21
751.208401
31
0.0
0
LINE
8
0
6
CONTINUOUS
10
-3.867620
20
749.554635
30
0.0
11
-2.497620
21
749.536175
31
0.0
0
LINE
8
0
6
CONTINUOUS
10
-3.862364
20
751.225822
30
0.0
11
-3.867620
21
749.554635
31
0.0
0
LINE
8
0
6
CONTINUOUS
10
0.109270
20
752.558175
30
0.0
11
0.813600
21
752.574655
31
0.0
0
LINE
8
0
6
CONTINUOUS
10
0.119739
20
755.056579
30
0.0
11
0.109270
21
752.558175
31
0.0
0
LINE
8
0
6
CONTINUOUS
10
23.650610
20
753.816415
30
0.0
11
25.305540
21
753.794135
31
0.0
0
LINE
8
0
6
CONTINUOUS
10
24.710420
20
753.832895
30
0.0
11
23.650610
21
753.816415
31
0.0
0
LINE
8
0
6
CONTINUOUS
10
27.425210
20
753.827095
30
0.0
11
24.710420
21
753.832895
31
0.0
0
LINE
8
0
6
CONTINUOUS
10
29.080190
20
753.804815
30
0.0
11
27.425210
21
753.827095
31
0.0
0
LINE
8
0
6
CONTINUOUS
10
28.020340
20
753.788335
30
0.0
11
29.080190
21
753.804815
31
0.0
0
LINE
8
0
6
CONTINUOUS
10
25.305540
20
753.794135
30
0.0
11
28.020340
21
753.788335
31
0.0
0
LINE
8
0
6
CONTINUOUS
10
-13.649100
20
749.017525
30
0.0
11
-12.279130
21
748.999065
31
0.0
0
LINE
8
0
6
CONTINUOUS
10
-12.771760
20
749.031255
30
0.0
11
-13.649100
21
749.017525
31
0.0
0
LINE
8
0
6
CONTINUOUS
10
-10.524450
20
749.026375
30
0.0
11
-12.771760
21
749.031255
31
0.0
0
LINE
8
0
6
CONTINUOUS
10
-9.154480
20
749.007915
30
0.0
11
-10.524450
21
749.026375
31
0.0
0
LINE
8
0
6
CONTINUOUS
10
-10.031810
20
748.994335
30
0.0
11
-9.154480
21
749.007915
31
0.0
0
LINE
8
0
6
CONTINUOUS
10
-12.279130
20
748.999065
30
0.0
11
-10.031810
21
748.994335
31
0.0
0
LINE
8
0
6
CONTINUOUS
10
-6.992240
20
749.545785
30
0.0
11
-5.622280
21
749.527475
31
0.0
0
LINE
8
0
6
CONTINUOUS
10
-6.114920
20
749.559515
30
0.0
11
-6.992240
21
749.545785
31
0.0
0
LINE
8
0
6
CONTINUOUS
10
-3.867620
20
749.554635
30
0.0
11
-6.114920
21
749.559515
31
0.0
0
LINE
8
0
6
CONTINUOUS
10
-2.497620
20
749.536175
30
0.0
11
-3.867620
21
749.554635
31
0.0
0
LINE
8
0
6
CONTINUOUS
10
-3.374970
20
749.522595
30
0.0
11
-2.497620
21
749.536175
31
0.0
0
LINE
8
0
6
CONTINUOUS
10
-5.622280
20
749.527475
30
0.0
11
-3.374970
21
749.522595
31
0.0
0
LINE
8
0
6
CONTINUOUS
10
0.178220
20
750.392345
30
0.0
11
1.637620
21
750.372815
31
0.0
0
LINE
8
0
6
CONTINUOUS
10
1.112810
20
750.406995
30
0.0
11
0.178220
21
750.392345
31
0.0
0
LINE
8
0
6
CONTINUOUS
10
3.506830
20
750.401805
30
0.0
11
1.112810
21
750.406995
31
0.0
0
LINE
8
0
6
CONTINUOUS
10
4.966250
20
750.382115
30
0.0
11
3.506830
21
750.401805
31
0.0
0
LINE
8
0
6
CONTINUOUS
10
4.031630
20
750.367625
30
0.0
11
4.966250
21
750.382115
31
0.0
0
LINE
8
0
6
CONTINUOUS
10
1.637620
20
750.372815
30
0.0
11
4.031630
21
750.367625
31
0.0
0
LINE
8
0
6
CONTINUOUS
10
7.662880
20
751.220585
30
0.0
11
9.317810
21
751.198315
31
0.0
0
LINE
8
0
6
CONTINUOUS
10
8.722710
20
751.237225
30
0.0
11
7.662880
21
751.220585
31
0.0
0
LINE
8
0
6
CONTINUOUS
10
11.437490
20
751.231275
30
0.0
11
8.722710
21
751.237225
31
0.0
0
LINE
8
0
6
CONTINUOUS
10
13.092450
20
751.208995
30
0.0
11
11.437490
21
751.231275
31
0.0
0
LINE
8
0
6
CONTINUOUS
10
12.032620
20
751.192515
30
0.0
11
13.092450
21
751.208995
31
0.0
0
LINE
8
0
6
CONTINUOUS
10
9.317810
20
751.198315
30
0.0
11
12.032620
21
751.192515
31
0.0
0
LINE
8
0
6
CONTINUOUS
10
15.592140
20
752.546575
30
0.0
11
17.247080
21
752.524145
31
0.0
0
LINE
8
0
6
CONTINUOUS
10
16.651950
20
752.563055
30
0.0
11
15.592140
21
752.546575
31
0.0
0
LINE
8
0
6
CONTINUOUS
10
19.366750
20
752.557105
30
0.0
11
16.651950
21
752.563055
31
0.0
0
LINE
8
0
6
CONTINUOUS
10
21.021700
20
752.534825
30
0.0
11
19.366750
21
752.557105
31
0.0
0
LINE
8
0
6
CONTINUOUS
10
19.961880
20
752.518345
30
0.0
11
21.021700
21
752.534825
31
0.0
0
LINE
8
0
6
CONTINUOUS
10
17.247080
20
752.524145
30
0.0
11
19.961880
21
752.518345
31
0.0
0
LINE
8
0
6
CONTINUOUS
10
-14.078740
20
750.406995
30
0.0
11
-14.071949
21
752.027775
31
0.0
0
LINE
8
0
6
CONTINUOUS
10
-14.699840
20
750.392345
30
0.0
11
-14.078740
21
750.406995
31
0.0
0
LINE
8
0
6
CONTINUOUS
10
-14.692990
20
752.027775
30
0.0
11
-14.699803
21
750.401195
31
0.0
0
LINE
8
0
6
CONTINUOUS
10
-4.336600
20
751.231275
30
0.0
11
-4.325882
21
753.789840
31
0.0
0
LINE
8
0
6
CONTINUOUS
10
-6.978750
20
751.237225
30
0.0
11
-4.336600
21
751.231275
31
0.0
0
LINE
8
0
6
CONTINUOUS
10
5.393550
20
752.546575
30
0.0
11
5.405384
21
755.370834
31
0.0
0
LINE
8
0
6
CONTINUOUS
10
3.455750
20
752.568855
30
0.0
11
5.393550
21
752.546575
31
0.0
0
LINE
8
0
6
CONTINUOUS
10
8.145000
20
753.816415
30
0.0
11
8.849320
21
753.832895
31
0.0
0
LINE
8
0
6
CONTINUOUS
10
8.148359
20
754.618022
30
0.0
11
8.145000
21
753.816415
31
0.0
0
LINE
8
0
6
CONTINUOUS
10
3.455750
20
752.568855
30
0.0
11
3.468748
21
755.670904
31
0.0
0
LINE
8
0
6
CONTINUOUS
10
0.813600
20
752.574655
30
0.0
11
3.455750
21
752.568855
31
0.0
0
LINE
8
0
6
CONTINUOUS
10
0.825912
20
755.513780
30
0.0
11
0.813600
21
752.574655
31
0.0
0
LINE
8
0
6
CONTINUOUS
10
8.849320
20
753.832895
30
0.0
11
11.491470
21
753.827095
31
0.0
0
LINE
8
0
6
CONTINUOUS
10
8.861015
20
756.623187
30
0.0
11
8.849320
21
753.832895
31
0.0
0
LINE
8
0
6
CONTINUOUS
10
13.429300
20
753.804815
30
0.0
11
13.438859
21
756.087396
31
0.0
0
LINE
8
0
6
CONTINUOUS
10
11.491470
20
753.827095
30
0.0
11
13.429300
21
753.804815
31
0.0
0
LINE
8
0
6
CONTINUOUS
10
11.503108
20
756.604573
30
0.0
11
11.491470
21
753.827095
31
0.0
0
LINE
8
0
6
CONTINUOUS
10
-21.033170
20
749.545785
30
0.0
11
-19.663210
21
749.527475
31
0.0
0
LINE
8
0
6
CONTINUOUS
10
-20.155850
20
749.559515
30
0.0
11
-21.033170
21
749.545785
31
0.0
0
LINE
8
0
6
CONTINUOUS
10
-17.908550
20
749.554635
30
0.0
11
-20.155850
21
749.559515
31
0.0
0
LINE
8
0
6
CONTINUOUS
10
-16.538550
20
749.536175
30
0.0
11
-17.908550
21
749.554635
31
0.0
0
LINE
8
0
6
CONTINUOUS
10
-17.415900
20
749.522595
30
0.0
11
-16.538550
21
749.536175
31
0.0
0
LINE
8
0
6
CONTINUOUS
10
-19.663210
20
749.527475
30
0.0
11
-17.415900
21
749.522595
31
0.0
0
LINE
8
0
6
CONTINUOUS
10
-6.978750
20
751.237225
30
0.0
11
-6.968006
21
753.802016
31
0.0
0
LINE
8
0
6
CONTINUOUS
10
-7.683080
20
751.220585
30
0.0
11
-6.978750
21
751.237225
31
0.0
0
LINE
8
0
6
CONTINUOUS
10
-7.672232
20
753.810113
30
0.0
11
-7.683080
21
751.220585
31
0.0
0
LINE
8
0
6
CONTINUOUS
10
8.145000
20
753.816415
30
0.0
11
10.082780
21
753.794135
31
0.0
0
LINE
8
0
6
CONTINUOUS
10
8.849320
20
753.832895
30
0.0
11
8.145000
21
753.816415
31
0.0
0
LINE
8
0
6
CONTINUOUS
10
11.491470
20
753.827095
30
0.0
11
8.849320
21
753.832895
31
0.0
0
LINE
8
0
6
CONTINUOUS
10
13.429300
20
753.804815
30
0.0
11
11.491470
21
753.827095
31
0.0
0
LINE
8
0
6
CONTINUOUS
10
12.724930
20
753.788335
30
0.0
11
13.429300
21
753.804815
31
0.0
0
LINE
8
0
6
CONTINUOUS
10
10.082780
20
753.794135
30
0.0
11
12.720607
21
753.788344
31
0.0
0
LINE
8
0
6
CONTINUOUS
10
-14.699840
20
750.392345
30
0.0
11
-12.991010
21
750.372815
31
0.0
0
LINE
8
0
6
CONTINUOUS
10
-14.078740
20
750.406995
30
0.0
11
-14.699840
21
750.392345
31
0.0
0
LINE
8
0
6
CONTINUOUS
10
-11.748780
20
750.401805
30
0.0
11
-14.078740
21
750.406995
31
0.0
0
LINE
8
0
6
CONTINUOUS
10
-10.039940
20
750.382115
30
0.0
11
-11.748780
21
750.401805
31
0.0
0
LINE
8
0
6
CONTINUOUS
10
-10.661070
20
750.367625
30
0.0
11
-10.039940
21
750.382115
31
0.0
0
LINE
8
0
6
CONTINUOUS
10
-12.991010
20
750.372815
30
0.0
11
-10.661070
21
750.367625
31
0.0
0
LINE
8
0
6
CONTINUOUS
10
-7.683080
20
751.220585
30
0.0
11
-5.745310
21
751.198315
31
0.0
0
LINE
8
0
6
CONTINUOUS
10
-6.978750
20
751.237225
30
0.0
11
-7.683080
21
751.220585
31
0.0
0
LINE
8
0
6
CONTINUOUS
10
-4.336600
20
751.231275
30
0.0
11
-6.978750
21
751.237225
31
0.0
0
LINE
8
0
6
CONTINUOUS
10
-2.398800
20
751.208995
30
0.0
11
-4.336600
21
751.231275
31
0.0
0
LINE
8
0
6
CONTINUOUS
10
-3.103140
20
751.192515
30
0.0
11
-2.398800
21
751.208995
31
0.0
0
LINE
8
0
6
CONTINUOUS
10
-5.745310
20
751.198315
30
0.0
11
-3.103140
21
751.192515
31
0.0
0
LINE
8
0
6
CONTINUOUS
10
0.109270
20
752.558175
30
0.0
11
2.047070
21
752.535895
31
0.0
0
LINE
8
0
6
CONTINUOUS
10
0.813600
20
752.574655
30
0.0
11
0.109270
21
752.558175
31
0.0
0
LINE
8
0
6
CONTINUOUS
10
3.455750
20
752.568855
30
0.0
11
0.813600
21
752.574655
31
0.0
0
LINE
8
0
6
CONTINUOUS
10
5.393550
20
752.546575
30
0.0
11
3.455750
21
752.568855
31
0.0
0
LINE
8
0
6
CONTINUOUS
10
4.689230
20
752.530095
30
0.0
11
5.393550
21
752.546575
31
0.0
0
LINE
8
0
6
CONTINUOUS
10
2.047070
20
752.535895
30
0.0
11
4.689230
21
752.530095
31
0.0
0
LINE
8
0
6
CONTINUOUS
10
-25.981530
20
750.401195
30
0.0
11
-25.974715
21
752.027775
31
0.0
0
LINE
8
0
6
CONTINUOUS
10
-28.168700
20
750.406075
30
0.0
11
-25.981530
21
750.401195
31
0.0
0
LINE
8
0
6
CONTINUOUS
10
-17.849510
20
751.208995
30
0.0
11
-17.838624
21
753.806886
31
0.0
0
LINE
8
0
6
CONTINUOUS
10
-19.787310
20
751.231275
30
0.0
11
-17.849519
21
751.208995
31
0.0
0
LINE
8
0
6
CONTINUOUS
10
-8.220360
20
753.816415
30
0.0
11
-7.516040
21
753.832895
31
0.0
0
LINE
8
0
6
CONTINUOUS
10
-8.198315
20
759.077645
30
0.0
11
-8.220360
21
753.816415
31
0.0
0
LINE
8
0
6
CONTINUOUS
10
-28.168700
20
750.406075
30
0.0
11
-28.161905
21
752.027775
31
0.0
0
LINE
8
0
6
CONTINUOUS
10
-28.751740
20
750.392345
30
0.0
11
-28.168700
21
750.406075
31
0.0
0
LINE
8
0
6
CONTINUOUS
10
-28.744890
20
752.027775
30
0.0
11
-28.751703
21
750.401195
31
0.0
0
LINE
8
0
6
CONTINUOUS
10
-15.175510
20
752.586255
30
0.0
11
-12.533360
21
752.580455
31
0.0
0
LINE
8
0
6
CONTINUOUS
10
-15.160874
20
756.081257
30
0.0
11
-15.175510
21
752.586255
31
0.0
0
LINE
8
0
6
CONTINUOUS
10
-2.936080
20
753.804815
30
0.0
11
-2.924375
21
756.598330
31
0.0
0
LINE
8
0
6
CONTINUOUS
10
-4.873880
20
753.827095
30
0.0
11
-2.936080
21
753.804815
31
0.0
0
LINE
8
0
6
CONTINUOUS
10
-19.787310
20
751.231275
30
0.0
11
-19.776583
21
753.792859
31
0.0
0
LINE
8
0
6
CONTINUOUS
10
-22.429460
20
751.237225
30
0.0
11
-19.787310
21
751.231275
31
0.0
0
LINE
8
0
6
CONTINUOUS
10
-22.418507
20
753.852550
30
0.0
11
-22.429460
21
751.237225
31
0.0
0
LINE
8
0
6
CONTINUOUS
10
-10.595560
20
752.558175
30
0.0
11
-10.580757
21
756.091056
31
0.0
0
LINE
8
0
6
CONTINUOUS
10
-12.533360
20
752.580455
30
0.0
11
-10.595560
21
752.558175
31
0.0
0
LINE
8
0
6
CONTINUOUS
10
-12.518636
20
756.095273
30
0.0
11
-12.533360
21
752.580455
31
0.0
0
LINE
8
0
6
CONTINUOUS
10
-4.873880
20
753.827095
30
0.0
11
-4.856835
21
757.894909
31
0.0
0
LINE
8
0
6
CONTINUOUS
10
-7.516040
20
753.832895
30
0.0
11
-4.873880
21
753.827095
31
0.0
0
LINE
8
0
6
CONTINUOUS
10
-7.494064
20
759.077645
30
0.0
11
-7.516040
21
753.832895
31
0.0
0
LINE
8
0
6
CONTINUOUS
10
-36.378340
20
751.237065
30
0.0
11
-33.736190
21
751.231275
31
0.0
0
LINE
8
0
6
CONTINUOUS
10
-23.614250
20
753.855175
30
0.0
11
-23.604976
21
756.069090
31
0.0
0
LINE
8
0
6
CONTINUOUS
10
-24.318580
20
753.838695
30
0.0
11
-23.614250
21
753.855175
31
0.0
0
LINE
8
0
6
CONTINUOUS
10
-24.309213
20
756.074277
30
0.0
11
-24.318580
21
753.838695
31
0.0
0
LINE
8
0
6
CONTINUOUS
10
-23.133790
20
751.220585
30
0.0
11
-21.196020
21
751.198315
31
0.0
0
LINE
8
0
6
CONTINUOUS
10
-22.429460
20
751.237225
30
0.0
11
-23.133790
21
751.220585
31
0.0
0
LINE
8
0
6
CONTINUOUS
10
-19.787310
20
751.231275
30
0.0
11
-22.429460
21
751.237225
31
0.0
0
LINE
8
0
6
CONTINUOUS
10
-17.849510
20
751.208995
30
0.0
11
-19.787310
21
751.231275
31
0.0
0
LINE
8
0
6
CONTINUOUS
10
-18.553850
20
751.192515
30
0.0
11
-17.849510
21
751.208995
31
0.0
0
LINE
8
0
6
CONTINUOUS
10
-21.196020
20
751.198315
30
0.0
11
-18.553850
21
751.192515
31
0.0
0
LINE
8
0
6
CONTINUOUS
10
-28.751740
20
750.392345
30
0.0
11
-27.177566
21
750.374220
31
0.0
0
LINE
8
0
6
CONTINUOUS
10
-28.168700
20
750.406075
30
0.0
11
-28.751740
21
750.392345
31
0.0
0
LINE
8
0
6
CONTINUOUS
10
-25.981530
20
750.401195
30
0.0
11
-28.168700
21
750.406075
31
0.0
0
LINE
8
0
6
CONTINUOUS
10
-24.377390
20
750.382725
30
0.0
11
-25.981530
21
750.401195
31
0.0
0
LINE
8
0
6
CONTINUOUS
10
-24.960460
20
750.369145
30
0.0
11
-24.377390
21
750.382725
31
0.0
0
LINE
8
0
6
CONTINUOUS
10
-27.147640
20
750.373875
30
0.0
11
-24.960460
21
750.369145
31
0.0
0
LINE
8
0
6
CONTINUOUS
10
-15.879830
20
752.569775
30
0.0
11
-13.975874
21
752.547884
31
0.0
0
LINE
8
0
6
CONTINUOUS
10
-15.175510
20
752.586255
30
0.0
11
-15.879830
21
752.569775
31
0.0
0
LINE
8
0
6
CONTINUOUS
10
-12.533360
20
752.580455
30
0.0
11
-15.175510
21
752.586255
31
0.0
0
LINE
8
0
6
CONTINUOUS
10
-10.595560
20
752.558175
30
0.0
11
-12.533360
21
752.580455
31
0.0
0
LINE
8
0
6
CONTINUOUS
10
-11.299900
20
752.541695
30
0.0
11
-10.595560
21
752.558175
31
0.0
0
LINE
8
0
6
CONTINUOUS
10
-13.942070
20
752.547495
30
0.0
11
-11.299900
21
752.541695
31
0.0
0
LINE
8
0
6
CONTINUOUS
10
-8.220360
20
753.816415
30
0.0
11
-6.282560
21
753.794135
31
0.0
0
LINE
8
0
6
CONTINUOUS
10
-7.516040
20
753.832895
30
0.0
11
-8.220360
21
753.816415
31
0.0
0
LINE
8
0
6
CONTINUOUS
10
-4.873880
20
753.827095
30
0.0
11
-7.516040
21
753.832895
31
0.0
0
LINE
8
0
6
CONTINUOUS
10
-2.936080
20
753.804815
30
0.0
11
-4.873880
21
753.827095
31
0.0
0
LINE
8
0
6
CONTINUOUS
10
-3.640410
20
753.788335
30
0.0
11
-2.936080
21
753.804815
31
0.0
0
LINE
8
0
6
CONTINUOUS
10
-6.282560
20
753.794135
30
0.0
11
-3.640410
21
753.788335
31
0.0
0
LINE
8
0
6
CONTINUOUS
10
-44.598550
20
752.574655
30
0.0
11
-41.956400
21
752.568855
31
0.0
0
LINE
8
0
6
CONTINUOUS
10
-37.082670
20
751.220585
30
0.0
11
-35.144900
21
751.198315
31
0.0
0
LINE
8
0
6
CONTINUOUS
10
-36.378340
20
751.237065
30
0.0
11
-37.082670
21
751.220585
31
0.0
0
LINE
8
0
6
CONTINUOUS
10
-33.736190
20
751.231275
30
0.0
11
-36.378340
21
751.237065
31
0.0
0
LINE
8
0
6
CONTINUOUS
10
-31.798390
20
751.208995
30
0.0
11
-33.736190
21
751.231275
31
0.0
0
LINE
8
0
6
CONTINUOUS
10
-32.502720
20
751.192515
30
0.0
11
-31.798390
21
751.208995
31
0.0
0
LINE
8
0
6
CONTINUOUS
10
-35.144900
20
751.198315
30
0.0
11
-32.502720
21
751.192515
31
0.0
0
LINE
8
0
6
CONTINUOUS
10
-40.018600
20
752.546575
30
0.0
11
-40.015807
21
753.213032
31
0.0
0
LINE
8
0
6
CONTINUOUS
10
-41.956400
20
752.568855
30
0.0
11
-40.018600
21
752.546575
31
0.0
0
LINE
8
0
6
CONTINUOUS
10
-41.939448
20
756.615491
30
0.0
11
-41.956400
21
752.568855
31
0.0
0
LINE
8
0
6
CONTINUOUS
10
-31.798390
20
751.208995
30
0.0
11
-31.787468
21
753.815645
31
0.0
0
LINE
8
0
6
CONTINUOUS
10
-33.736190
20
751.231275
30
0.0
11
-31.798390
21
751.208995
31
0.0
0
LINE
8
0
6
CONTINUOUS
10
-33.725381
20
753.812283
30
0.0
11
-33.736190
21
751.231275
31
0.0
0
LINE
8
0
6
CONTINUOUS
10
-44.598550
20
752.574655
30
0.0
11
-44.581712
21
756.594197
31
0.0
0
LINE
8
0
6
CONTINUOUS
10
-45.302870
20
752.558175
30
0.0
11
-44.598550
21
752.574655
31
0.0
0
LINE
8
0
6
CONTINUOUS
10
-45.285949
20
756.598722
30
0.0
11
-45.302870
21
752.558175
31
0.0
0
LINE
8
0
6
CONTINUOUS
10
-36.378340
20
751.237065
30
0.0
11
-36.367549
21
753.813127
31
0.0
0
LINE
8
0
6
CONTINUOUS
10
-37.082670
20
751.220585
30
0.0
11
-36.378340
21
751.237065
31
0.0
0
LINE
8
0
6
CONTINUOUS
10
-37.071652
20
753.850725
30
0.0
11
-37.082670
21
751.220585
31
0.0
0
LINE
8
0
6
CONTINUOUS
10
-45.302870
20
752.558175
30
0.0
11
-43.365110
21
752.535895
31
0.0
0
LINE
8
0
6
CONTINUOUS
10
-44.598550
20
752.574655
30
0.0
11
-45.302870
21
752.558175
31
0.0
0
LINE
8
0
6
CONTINUOUS
10
-41.956400
20
752.568855
30
0.0
11
-44.598550
21
752.574655
31
0.0
0
LINE
8
0
6
CONTINUOUS
10
-40.018600
20
752.546575
30
0.0
11
-41.956400
21
752.568855
31
0.0
0
LINE
8
0
6
CONTINUOUS
10
-40.722940
20
752.530095
30
0.0
11
-40.018600
21
752.546575
31
0.0
0
LINE
8
0
6
CONTINUOUS
10
-43.365110
20
752.535895
30
0.0
11
-40.722940
21
752.530095
31
0.0
0
LINE
8
0
6
CONTINUOUS
10
-24.318580
20
753.838695
30
0.0
11
-22.380770
21
753.816415
31
0.0
0
LINE
8
0
6
CONTINUOUS
10
-23.614250
20
753.855175
30
0.0
11
-24.318580
21
753.838695
31
0.0
0
LINE
8
0
6
CONTINUOUS
10
-20.972100
20
753.849375
30
0.0
11
-23.614250
21
753.855175
31
0.0
0
LINE
8
0
6
CONTINUOUS
10
-19.034300
20
753.827095
30
0.0
11
-20.953672
21
753.849163
31
0.0
0
LINE
8
0
6
CONTINUOUS
10
-19.738630
20
753.810615
30
0.0
11
-19.034300
21
753.827095
31
0.0
0
LINE
8
0
6
CONTINUOUS
10
-22.380770
20
753.816415
30
0.0
11
-19.738630
21
753.810615
31
0.0
0
LINE
8
0
6
CONTINUOUS
10
-53.699010
20
753.838695
30
0.0
11
-51.761220
21
753.816415
31
0.0
0
LINE
8
0
6
CONTINUOUS
10
-52.994690
20
753.855175
30
0.0
11
-53.699010
21
753.838695
31
0.0
0
LINE
8
0
6
CONTINUOUS
10
-50.352540
20
753.849375
30
0.0
11
-52.961724
21
753.855103
31
0.0
0
LINE
8
0
6
CONTINUOUS
10
-48.414740
20
753.827095
30
0.0
11
-50.352540
21
753.849375
31
0.0
0
LINE
8
0
6
CONTINUOUS
10
-49.119060
20
753.810615
30
0.0
11
-48.414740
21
753.827095
31
0.0
0
LINE
8
0
6
CONTINUOUS
10
-51.761220
20
753.816415
30
0.0
11
-49.119060
21
753.810615
31
0.0
0
LINE
8
0
6
CONTINUOUS
10
-48.414740
20
753.827095
30
0.0
11
-48.397691
21
757.895856
31
0.0
0
LINE
8
0
6
CONTINUOUS
10
-50.352540
20
753.849375
30
0.0
11
-48.414740
21
753.827095
31
0.0
0
LINE
8
0
6
CONTINUOUS
10
-50.335563
20
757.900887
30
0.0
11
-50.352540
21
753.849375
31
0.0
0
LINE
8
0
6
CONTINUOUS
10
-39.803030
20
753.838695
30
0.0
11
-39.098700
21
753.855175
31
0.0
0
LINE
8
0
6
CONTINUOUS
10
-39.791480
20
756.595250
30
0.0
11
-39.803030
21
753.838695
31
0.0
0
LINE
8
0
6
CONTINUOUS
10
-36.456550
20
753.849375
30
0.0
11
-36.447265
21
756.065323
31
0.0
0
LINE
8
0
6
CONTINUOUS
10
-39.098700
20
753.855175
30
0.0
11
-36.456550
21
753.849375
31
0.0
0
LINE
8
0
6
CONTINUOUS
10
-39.087240
20
756.590951
30
0.0
11
-39.098700
21
753.855175
31
0.0
0
LINE
8
0
6
CONTINUOUS
10
-39.803030
20
753.838695
30
0.0
11
-37.865230
21
753.816415
31
0.0
0
LINE
8
0
6
CONTINUOUS
10
-39.098700
20
753.855175
30
0.0
11
-39.803030
21
753.838695
31
0.0
0
LINE
8
0
6
CONTINUOUS
10
-36.456550
20
753.849375
30
0.0
11
-39.098700
21
753.855175
31
0.0
0
LINE
8
0
6
CONTINUOUS
10
-34.518750
20
753.827095
30
0.0
11
-36.456550
21
753.849375
31
0.0
0
LINE
8
0
6
CONTINUOUS
10
-35.223080
20
753.810615
30
0.0
11
-34.518750
21
753.827095
31
0.0
0
LINE
8
0
6
CONTINUOUS
10
-37.865230
20
753.816415
30
0.0
11
-35.223080
21
753.810615
31
0.0
0
LINE
8
0
6
CONTINUOUS
10
-30.503480
20
752.563055
30
0.0
11
-27.861330
21
752.557105
31
0.0
0
LINE
8
0
6
CONTINUOUS
10
-25.923530
20
752.534825
30
0.0
11
-25.914888
21
754.596549
31
0.0
0
LINE
8
0
6
CONTINUOUS
10
-27.861330
20
752.557105
30
0.0
11
-25.923530
21
752.534825
31
0.0
0
LINE
8
0
6
CONTINUOUS
10
-27.847040
20
755.968520
30
0.0
11
-27.861330
21
752.557105
31
0.0
0
LINE
8
0
6
CONTINUOUS
10
-30.503480
20
752.563055
30
0.0
11
-30.494894
21
754.612608
31
0.0
0
LINE
8
0
6
CONTINUOUS
10
-31.207800
20
752.546575
30
0.0
11
-30.503480
21
752.563055
31
0.0
0
LINE
8
0
6
CONTINUOUS
10
-31.193088
20
756.059440
30
0.0
11
-31.207800
21
752.546575
31
0.0
0
LINE
8
0
6
CONTINUOUS
10
-31.207800
20
752.546575
30
0.0
11
-29.270040
21
752.524305
31
0.0
0
LINE
8
0
6
CONTINUOUS
10
-30.503480
20
752.563055
30
0.0
11
-31.207800
21
752.546575
31
0.0
0
LINE
8
0
6
CONTINUOUS
10
-27.861330
20
752.557105
30
0.0
11
-30.503480
21
752.563055
31
0.0
0
LINE
8
0
6
CONTINUOUS
10
-25.923530
20
752.534825
30
0.0
11
-27.861330
21
752.557105
31
0.0
0
LINE
8
0
6
CONTINUOUS
10
-26.627860
20
752.518345
30
0.0
11
-25.923530
21
752.534825
31
0.0
0
LINE
8
0
6
CONTINUOUS
10
-29.270040
20
752.524305
30
0.0
11
-26.627860
21
752.518345
31
0.0
0
LINE
8
0
6
CONTINUOUS
10
-0.673733
20
750.048105
30
0.0
11
-0.675779
21
750.318112
31
0.0
0
LINE
8
0
6
CONTINUOUS
10
-1.042170
20
749.031255
30
0.0
11
-1.045223
21
749.434095
31
0.0
0
LINE
8
0
6
CONTINUOUS
10
-1.049876
20
750.048105
30
0.0
11
-1.051860
21
750.309818
31
0.0
0
LINE
8
0
6
CONTINUOUS
10
-1.317840
20
748.376355
30
0.0
11
-1.325857
21
749.434095
31
0.0
0
LINE
8
0
6
CONTINUOUS
10
-1.330511
20
750.048105
30
0.0
11
-1.332448
21
750.303630
31
0.0
0
LINE
8
0
6
CONTINUOUS
10
-1.972360
20
748.364145
30
0.0
11
-1.317840
21
748.376355
31
0.0
0
LINE
8
0
6
CONTINUOUS
10
-1.972360
20
748.364145
30
0.0
11
-1.980470
21
749.434095
31
0.0
0
LINE
8
0
6
CONTINUOUS
10
-1.985124
20
750.048141
30
0.0
11
-1.986951
21
750.289196
31
0.0
0
LINE
8
0
6
CONTINUOUS
10
-2.220435
20
748.362103
30
0.0
11
-1.972360
21
748.364145
31
0.0
0
LINE
8
0
6
CONTINUOUS
10
-5.248960
20
748.343695
30
0.0
11
-3.937920
21
748.347965
31
0.0
0
LINE
8
0
6
CONTINUOUS
10
-18.773437
20
749.434095
30
0.0
11
-18.770200
21
748.994335
31
0.0
0
LINE
8
0
6
CONTINUOUS
10
-13.945170
20
748.376355
30
0.0
11
-13.952955
21
749.434095
31
0.0
0
LINE
8
0
6
CONTINUOUS
10
-13.957475
20
750.048219
30
0.0
11
-13.959946
21
750.383889
31
0.0
0
LINE
8
0
6
CONTINUOUS
10
-14.494210
20
748.364145
30
0.0
11
-13.945170
21
748.376355
31
0.0
0
LINE
8
0
6
CONTINUOUS
10
-14.494210
20
748.364145
30
0.0
11
-14.502085
21
749.434095
31
0.0
0
LINE
8
0
6
CONTINUOUS
10
-14.506605
20
750.048252
30
0.0
11
-14.509121
21
750.390165
31
0.0
0
LINE
8
0
6
CONTINUOUS
10
-14.685243
20
748.362553
30
0.0
11
-14.494210
21
748.364145
31
0.0
0
LINE
8
0
6
CONTINUOUS
10
-73.831810
20
752.523235
30
0.0
11
-73.824119
21
753.814841
31
0.0
0
LINE
8
0
6
CONTINUOUS
10
-75.174760
20
752.545515
30
0.0
11
-73.831810
21
752.523235
31
0.0
0
LINE
8
0
6
CONTINUOUS
10
-75.156727
20
755.573744
30
0.0
11
-75.174760
21
752.545515
31
0.0
0
LINE
8
0
6
CONTINUOUS
10
-80.326550
20
753.788335
30
0.0
11
-78.933270
21
753.794135
31
0.0
0
LINE
8
0
6
CONTINUOUS
10
-84.405750
20
753.827095
30
0.0
11
-83.062800
21
753.804815
31
0.0
0
LINE
8
0
6
CONTINUOUS
10
-84.385686
20
757.198462
30
0.0
11
-84.405750
21
753.827095
31
0.0
0
LINE
8
0
6
CONTINUOUS
10
-34.012780
20
748.994335
30
0.0
11
-32.859430
21
748.999065
31
0.0
0
LINE
8
0
6
CONTINUOUS
10
-83.062800
20
753.804815
30
0.0
11
-80.326550
21
753.788335
31
0.0
0
LINE
8
0
6
CONTINUOUS
10
-83.044229
20
756.923524
30
0.0
11
-83.062800
21
753.804815
31
0.0
0
LINE
8
0
6
CONTINUOUS
10
-34.857083
20
748.999397
30
0.0
11
-34.012780
21
748.994335
31
0.0
0
LINE
8
0
6
CONTINUOUS
10
-23.186130
20
748.347965
30
0.0
11
-23.182239
21
749.001524
31
0.0
0
LINE
8
0
6
CONTINUOUS
10
-24.205370
20
748.343695
30
0.0
11
-23.186130
21
748.347965
31
0.0
0
LINE
8
0
6
CONTINUOUS
10
-50.464501
20
750.375637
30
0.0
11
-49.139820
21
750.367625
31
0.0
0
LINE
8
0
6
CONTINUOUS
10
-49.139820
20
750.367625
30
0.0
11
-47.692320
21
750.372815
31
0.0
0
LINE
8
0
6
CONTINUOUS
10
-36.630520
20
750.367625
30
0.0
11
-36.624293
21
751.215317
31
0.0
0
LINE
8
0
6
CONTINUOUS
10
-38.962330
20
750.382115
30
0.0
11
-36.630520
21
750.367625
31
0.0
0
LINE
8
0
6
CONTINUOUS
10
-47.025430
20
751.208995
30
0.0
11
-44.381150
21
751.192515
31
0.0
0
LINE
8
0
6
CONTINUOUS
10
-51.969710
20
752.512555
30
0.0
11
-51.960121
21
753.818702
31
0.0
0
LINE
8
0
6
CONTINUOUS
10
-52.682140
20
752.506605
30
0.0
11
-51.969710
21
752.512555
31
0.0
0
LINE
8
0
6
CONTINUOUS
10
-25.811570
20
749.026375
30
0.0
11
-24.212420
21
749.007915
31
0.0
0
LINE
8
0
6
CONTINUOUS
10
-25.801481
20
750.401195
30
0.0
11
-25.811570
21
749.026375
31
0.0
0
LINE
8
0
6
CONTINUOUS
10
-57.258260
20
752.545515
30
0.0
11
-55.326450
21
752.523235
31
0.0
0
LINE
8
0
6
CONTINUOUS
10
-57.253357
20
753.213074
30
0.0
11
-57.258260
21
752.545515
31
0.0
0
LINE
8
0
6
CONTINUOUS
10
-28.884880
20
749.527475
30
0.0
11
-28.866518
21
752.027775
31
0.0
0
LINE
8
0
6
CONTINUOUS
10
-29.474630
20
749.522595
30
0.0
11
-28.884880
21
749.527475
31
0.0
0
LINE
8
0
6
CONTINUOUS
10
-38.962330
20
750.382115
30
0.0
11
-38.950246
21
752.027775
31
0.0
0
LINE
8
0
6
CONTINUOUS
10
-40.665900
20
750.401805
30
0.0
11
-38.962330
21
750.382115
31
0.0
0
LINE
8
0
6
CONTINUOUS
10
-40.653963
20
752.027775
30
0.0
11
-40.665900
21
750.401805
31
0.0
0
LINE
8
0
6
CONTINUOUS
10
-47.025430
20
751.208995
30
0.0
11
-47.006313
21
753.813155
31
0.0
0
LINE
8
0
6
CONTINUOUS
10
-48.957250
20
751.231275
30
0.0
11
-47.042578
21
751.209193
31
0.0
0
LINE
8
0
6
CONTINUOUS
10
-48.938150
20
753.833113
30
0.0
11
-48.957250
21
751.231275
31
0.0
0
LINE
8
0
6
CONTINUOUS
10
-52.682140
20
752.506605
30
0.0
11
-52.672446
21
753.826892
31
0.0
0
LINE
8
0
6
CONTINUOUS
10
-55.326450
20
752.523235
30
0.0
11
-52.682140
21
752.506605
31
0.0
0
LINE
8
0
6
CONTINUOUS
10
-55.321384
20
753.212929
30
0.0
11
-55.326450
21
752.523235
31
0.0
0
LINE
8
0
6
CONTINUOUS
10
-63.337090
20
753.804815
30
0.0
11
-63.336724
21
753.854596
31
0.0
0
LINE
8
0
6
CONTINUOUS
10
-65.268920
20
753.827095
30
0.0
11
-63.351673
21
753.804983
31
0.0
0
LINE
8
0
6
CONTINUOUS
10
-65.267019
20
754.086014
30
0.0
11
-65.268920
21
753.827095
31
0.0
0
LINE
8
0
6
CONTINUOUS
10
-29.474630
20
749.522595
30
0.0
11
-29.456233
21
752.027775
31
0.0
0
LINE
8
0
6
CONTINUOUS
10
-31.663540
20
749.536175
30
0.0
11
-29.474630
21
749.522595
31
0.0
0
LINE
8
0
6
CONTINUOUS
10
-31.645253
20
752.027775
30
0.0
11
-31.663540
21
749.536175
31
0.0
0
LINE
8
0
6
CONTINUOUS
10
-22.023490
20
748.994335
30
0.0
11
-22.013160
21
750.401195
31
0.0
0
LINE
8
0
6
CONTINUOUS
10
-24.212420
20
749.007915
30
0.0
11
-22.023490
21
748.994335
31
0.0
0
LINE
8
0
6
CONTINUOUS
10
-24.202192
20
750.401195
30
0.0
11
-24.212420
21
749.007915
31
0.0
0
LINE
8
0
6
CONTINUOUS
10
-43.668760
20
751.198315
30
0.0
11
-43.658916
21
752.539273
31
0.0
0
LINE
8
0
6
CONTINUOUS
10
-44.381150
20
751.192515
30
0.0
11
-43.668760
21
751.198315
31
0.0
0
LINE
8
0
6
CONTINUOUS
10
-44.371370
20
752.524274
30
0.0
11
-44.381138
21
751.194119
31
0.0
0
LINE
8
0
6
CONTINUOUS
10
-14.685350
20
748.347965
30
0.0
11
-14.670341
21
750.392008
31
0.0
0
LINE
8
0
6
CONTINUOUS
10
-15.206510
20
748.343695
30
0.0
11
-14.685350
21
748.347965
31
0.0
0
LINE
8
0
6
CONTINUOUS
10
-15.191403
20
750.401195
30
0.0
11
-15.206403
21
748.358210
31
0.0
0
LINE
8
0
6
CONTINUOUS
10
-17.140900
20
748.355595
30
0.0
11
-17.132254
21
749.533378
31
0.0
0
LINE
8
0
6
CONTINUOUS
10
-18.554100
20
748.372075
30
0.0
11
-17.140900
21
748.355595
31
0.0
0
LINE
8
0
6
CONTINUOUS
10
-18.545411
20
749.556018
30
0.0
11
-18.554100
21
748.372075
31
0.0
0
LINE
8
0
6
CONTINUOUS
10
-56.504850
20
751.208995
30
0.0
11
-53.827870
21
751.192515
31
0.0
0
LINE
8
0
6
CONTINUOUS
10
-61.228720
20
752.512555
30
0.0
11
-61.219616
21
753.791618
31
0.0
0
LINE
8
0
6
CONTINUOUS
10
-62.076000
20
752.506605
30
0.0
11
-61.228720
21
752.512555
31
0.0
0
LINE
8
0
6
CONTINUOUS
10
-66.582650
20
752.545515
30
0.0
11
-64.753000
21
752.523075
31
0.0
0
LINE
8
0
6
CONTINUOUS
10
-66.570535
20
754.247355
30
0.0
11
-66.582650
21
752.545515
31
0.0
0
LINE
8
0
6
CONTINUOUS
10
-49.928440
20
750.401805
30
0.0
11
-48.314950
21
750.382115
31
0.0
0
LINE
8
0
6
CONTINUOUS
10
-49.913956
20
752.437416
30
0.0
11
-49.928440
21
750.401805
31
0.0
0
LINE
8
0
6
CONTINUOUS
10
-56.504850
20
751.208995
30
0.0
11
-56.495402
21
752.536717
31
0.0
0
LINE
8
0
6
CONTINUOUS
10
-58.334510
20
751.231275
30
0.0
11
-56.504850
21
751.208995
31
0.0
0
LINE
8
0
6
CONTINUOUS
10
-58.319866
20
753.289094
30
0.0
11
-58.334510
21
751.231275
31
0.0
0
LINE
8
0
6
CONTINUOUS
10
-62.076000
20
752.506605
30
0.0
11
-62.066817
21
753.796898
31
0.0
0
LINE
8
0
6
CONTINUOUS
10
-64.753000
20
752.523075
30
0.0
11
-62.076000
21
752.506605
31
0.0
0
LINE
8
0
6
CONTINUOUS
10
-64.743761
20
753.821038
30
0.0
11
-64.752930
21
752.532866
31
0.0
0
LINE
8
0
6
CONTINUOUS
10
-69.476520
20
753.794135
30
0.0
11
-69.470105
21
754.695278
31
0.0
0
LINE
8
0
6
CONTINUOUS
10
-70.323810
20
753.788335
30
0.0
11
-69.476520
21
753.794135
31
0.0
0
LINE
8
0
6
CONTINUOUS
10
-74.830420
20
753.827095
30
0.0
11
-73.000750
21
753.804815
31
0.0
0
LINE
8
0
6
CONTINUOUS
10
-74.818363
20
755.521473
30
0.0
11
-74.830420
21
753.827095
31
0.0
0
LINE
8
0
6
CONTINUOUS
10
-30.445880
20
748.999065
30
0.0
11
-30.442111
21
749.528597
31
0.0
0
LINE
8
0
6
CONTINUOUS
10
-31.147250
20
748.994335
30
0.0
11
-30.445880
21
748.999065
31
0.0
0
LINE
8
0
6
CONTINUOUS
10
-70.323810
20
753.788335
30
0.0
11
-70.316422
21
754.826017
31
0.0
0
LINE
8
0
6
CONTINUOUS
10
-73.000750
20
753.804815
30
0.0
11
-70.323810
21
753.788335
31
0.0
0
LINE
8
0
6
CONTINUOUS
10
-72.990542
20
755.239113
30
0.0
11
-73.000750
21
753.804815
31
0.0
0
LINE
8
0
6
CONTINUOUS
10
-45.207130
20
750.372815
30
0.0
11
-45.201259
21
751.197626
31
0.0
0
LINE
8
0
6
CONTINUOUS
10
-45.954300
20
750.367625
30
0.0
11
-45.207130
21
750.372815
31
0.0
0
LINE
8
0
6
CONTINUOUS
10
-45.948346
20
751.203878
30
0.0
11
-45.954300
21
750.367625
31
0.0
0
LINE
8
0
6
CONTINUOUS
10
-31.147250
20
748.994335
30
0.0
11
-31.143417
21
749.532948
31
0.0
0
LINE
8
0
6
CONTINUOUS
10
-33.363250
20
749.007915
30
0.0
11
-31.147250
21
748.994335
31
0.0
0
LINE
8
0
6
CONTINUOUS
10
-33.353336
20
750.401195
30
0.0
11
-33.363250
21
749.007915
31
0.0
0
LINE
8
0
6
CONTINUOUS
10
-52.980630
20
751.198315
30
0.0
11
-52.969738
21
752.728961
31
0.0
0
LINE
8
0
6
CONTINUOUS
10
-53.827870
20
751.192515
30
0.0
11
-52.980630
21
751.198315
31
0.0
0
LINE
8
0
6
CONTINUOUS
10
-53.816302
20
752.817592
30
0.0
11
-53.827870
21
751.192515
31
0.0
0
LINE
8
0
6
CONTINUOUS
10
-26.333910
20
748.355595
30
0.0
11
-24.375600
21
748.343695
31
0.0
0
LINE
8
0
6
CONTINUOUS
10
-23.755790
20
748.347965
30
0.0
11
-23.751114
21
749.005053
31
0.0
0
LINE
8
0
6
CONTINUOUS
10
-24.375600
20
748.343695
30
0.0
11
-23.755790
21
748.347965
31
0.0
0
LINE
8
0
6
CONTINUOUS
10
-26.333910
20
748.355595
30
0.0
11
-26.319560
21
750.372084
31
0.0
0
LINE
8
0
6
CONTINUOUS
10
-27.672380
20
748.372075
30
0.0
11
-26.333910
21
748.355595
31
0.0
0
LINE
8
0
6
CONTINUOUS
10
-27.657916
20
750.404935
30
0.0
11
-27.672380
21
748.372075
31
0.0
0
LINE
8
0
6
CONTINUOUS
10
-53.839380
20
750.382115
30
0.0
11
-51.440200
21
750.367625
31
0.0
0
LINE
8
0
6
CONTINUOUS
10
-53.834016
20
751.192575
30
0.0
11
-53.839380
21
750.382115
31
0.0
0
LINE
8
0
6
CONTINUOUS
10
-62.330960
20
751.208995
30
0.0
11
-59.610300
21
751.192515
31
0.0
0
LINE
8
0
6
CONTINUOUS
10
-67.205620
20
752.512555
30
0.0
11
-67.193504
21
754.343590
31
0.0
0
LINE
8
0
6
CONTINUOUS
10
-68.312030
20
752.506605
30
0.0
11
-67.205620
21
752.512555
31
0.0
0
LINE
8
0
6
CONTINUOUS
10
-37.683530
20
749.007915
30
0.0
11
-37.674489
21
750.374112
31
0.0
0
LINE
8
0
6
CONTINUOUS
10
-39.019780
20
749.026375
30
0.0
11
-37.683530
21
749.007915
31
0.0
0
LINE
8
0
6
CONTINUOUS
10
-39.016477
20
749.525747
30
0.0
11
-39.019780
21
749.026375
31
0.0
0
LINE
8
0
6
CONTINUOUS
10
-42.549220
20
749.527475
30
0.0
11
-42.534070
21
751.816355
31
0.0
0
LINE
8
0
6
CONTINUOUS
10
-43.465100
20
749.522595
30
0.0
11
-42.549220
21
749.527475
31
0.0
0
LINE
8
0
6
CONTINUOUS
10
-62.330960
20
751.208995
30
0.0
11
-62.322362
21
752.508121
31
0.0
0
LINE
8
0
6
CONTINUOUS
10
-63.945180
20
751.231275
30
0.0
11
-62.330960
21
751.208995
31
0.0
0
LINE
8
0
6
CONTINUOUS
10
-63.936551
20
752.535325
30
0.0
11
-63.945180
21
751.231275
31
0.0
0
LINE
8
0
6
CONTINUOUS
10
-68.312030
20
752.506605
30
0.0
11
-68.298740
21
754.514327
31
0.0
0
LINE
8
0
6
CONTINUOUS
10
-71.032700
20
752.523075
30
0.0
11
-68.312030
21
752.506605
31
0.0
0
LINE
8
0
6
CONTINUOUS
10
-71.024281
20
753.794979
30
0.0
11
-71.032695
21
752.523774
31
0.0
0
LINE
8
0
6
CONTINUOUS
10
-79.611420
20
753.804815
30
0.0
11
-79.594856
21
756.307196
31
0.0
0
LINE
8
0
6
CONTINUOUS
10
-81.225650
20
753.827095
30
0.0
11
-79.611420
21
753.804815
31
0.0
0
LINE
8
0
6
CONTINUOUS
10
-81.207330
20
756.595310
30
0.0
11
-81.225650
21
753.827095
31
0.0
0
LINE
8
0
6
CONTINUOUS
10
-43.465100
20
749.522595
30
0.0
11
-43.448515
21
752.027775
31
0.0
0
LINE
8
0
6
CONTINUOUS
10
-45.717240
20
749.536175
30
0.0
11
-43.465100
21
749.522595
31
0.0
0
LINE
8
0
6
CONTINUOUS
10
-50.464520
20
750.372815
30
0.0
11
-50.453566
21
752.027775
31
0.0
0
LINE
8
0
6
CONTINUOUS
10
-51.440200
20
750.367625
30
0.0
11
-50.464520
21
750.372815
31
0.0
0
LINE
8
0
6
CONTINUOUS
10
-51.429210
20
752.027775
30
0.0
11
-51.440108
21
750.381537
31
0.0
0
LINE
8
0
6
CONTINUOUS
10
-47.053530
20
749.554635
30
0.0
11
-45.717240
21
749.536175
31
0.0
0
LINE
8
0
6
CONTINUOUS
10
-47.048104
20
750.374339
30
0.0
11
-47.053530
21
749.554635
31
0.0
0
LINE
8
0
6
CONTINUOUS
10
-58.503940
20
751.198315
30
0.0
11
-58.489985
21
753.306904
31
0.0
0
LINE
8
0
6
CONTINUOUS
10
-59.610300
20
751.192515
30
0.0
11
-58.503940
21
751.198315
31
0.0
0
LINE
8
0
6
CONTINUOUS
10
-59.592954
20
753.812633
30
0.0
11
-59.610299
21
751.192741
31
0.0
0
LINE
8
0
6
CONTINUOUS
10
-29.534030
20
748.355595
30
0.0
11
-29.526306
21
749.522916
31
0.0
0
LINE
8
0
6
CONTINUOUS
10
-30.714900
20
748.372075
30
0.0
11
-29.534030
21
748.355595
31
0.0
0
LINE
8
0
6
CONTINUOUS
10
-30.707224
20
749.532421
30
0.0
11
-30.714900
21
748.372075
31
0.0
0
LINE
8
0
6
CONTINUOUS
10
-21.031591
20
750.048122
30
0.0
11
-21.426046
21
750.048161
31
0.0
0
LINE
8
0
6
CONTINUOUS
10
-21.430555
20
749.434095
30
0.0
11
-20.276900
21
749.434095
31
0.0
0
LINE
8
0
6
CONTINUOUS
10
-20.276900
20
749.434095
30
0.0
11
-18.546305
21
749.434095
31
0.0
0
LINE
8
0
6
CONTINUOUS
10
-14.557590
20
750.048255
30
0.0
11
-14.672865
21
750.048255
31
0.0
0
LINE
8
0
6
CONTINUOUS
10
-14.677375
20
749.434095
30
0.0
11
-14.183220
21
749.434095
31
0.0
0
LINE
8
0
6
CONTINUOUS
10
-13.645858
20
750.048201
30
0.0
11
-14.557590
21
750.048255
31
0.0
0
LINE
8
0
6
CONTINUOUS
10
-14.183220
20
749.434095
30
0.0
11
-13.647790
21
749.434095
31
0.0
0
LINE
8
0
6
CONTINUOUS
10
-6.990660
20
750.048255
30
0.0
11
-9.151208
21
750.048255
31
0.0
0
LINE
8
0
6
CONTINUOUS
10
-9.153140
20
749.434095
30
0.0
11
-6.647610
21
749.434095
31
0.0
0
LINE
8
0
6
CONTINUOUS
10
-6.647610
20
749.434095
30
0.0
11
-6.221120
21
749.434095
31
0.0
0
LINE
8
0
6
CONTINUOUS
10
-1.329410
20
750.048105
30
0.0
11
-2.216603
21
750.048154
31
0.0
0
LINE
8
0
6
CONTINUOUS
10
-2.217999
20
749.434095
30
0.0
11
-1.412480
21
749.434095
31
0.0
0
LINE
8
0
6
CONTINUOUS
10
0.281040
20
750.048105
30
0.0
11
-1.329410
21
750.048105
31
0.0
0
LINE
8
0
6
CONTINUOUS
10
-1.412480
20
749.434095
30
0.0
11
0.279646
21
749.434095
31
0.0
0
LINE
8
0
6
CONTINUOUS
10
6.360615
20
750.048105
30
0.0
11
4.810903
21
750.048105
31
0.0
0
LINE
8
0
6
CONTINUOUS
10
4.809508
20
749.434095
30
0.0
11
6.070990
21
749.434095
31
0.0
0
LINE
8
0
6
CONTINUOUS
10
6.070990
20
749.434095
30
0.0
11
6.359818
21
749.434095
31
0.0
0
LINE
8
0
6
CONTINUOUS
10
10.343029
20
749.434095
30
0.0
11
10.413430
21
749.434095
31
0.0
0
LINE
8
0
6
CONTINUOUS
10
12.860630
20
750.048105
30
0.0
11
11.883693
21
750.048105
31
0.0
0
LINE
8
0
6
CONTINUOUS
10
10.413430
20
749.434095
30
0.0
11
12.287760
21
749.434095
31
0.0
0
LINE
8
0
6
CONTINUOUS
10
12.923578
20
750.048105
30
0.0
11
12.860630
21
750.048105
31
0.0
0
LINE
8
0
6
CONTINUOUS
10
12.287760
20
749.434095
30
0.0
11
12.922781
21
749.434095
31
0.0
0
LINE
8
0
6
CONTINUOUS
10
-58.493155
20
752.827966
30
0.0
11
-58.324081
21
752.696906
31
0.0
0
LINE
8
0
6
CONTINUOUS
10
-58.320408
20
753.212966
30
0.0
11
-58.490607
21
753.212944
31
0.0
0
LINE
8
0
6
CONTINUOUS
10
-52.974728
20
752.027775
30
0.0
11
-50.933030
21
752.027775
31
0.0
0
LINE
8
0
6
CONTINUOUS
10
-48.942703
20
753.212947
30
0.0
11
-51.964567
21
753.213072
31
0.0
0
LINE
8
0
6
CONTINUOUS
10
-50.933030
20
752.027775
30
0.0
11
-48.951403
21
752.027775
31
0.0
0
LINE
8
0
6
CONTINUOUS
10
-43.662671
20
752.027775
30
0.0
11
-42.618000
21
752.027775
31
0.0
0
LINE
8
0
6
CONTINUOUS
10
-38.184250
20
753.213085
30
0.0
11
-40.015807
21
753.213032
31
0.0
0
LINE
8
0
6
CONTINUOUS
10
-42.618000
20
752.027775
30
0.0
11
-37.233610
21
752.027775
31
0.0
0
LINE
8
0
6
CONTINUOUS
10
-37.074323
20
753.213085
30
0.0
11
-38.184250
21
753.213085
31
0.0
0
LINE
8
0
6
CONTINUOUS
10
-37.233610
20
752.027775
30
0.0
11
-37.079289
21
752.027775
31
0.0
0
LINE
8
0
6
CONTINUOUS
10
-31.794959
20
752.027775
30
0.0
11
-31.240390
21
752.027775
31
0.0
0
LINE
8
0
6
CONTINUOUS
10
-25.496270
20
753.212925
30
0.0
11
-25.920688
21
753.212935
31
0.0
0
LINE
8
0
6
CONTINUOUS
10
-31.205009
20
753.213065
30
0.0
11
-31.789993
21
753.213079
31
0.0
0
LINE
8
0
6
CONTINUOUS
10
-31.240390
20
752.027775
30
0.0
11
-24.897050
21
752.027775
31
0.0
0
LINE
8
0
6
CONTINUOUS
10
-23.125446
20
753.212981
30
0.0
11
-25.496270
21
753.212925
31
0.0
0
LINE
8
0
6
CONTINUOUS
10
-24.897050
20
752.027775
30
0.0
11
-23.164221
21
752.027775
31
0.0
0
LINE
8
0
6
CONTINUOUS
10
-15.877136
20
753.213020
30
0.0
11
-17.841113
21
753.213065
31
0.0
0
LINE
8
0
6
CONTINUOUS
10
-17.855546
20
752.027775
30
0.0
11
-11.519220
21
752.027775
31
0.0
0
LINE
8
0
6
CONTINUOUS
10
-7.674734
20
753.212925
30
0.0
11
-10.592816
21
753.212925
31
0.0
0
LINE
8
0
6
CONTINUOUS
10
-11.519220
20
752.027775
30
0.0
11
-7.679699
21
752.027775
31
0.0
0
LINE
8
0
6
CONTINUOUS
10
0.133896
20
753.212925
30
0.0
11
-2.390403
21
753.212925
31
0.0
0
LINE
8
0
6
CONTINUOUS
10
-2.395369
20
752.027775
30
0.0
11
2.181460
21
752.027775
31
0.0
0
LINE
8
0
6
CONTINUOUS
10
7.669143
20
753.212810
30
0.0
11
5.396342
21
753.212859
31
0.0
0
LINE
8
0
6
CONTINUOUS
10
2.181460
20
752.027775
30
0.0
11
7.665418
21
752.027775
31
0.0
0
LINE
8
0
6
CONTINUOUS
10
15.594235
20
753.212915
30
0.0
11
13.098752
21
753.212860
31
0.0
0
LINE
8
0
6
CONTINUOUS
10
13.095025
20
752.027775
30
0.0
11
15.486520
21
752.027775
31
0.0
0
LINE
8
0
6
CONTINUOUS
10
22.051624
20
753.212785
30
0.0
11
21.023833
21
753.212809
31
0.0
0
LINE
8
0
6
CONTINUOUS
10
15.486520
20
752.027775
30
0.0
11
21.766160
21
752.027775
31
0.0
0
LINE
8
0
6
CONTINUOUS
10
28.583250
20
753.212925
30
0.0
11
27.523781
21
753.212899
31
0.0
0
LINE
8
0
6
CONTINUOUS
10
21.766160
20
752.027775
30
0.0
11
22.048933
21
752.027775
31
0.0
0
LINE
8
0
6
CONTINUOUS
10
27.521089
20
752.027775
30
0.0
11
27.669260
21
752.027775
31
0.0
0
LINE
8
0
6
CONTINUOUS
10
29.915321
20
753.212889
30
0.0
11
28.583250
21
753.212925
31
0.0
0
LINE
8
0
6
CONTINUOUS
10
27.677450
20
752.027775
30
0.0
11
33.130610
21
752.027775
31
0.0
0
LINE
8
0
6
CONTINUOUS
10
33.130610
20
752.027775
30
0.0
11
34.459327
21
752.027775
31
0.0
0
LINE
8
0
6
CONTINUOUS
10
42.350030
20
753.212775
30
0.0
11
39.905804
21
753.212775
31
0.0
0
LINE
8
0
6
CONTINUOUS
10
39.904264
20
752.027775
30
0.0
11
42.175190
21
752.027775
31
0.0
0
LINE
8
0
6
CONTINUOUS
10
42.175190
20
752.027775
30
0.0
11
44.358349
21
752.027775
31
0.0
0
LINE
8
0
6
CONTINUOUS
10
50.465719
20
753.212906
30
0.0
11
49.719862
21
753.212829
31
0.0
0
LINE
8
0
6
CONTINUOUS
10
49.719354
20
752.070338
30
0.0
11
50.465713
21
752.647153
31
0.0
0
LINE
8
0
6
CONTINUOUS
10
-36.002042
20
750.401195
30
0.0
11
-33.799150
21
750.401195
31
0.0
0
LINE
8
0
6
CONTINUOUS
10
-33.799150
20
750.401195
30
0.0
11
-33.256515
21
750.401195
31
0.0
0
LINE
8
0
6
CONTINUOUS
10
-28.747063
20
751.508985
30
0.0
11
-28.870328
21
751.508985
31
0.0
0
LINE
8
0
6
CONTINUOUS
10
-28.878464
20
750.401195
30
0.0
11
-28.751703
21
750.401195
31
0.0
0
LINE
8
0
6
CONTINUOUS
10
-23.372880
20
751.508985
30
0.0
11
-24.372671
21
751.508985
31
0.0
0
LINE
8
0
6
CONTINUOUS
10
-24.377313
20
750.401195
30
0.0
11
-22.805950
21
750.401195
31
0.0
0
LINE
8
0
6
CONTINUOUS
10
-23.132582
20
751.508985
30
0.0
11
-23.372880
21
751.508985
31
0.0
0
LINE
8
0
6
CONTINUOUS
10
-22.805950
20
750.401195
30
0.0
11
-21.030481
21
750.401195
31
0.0
0
LINE
8
0
6
CONTINUOUS
10
-14.662140
20
751.508985
30
0.0
11
-16.532345
21
751.508985
31
0.0
0
LINE
8
0
6
CONTINUOUS
10
-16.535829
20
750.401195
30
0.0
11
-14.699803
21
750.401195
31
0.0
0
LINE
8
0
6
CONTINUOUS
10
-9.368230
20
751.508985
30
0.0
11
-10.035217
21
751.508985
31
0.0
0
LINE
8
0
6
CONTINUOUS
10
-10.039860
20
750.401195
30
0.0
11
-9.211460
21
750.401195
31
0.0
0
LINE
8
0
6
CONTINUOUS
10
-7.681872
20
751.508985
30
0.0
11
-9.368230
21
751.508985
31
0.0
0
LINE
8
0
6
CONTINUOUS
10
-9.211460
20
750.401195
30
0.0
11
-6.989551
21
750.401195
31
0.0
0
LINE
8
0
6
CONTINUOUS
10
0.181731
20
751.508985
30
0.0
11
-2.397543
21
751.508985
31
0.0
0
LINE
8
0
6
CONTINUOUS
10
-2.494899
20
750.401195
30
0.0
11
0.178248
21
750.401195
31
0.0
0
LINE
8
0
6
CONTINUOUS
10
5.148390
20
751.508985
30
0.0
11
4.969793
21
751.508985
31
0.0
0
LINE
8
0
6
CONTINUOUS
10
7.357140
20
751.508985
30
0.0
11
5.148390
21
751.508985
31
0.0
0
LINE
8
0
6
CONTINUOUS
10
4.966310
20
750.401195
30
0.0
11
7.354623
21
750.401195
31
0.0
0
LINE
8
0
6
CONTINUOUS
10
14.263800
20
751.508985
30
0.0
11
13.093393
21
751.508985
31
0.0
0
LINE
8
0
6
CONTINUOUS
10
11.884495
20
750.401195
30
0.0
11
13.733320
21
750.401195
31
0.0
0
LINE
8
0
6
CONTINUOUS
10
14.690927
20
751.508985
30
0.0
11
14.263800
21
751.508985
31
0.0
0
LINE
8
0
6
CONTINUOUS
10
13.733320
20
750.401195
30
0.0
11
14.688410
21
750.401195
31
0.0
0
LINE
8
0
6
CONTINUOUS
10
20.005838
20
751.508985
30
0.0
11
19.516510
21
751.508985
31
0.0
0
LINE
8
0
6
CONTINUOUS
10
19.513993
20
750.401195
30
0.0
11
20.004400
21
750.401195
31
0.0
0
LINE
8
0
6
CONTINUOUS
10
24.511734
20
750.401195
30
0.0
11
24.948590
21
750.401195
31
0.0
0
LINE
8
0
6
CONTINUOUS
10
24.948590
20
750.401195
30
0.0
11
27.142371
21
750.401195
31
0.0
0
LINE
8
0
6
CONTINUOUS
10
0.436240
20
331.866495
30
0.0
11
1.489810
21
332.772185
31
0.0
0
LINE
8
0
6
CONTINUOUS
10
0.436250
20
335.017585
30
0.0
11
0.436240
21
331.866495
31
0.0
0
LINE
8
0
6
CONTINUOUS
10
1.489830
20
335.923195
30
0.0
11
0.436250
21
335.017585
31
0.0
0
LINE
8
0
6
CONTINUOUS
10
-3.473990
20
335.484965
30
0.0
11
-1.429800
21
335.260205
31
0.0
0
LINE
8
0
6
CONTINUOUS
10
-1.429780
20
338.411295
30
0.0
11
-3.473970
21
338.636055
31
0.0
0
LINE
8
0
6
CONTINUOUS
10
20.138680
20
338.155555
30
0.0
11
20.354180
21
339.198195
31
0.0
0
LINE
8
0
6
CONTINUOUS
10
20.138700
20
341.306655
30
0.0
11
20.138680
21
338.155555
31
0.0
0
LINE
8
0
6
CONTINUOUS
10
20.354200
20
342.349285
30
0.0
11
20.138700
21
341.306655
31
0.0
0
LINE
8
0
6
CONTINUOUS
10
1.489810
20
332.772185
30
0.0
11
3.582690
21
332.767985
31
0.0
0
LINE
8
0
6
CONTINUOUS
10
1.489830
20
335.923195
30
0.0
11
1.489810
21
332.772185
31
0.0
0
LINE
8
0
6
CONTINUOUS
10
3.582710
20
335.919075
30
0.0
11
1.489830
21
335.923195
31
0.0
0
LINE
8
0
6
CONTINUOUS
10
52.619680
20
335.820045
30
0.0
11
51.221090
21
336.599845
31
0.0
0
LINE
8
0
6
CONTINUOUS
10
52.619677
20
334.941452
30
0.0
11
52.619680
21
335.820045
31
0.0
0
LINE
8
0
6
CONTINUOUS
10
-1.429800
20
335.260205
30
0.0
11
-0.796370
21
334.261135
31
0.0
0
LINE
8
0
6
CONTINUOUS
10
-1.429780
20
338.411295
30
0.0
11
-1.429800
21
335.260205
31
0.0
0
LINE
8
0
6
CONTINUOUS
10
-0.796360
20
337.412225
30
0.0
11
-1.429780
21
338.411295
31
0.0
0
LINE
8
0
6
CONTINUOUS
10
-0.796370
20
334.261135
30
0.0
11
-0.796360
21
337.412225
31
0.0
0
LINE
8
0
6
CONTINUOUS
10
33.413870
20
340.457195
30
0.0
11
35.329470
21
340.034985
31
0.0
0
LINE
8
0
6
CONTINUOUS
10
35.329480
20
343.186075
30
0.0
11
33.413890
21
343.608365
31
0.0
0
LINE
8
0
6
CONTINUOUS
10
31.726000
20
339.837455
30
0.0
11
33.413870
21
340.457195
31
0.0
0
LINE
8
0
6
CONTINUOUS
10
31.726020
20
342.988555
30
0.0
11
31.726000
21
339.837455
31
0.0
0
LINE
8
0
6
CONTINUOUS
10
33.413890
20
343.608365
30
0.0
11
31.726020
21
342.988555
31
0.0
0
LINE
8
0
6
CONTINUOUS
10
33.413870
20
340.457195
30
0.0
11
33.413890
21
343.608365
31
0.0
0
LINE
8
0
6
CONTINUOUS
10
-7.065610
20
330.245095
30
0.0
11
-6.911570
21
329.199715
31
0.0
0
LINE
8
0
6
CONTINUOUS
10
-6.911560
20
332.350805
30
0.0
11
-7.065600
21
333.396185
31
0.0
0
LINE
8
0
6
CONTINUOUS
10
-6.911570
20
329.199715
30
0.0
11
-6.911560
21
332.350805
31
0.0
0
LINE
8
0
6
CONTINUOUS
10
-8.950230
20
330.700955
30
0.0
11
-7.065610
21
330.245095
31
0.0
0
LINE
8
0
6
CONTINUOUS
10
-7.065600
20
333.396185
30
0.0
11
-8.950210
21
333.852045
31
0.0
0
LINE
8
0
6
CONTINUOUS
10
-7.065610
20
330.245095
30
0.0
11
-7.065600
21
333.396185
31
0.0
0
LINE
8
0
6
CONTINUOUS
10
-10.680780
20
330.111425
30
0.0
11
-8.950230
21
330.700955
31
0.0
0
LINE
8
0
6
CONTINUOUS
10
-10.680770
20
333.262525
30
0.0
11
-10.680780
21
330.111425
31
0.0
0
LINE
8
0
6
CONTINUOUS
10
-8.950210
20
333.852045
30
0.0
11
-10.680770
21
333.262525
31
0.0
0
LINE
8
0
6
CONTINUOUS
10
-8.950230
20
330.700955
30
0.0
11
-8.950210
21
333.852045
31
0.0
0
LINE
8
0
6
CONTINUOUS
10
3.602330
20
338.323865
30
0.0
11
4.251430
21
339.320415
31
0.0
0
LINE
8
0
6
CONTINUOUS
10
3.602350
20
341.474955
30
0.0
11
3.602330
21
338.323865
31
0.0
0
LINE
8
0
6
CONTINUOUS
10
4.251440
20
342.471505
30
0.0
11
3.602350
21
341.474955
31
0.0
0
LINE
8
0
6
CONTINUOUS
10
29.442280
20
344.402585
30
0.0
11
29.670030
21
343.360555
31
0.0
0
LINE
8
0
6
CONTINUOUS
10
29.670050
20
346.511655
30
0.0
11
29.442290
21
347.553675
31
0.0
0
LINE
8
0
6
CONTINUOUS
10
29.670030
20
343.360555
30
0.0
11
29.670050
21
346.511655
31
0.0
0
LINE
8
0
6
CONTINUOUS
10
3.582690
20
332.767985
30
0.0
11
4.300269
21
332.139818
31
0.0
0
LINE
8
0
6
CONTINUOUS
10
3.582710
20
335.919075
30
0.0
11
3.582690
21
332.767985
31
0.0
0
LINE
8
0
6
CONTINUOUS
10
4.622020
20
335.009195
30
0.0
11
3.582710
21
335.919075
31
0.0
0
LINE
8
0
6
CONTINUOUS
10
4.622004
20
332.498910
30
0.0
11
4.622020
21
335.009195
31
0.0
0
LINE
8
0
6
CONTINUOUS
10
-13.994290
20
318.336065
30
0.0
11
-13.705320
21
319.374275
31
0.0
0
LINE
8
0
6
CONTINUOUS
10
-13.994290
20
321.487165
30
0.0
11
-13.994290
21
318.336065
31
0.0
0
LINE
8
0
6
CONTINUOUS
10
-13.705310
20
322.525365
30
0.0
11
-13.994290
21
321.487165
31
0.0
0
LINE
8
0
6
CONTINUOUS
10
-13.705310
20
322.525365
30
0.0
11
-13.705320
21
319.374275
31
0.0
0
LINE
8
0
6
CONTINUOUS
10
-11.765660
20
322.919125
30
0.0
11
-13.705310
21
322.525365
31
0.0
0
LINE
8
0
6
CONTINUOUS
10
51.221090
20
336.599845
30
0.0
11
49.173430
21
336.383095
31
0.0
0
LINE
8
0
6
CONTINUOUS
10
51.221085
20
334.867996
30
0.0
11
51.221090
21
336.599845
31
0.0
0
LINE
8
0
6
CONTINUOUS
10
65.713830
20
335.666625
30
0.0
11
63.620950
21
335.670745
31
0.0
0
LINE
8
0
6
CONTINUOUS
10
39.207030
20
344.152495
30
0.0
11
41.122640
21
343.730355
31
0.0
0
LINE
8
0
6
CONTINUOUS
10
41.122660
20
346.881375
30
0.0
11
39.207050
21
347.303585
31
0.0
0
LINE
8
0
6
CONTINUOUS
10
51.358760
20
342.287795
30
0.0
11
53.053860
21
341.673015
31
0.0
0
LINE
8
0
6
CONTINUOUS
10
53.053880
20
344.824105
30
0.0
11
51.358770
21
345.438885
31
0.0
0
LINE
8
0
6
CONTINUOUS
10
53.053860
20
341.673015
30
0.0
11
53.053880
21
344.824105
31
0.0
0
LINE
8
0
6
CONTINUOUS
10
49.448130
20
341.859935
30
0.0
11
51.358760
21
342.287795
31
0.0
0
LINE
8
0
6
CONTINUOUS
10
51.358770
20
345.438885
30
0.0
11
49.448150
21
345.011025
31
0.0
0
LINE
8
0
6
CONTINUOUS
10
51.358760
20
342.287795
30
0.0
11
51.358770
21
345.438885
31
0.0
0
LINE
8
0
6
CONTINUOUS
10
71.440700
20
335.117685
30
0.0
11
72.074140
21
334.118615
31
0.0
0
LINE
8
0
6
CONTINUOUS
10
72.074160
20
337.269635
30
0.0
11
71.440720
21
338.268775
31
0.0
0
LINE
8
0
6
CONTINUOUS
10
72.074140
20
334.118615
30
0.0
11
72.074160
21
337.269635
31
0.0
0
LINE
8
0
6
CONTINUOUS
10
69.396520
20
335.342445
30
0.0
11
67.985730
21
334.568215
31
0.0
0
LINE
8
0
6
CONTINUOUS
10
71.440700
20
335.117685
30
0.0
11
69.396520
21
335.342445
31
0.0
0
LINE
8
0
6
CONTINUOUS
10
72.074140
20
334.118615
30
0.0
11
71.440700
21
335.117685
31
0.0
0
LINE
8
0
6
CONTINUOUS
10
70.663340
20
333.344385
30
0.0
11
72.074140
21
334.118615
31
0.0
0
LINE
8
0
6
CONTINUOUS
10
68.619150
20
333.569145
30
0.0
11
70.663340
21
333.344385
31
0.0
0
LINE
8
0
6
CONTINUOUS
10
67.985730
20
334.568215
30
0.0
11
68.619150
21
333.569145
31
0.0
0
LINE
8
0
6
CONTINUOUS
10
60.140700
20
338.925975
30
0.0
11
59.491610
21
337.929425
31
0.0
0
LINE
8
0
6
CONTINUOUS
10
62.188360
20
339.142725
30
0.0
11
60.140700
21
338.925975
31
0.0
0
LINE
8
0
6
CONTINUOUS
10
63.586940
20
338.362925
30
0.0
11
62.188360
21
339.142725
31
0.0
0
LINE
8
0
6
CONTINUOUS
10
62.937840
20
337.366375
30
0.0
11
63.586940
21
338.362925
31
0.0
0
LINE
8
0
6
CONTINUOUS
10
60.890170
20
337.149695
30
0.0
11
62.937840
21
337.366375
31
0.0
0
LINE
8
0
6
CONTINUOUS
10
59.491610
20
337.929425
30
0.0
11
60.890170
21
337.149695
31
0.0
0
LINE
8
0
6
CONTINUOUS
10
49.448130
20
341.859935
30
0.0
11
49.232630
21
340.817305
31
0.0
0
LINE
8
0
6
CONTINUOUS
10
51.358760
20
342.287795
30
0.0
11
49.448130
21
341.859935
31
0.0
0
LINE
8
0
6
CONTINUOUS
10
53.053860
20
341.673015
30
0.0
11
51.358760
21
342.287795
31
0.0
0
LINE
8
0
6
CONTINUOUS
10
52.838360
20
340.630385
30
0.0
11
53.053860
21
341.673015
31
0.0
0
LINE
8
0
6
CONTINUOUS
10
50.927740
20
340.202525
30
0.0
11
52.838360
21
340.630385
31
0.0
0
LINE
8
0
6
CONTINUOUS
10
49.232630
20
340.817305
30
0.0
11
50.927740
21
340.202525
31
0.0
0
LINE
8
0
6
CONTINUOUS
10
37.519160
20
343.532755
30
0.0
11
37.746910
21
342.490735
31
0.0
0
LINE
8
0
6
CONTINUOUS
10
39.207030
20
344.152495
30
0.0
11
37.519160
21
343.532755
31
0.0
0
LINE
8
0
6
CONTINUOUS
10
41.122640
20
343.730355
30
0.0
11
39.207030
21
344.152495
31
0.0
0
LINE
8
0
6
CONTINUOUS
10
41.350380
20
342.688335
30
0.0
11
41.122640
21
343.730355
31
0.0
0
LINE
8
0
6
CONTINUOUS
10
39.662520
20
342.068595
30
0.0
11
41.350380
21
342.688335
31
0.0
0
LINE
8
0
6
CONTINUOUS
10
37.746910
20
342.490735
30
0.0
11
39.662520
21
342.068595
31
0.0
0
LINE
8
0
6
CONTINUOUS
10
43.444840
20
338.886535
30
0.0
11
43.229340
21
337.843895
31
0.0
0
LINE
8
0
6
CONTINUOUS
10
45.355460
20
339.314385
30
0.0
11
43.444840
21
338.886535
31
0.0
0
LINE
8
0
6
CONTINUOUS
10
47.050570
20
338.699605
30
0.0
11
45.355460
21
339.314385
31
0.0
0
LINE
8
0
6
CONTINUOUS
10
46.835070
20
337.656905
30
0.0
11
47.050570
21
338.699605
31
0.0
0
LINE
8
0
6
CONTINUOUS
10
44.924440
20
337.229125
30
0.0
11
46.835070
21
337.656905
31
0.0
0
LINE
8
0
6
CONTINUOUS
10
43.229340
20
337.843895
30
0.0
11
44.924440
21
337.229125
31
0.0
0
LINE
8
0
6
CONTINUOUS
10
54.270940
20
336.500815
30
0.0
11
53.621840
21
335.504345
31
0.0
0
LINE
8
0
6
CONTINUOUS
10
56.318610
20
336.717565
30
0.0
11
54.270940
21
336.500815
31
0.0
0
LINE
8
0
6
CONTINUOUS
10
57.717180
20
335.937695
30
0.0
11
56.318610
21
336.717565
31
0.0
0
LINE
8
0
6
CONTINUOUS
10
57.068090
20
334.941215
30
0.0
11
57.717180
21
335.937695
31
0.0
0
LINE
8
0
6
CONTINUOUS
10
55.020410
20
334.724545
30
0.0
11
57.068090
21
334.941215
31
0.0
0
LINE
8
0
6
CONTINUOUS
10
53.621840
20
335.504345
30
0.0
11
55.020410
21
334.724545
31
0.0
0
LINE
8
0
6
CONTINUOUS
10
37.827700
20
335.543935
30
0.0
11
37.612200
21
334.501305
31
0.0
0
LINE
8
0
6
CONTINUOUS
10
39.738320
20
335.971795
30
0.0
11
37.827700
21
335.543935
31
0.0
0
LINE
8
0
6
CONTINUOUS
10
41.433430
20
335.357015
30
0.0
11
39.738320
21
335.971795
31
0.0
0
LINE
8
0
6
CONTINUOUS
10
41.217930
20
334.314385
30
0.0
11
41.428683
21
335.334050
31
0.0
0
LINE
8
0
6
CONTINUOUS
10
37.612200
20
334.501305
30
0.0
11
37.869202
21
334.408097
31
0.0
0
LINE
8
0
6
CONTINUOUS
10
-13.705320
20
319.374275
30
0.0
11
-13.994290
21
318.336065
31
0.0
0
LINE
8
0
6
CONTINUOUS
10
29.361590
20
334.620785
30
0.0
11
29.577080
21
335.663415
31
0.0
0
LINE
8
0
6
CONTINUOUS
10
27.450960
20
334.192925
30
0.0
11
29.361590
21
334.620785
31
0.0
0
LINE
8
0
6
CONTINUOUS
10
25.755850
20
334.807775
30
0.0
11
27.001874
21
334.355817
31
0.0
0
LINE
8
0
6
CONTINUOUS
10
25.971360
20
335.850335
30
0.0
11
25.755850
21
334.807775
31
0.0
0
LINE
8
0
6
CONTINUOUS
10
27.881980
20
336.278195
30
0.0
11
25.971360
21
335.850335
31
0.0
0
LINE
8
0
6
CONTINUOUS
10
29.577080
20
335.663415
30
0.0
11
27.881980
21
336.278195
31
0.0
0
LINE
8
0
6
CONTINUOUS
10
15.218760
20
333.504755
30
0.0
11
14.885700
21
332.993415
31
0.0
0
LINE
8
0
6
CONTINUOUS
10
17.266430
20
333.721425
30
0.0
11
15.218760
21
333.504755
31
0.0
0
LINE
8
0
6
CONTINUOUS
10
17.999987
20
333.312416
30
0.0
11
17.266430
21
333.721425
31
0.0
0
LINE
8
0
6
CONTINUOUS
10
0.436240
20
331.866495
30
0.0
11
1.344125
21
331.071681
31
0.0
0
LINE
8
0
6
CONTINUOUS
10
1.489810
20
332.772185
30
0.0
11
0.436240
21
331.866495
31
0.0
0
LINE
8
0
6
CONTINUOUS
10
3.582690
20
332.767985
30
0.0
11
1.489810
21
332.772185
31
0.0
0
LINE
8
0
6
CONTINUOUS
10
4.300269
20
332.139818
30
0.0
11
3.582690
21
332.767985
31
0.0
0
LINE
8
0
6
CONTINUOUS
10
12.918360
20
335.181845
30
0.0
11
13.567450
21
336.178325
31
0.0
0
LINE
8
0
6
CONTINUOUS
10
10.870700
20
334.965095
30
0.0
11
12.918360
21
335.181845
31
0.0
0
LINE
8
0
6
CONTINUOUS
10
9.472110
20
335.744975
30
0.0
11
10.870700
21
334.965095
31
0.0
0
LINE
8
0
6
CONTINUOUS
10
10.121210
20
336.741445
30
0.0
11
9.472110
21
335.744975
31
0.0
0
LINE
8
0
6
CONTINUOUS
10
12.168890
20
336.958205
30
0.0
11
10.121210
21
336.741445
31
0.0
0
LINE
8
0
6
CONTINUOUS
10
13.567450
20
336.178325
30
0.0
11
12.168890
21
336.958205
31
0.0
0
LINE
8
0
6
CONTINUOUS
10
23.744410
20
337.968635
30
0.0
11
23.959910
21
339.011275
31
0.0
0
LINE
8
0
6
CONTINUOUS
10
21.833790
20
337.540785
30
0.0
11
23.744410
21
337.968635
31
0.0
0
LINE
8
0
6
CONTINUOUS
10
20.138680
20
338.155555
30
0.0
11
21.833790
21
337.540785
31
0.0
0
LINE
8
0
6
CONTINUOUS
10
20.354180
20
339.198195
30
0.0
11
20.138680
21
338.155555
31
0.0
0
LINE
8
0
6
CONTINUOUS
10
22.264810
20
339.626045
30
0.0
11
20.354180
21
339.198195
31
0.0
0
LINE
8
0
6
CONTINUOUS
10
23.959910
20
339.011275
30
0.0
11
22.264810
21
339.626045
31
0.0
0
LINE
8
0
6
CONTINUOUS
10
35.557220
20
338.993035
30
0.0
11
35.329470
21
340.034985
31
0.0
0
LINE
8
0
6
CONTINUOUS
10
33.869350
20
338.373305
30
0.0
11
35.557220
21
338.993035
31
0.0
0
LINE
8
0
6
CONTINUOUS
10
31.953740
20
338.795515
30
0.0
11
33.869350
21
338.373305
31
0.0
0
LINE
8
0
6
CONTINUOUS
10
31.726000
20
339.837455
30
0.0
11
31.953740
21
338.795515
31
0.0
0
LINE
8
0
6
CONTINUOUS
10
33.413870
20
340.457195
30
0.0
11
31.726000
21
339.837455
31
0.0
0
LINE
8
0
6
CONTINUOUS
10
35.329470
20
340.034985
30
0.0
11
33.413870
21
340.457195
31
0.0
0
LINE
8
0
6
CONTINUOUS
10
29.670030
20
343.360555
30
0.0
11
29.442280
21
344.402585
31
0.0
0
LINE
8
0
6
CONTINUOUS
10
27.982170
20
342.740825
30
0.0
11
29.670030
21
343.360555
31
0.0
0
LINE
8
0
6
CONTINUOUS
10
26.066550
20
343.163035
30
0.0
11
27.982170
21
342.740825
31
0.0
0
LINE
8
0
6
CONTINUOUS
10
25.838810
20
344.205055
30
0.0
11
26.066550
21
343.163035
31
0.0
0
LINE
8
0
6
CONTINUOUS
10
27.526680
20
344.824715
30
0.0
11
25.838810
21
344.205055
31
0.0
0
LINE
8
0
6
CONTINUOUS
10
29.442280
20
344.402585
30
0.0
11
27.526680
21
344.824715
31
0.0
0
LINE
8
0
6
CONTINUOUS
10
17.741080
20
341.196105
30
0.0
11
17.956590
21
342.238735
31
0.0
0
LINE
8
0
6
CONTINUOUS
10
15.830470
20
340.768245
30
0.0
11
17.741080
21
341.196105
31
0.0
0
LINE
8
0
6
CONTINUOUS
10
14.135360
20
341.383095
30
0.0
11
15.830470
21
340.768245
31
0.0
0
LINE
8
0
6
CONTINUOUS
10
14.350860
20
342.425725
30
0.0
11
14.135360
21
341.383095
31
0.0
0
LINE
8
0
6
CONTINUOUS
10
16.261490
20
342.853585
30
0.0
11
14.350860
21
342.425725
31
0.0
0
LINE
8
0
6
CONTINUOUS
10
17.956590
20
342.238735
30
0.0
11
16.261490
21
342.853585
31
0.0
0
LINE
8
0
6
CONTINUOUS
10
-2.207160
20
333.486905
30
0.0
11
-0.796370
21
334.261135
31
0.0
0
LINE
8
0
6
CONTINUOUS
10
-4.251350
20
333.711665
30
0.0
11
-2.207160
21
333.486905
31
0.0
0
LINE
8
0
6
CONTINUOUS
10
-4.884780
20
334.710735
30
0.0
11
-4.251350
21
333.711665
31
0.0
0
LINE
8
0
6
CONTINUOUS
10
-3.473990
20
335.484965
30
0.0
11
-4.884780
21
334.710735
31
0.0
0
LINE
8
0
6
CONTINUOUS
10
-1.429800
20
335.260205
30
0.0
11
-3.473990
21
335.484965
31
0.0
0
LINE
8
0
6
CONTINUOUS
10
-0.796370
20
334.261135
30
0.0
11
-1.429800
21
335.260205
31
0.0
0
LINE
8
0
6
CONTINUOUS
10
-8.642130
20
328.610195
30
0.0
11
-6.911570
21
329.199715
31
0.0
0
LINE
8
0
6
CONTINUOUS
10
-10.526730
20
329.066125
30
0.0
11
-8.642130
21
328.610195
31
0.0
0
LINE
8
0
6
CONTINUOUS
10
-10.680780
20
330.111425
30
0.0
11
-10.526730
21
329.066125
31
0.0
0
LINE
8
0
6
CONTINUOUS
10
-8.950230
20
330.700955
30
0.0
11
-10.680780
21
330.111425
31
0.0
0
LINE
8
0
6
CONTINUOUS
10
-7.065610
20
330.245095
30
0.0
11
-8.950230
21
330.700955
31
0.0
0
LINE
8
0
6
CONTINUOUS
10
-6.911570
20
329.199715
30
0.0
11
-7.065610
21
330.245095
31
0.0
0
LINE
8
0
6
CONTINUOUS
10
-12.343690
20
323.022955
30
0.0
11
-10.404070
21
323.416715
31
0.0
0
LINE
8
0
6
CONTINUOUS
10
-13.994330
20
323.667335
30
0.0
11
-12.343690
21
323.022955
31
0.0
0
LINE
8
0
6
CONTINUOUS
10
-13.705370
20
324.705465
30
0.0
11
-13.994330
21
323.667335
31
0.0
0
LINE
8
0
6
CONTINUOUS
10
-11.765730
20
325.099225
30
0.0
11
-13.705370
21
324.705465
31
0.0
0
LINE
8
0
6
CONTINUOUS
10
-10.115100
20
324.454845
30
0.0
11
-11.765730
21
325.099225
31
0.0
0
LINE
8
0
6
CONTINUOUS
10
-10.404070
20
323.416715
30
0.0
11
-10.115100
21
324.454845
31
0.0
0
LINE
8
0
6
CONTINUOUS
10
7.048580
20
337.760815
30
0.0
11
7.697670
21
338.757285
31
0.0
0
LINE
8
0
6
CONTINUOUS
10
5.000910
20
337.544065
30
0.0
11
7.048580
21
337.760815
31
0.0
0
LINE
8
0
6
CONTINUOUS
10
3.602330
20
338.323865
30
0.0
11
5.000910
21
337.544065
31
0.0
0
LINE
8
0
6
CONTINUOUS
10
4.251430
20
339.320415
30
0.0
11
3.602330
21
338.323865
31
0.0
0
LINE
8
0
6
CONTINUOUS
10
6.299100
20
339.537085
30
0.0
11
4.251430
21
339.320415
31
0.0
0
LINE
8
0
6
CONTINUOUS
10
7.697670
20
338.757285
30
0.0
11
6.299100
21
339.537085
31
0.0
0
LINE
8
0
6
CONTINUOUS
10
-11.765730
20
325.099225
30
0.0
11
-10.115100
21
324.454845
31
0.0
0
LINE
8
0
6
CONTINUOUS
10
-10.115080
20
327.605935
30
0.0
11
-11.765710
21
328.250315
31
0.0
0
LINE
8
0
6
CONTINUOUS
10
-10.115100
20
324.454845
30
0.0
11
-10.115080
21
327.605935
31
0.0
0
LINE
8
0
6
CONTINUOUS
10
-5.401390
20
330.013395
30
0.0
11
-5.401403
21
327.888158
31
0.0
0
LINE
8
0
6
CONTINUOUS
10
-3.990590
20
330.787625
30
0.0
11
-5.401390
21
330.013395
31
0.0
0
LINE
8
0
6
CONTINUOUS
10
25.755850
20
334.807775
30
0.0
11
25.971360
21
335.850335
31
0.0
0
LINE
8
0
6
CONTINUOUS
10
25.755870
20
337.958875
30
0.0
11
25.755850
21
334.807775
31
0.0
0
LINE
8
0
6
CONTINUOUS
10
25.971370
20
339.001505
30
0.0
11
25.755870
21
337.958875
31
0.0
0
LINE
8
0
6
CONTINUOUS
10
43.229340
20
337.843895
30
0.0
11
43.444840
21
338.886535
31
0.0
0
LINE
8
0
6
CONTINUOUS
10
43.229350
20
340.994985
30
0.0
11
43.229340
21
337.843895
31
0.0
0
LINE
8
0
6
CONTINUOUS
10
43.444860
20
342.037625
30
0.0
11
43.229350
21
340.994985
31
0.0
0
LINE
8
0
6
CONTINUOUS
10
43.444840
20
338.886535
30
0.0
11
45.355460
21
339.314385
31
0.0
0
LINE
8
0
6
CONTINUOUS
10
43.444860
20
342.037625
30
0.0
11
43.444840
21
338.886535
31
0.0
0
LINE
8
0
6
CONTINUOUS
10
45.355480
20
342.465475
30
0.0
11
43.444860
21
342.037625
31
0.0
0
LINE
8
0
6
CONTINUOUS
10
-4.884780
20
334.710735
30
0.0
11
-3.473990
21
335.484965
31
0.0
0
LINE
8
0
6
CONTINUOUS
10
-4.884770
20
337.861825
30
0.0
11
-4.884780
21
334.710735
31
0.0
0
LINE
8
0
6
CONTINUOUS
10
-3.473970
20
338.636055
30
0.0
11
-4.884770
21
337.861825
31
0.0
0
LINE
8
0
6
CONTINUOUS
10
-3.473990
20
335.484965
30
0.0
11
-3.473970
21
338.636055
31
0.0
0
LINE
8
0
6
CONTINUOUS
10
6.299100
20
339.537085
30
0.0
11
7.697670
21
338.757285
31
0.0
0
LINE
8
0
6
CONTINUOUS
10
7.697690
20
341.908385
30
0.0
11
6.299120
21
342.688185
31
0.0
0
LINE
8
0
6
CONTINUOUS
10
7.697670
20
338.757285
30
0.0
11
7.697690
21
341.908385
31
0.0
0
LINE
8
0
6
CONTINUOUS
10
14.350860
20
342.425725
30
0.0
11
16.261490
21
342.853585
31
0.0
0
LINE
8
0
6
CONTINUOUS
10
16.261500
20
346.004675
30
0.0
11
14.350870
21
345.576825
31
0.0
0
LINE
8
0
6
CONTINUOUS
10
14.135360
20
341.383095
30
0.0
11
14.350860
21
342.425725
31
0.0
0
LINE
8
0
6
CONTINUOUS
10
14.135370
20
344.534185
30
0.0
11
14.135360
21
341.383095
31
0.0
0
LINE
8
0
6
CONTINUOUS
10
14.350870
20
345.576825
30
0.0
11
14.135370
21
344.534185
31
0.0
0
LINE
8
0
6
CONTINUOUS
10
14.350860
20
342.425725
30
0.0
11
14.350870
21
345.576825
31
0.0
0
LINE
8
0
6
CONTINUOUS
10
22.264810
20
339.626045
30
0.0
11
23.959910
21
339.011275
31
0.0
0
LINE
8
0
6
CONTINUOUS
10
23.959920
20
342.162365
30
0.0
11
22.264830
21
342.777135
31
0.0
0
LINE
8
0
6
CONTINUOUS
10
23.959910
20
339.011275
30
0.0
11
23.959920
21
342.162365
31
0.0
0
LINE
8
0
6
CONTINUOUS
10
20.354180
20
339.198195
30
0.0
11
22.264810
21
339.626045
31
0.0
0
LINE
8
0
6
CONTINUOUS
10
20.354200
20
342.349285
30
0.0
11
20.354180
21
339.198195
31
0.0
0
LINE
8
0
6
CONTINUOUS
10
22.264830
20
342.777135
30
0.0
11
20.354200
21
342.349285
31
0.0
0
LINE
8
0
6
CONTINUOUS
10
22.264810
20
339.626045
30
0.0
11
22.264830
21
342.777135
31
0.0
0
LINE
8
0
6
CONTINUOUS
10
10.121210
20
336.741445
30
0.0
11
12.168890
21
336.958205
31
0.0
0
LINE
8
0
6
CONTINUOUS
10
12.168900
20
340.109295
30
0.0
11
10.121220
21
339.892545
31
0.0
0
LINE
8
0
6
CONTINUOUS
10
9.472110
20
335.744975
30
0.0
11
10.121210
21
336.741445
31
0.0
0
LINE
8
0
6
CONTINUOUS
10
9.472120
20
338.896065
30
0.0
11
9.472110
21
335.744975
31
0.0
0
LINE
8
0
6
CONTINUOUS
10
10.121220
20
339.892545
30
0.0
11
9.472120
21
338.896065
31
0.0
0
LINE
8
0
6
CONTINUOUS
10
10.121210
20
336.741445
30
0.0
11
10.121220
21
339.892545
31
0.0
0
LINE
8
0
6
CONTINUOUS
10
-3.990590
20
330.787625
30
0.0
11
-3.990603
21
328.802395
31
0.0
0
LINE
8
0
6
CONTINUOUS
10
-1.946400
20
330.562865
30
0.0
11
-3.990590
21
330.787625
31
0.0
0
LINE
8
0
6
CONTINUOUS
10
54.270940
20
336.500815
30
0.0
11
56.318610
21
336.717565
31
0.0
0
LINE
8
0
6
CONTINUOUS
10
56.318620
20
339.868665
30
0.0
11
54.270960
21
339.651915
31
0.0
0
LINE
8
0
6
CONTINUOUS
10
45.355460
20
339.314385
30
0.0
11
47.050570
21
338.699605
31
0.0
0
LINE
8
0
6
CONTINUOUS
10
45.355480
20
342.465475
30
0.0
11
45.355460
21
339.314385
31
0.0
0
LINE
8
0
6
CONTINUOUS
10
47.050580
20
341.850705
30
0.0
11
45.355480
21
342.465475
31
0.0
0
LINE
8
0
6
CONTINUOUS
10
47.050570
20
338.699605
30
0.0
11
47.050580
21
341.850705
31
0.0
0
LINE
8
0
6
CONTINUOUS
10
-13.705370
20
324.705465
30
0.0
11
-11.765730
21
325.099225
31
0.0
0
LINE
8
0
6
CONTINUOUS
10
-11.765710
20
328.250315
30
0.0
11
-13.705350
21
327.856635
31
0.0
0
LINE
8
0
6
CONTINUOUS
10
-11.765730
20
325.099225
30
0.0
11
-11.765710
21
328.250315
31
0.0
0
LINE
8
0
6
CONTINUOUS
10
-13.994330
20
323.667335
30
0.0
11
-13.705370
21
324.705465
31
0.0
0
LINE
8
0
6
CONTINUOUS
10
-13.994320
20
326.818435
30
0.0
11
-13.994330
21
323.667335
31
0.0
0
LINE
8
0
6
CONTINUOUS
10
-13.705350
20
327.856635
30
0.0
11
-13.994320
21
326.818435
31
0.0
0
LINE
8
0
6
CONTINUOUS
10
-13.705370
20
324.705465
30
0.0
11
-13.705350
21
327.856635
31
0.0
0
LINE
8
0
6
CONTINUOUS
10
16.261490
20
342.853585
30
0.0
11
17.956590
21
342.238735
31
0.0
0
LINE
8
0
6
CONTINUOUS
10
16.261500
20
346.004675
30
0.0
11
16.261490
21
342.853585
31
0.0
0
LINE
8
0
6
CONTINUOUS
10
17.956600
20
345.389825
30
0.0
11
16.261500
21
346.004675
31
0.0
0
LINE
8
0
6
CONTINUOUS
10
17.956590
20
342.238735
30
0.0
11
17.956600
21
345.389825
31
0.0
0
LINE
8
0
6
CONTINUOUS
10
27.526680
20
344.824715
30
0.0
11
29.442280
21
344.402585
31
0.0
0
LINE
8
0
6
CONTINUOUS
10
29.442290
20
347.553675
30
0.0
11
27.526700
21
347.975805
31
0.0
0
LINE
8
0
6
CONTINUOUS
10
29.442280
20
344.402585
30
0.0
11
29.442290
21
347.553675
31
0.0
0
LINE
8
0
6
CONTINUOUS
10
25.838810
20
344.205055
30
0.0
11
27.526680
21
344.824715
31
0.0
0
LINE
8
0
6
CONTINUOUS
10
25.838830
20
347.356075
30
0.0
11
25.838810
21
344.205055
31
0.0
0
LINE
8
0
6
CONTINUOUS
10
27.526700
20
347.975805
30
0.0
11
25.838830
21
347.356075
31
0.0
0
LINE
8
0
6
CONTINUOUS
10
27.526680
20
344.824715
30
0.0
11
27.526700
21
347.975805
31
0.0
0
LINE
8
0
6
CONTINUOUS
10
35.329470
20
340.034985
30
0.0
11
35.557220
21
338.993035
31
0.0
0
LINE
8
0
6
CONTINUOUS
10
35.329480
20
343.186075
30
0.0
11
35.329470
21
340.034985
31
0.0
0
LINE
8
0
6
CONTINUOUS
10
35.557240
20
342.144125
30
0.0
11
35.329480
21
343.186075
31
0.0
0
LINE
8
0
6
CONTINUOUS
10
35.557220
20
338.993035
30
0.0
11
35.557240
21
342.144125
31
0.0
0
LINE
8
0
6
CONTINUOUS
10
39.738320
20
335.971795
30
0.0
11
41.433430
21
335.357015
31
0.0
0
LINE
8
0
6
CONTINUOUS
10
41.433440
20
338.508035
30
0.0
11
39.738340
21
339.122885
31
0.0
0
LINE
8
0
6
CONTINUOUS
10
41.433430
20
335.357015
30
0.0
11
41.433440
21
338.508035
31
0.0
0
LINE
8
0
6
CONTINUOUS
10
37.612200
20
334.501305
30
0.0
11
37.827700
21
335.543935
31
0.0
0
LINE
8
0
6
CONTINUOUS
10
37.612220
20
337.652395
30
0.0
11
37.612200
21
334.501305
31
0.0
0
LINE
8
0
6
CONTINUOUS
10
37.827710
20
338.695035
30
0.0
11
37.612220
21
337.652395
31
0.0
0
LINE
8
0
6
CONTINUOUS
10
37.827700
20
335.543935
30
0.0
11
39.738320
21
335.971795
31
0.0
0
LINE
8
0
6
CONTINUOUS
10
37.827710
20
338.695035
30
0.0
11
37.827700
21
335.543935
31
0.0
0
LINE
8
0
6
CONTINUOUS
10
39.738340
20
339.122885
30
0.0
11
37.827710
21
338.695035
31
0.0
0
LINE
8
0
6
CONTINUOUS
10
39.738320
20
335.971795
30
0.0
11
39.738340
21
339.122885
31
0.0
0
LINE
8
0
6
CONTINUOUS
10
56.318610
20
336.717565
30
0.0
11
57.717180
21
335.937695
31
0.0
0
LINE
8
0
6
CONTINUOUS
10
56.318620
20
339.868665
30
0.0
11
56.318610
21
336.717565
31
0.0
0
LINE
8
0
6
CONTINUOUS
10
57.717200
20
339.088785
30
0.0
11
56.318620
21
339.868665
31
0.0
0
LINE
8
0
6
CONTINUOUS
10
57.717180
20
335.937695
30
0.0
11
57.717200
21
339.088785
31
0.0
0
LINE
8
0
6
CONTINUOUS
10
37.519160
20
343.532755
30
0.0
11
39.207030
21
344.152495
31
0.0
0
LINE
8
0
6
CONTINUOUS
10
37.519180
20
346.683845
30
0.0
11
37.519160
21
343.532755
31
0.0
0
LINE
8
0
6
CONTINUOUS
10
39.207050
20
347.303585
30
0.0
11
37.519180
21
346.683845
31
0.0
0
LINE
8
0
6
CONTINUOUS
10
39.207030
20
344.152495
30
0.0
11
39.207050
21
347.303585
31
0.0
0
LINE
8
0
6
CONTINUOUS
10
77.870240
20
332.189375
30
0.0
11
77.716200
21
333.234755
31
0.0
0
LINE
8
0
6
CONTINUOUS
10
77.870226
20
330.033217
30
0.0
11
77.870240
21
332.189375
31
0.0
0
LINE
8
0
6
CONTINUOUS
10
77.716200
20
333.234755
30
0.0
11
75.831590
21
333.690605
31
0.0
0
LINE
8
0
6
CONTINUOUS
10
77.716180
20
330.083655
30
0.0
11
77.716200
21
333.234755
31
0.0
0
LINE
8
0
6
CONTINUOUS
10
4.251430
20
339.320415
30
0.0
11
6.299100
21
339.537085
31
0.0
0
LINE
8
0
6
CONTINUOUS
10
4.251440
20
342.471505
30
0.0
11
4.251430
21
339.320415
31
0.0
0
LINE
8
0
6
CONTINUOUS
10
6.299120
20
342.688185
30
0.0
11
4.251440
21
342.471505
31
0.0
0
LINE
8
0
6
CONTINUOUS
10
6.299100
20
339.537085
30
0.0
11
6.299120
21
342.688185
31
0.0
0
LINE
8
0
6
CONTINUOUS
10
12.168890
20
336.958205
30
0.0
11
13.567450
21
336.178325
31
0.0
0
LINE
8
0
6
CONTINUOUS
10
12.168900
20
340.109295
30
0.0
11
12.168890
21
336.958205
31
0.0
0
LINE
8
0
6
CONTINUOUS
10
13.567470
20
339.329495
30
0.0
11
12.168900
21
340.109295
31
0.0
0
LINE
8
0
6
CONTINUOUS
10
13.567450
20
336.178325
30
0.0
11
13.567470
21
339.329495
31
0.0
0
LINE
8
0
6
CONTINUOUS
10
-1.946400
20
330.562865
30
0.0
11
-1.946404
21
329.951381
31
0.0
0
LINE
8
0
6
CONTINUOUS
10
6.587380
20
333.145485
30
0.0
11
6.587378
21
332.848171
31
0.0
0
LINE
8
0
6
CONTINUOUS
10
8.680250
20
333.141365
30
0.0
11
6.587380
21
333.145485
31
0.0
0
LINE
8
0
6
CONTINUOUS
10
17.266430
20
333.721425
30
0.0
11
17.999987
21
333.312416
31
0.0
0
LINE
8
0
6
CONTINUOUS
10
18.665020
20
336.092725
30
0.0
11
17.266440
21
336.872445
31
0.0
0
LINE
8
0
6
CONTINUOUS
10
18.665010
20
334.505519
30
0.0
11
18.665020
21
336.092725
31
0.0
0
LINE
8
0
6
CONTINUOUS
10
15.218760
20
333.504755
30
0.0
11
17.266430
21
333.721425
31
0.0
0
LINE
8
0
6
CONTINUOUS
10
17.266440
20
336.872445
30
0.0
11
15.218770
21
336.655775
31
0.0
0
LINE
8
0
6
CONTINUOUS
10
17.266430
20
333.721425
30
0.0
11
17.266440
21
336.872445
31
0.0
0
LINE
8
0
6
CONTINUOUS
10
14.885700
20
332.993415
30
0.0
11
15.218760
21
333.504755
31
0.0
0
LINE
8
0
6
CONTINUOUS
10
14.569670
20
335.659295
30
0.0
11
14.569665
21
334.136714
31
0.0
0
LINE
8
0
6
CONTINUOUS
10
15.218770
20
336.655775
30
0.0
11
14.569670
21
335.659295
31
0.0
0
LINE
8
0
6
CONTINUOUS
10
15.218760
20
333.504755
30
0.0
11
15.218770
21
336.655775
31
0.0
0
LINE
8
0
6
CONTINUOUS
10
27.881980
20
336.278195
30
0.0
11
29.577080
21
335.663415
31
0.0
0
LINE
8
0
6
CONTINUOUS
10
29.577100
20
338.814505
30
0.0
11
27.882000
21
339.429365
31
0.0
0
LINE
8
0
6
CONTINUOUS
10
29.577080
20
335.663415
30
0.0
11
29.577100
21
338.814505
31
0.0
0
LINE
8
0
6
CONTINUOUS
10
25.971360
20
335.850335
30
0.0
11
27.881980
21
336.278195
31
0.0
0
LINE
8
0
6
CONTINUOUS
10
25.971370
20
339.001505
30
0.0
11
25.971360
21
335.850335
31
0.0
0
LINE
8
0
6
CONTINUOUS
10
27.882000
20
339.429365
30
0.0
11
25.971370
21
339.001505
31
0.0
0
LINE
8
0
6
CONTINUOUS
10
27.881980
20
336.278195
30
0.0
11
27.882000
21
339.429365
31
0.0
0
LINE
8
0
6
CONTINUOUS
10
48.524340
20
335.386625
30
0.0
11
48.524339
21
335.167398
31
0.0
0
LINE
8
0
6
CONTINUOUS
10
49.173430
20
336.383095
30
0.0
11
48.524340
21
335.386625
31
0.0
0
LINE
8
0
6
CONTINUOUS
10
49.173426
20
335.152153
30
0.0
11
49.173430
21
336.383095
31
0.0
0
LINE
8
0
6
CONTINUOUS
10
65.713830
20
335.666625
30
0.0
11
65.713823
21
333.527826
31
0.0
0
LINE
8
0
6
CONTINUOUS
10
66.753150
20
334.756735
30
0.0
11
65.713830
21
335.666625
31
0.0
0
LINE
8
0
6
CONTINUOUS
10
66.753146
20
333.343123
30
0.0
11
66.753150
21
334.756735
31
0.0
0
LINE
8
0
6
CONTINUOUS
10
62.567390
20
334.765055
30
0.0
11
62.567388
21
334.045615
31
0.0
0
LINE
8
0
6
CONTINUOUS
10
63.620950
20
335.670745
30
0.0
11
62.567390
21
334.765055
31
0.0
0
LINE
8
0
6
CONTINUOUS
10
63.620939
20
333.899762
30
0.0
11
63.620950
21
335.670745
31
0.0
0
LINE
8
0
6
CONTINUOUS
10
53.621840
20
335.504345
30
0.0
11
54.270940
21
336.500815
31
0.0
0
LINE
8
0
6
CONTINUOUS
10
53.621850
20
338.655435
30
0.0
11
53.621840
21
335.504345
31
0.0
0
LINE
8
0
6
CONTINUOUS
10
54.270960
20
339.651915
30
0.0
11
53.621850
21
338.655435
31
0.0
0
LINE
8
0
6
CONTINUOUS
10
54.270940
20
336.500815
30
0.0
11
54.270960
21
339.651915
31
0.0
0
LINE
8
0
6
CONTINUOUS
10
41.122640
20
343.730355
30
0.0
11
41.350380
21
342.688335
31
0.0
0
LINE
8
0
6
CONTINUOUS
10
41.122660
20
346.881375
30
0.0
11
41.122640
21
343.730355
31
0.0
0
LINE
8
0
6
CONTINUOUS
10
41.350400
20
345.839425
30
0.0
11
41.122660
21
346.881375
31
0.0
0
LINE
8
0
6
CONTINUOUS
10
41.350380
20
342.688335
30
0.0
11
41.350400
21
345.839425
31
0.0
0
LINE
8
0
6
CONTINUOUS
10
49.232630
20
340.817305
30
0.0
11
49.448130
21
341.859935
31
0.0
0
LINE
8
0
6
CONTINUOUS
10
49.232650
20
343.968395
30
0.0
11
49.232630
21
340.817305
31
0.0
0
LINE
8
0
6
CONTINUOUS
10
49.448150
20
345.011025
30
0.0
11
49.232650
21
343.968395
31
0.0
0
LINE
8
0
6
CONTINUOUS
10
49.448130
20
341.859935
30
0.0
11
49.448150
21
345.011025
31
0.0
0
LINE
8
0
6
CONTINUOUS
10
62.188360
20
339.142725
30
0.0
11
63.586940
21
338.362925
31
0.0
0
LINE
8
0
6
CONTINUOUS
10
63.586960
20
341.514015
30
0.0
11
62.188380
21
342.293745
31
0.0
0
LINE
8
0
6
CONTINUOUS
10
63.586940
20
338.362925
30
0.0
11
63.586960
21
341.514015
31
0.0
0
LINE
8
0
6
CONTINUOUS
10
59.491610
20
337.929425
30
0.0
11
60.140700
21
338.925975
31
0.0
0
LINE
8
0
6
CONTINUOUS
10
59.491620
20
341.080515
30
0.0
11
59.491610
21
337.929425
31
0.0
0
LINE
8
0
6
CONTINUOUS
10
60.140710
20
342.077065
30
0.0
11
59.491620
21
341.080515
31
0.0
0
LINE
8
0
6
CONTINUOUS
10
60.140700
20
338.925975
30
0.0
11
62.188360
21
339.142725
31
0.0
0
LINE
8
0
6
CONTINUOUS
10
60.140710
20
342.077065
30
0.0
11
60.140700
21
338.925975
31
0.0
0
LINE
8
0
6
CONTINUOUS
10
62.188380
20
342.293745
30
0.0
11
60.140710
21
342.077065
31
0.0
0
LINE
8
0
6
CONTINUOUS
10
62.188360
20
339.142725
30
0.0
11
62.188380
21
342.293745
31
0.0
0
LINE
8
0
6
CONTINUOUS
10
67.985730
20
334.568215
30
0.0
11
69.396520
21
335.342445
31
0.0
0
LINE
8
0
6
CONTINUOUS
10
67.985750
20
337.719305
30
0.0
11
67.985730
21
334.568215
31
0.0
0
LINE
8
0
6
CONTINUOUS
10
69.396530
20
338.493535
30
0.0
11
67.985750
21
337.719305
31
0.0
0
LINE
8
0
6
CONTINUOUS
10
69.396520
20
335.342445
30
0.0
11
71.440700
21
335.117685
31
0.0
0
LINE
8
0
6
CONTINUOUS
10
69.396530
20
338.493535
30
0.0
11
69.396520
21
335.342445
31
0.0
0
LINE
8
0
6
CONTINUOUS
10
71.440720
20
338.268775
30
0.0
11
69.396530
21
338.493535
31
0.0
0
LINE
8
0
6
CONTINUOUS
10
71.440700
20
335.117685
30
0.0
11
71.440720
21
338.268775
31
0.0
0
LINE
8
0
6
CONTINUOUS
10
74.101040
20
333.101085
30
0.0
11
74.101030
21
331.559800
31
0.0
0
LINE
8
0
6
CONTINUOUS
10
75.831590
20
333.690605
30
0.0
11
74.101040
21
333.101085
31
0.0
0
LINE
8
0
6
CONTINUOUS
10
75.831581
20
330.858900
30
0.0
11
75.831590
21
333.690605
31
0.0
0
LINE
8
0
6
CONTINUOUS
10
-14.064520
20
286.703985
30
0.0
11
-13.783970
21
285.558665
31
0.0
0
LINE
8
0
6
CONTINUOUS
10
-15.088430
20
291.681865
30
0.0
11
-14.064520
21
286.703985
31
0.0
0
LINE
8
0
6
CONTINUOUS
10
22.925320
20
215.260275
30
0.0
11
24.453830
21
186.680645
31
0.0
0
LINE
8
0
6
CONTINUOUS
10
21.790960
20
237.060355
30
0.0
11
22.925320
21
215.260275
31
0.0
0
LINE
8
0
6
CONTINUOUS
10
20.719380
20
254.209865
30
0.0
11
21.790960
21
237.060355
31
0.0
0
LINE
8
0
6
CONTINUOUS
10
19.737225
20
265.818420
30
0.0
11
19.918631
21
263.674294
31
0.0
0
LINE
8
0
6
CONTINUOUS
10
20.212293
20
260.203372
30
0.0
11
20.719380
21
254.209865
31
0.0
0
LINE
8
0
6
CONTINUOUS
10
20.237550
20
262.677575
30
0.0
11
19.770527
21
265.822573
31
0.0
0
LINE
8
0
6
CONTINUOUS
10
-8.061820
20
326.164135
30
0.0
11
-11.533310
21
322.456705
31
0.0
0
LINE
8
0
6
CONTINUOUS
10
-11.533310
20
322.456705
30
0.0
11
-12.435770
21
321.176955
31
0.0
0
LINE
8
0
6
CONTINUOUS
10
-16.176030
20
308.832975
30
0.0
11
-16.148010
21
308.302275
31
0.0
0
LINE
8
0
6
CONTINUOUS
10
-15.622060
20
313.190505
30
0.0
11
-16.176030
21
308.832975
31
0.0
0
LINE
8
0
6
CONTINUOUS
10
37.612206
20
335.402507
30
0.0
11
29.483709
21
335.211648
31
0.0
0
LINE
8
0
6
CONTINUOUS
10
25.755852
20
335.124117
30
0.0
11
25.455940
21
335.117075
31
0.0
0
LINE
8
0
6
CONTINUOUS
10
25.455940
20
335.117075
30
0.0
11
18.665010
21
334.505519
31
0.0
0
LINE
8
0
6
CONTINUOUS
10
14.569665
20
334.136714
30
0.0
11
13.086910
21
334.003185
31
0.0
0
LINE
8
0
6
CONTINUOUS
10
13.086910
20
334.003185
30
0.0
11
4.126050
21
332.410775
31
0.0
0
LINE
8
0
6
CONTINUOUS
10
-2.669440
20
329.658545
30
0.0
11
-8.061820
21
326.164135
31
0.0
0
LINE
8
0
6
CONTINUOUS
10
4.126050
20
332.410775
30
0.0
11
-2.669440
21
329.658545
31
0.0
0
LINE
8
0
6
CONTINUOUS
10
18.558450
20
263.270995
30
0.0
11
21.839240
21
257.185635
31
0.0
0
LINE
8
0
6
CONTINUOUS
10
14.160340
20
267.045715
30
0.0
11
16.359390
21
265.158355
31
0.0
0
LINE
8
0
6
CONTINUOUS
10
-9.446790
20
278.060575
30
0.0
11
-6.463570
21
275.780375
31
0.0
0
LINE
8
0
6
CONTINUOUS
10
-2.921740
20
273.920405
30
0.0
11
0.763220
21
272.519805
31
0.0
0
LINE
8
0
6
CONTINUOUS
10
25.310860
20
319.918405
30
0.0
11
12.561360
21
318.627515
31
0.0
0
LINE
8
0
6
CONTINUOUS
10
0.763220
20
272.519805
30
0.0
11
9.310150
21
269.699135
31
0.0
0
LINE
8
0
6
CONTINUOUS
10
-13.783970
20
285.558665
30
0.0
11
-11.929000
21
280.976835
31
0.0
0
LINE
8
0
6
CONTINUOUS
10
9.310150
20
269.699135
30
0.0
11
14.160340
21
267.045715
31
0.0
0
LINE
8
0
6
CONTINUOUS
10
24.453830
20
186.680645
30
0.0
11
24.703701
21
184.040999
31
0.0
0
LINE
8
0
6
CONTINUOUS
10
35.455650
20
163.883475
30
0.0
11
38.063580
21
163.657495
31
0.0
0
LINE
8
0
6
CONTINUOUS
10
32.637430
20
164.545635
30
0.0
11
35.455650
21
163.883475
31
0.0
0
LINE
8
0
6
CONTINUOUS
10
30.230160
20
165.598875
30
0.0
11
32.637430
21
164.545635
31
0.0
0
LINE
8
0
6
CONTINUOUS
10
29.995250
20
165.724455
30
0.0
11
30.230160
21
165.598875
31
0.0
0
LINE
8
0
6
CONTINUOUS
10
28.094660
20
167.134665
30
0.0
11
29.995250
21
165.724455
31
0.0
0
LINE
8
0
6
CONTINUOUS
10
29.941920
20
245.884445
30
0.0
11
26.820330
21
247.975125
31
0.0
0
LINE
8
0
6
CONTINUOUS
10
34.229600
20
244.900175
30
0.0
11
29.941920
21
245.884445
31
0.0
0
LINE
8
0
6
CONTINUOUS
10
38.063480
20
244.621775
30
0.0
11
34.229600
21
244.900175
31
0.0
0
LINE
8
0
6
CONTINUOUS
10
26.820330
20
247.975125
30
0.0
11
24.564990
21
255.818295
31
0.0
0
LINE
8
0
6
CONTINUOUS
10
24.564990
20
255.818295
30
0.0
11
20.849310
21
262.689935
31
0.0
0
LINE
8
0
6
CONTINUOUS
10
12.561360
20
318.627515
30
0.0
11
3.614660
21
316.649745
31
0.0
0
LINE
8
0
6
CONTINUOUS
10
38.063040
20
320.309945
30
0.0
11
25.310860
21
319.918405
31
0.0
0
LINE
8
0
6
CONTINUOUS
10
-14.160420
20
299.388925
30
0.0
11
-14.810910
21
295.147665
31
0.0
0
LINE
8
0
6
CONTINUOUS
10
-7.552160
20
311.118355
30
0.0
11
-10.943260
21
307.272535
31
0.0
0
LINE
8
0
6
CONTINUOUS
10
-14.765550
20
290.497325
30
0.0
11
-13.783970
21
285.558665
31
0.0
0
LINE
8
0
6
CONTINUOUS
10
38.063420
20
266.425745
30
0.0
11
45.037820
21
266.410335
31
0.0
0
LINE
8
0
6
CONTINUOUS
10
-11.929000
20
280.976835
30
0.0
11
-9.446790
21
278.060575
31
0.0
0
LINE
8
0
6
CONTINUOUS
10
-6.463570
20
275.780375
30
0.0
11
-2.921740
21
273.920405
31
0.0
0
LINE
8
0
6
CONTINUOUS
10
-15.707500
20
297.206915
30
0.0
11
-15.110450
21
291.878475
31
0.0
0
LINE
8
0
6
CONTINUOUS
10
-15.930970
20
303.611565
30
0.0
11
-15.707500
21
297.206915
31
0.0
0
LINE
8
0
6
CONTINUOUS
10
-16.148010
20
308.302275
30
0.0
11
-15.930970
21
303.611565
31
0.0
0
LINE
8
0
6
CONTINUOUS
10
-15.110450
20
291.878475
30
0.0
11
-15.088430
21
291.681865
31
0.0
0
LINE
8
0
6
CONTINUOUS
10
-14.810910
20
295.147665
30
0.0
11
-14.765550
21
290.497325
31
0.0
0
LINE
8
0
6
CONTINUOUS
10
-12.435770
20
321.176955
30
0.0
11
-14.346700
21
317.344555
31
0.0
0
LINE
8
0
6
CONTINUOUS
10
-10.943260
20
307.272535
30
0.0
11
-12.788560
21
303.426635
31
0.0
0
LINE
8
0
6
CONTINUOUS
10
-14.346700
20
317.344555
30
0.0
11
-15.622060
21
313.190505
31
0.0
0
LINE
8
0
6
CONTINUOUS
10
-12.788560
20
303.426635
30
0.0
11
-14.160420
21
299.388925
31
0.0
0
LINE
8
0
6
CONTINUOUS
10
90.191170
20
286.703685
30
0.0
11
91.215000
21
291.681555
31
0.0
0
LINE
8
0
6
CONTINUOUS
10
89.910610
20
285.558355
30
0.0
11
90.191170
21
286.703685
31
0.0
0
LINE
8
0
6
CONTINUOUS
10
51.673570
20
186.680565
30
0.0
11
53.202030
21
215.260125
31
0.0
0
LINE
8
0
6
CONTINUOUS
10
53.202030
20
215.260125
30
0.0
11
54.336350
21
237.060285
31
0.0
0
LINE
8
0
6
CONTINUOUS
10
54.336350
20
237.060285
30
0.0
11
55.407890
21
254.209785
31
0.0
0
LINE
8
0
6
CONTINUOUS
10
56.356540
20
265.821430
30
0.0
11
55.889590
21
262.677505
31
0.0
0
LINE
8
0
6
CONTINUOUS
10
55.407890
20
254.209785
30
0.0
11
55.915016
21
260.203929
31
0.0
0
LINE
8
0
6
CONTINUOUS
10
56.209031
20
263.679138
30
0.0
11
56.389924
21
265.817259
31
0.0
0
LINE
8
0
6
CONTINUOUS
10
88.562280
20
321.176645
30
0.0
11
87.659840
21
322.456475
31
0.0
0
LINE
8
0
6
CONTINUOUS
10
87.659840
20
322.456475
30
0.0
11
84.188290
21
326.163905
31
0.0
0
LINE
8
0
6
CONTINUOUS
10
92.302760
20
308.832665
30
0.0
11
91.748700
21
313.190275
31
0.0
0
LINE
8
0
6
CONTINUOUS
10
92.274720
20
308.301965
30
0.0
11
92.302760
21
308.832665
31
0.0
0
LINE
8
0
6
CONTINUOUS
10
50.670380
20
335.116995
30
0.0
11
50.610735
21
335.118396
31
0.0
0
LINE
8
0
6
CONTINUOUS
10
50.610735
20
335.118396
30
0.0
11
41.428683
21
335.334050
31
0.0
0
LINE
8
0
6
CONTINUOUS
10
63.039430
20
334.003105
30
0.0
11
51.464718
21
335.045461
31
0.0
0
LINE
8
0
6
CONTINUOUS
10
72.000310
20
332.410625
30
0.0
11
63.039430
21
334.003105
31
0.0
0
LINE
8
0
6
CONTINUOUS
10
84.188290
20
326.163905
30
0.0
11
78.795850
21
329.658325
31
0.0
0
LINE
8
0
6
CONTINUOUS
10
78.795850
20
329.658325
30
0.0
11
72.000310
21
332.410625
31
0.0
0
LINE
8
0
6
CONTINUOUS
10
54.287740
20
257.185555
30
0.0
11
57.568500
21
263.270915
31
0.0
0
LINE
8
0
6
CONTINUOUS
10
59.767540
20
265.158195
30
0.0
11
61.966580
21
267.045555
31
0.0
0
LINE
8
0
6
CONTINUOUS
10
82.590370
20
275.780145
30
0.0
11
85.573560
21
278.060265
31
0.0
0
LINE
8
0
6
CONTINUOUS
10
75.363630
20
272.519575
30
0.0
11
79.048580
21
273.920175
31
0.0
0
LINE
8
0
6
CONTINUOUS
10
63.564740
20
318.627365
30
0.0
11
50.815220
21
319.918325
31
0.0
0
LINE
8
0
6
CONTINUOUS
10
66.816730
20
269.698985
30
0.0
11
75.363630
21
272.519575
31
0.0
0
LINE
8
0
6
CONTINUOUS
10
88.055730
20
280.976525
30
0.0
11
89.910610
21
285.558355
31
0.0
0
LINE
8
0
6
CONTINUOUS
10
61.966580
20
267.045555
30
0.0
11
66.816730
21
269.698985
31
0.0
0
LINE
8
0
6
CONTINUOUS
10
51.343746
20
183.196207
30
0.0
11
51.673570
21
186.680565
31
0.0
0
LINE
8
0
6
CONTINUOUS
10
38.063580
20
163.657495
30
0.0
11
40.671520
21
163.883475
31
0.0
0
LINE
8
0
6
CONTINUOUS
10
40.671520
20
163.883475
30
0.0
11
43.489760
21
164.545635
31
0.0
0
LINE
8
0
6
CONTINUOUS
10
45.897060
20
165.598875
30
0.0
11
46.131950
21
165.724375
31
0.0
0
LINE
8
0
6
CONTINUOUS
10
43.489760
20
164.545635
30
0.0
11
45.897060
21
165.598875
31
0.0
0
LINE
8
0
6
CONTINUOUS
10
46.131950
20
165.724375
30
0.0
11
47.260608
21
166.561848
31
0.0
0
LINE
8
0
6
CONTINUOUS
10
49.306650
20
247.975045
30
0.0
11
46.185050
21
245.884365
31
0.0
0
LINE
8
0
6
CONTINUOUS
10
46.185050
20
245.884365
30
0.0
11
41.897350
21
244.900175
31
0.0
0
LINE
8
0
6
CONTINUOUS
10
41.897350
20
244.900175
30
0.0
11
38.063480
21
244.621775
31
0.0
0
LINE
8
0
6
CONTINUOUS
10
51.561970
20
255.818215
30
0.0
11
49.306650
21
247.975045
31
0.0
0
LINE
8
0
6
CONTINUOUS
10
55.277610
20
262.689865
30
0.0
11
51.561970
21
255.818215
31
0.0
0
LINE
8
0
6
CONTINUOUS
10
72.511460
20
316.649515
30
0.0
11
63.564740
21
318.627365
31
0.0
0
LINE
8
0
6
CONTINUOUS
10
50.815220
20
319.918325
30
0.0
11
38.063040
21
320.309945
31
0.0
0
LINE
8
0
6
CONTINUOUS
10
90.937400
20
295.147365
30
0.0
11
90.286830
21
299.388625
31
0.0
0
LINE
8
0
6
CONTINUOUS
10
87.069530
20
307.272225
30
0.0
11
83.678380
21
311.118125
31
0.0
0
LINE
8
0
6
CONTINUOUS
10
89.910610
20
285.558355
30
0.0
11
90.892110
21
290.497015
31
0.0
0
LINE
8
0
6
CONTINUOUS
10
18.086100
20
265.612525
30
0.0
11
24.292450
21
266.386455
31
0.0
0
LINE
8
0
6
CONTINUOUS
10
24.292450
20
266.386455
30
0.0
11
31.089010
21
266.410415
31
0.0
0
LINE
8
0
6
CONTINUOUS
10
61.596620
20
267.079735
30
0.0
11
66.464060
21
269.590875
31
0.0
0
LINE
8
0
6
CONTINUOUS
10
85.573560
20
278.060265
30
0.0
11
88.055730
21
280.976525
31
0.0
0
LINE
8
0
6
CONTINUOUS
10
79.048580
20
273.920175
30
0.0
11
82.590370
21
275.780145
31
0.0
0
LINE
8
0
6
CONTINUOUS
10
91.237040
20
291.878165
30
0.0
11
91.834180
21
297.206615
31
0.0
0
LINE
8
0
6
CONTINUOUS
10
92.057760
20
303.611265
30
0.0
11
92.274720
21
308.301965
31
0.0
0
LINE
8
0
6
CONTINUOUS
10
91.834180
20
297.206615
30
0.0
11
92.057760
21
303.611265
31
0.0
0
LINE
8
0
6
CONTINUOUS
10
91.215000
20
291.681555
30
0.0
11
91.237040
21
291.878165
31
0.0
0
LINE
8
0
6
CONTINUOUS
10
90.892110
20
290.497015
30
0.0
11
90.937400
21
295.147365
31
0.0
0
LINE
8
0
6
CONTINUOUS
10
90.473270
20
317.344245
30
0.0
11
88.562280
21
321.176645
31
0.0
0
LINE
8
0
6
CONTINUOUS
10
88.914890
20
303.426325
30
0.0
11
87.069530
21
307.272225
31
0.0
0
LINE
8
0
6
CONTINUOUS
10
91.748700
20
313.190275
30
0.0
11
90.473270
21
317.344245
31
0.0
0
LINE
8
0
6
CONTINUOUS
10
90.286830
20
299.388625
30
0.0
11
88.914890
21
303.426325
31
0.0
0
LINE
8
0
6
CONTINUOUS
10
58.029290
20
265.612455
30
0.0
11
55.277610
21
262.689865
31
0.0
0
LINE
8
0
6
CONTINUOUS
10
45.037820
20
266.410335
30
0.0
11
51.834400
21
266.386375
31
0.0
0
LINE
8
0
6
CONTINUOUS
10
51.834400
20
266.386375
30
0.0
11
58.029290
21
265.612455
31
0.0
0
LINE
8
0
6
CONTINUOUS
10
31.089010
20
266.410415
30
0.0
11
38.063420
21
266.425745
31
0.0
0
LINE
8
0
6
CONTINUOUS
10
9.662810
20
269.591025
30
0.0
11
14.530290
21
267.079815
31
0.0
0
LINE
8
0
6
CONTINUOUS
10
14.530290
20
267.079815
30
0.0
11
18.086100
21
265.612525
31
0.0
0
LINE
8
0
6
CONTINUOUS
10
57.568500
20
263.270915
30
0.0
11
59.767540
21
265.158195
31
0.0
0
LINE
8
0
6
CONTINUOUS
10
16.359390
20
265.158355
30
0.0
11
18.558450
21
263.270995
31
0.0
0
LINE
8
0
6
CONTINUOUS
10
20.849310
20
262.689935
30
0.0
11
18.086100
21
265.612525
31
0.0
0
LINE
8
0
6
CONTINUOUS
10
6.824630
20
-725.760635
30
0.0
11
8.012970
21
-704.271515
31
0.0
0
LINE
8
0
6
CONTINUOUS
10
-15.473800
20
-704.271535
30
0.0
11
-14.285420
21
-725.760655
31
0.0
0
LINE
8
0
6
CONTINUOUS
10
6.781620
20
-726.521865
30
0.0
11
6.824630
21
-725.760635
31
0.0
0
LINE
8
0
6
CONTINUOUS
10
-14.285420
20
-725.760655
30
0.0
11
-14.242410
21
-726.521885
31
0.0
0
LINE
8
0
6
CONTINUOUS
10
6.781620
20
-726.521865
30
0.0
11
5.423420
21
-726.521865
31
0.0
0
LINE
8
0
6
CONTINUOUS
10
5.925900
20
-726.733875
30
0.0
11
6.781620
21
-726.521865
31
0.0
0
LINE
8
0
6
CONTINUOUS
10
4.678260
20
-726.733875
30
0.0
11
5.925900
21
-726.733875
31
0.0
0
LINE
8
0
6
CONTINUOUS
10
5.423420
20
-726.521865
30
0.0
11
2.482430
21
-726.521865
31
0.0
0
LINE
8
0
6
CONTINUOUS
10
1.976670
20
-726.733885
30
0.0
11
4.678260
21
-726.733875
31
0.0
0
LINE
8
0
6
CONTINUOUS
10
2.482430
20
-726.521865
30
0.0
11
-1.532790
21
-726.521875
31
0.0
0
LINE
8
0
6
CONTINUOUS
10
-1.711700
20
-726.733885
30
0.0
11
1.976670
21
-726.733885
31
0.0
0
LINE
8
0
6
CONTINUOUS
10
-1.532790
20
-726.521875
30
0.0
11
-5.928040
21
-726.521875
31
0.0
0
LINE
8
0
6
CONTINUOUS
10
-5.749130
20
-726.733885
30
0.0
11
-1.711700
21
-726.733885
31
0.0
0
LINE
8
0
6
CONTINUOUS
10
-5.928040
20
-726.521875
30
0.0
11
-9.943260
21
-726.521875
31
0.0
0
LINE
8
0
6
CONTINUOUS
10
-9.437500
20
-726.733895
30
0.0
11
-5.749130
21
-726.733885
31
0.0
0
LINE
8
0
6
CONTINUOUS
10
-9.943260
20
-726.521875
30
0.0
11
-12.884250
21
-726.521885
31
0.0
0
LINE
8
0
6
CONTINUOUS
10
-12.139050
20
-726.733895
30
0.0
11
-9.437500
21
-726.733895
31
0.0
0
LINE
8
0
6
CONTINUOUS
10
-14.242410
20
-726.521885
30
0.0
11
-13.386690
21
-726.733895
31
0.0
0
LINE
8
0
6
CONTINUOUS
10
-12.884250
20
-726.521885
30
0.0
11
-14.242410
21
-726.521885
31
0.0
0
LINE
8
0
6
CONTINUOUS
10
-13.386690
20
-726.733895
30
0.0
11
-12.139050
21
-726.733895
31
0.0
0
LINE
8
0
6
CONTINUOUS
10
3.210210
20
-703.521685
30
0.0
11
-1.275390
21
-703.521685
31
0.0
0
LINE
8
0
6
CONTINUOUS
10
-10.671010
20
-703.521695
30
0.0
11
-13.956520
21
-703.521695
31
0.0
0
LINE
8
0
6
CONTINUOUS
10
8.012970
20
-703.521685
30
0.0
11
6.495680
21
-703.521685
31
0.0
0
LINE
8
0
6
CONTINUOUS
10
8.012970
20
-704.271515
30
0.0
11
8.012970
21
-703.521685
31
0.0
0
LINE
8
0
6
CONTINUOUS
10
-1.275390
20
-703.521685
30
0.0
11
-6.185440
21
-703.521695
31
0.0
0
LINE
8
0
6
CONTINUOUS
10
-15.473810
20
-703.521695
30
0.0
11
-15.473800
21
-704.271535
31
0.0
0
LINE
8
0
6
CONTINUOUS
10
-13.956520
20
-703.521695
30
0.0
11
-15.473810
21
-703.521695
31
0.0
0
LINE
8
0
6
CONTINUOUS
10
6.495680
20
-703.521685
30
0.0
11
3.210210
21
-703.521685
31
0.0
0
LINE
8
0
6
CONTINUOUS
10
-6.185440
20
-703.521695
30
0.0
11
-10.671010
21
-703.521695
31
0.0
0
LINE
8
0
6
CONTINUOUS
10
96.494370
20
-187.503775
30
0.0
11
106.450460
21
-221.731145
31
0.0
0
LINE
8
0
6
CONTINUOUS
10
115.580040
20
-256.057015
30
0.0
11
123.675530
21
-291.663055
31
0.0
0
LINE
8
0
6
CONTINUOUS
10
63.807820
20
-73.729665
30
0.0
11
74.954130
21
-114.663395
31
0.0
0
LINE
8
0
6
CONTINUOUS
10
90.721230
20
-880.507105
30
0.0
11
107.560680
21
-872.604235
31
0.0
0
LINE
8
0
6
CONTINUOUS
10
149.068110
20
-370.389365
30
0.0
11
143.605970
21
-328.197745
31
0.0
0
LINE
8
0
6
CONTINUOUS
10
114.758740
20
-849.805165
30
0.0
11
101.891050
21
-859.614865
31
0.0
0
LINE
8
0
6
CONTINUOUS
10
46.459130
20
100.549665
30
0.0
11
45.422350
21
118.647115
31
0.0
0
LINE
8
0
6
CONTINUOUS
10
121.164230
20
-254.135625
30
0.0
11
129.329580
21
-290.052145
31
0.0
0
LINE
8
0
6
CONTINUOUS
10
76.601820
20
-70.932045
30
0.0
11
65.532880
21
-25.581325
31
0.0
0
LINE
8
0
6
CONTINUOUS
10
107.560680
20
-872.604235
30
0.0
11
122.774020
21
-861.325875
31
0.0
0
LINE
8
0
6
CONTINUOUS
10
109.260170
20
-184.597815
30
0.0
11
98.667740
21
-149.224205
31
0.0
0
LINE
8
0
6
CONTINUOUS
10
32.782540
20
114.901925
30
0.0
11
33.821000
21
96.776005
31
0.0
0
LINE
8
0
6
CONTINUOUS
10
148.275710
20
-370.110665
30
0.0
11
142.790110
21
-327.737765
31
0.0
0
LINE
8
0
6
CONTINUOUS
10
101.891050
20
-859.614865
30
0.0
11
87.584520
21
-866.574365
31
0.0
0
LINE
8
0
6
CONTINUOUS
10
65.532880
20
-25.581325
30
0.0
11
60.436070
21
-1.914785
31
0.0
0
LINE
8
0
6
CONTINUOUS
10
5.067540
20
-813.545745
30
0.0
11
2.650380
21
-795.315695
31
0.0
0
LINE
8
0
6
CONTINUOUS
10
56.201580
20
20.582925
30
0.0
11
52.766140
21
41.958045
31
0.0
0
LINE
8
0
6
CONTINUOUS
10
52.439120
20
40.061685
30
0.0
11
55.769460
21
19.339405
31
0.0
0
LINE
8
0
6
CONTINUOUS
10
87.711090
20
-111.728745
30
0.0
11
76.601820
21
-70.932045
31
0.0
0
LINE
8
0
6
CONTINUOUS
10
136.022100
20
-846.917685
30
0.0
11
144.602060
21
-828.506035
31
0.0
0
LINE
8
0
6
CONTINUOUS
10
72.217940
20
-870.047115
30
0.0
11
56.618200
21
-869.246485
31
0.0
0
LINE
8
0
6
CONTINUOUS
10
-0.749990
20
-815.588875
30
0.0
11
-3.416510
21
-795.857655
31
0.0
0
LINE
8
0
6
CONTINUOUS
10
33.821000
20
96.776005
30
0.0
11
35.333700
21
78.085515
31
0.0
0
LINE
8
0
6
CONTINUOUS
10
86.893470
20
-111.173285
30
0.0
11
75.826480
21
-70.533335
31
0.0
0
LINE
8
0
6
CONTINUOUS
10
69.429500
20
-71.932185
30
0.0
11
80.514960
21
-112.640645
31
0.0
0
LINE
8
0
6
CONTINUOUS
10
74.954130
20
-114.663395
30
0.0
11
85.923300
21
-152.202375
31
0.0
0
LINE
8
0
6
CONTINUOUS
10
141.707890
20
-370.650975
30
0.0
11
136.252010
21
-328.507655
31
0.0
0
LINE
8
0
6
CONTINUOUS
10
130.529770
20
-329.737505
30
0.0
11
135.932410
21
-371.470065
31
0.0
0
LINE
8
0
6
CONTINUOUS
10
-10.120988
20
-726.733895
30
0.0
11
-10.111200
21
-795.927805
31
0.0
0
LINE
8
0
6
CONTINUOUS
10
152.826500
20
-788.304215
30
0.0
11
156.021330
21
-504.723815
31
0.0
0
LINE
8
0
6
CONTINUOUS
10
31.784198
20
164.918945
30
0.0
11
32.782540
21
114.901925
31
0.0
0
LINE
8
0
6
CONTINUOUS
10
38.935900
20
113.344615
30
0.0
11
37.933837
21
163.668737
31
0.0
0
LINE
8
0
6
CONTINUOUS
10
133.164090
20
-821.608965
30
0.0
11
125.836750
21
-837.318085
31
0.0
0
LINE
8
0
6
CONTINUOUS
10
87.584520
20
-866.574365
30
0.0
11
72.217940
21
-870.047115
31
0.0
0
LINE
8
0
6
CONTINUOUS
10
16.115380
20
-845.206255
30
0.0
11
9.261375
21
-830.964146
31
0.0
0
LINE
8
0
6
CONTINUOUS
10
-1.824330
20
-836.417965
30
0.0
11
6.985760
21
-854.689295
31
0.0
0
LINE
8
0
6
CONTINUOUS
10
136.093460
20
-844.223025
30
0.0
11
144.319050
21
-826.575865
31
0.0
0
LINE
8
0
6
CONTINUOUS
10
138.600060
20
-823.127335
30
0.0
11
131.000800
21
-839.423195
31
0.0
0
LINE
8
0
6
CONTINUOUS
10
108.902930
20
-868.943065
30
0.0
11
123.455030
21
-858.084015
31
0.0
0
LINE
8
0
6
CONTINUOUS
10
119.447410
20
-852.323665
30
0.0
11
106.068140
21
-862.448385
31
0.0
0
LINE
8
0
6
CONTINUOUS
10
85.923300
20
-152.202375
30
0.0
11
96.494370
21
-187.503775
31
0.0
0
LINE
8
0
6
CONTINUOUS
10
44.265879
20
164.885202
30
0.0
11
45.255790
21
115.217175
31
0.0
0
LINE
8
0
6
CONTINUOUS
10
45.422350
20
118.647115
30
0.0
11
44.495629
21
164.985722
31
0.0
0
LINE
8
0
6
CONTINUOUS
10
136.252010
20
-328.507655
30
0.0
11
129.329580
21
-290.052145
31
0.0
0
LINE
8
0
6
CONTINUOUS
10
123.675530
20
-291.663055
30
0.0
11
130.529770
21
-329.737505
31
0.0
0
LINE
8
0
6
CONTINUOUS
10
108.383820
20
-183.841135
30
0.0
11
97.814010
21
-148.544085
31
0.0
0
LINE
8
0
6
CONTINUOUS
10
91.441790
20
-150.033145
30
0.0
11
102.000970
21
-185.294115
31
0.0
0
LINE
8
0
6
CONTINUOUS
10
46.280410
20
97.329295
30
0.0
11
45.255790
21
115.217175
31
0.0
0
LINE
8
0
6
CONTINUOUS
10
38.935900
20
113.344615
30
0.0
11
39.961360
21
95.442395
31
0.0
0
LINE
8
0
6
CONTINUOUS
10
2.650380
20
-795.315695
30
0.0
11
2.660174
21
-726.733882
31
0.0
0
LINE
8
0
6
CONTINUOUS
10
53.483120
20
-3.894915
30
0.0
11
49.411780
21
17.735635
31
0.0
0
LINE
8
0
6
CONTINUOUS
10
43.486240
20
17.375525
30
0.0
11
47.666380
21
-4.833255
31
0.0
0
LINE
8
0
6
CONTINUOUS
10
36.873910
20
-877.892685
30
0.0
11
54.418280
21
-883.289065
31
0.0
0
LINE
8
0
6
CONTINUOUS
10
27.817210
20
-856.931455
30
0.0
11
16.115380
21
-845.206255
31
0.0
0
LINE
8
0
6
CONTINUOUS
10
75.270970
20
-873.211685
30
0.0
11
59.085560
21
-872.302245
31
0.0
0
LINE
8
0
6
CONTINUOUS
10
6.985760
20
-854.689295
30
0.0
11
20.838270
21
-868.306575
31
0.0
0
LINE
8
0
6
CONTINUOUS
10
52.766140
20
41.958045
30
0.0
11
50.050650
21
62.329445
31
0.0
0
LINE
8
0
6
CONTINUOUS
10
47.666380
20
-4.833255
30
0.0
11
52.723830
21
-28.317525
31
0.0
0
LINE
8
0
6
CONTINUOUS
10
54.418280
20
-883.289065
30
0.0
11
72.714810
21
-884.577215
31
0.0
0
LINE
8
0
6
CONTINUOUS
10
75.519400
20
-880.476765
30
0.0
11
57.985600
21
-879.323535
31
0.0
0
LINE
8
0
6
CONTINUOUS
10
72.714810
20
-884.577215
30
0.0
11
90.721230
21
-880.507105
31
0.0
0
LINE
8
0
6
CONTINUOUS
10
41.151290
20
-874.236795
30
0.0
11
57.985600
21
-879.323535
31
0.0
0
LINE
8
0
6
CONTINUOUS
10
64.834240
20
-25.497245
30
0.0
11
59.867970
21
-2.435725
31
0.0
0
LINE
8
0
6
CONTINUOUS
10
53.483120
20
-3.894915
30
0.0
11
58.429730
21
-26.865345
31
0.0
0
LINE
8
0
6
CONTINUOUS
10
128.484600
20
-253.661685
30
0.0
11
119.272740
21
-219.022335
31
0.0
0
LINE
8
0
6
CONTINUOUS
10
50.050650
20
62.329445
30
0.0
11
47.975110
21
81.818585
31
0.0
0
LINE
8
0
6
CONTINUOUS
10
47.769770
20
78.924065
30
0.0
11
49.797900
21
59.877735
31
0.0
0
LINE
8
0
6
CONTINUOUS
10
106.450460
20
-221.731145
30
0.0
11
115.580040
21
-256.057015
31
0.0
0
LINE
8
0
6
CONTINUOUS
10
52.439120
20
40.061685
30
0.0
11
49.797900
21
59.877735
31
0.0
0
LINE
8
0
6
CONTINUOUS
10
75.826480
20
-70.533335
30
0.0
11
64.834240
21
-25.497245
31
0.0
0
LINE
8
0
6
CONTINUOUS
10
80.514960
20
-112.640645
30
0.0
11
91.441790
21
-150.033145
31
0.0
0
LINE
8
0
6
CONTINUOUS
10
-9.814637
20
-726.733895
30
0.0
11
-9.797300
21
-796.163715
31
0.0
0
LINE
8
0
6
CONTINUOUS
10
-3.416510
20
-795.857655
30
0.0
11
-3.424057
21
-726.733885
31
0.0
0
LINE
8
0
6
CONTINUOUS
10
135.932410
20
-371.470065
30
0.0
11
139.669750
21
-418.065015
31
0.0
0
LINE
8
0
6
CONTINUOUS
10
39.961360
20
95.442395
30
0.0
11
41.449120
21
77.057535
31
0.0
0
LINE
8
0
6
CONTINUOUS
10
43.505450
20
-867.767585
30
0.0
11
59.085560
21
-872.302245
31
0.0
0
LINE
8
0
6
CONTINUOUS
10
56.618200
20
-869.246485
30
0.0
11
41.582200
21
-864.954285
31
0.0
0
LINE
8
0
6
CONTINUOUS
10
152.838440
20
-417.377715
30
0.0
11
149.068110
21
-370.389365
31
0.0
0
LINE
8
0
6
CONTINUOUS
10
12.516180
20
-852.007485
30
0.0
11
25.759170
21
-865.090595
31
0.0
0
LINE
8
0
6
CONTINUOUS
10
29.248640
20
-859.402995
30
0.0
11
17.080990
21
-847.265965
31
0.0
0
LINE
8
0
6
CONTINUOUS
10
136.670770
20
-289.670795
30
0.0
11
128.484600
21
-253.661685
31
0.0
0
LINE
8
0
6
CONTINUOUS
10
127.616540
20
-252.937965
30
0.0
11
135.827190
21
-289.056015
31
0.0
0
LINE
8
0
6
CONTINUOUS
10
144.602060
20
-828.506035
30
0.0
11
149.951520
21
-808.872925
31
0.0
0
LINE
8
0
6
CONTINUOUS
10
149.334190
20
-807.717555
30
0.0
11
144.319050
21
-826.575865
31
0.0
0
LINE
8
0
6
CONTINUOUS
10
60.436070
20
-1.914785
30
0.0
11
56.201580
21
20.582925
31
0.0
0
LINE
8
0
6
CONTINUOUS
10
55.769460
20
19.339405
30
0.0
11
59.867970
21
-2.435725
31
0.0
0
LINE
8
0
6
CONTINUOUS
10
102.000970
20
-185.294115
30
0.0
11
111.980670
21
-219.603995
31
0.0
0
LINE
8
0
6
CONTINUOUS
10
139.669750
20
-418.065015
30
0.0
11
141.670930
21
-461.429135
31
0.0
0
LINE
8
0
6
CONTINUOUS
10
152.065670
20
-787.997705
30
0.0
11
155.245850
21
-504.694115
31
0.0
0
LINE
8
0
6
CONTINUOUS
10
49.411780
20
17.735635
30
0.0
11
46.100700
21
38.338505
31
0.0
0
LINE
8
0
6
CONTINUOUS
10
40.089290
20
38.511695
30
0.0
11
43.486240
21
17.375525
31
0.0
0
LINE
8
0
6
CONTINUOUS
10
145.493210
20
-787.415315
30
0.0
11
146.502048
21
-697.151737
31
0.0
0
LINE
8
0
6
CONTINUOUS
10
146.918464
20
-659.893801
30
0.0
11
148.651880
21
-504.800205
31
0.0
0
LINE
8
0
6
CONTINUOUS
10
142.833340
20
-504.936005
30
0.0
11
141.103672
21
-659.810103
31
0.0
0
LINE
8
0
6
CONTINUOUS
10
140.685968
20
-697.211219
30
0.0
11
139.681630
21
-787.139435
31
0.0
0
LINE
8
0
6
CONTINUOUS
10
4.074580
20
-834.492085
30
0.0
11
12.516180
21
-852.007485
31
0.0
0
LINE
8
0
6
CONTINUOUS
10
17.080990
20
-847.265965
30
0.0
11
9.290830
21
-831.086485
31
0.0
0
LINE
8
0
6
CONTINUOUS
10
145.474350
20
-417.593005
30
0.0
11
147.485920
21
-461.166405
31
0.0
0
LINE
8
0
6
CONTINUOUS
10
154.853380
20
-461.018565
30
0.0
11
152.838440
21
-417.377715
31
0.0
0
LINE
8
0
6
CONTINUOUS
10
152.058680
20
-417.249335
30
0.0
11
154.077150
21
-460.961095
31
0.0
0
LINE
8
0
6
CONTINUOUS
10
43.471330
20
58.065985
30
0.0
11
41.449120
21
77.057535
31
0.0
0
LINE
8
0
6
CONTINUOUS
10
35.333700
20
78.085515
30
0.0
11
37.397540
21
58.705865
31
0.0
0
LINE
8
0
6
CONTINUOUS
10
92.779010
20
-876.575655
30
0.0
11
108.902930
21
-868.943065
31
0.0
0
LINE
8
0
6
CONTINUOUS
10
106.068140
20
-862.448385
30
0.0
11
91.210660
21
-869.609275
31
0.0
0
LINE
8
0
6
CONTINUOUS
10
152.058680
20
-417.249335
30
0.0
11
148.275710
21
-370.110665
31
0.0
0
LINE
8
0
6
CONTINUOUS
10
141.707890
20
-370.650975
30
0.0
11
145.474350
21
-417.593005
31
0.0
0
LINE
8
0
6
CONTINUOUS
10
138.600060
20
-823.127335
30
0.0
11
143.012920
21
-805.634345
31
0.0
0
LINE
8
0
6
CONTINUOUS
10
137.309170
20
-804.706555
30
0.0
11
133.164090
21
-821.608965
31
0.0
0
LINE
8
0
6
CONTINUOUS
10
47.975110
20
81.818585
30
0.0
11
46.459130
21
100.549665
31
0.0
0
LINE
8
0
6
CONTINUOUS
10
46.280410
20
97.329295
30
0.0
11
47.769770
21
78.924065
31
0.0
0
LINE
8
0
6
CONTINUOUS
10
143.605970
20
-328.197745
30
0.0
11
136.670770
21
-289.670795
31
0.0
0
LINE
8
0
6
CONTINUOUS
10
135.827190
20
-289.056015
30
0.0
11
142.790110
21
-327.737765
31
0.0
0
LINE
8
0
6
CONTINUOUS
10
46.100700
20
38.338505
30
0.0
11
43.471330
21
58.065985
31
0.0
0
LINE
8
0
6
CONTINUOUS
10
37.397540
20
58.705865
30
0.0
11
40.089290
21
38.511695
31
0.0
0
LINE
8
0
6
CONTINUOUS
10
119.272740
20
-219.022335
30
0.0
11
109.260170
21
-184.597815
31
0.0
0
LINE
8
0
6
CONTINUOUS
10
108.383820
20
-183.841135
30
0.0
11
118.391830
21
-218.249545
31
0.0
0
LINE
8
0
6
CONTINUOUS
10
148.651880
20
-504.800205
30
0.0
11
147.485920
21
-461.166405
31
0.0
0
LINE
8
0
6
CONTINUOUS
10
141.670930
20
-461.429135
30
0.0
11
142.833340
21
-504.936005
31
0.0
0
LINE
8
0
6
CONTINUOUS
10
69.429500
20
-71.932185
30
0.0
11
58.429730
21
-26.865345
31
0.0
0
LINE
8
0
6
CONTINUOUS
10
52.723830
20
-28.317525
30
0.0
11
63.807820
21
-73.729665
31
0.0
0
LINE
8
0
6
CONTINUOUS
10
98.667740
20
-149.224205
30
0.0
11
87.711090
21
-111.728745
31
0.0
0
LINE
8
0
6
CONTINUOUS
10
86.893470
20
-111.173285
30
0.0
11
97.814010
21
-148.544085
31
0.0
0
LINE
8
0
6
CONTINUOUS
10
75.519400
20
-880.476765
30
0.0
11
92.779010
21
-876.575655
31
0.0
0
LINE
8
0
6
CONTINUOUS
10
91.210660
20
-869.609275
30
0.0
11
75.270970
21
-873.211685
31
0.0
0
LINE
8
0
6
CONTINUOUS
10
127.616540
20
-252.937965
30
0.0
11
118.391830
21
-218.249545
31
0.0
0
LINE
8
0
6
CONTINUOUS
10
111.980670
20
-219.603995
30
0.0
11
121.164230
21
-254.135625
31
0.0
0
LINE
8
0
6
CONTINUOUS
10
-10.111200
20
-795.927805
30
0.0
11
-7.411820
21
-815.856505
31
0.0
0
LINE
8
0
6
CONTINUOUS
10
-6.988850
20
-816.744075
30
0.0
11
-9.797300
21
-796.163715
31
0.0
0
LINE
8
0
6
CONTINUOUS
10
156.021330
20
-504.723815
30
0.0
11
154.853380
21
-461.018565
31
0.0
0
LINE
8
0
6
CONTINUOUS
10
154.077150
20
-460.961095
30
0.0
11
155.245850
21
-504.694115
31
0.0
0
LINE
8
0
6
CONTINUOUS
10
139.681630
20
-787.139435
30
0.0
11
137.309170
21
-804.706555
31
0.0
0
LINE
8
0
6
CONTINUOUS
10
145.493210
20
-787.415315
30
0.0
11
143.012920
21
-805.634345
31
0.0
0
LINE
8
0
6
CONTINUOUS
10
9.290830
20
-831.086485
30
0.0
11
5.067540
21
-813.545745
31
0.0
0
LINE
8
0
6
CONTINUOUS
10
152.065670
20
-787.997705
30
0.0
11
149.334190
21
-807.717555
31
0.0
0
LINE
8
0
6
CONTINUOUS
10
149.951520
20
-808.872925
30
0.0
11
152.826500
21
-788.304215
31
0.0
0
LINE
8
0
6
CONTINUOUS
10
4.074580
20
-834.492085
30
0.0
11
-0.749990
21
-815.588875
31
0.0
0
LINE
8
0
6
CONTINUOUS
10
-1.824330
20
-836.417965
30
0.0
11
-6.988850
21
-816.744075
31
0.0
0
LINE
8
0
6
CONTINUOUS
10
-2.507240
20
-834.938565
30
0.0
11
-1.824330
21
-836.417965
31
0.0
0
LINE
8
0
6
CONTINUOUS
10
-7.411820
20
-815.856505
30
0.0
11
-2.507240
21
-834.938565
31
0.0
0
LINE
8
0
6
CONTINUOUS
10
122.774020
20
-861.325875
30
0.0
11
136.022100
21
-846.917685
31
0.0
0
LINE
8
0
6
CONTINUOUS
10
41.582200
20
-864.954285
30
0.0
11
27.817210
21
-856.931455
31
0.0
0
LINE
8
0
6
CONTINUOUS
10
43.505450
20
-867.767585
30
0.0
11
29.248640
21
-859.402995
31
0.0
0
LINE
8
0
6
CONTINUOUS
10
41.151290
20
-874.236795
30
0.0
11
25.759170
21
-865.090595
31
0.0
0
LINE
8
0
6
CONTINUOUS
10
20.838270
20
-868.306575
30
0.0
11
36.873910
21
-877.892685
31
0.0
0
LINE
8
0
6
CONTINUOUS
10
123.455030
20
-858.084015
30
0.0
11
136.093460
21
-844.223025
31
0.0
0
LINE
8
0
6
CONTINUOUS
10
125.836750
20
-837.318085
30
0.0
11
114.758740
21
-849.805165
31
0.0
0
LINE
8
0
6
CONTINUOUS
10
119.447410
20
-852.323665
30
0.0
11
131.000800
21
-839.423195
31
0.0
0
LINE
8
0
6
CONTINUOUS
10
60.507048
20
755.028965
30
0.0
11
59.040674
21
754.791688
31
0.0
0
LINE
8
0
6
CONTINUOUS
10
0.825912
20
755.513780
30
0.0
11
0.119739
21
755.056579
31
0.0
0
LINE
8
0
6
CONTINUOUS
10
50.386684
20
755.944908
30
0.0
11
50.346959
21
755.935958
31
0.0
0
LINE
8
0
6
CONTINUOUS
10
55.763032
20
755.219827
30
0.0
11
55.975104
21
755.238164
31
0.0
0
LINE
8
0
6
CONTINUOUS
10
0.825912
20
755.513780
30
0.0
11
3.468748
21
755.670904
31
0.0
0
LINE
8
0
6
CONTINUOUS
10
-83.414628
20
756.995903
30
0.0
11
-83.525492
21
757.016167
31
0.0
0
LINE
8
0
6
CONTINUOUS
10
14.885700
20
332.993415
30
0.0
11
14.892584
21
333.356435
31
0.0
0
LINE
8
0
6
CONTINUOUS
10
17.984971
20
333.660171
30
0.0
11
18.197674
21
334.140196
31
0.0
0
LINE
8
0
6
CONTINUOUS
10
17.999987
20
333.312416
30
0.0
11
17.984971
21
333.660171
31
0.0
0
LINE
8
0
6
CONTINUOUS
10
3.672905
20
332.012878
30
0.0
11
4.300269
21
332.139818
31
0.0
0
LINE
8
0
6
CONTINUOUS
10
27.517760
20
177.379725
30
0.0
11
26.878592
21
178.169694
31
0.0
0
LINE
8
0
6
CONTINUOUS
10
26.225255
20
178.967465
30
0.0
11
26.129978
21
179.155405
31
0.0
0
LINE
8
0
6
CONTINUOUS
10
26.878592
20
178.169694
30
0.0
11
26.225255
21
178.967465
31
0.0
0
LINE
8
0
6
CONTINUOUS
10
-12.878977
20
-690.461759
30
0.0
11
-13.716950
21
-690.763818
31
0.0
0
LINE
8
0
6
CONTINUOUS
10
-13.716950
20
-690.763818
30
0.0
11
-14.835340
21
-691.523981
31
0.0
0
LINE
8
0
6
CONTINUOUS
10
-6.591290
20
-689.281496
30
0.0
11
-3.735650
21
-689.172244
31
0.0
0
LINE
8
0
6
CONTINUOUS
10
7.613460
20
-691.523981
30
0.0
11
7.776087
21
-691.838884
31
0.0
0
LINE
8
0
6
CONTINUOUS
10
6.495060
20
-690.763818
30
0.0
11
7.613460
21
-691.523981
31
0.0
0
LINE
8
0
6
CONTINUOUS
10
-0.630580
20
-689.281496
30
0.0
11
1.649553
21
-689.529539
31
0.0
0
LINE
8
0
6
CONTINUOUS
10
50.336402
20
179.886924
30
0.0
11
50.441069
21
180.093243
31
0.0
0
LINE
8
0
6
CONTINUOUS
10
38.063145
20
334.416551
30
0.0
11
41.193254
21
334.308859
31
0.0
0
LINE
8
0
6
CONTINUOUS
10
50.441069
20
180.093243
30
0.0
11
50.787576
21
180.839814
31
0.0
0
LINE
8
0
6
CONTINUOUS
10
50.141373
20
179.466177
30
0.0
11
50.336402
21
179.886924
31
0.0
0
LINE
8
0
6
CONTINUOUS
10
49.997307
20
179.155395
30
0.0
11
50.141373
21
179.466177
31
0.0
0
LINE
8
0
6
CONTINUOUS
10
50.787576
20
180.839814
30
0.0
11
50.833152
21
181.389006
31
0.0
0
LINE
8
0
6
CONTINUOUS
10
49.248659
20
178.169709
30
0.0
11
49.902026
21
178.967462
31
0.0
0
LINE
8
0
6
CONTINUOUS
10
49.902026
20
178.967462
30
0.0
11
49.997307
21
179.155395
31
0.0
0
LINE
8
0
6
CONTINUOUS
10
50.833152
20
181.389006
30
0.0
11
50.884273
21
181.569940
31
0.0
0
LINE
8
0
6
CONTINUOUS
10
50.884273
20
181.569940
30
0.0
11
51.316094
21
183.098333
31
0.0
0
LINE
8
0
6
CONTINUOUS
10
51.316094
20
183.098333
30
0.0
11
51.343746
21
183.196207
31
0.0
0
LINE
8
0
6
CONTINUOUS
10
-8.039556
20
787.894279
30
0.0
11
-7.382289
21
787.872326
31
0.0
0
LINE
8
0
6
CONTINUOUS
10
8.261044
20
787.884347
30
0.0
11
8.398346
21
787.884887
31
0.0
0
LINE
8
0
6
CONTINUOUS
10
8.872805
20
787.900852
30
0.0
11
9.004305
21
787.898258
31
0.0
0
LINE
8
0
6
CONTINUOUS
10
10.672705
20
787.894133
30
0.0
11
10.965272
21
787.872342
31
0.0
0
LINE
8
0
6
CONTINUOUS
10
3.779838
20
787.918724
30
0.0
11
4.713077
21
787.921842
31
0.0
0
LINE
8
0
6
CONTINUOUS
10
8.398346
20
787.884887
30
0.0
11
8.872805
21
787.900852
31
0.0
0
LINE
8
0
6
CONTINUOUS
10
-8.553637
20
833.647267
30
0.0
11
-12.080670
21
833.647270
31
0.0
0
LINE
8
0
6
CONTINUOUS
10
-16.892880
20
787.911552
30
0.0
11
-18.150334
21
787.870024
31
0.0
0
LINE
8
0
6
CONTINUOUS
10
-12.078776
20
787.901143
30
0.0
11
-11.782891
21
787.898015
31
0.0
0
LINE
8
0
6
CONTINUOUS
10
-18.493462
20
787.901613
30
0.0
11
-18.565846
21
787.899700
31
0.0
0
LINE
8
0
6
CONTINUOUS
10
-18.249338
20
787.880931
30
0.0
11
-18.493462
21
787.901613
31
0.0
0
LINE
8
0
6
CONTINUOUS
10
-18.166572
20
787.873894
30
0.0
11
-18.249338
21
787.880931
31
0.0
0
LINE
8
0
6
CONTINUOUS
10
9.472439
20
787.914451
30
0.0
11
9.597329
21
787.909083
31
0.0
0
LINE
8
0
6
CONTINUOUS
10
-16.707545
20
787.918765
30
0.0
11
-16.892880
21
787.911552
31
0.0
0
LINE
8
0
6
CONTINUOUS
10
-16.029867
20
787.921885
30
0.0
11
-16.707545
21
787.918765
31
0.0
0
LINE
8
0
6
CONTINUOUS
10
9.004305
20
787.898258
30
0.0
11
9.472439
21
787.914451
31
0.0
0
LINE
8
0
6
CONTINUOUS
10
-3.735640
20
833.647276
30
0.0
11
1.082349
21
833.647293
31
0.0
0
LINE
8
0
6
CONTINUOUS
10
-13.451538
20
787.884404
30
0.0
11
-13.143720
21
787.885199
31
0.0
0
LINE
8
0
6
CONTINUOUS
10
-2.180998
20
787.898887
30
0.0
11
-1.479321
21
787.901867
31
0.0
0
LINE
8
0
6
CONTINUOUS
10
7.302671
20
787.900200
30
0.0
11
8.259606
21
787.884244
31
0.0
0
LINE
8
0
6
CONTINUOUS
10
-15.186925
20
787.926723
30
0.0
11
-16.029867
21
787.921885
31
0.0
0
LINE
8
0
6
CONTINUOUS
10
10.066389
20
787.905756
30
0.0
11
10.202799
21
787.897564
31
0.0
0
LINE
8
0
6
CONTINUOUS
10
-12.080670
20
833.647270
30
0.0
11
-13.371649
21
833.647282
31
0.0
0
LINE
8
0
6
CONTINUOUS
10
-13.454767
20
787.884300
30
0.0
11
-14.149601
21
787.900249
31
0.0
0
LINE
8
0
6
CONTINUOUS
10
0.850505
20
787.881214
30
0.0
11
1.639817
21
787.874250
31
0.0
0
LINE
8
0
6
CONTINUOUS
10
-1.479321
20
787.901867
30
0.0
11
0.850505
21
787.881214
31
0.0
0
LINE
8
0
6
CONTINUOUS
10
4.609387
20
833.647314
30
0.0
11
5.900366
21
833.647333
31
0.0
0
LINE
8
0
6
CONTINUOUS
10
-8.553637
20
833.647267
30
0.0
11
-3.735640
21
833.647276
31
0.0
0
LINE
8
0
6
CONTINUOUS
10
-9.160340
20
151.657938
30
0.0
11
-6.099623
21
151.318215
31
0.0
0
LINE
8
0
6
CONTINUOUS
10
10.202799
20
787.897564
30
0.0
11
10.672705
21
787.894133
31
0.0
0
LINE
8
0
6
CONTINUOUS
10
10.965272
20
787.872342
30
0.0
11
11.512033
21
787.843874
31
0.0
0
LINE
8
0
6
CONTINUOUS
10
9.597329
20
787.909083
30
0.0
11
10.066389
21
787.905756
31
0.0
0
LINE
8
0
6
CONTINUOUS
10
1.793033
20
787.870434
30
0.0
11
3.526060
21
787.911936
31
0.0
0
LINE
8
0
6
CONTINUOUS
10
4.713077
20
787.921842
30
0.0
11
5.873842
21
787.926612
31
0.0
0
LINE
8
0
6
CONTINUOUS
10
3.526060
20
787.911936
30
0.0
11
3.779838
21
787.918724
31
0.0
0
LINE
8
0
6
CONTINUOUS
10
-13.143720
20
787.885199
30
0.0
11
-12.078776
21
787.901143
31
0.0
0
LINE
8
0
6
CONTINUOUS
10
-9.399706
20
787.905744
30
0.0
11
-9.094157
21
787.897707
31
0.0
0
LINE
8
0
6
CONTINUOUS
10
-10.452402
20
787.909075
30
0.0
11
-9.399706
21
787.905744
31
0.0
0
LINE
8
0
6
CONTINUOUS
10
-10.732289
20
787.914223
30
0.0
11
-10.452402
21
787.909075
31
0.0
0
LINE
8
0
6
CONTINUOUS
10
-11.782891
20
787.898015
30
0.0
11
-10.732289
21
787.914223
31
0.0
0
LINE
8
0
6
CONTINUOUS
10
-9.094157
20
787.897707
30
0.0
11
-8.039556
21
787.894279
31
0.0
0
LINE
8
0
6
CONTINUOUS
10
-7.382289
20
787.872326
30
0.0
11
-6.155144
21
787.843852
31
0.0
0
LINE
8
0
6
CONTINUOUS
10
1.639817
20
787.874250
30
0.0
11
1.793033
21
787.870434
31
0.0
0
LINE
8
0
6
CONTINUOUS
10
-6.155144
20
787.843852
30
0.0
11
-5.131156
21
787.871745
31
0.0
0
LINE
8
0
6
CONTINUOUS
10
-5.131156
20
787.871745
30
0.0
11
-2.180998
21
787.898887
31
0.0
0
ENDSEC
0
EOF
