999
Erzeugt mit innoplus bad 
0
SECTION
2
HEADER
9
$ACADVER
1
AC1009
9
$DWGCODEPAGE
3
ISO8859-1
0
ENDSEC
0
SECTION
2
TABLES
0
TABLE
2
LAYER
70
1
0
LAYER
2
0
70
0
62
7
6
CONTINUOUS
0
ENDTAB
0
ENDSEC
0
SECTION
2
ENTITIES
0
LINE
8
0
6
CONTINUOUS
10
45.953985
20
73.586010
30
0.0
11
45.953985
21
87.814210
31
0.0
0
LINE
8
0
6
CONTINUOUS
10
37.419695
20
87.814189
30
0.0
11
37.419695
21
73.586010
31
0.0
0
LINE
8
0
6
CONTINUOUS
10
41.686835
20
72.854690
30
0.0
11
43.319805
21
72.854690
31
0.0
0
LINE
8
0
6
CONTINUOUS
10
43.319805
20
72.854690
30
0.0
11
44.704165
21
72.854690
31
0.0
0
LINE
8
0
6
CONTINUOUS
10
44.704165
20
72.854690
30
0.0
11
45.629165
21
72.854690
31
0.0
0
LINE
8
0
6
CONTINUOUS
10
45.953985
20
72.854690
30
0.0
11
45.953985
21
73.586010
31
0.0
0
LINE
8
0
6
CONTINUOUS
10
45.629165
20
72.854690
30
0.0
11
45.953985
21
72.854690
31
0.0
0
LINE
8
0
6
CONTINUOUS
10
37.419695
20
72.854690
30
0.0
11
37.744515
21
72.854690
31
0.0
0
LINE
8
0
6
CONTINUOUS
10
37.419695
20
73.586010
30
0.0
11
37.419695
21
72.854690
31
0.0
0
LINE
8
0
6
CONTINUOUS
10
37.744515
20
72.854690
30
0.0
11
38.669515
21
72.854690
31
0.0
0
LINE
8
0
6
CONTINUOUS
10
38.669515
20
72.854690
30
0.0
11
40.053875
21
72.854690
31
0.0
0
LINE
8
0
6
CONTINUOUS
10
40.053875
20
72.854690
30
0.0
11
41.686835
21
72.854690
31
0.0
0
LINE
8
0
6
CONTINUOUS
10
49.448865
20
117.895080
30
0.0
11
19.551105
21
117.895080
31
0.0
0
LINE
8
0
6
CONTINUOUS
10
19.551105
20
87.814210
30
0.0
11
37.419695
21
87.814210
31
0.0
0
LINE
8
0
6
CONTINUOUS
10
45.953959
20
87.814210
30
0.0
11
49.448865
21
87.814210
31
0.0
0
LINE
8
0
6
CONTINUOUS
10
18.686785
20
87.814210
30
0.0
11
19.551105
21
87.814210
31
0.0
0
LINE
8
0
6
CONTINUOUS
10
18.686785
20
88.550340
30
0.0
11
18.686785
21
87.814210
31
0.0
0
LINE
8
0
6
CONTINUOUS
10
50.313185
20
87.814210
30
0.0
11
50.313185
21
88.550340
31
0.0
0
LINE
8
0
6
CONTINUOUS
10
49.448865
20
87.814210
30
0.0
11
50.313185
21
87.814210
31
0.0
0
LINE
8
0
6
CONTINUOUS
10
18.686785
20
90.686680
30
0.0
11
18.686785
21
88.550340
31
0.0
0
LINE
8
0
6
CONTINUOUS
10
50.313185
20
88.550340
30
0.0
11
50.313185
21
90.686680
31
0.0
0
LINE
8
0
6
CONTINUOUS
10
18.686785
20
94.014100
30
0.0
11
18.686785
21
90.686680
31
0.0
0
LINE
8
0
6
CONTINUOUS
10
50.313185
20
90.686680
30
0.0
11
50.313185
21
94.014100
31
0.0
0
LINE
8
0
6
CONTINUOUS
10
18.686785
20
98.206900
30
0.0
11
18.686785
21
94.014100
31
0.0
0
LINE
8
0
6
CONTINUOUS
10
50.313185
20
94.014100
30
0.0
11
50.313185
21
98.206900
31
0.0
0
LINE
8
0
6
CONTINUOUS
10
18.686785
20
102.854660
30
0.0
11
18.686785
21
98.206900
31
0.0
0
LINE
8
0
6
CONTINUOUS
10
50.313185
20
98.206900
30
0.0
11
50.313185
21
102.854660
31
0.0
0
LINE
8
0
6
CONTINUOUS
10
18.686785
20
107.502410
30
0.0
11
18.686785
21
102.854660
31
0.0
0
LINE
8
0
6
CONTINUOUS
10
50.313185
20
102.854660
30
0.0
11
50.313185
21
107.502410
31
0.0
0
LINE
8
0
6
CONTINUOUS
10
18.686785
20
111.695200
30
0.0
11
18.686785
21
107.502410
31
0.0
0
LINE
8
0
6
CONTINUOUS
10
50.313185
20
107.502410
30
0.0
11
50.313185
21
111.695200
31
0.0
0
LINE
8
0
6
CONTINUOUS
10
18.686785
20
115.022620
30
0.0
11
18.686785
21
111.695200
31
0.0
0
LINE
8
0
6
CONTINUOUS
10
50.313185
20
111.695200
30
0.0
11
50.313185
21
115.022620
31
0.0
0
LINE
8
0
6
CONTINUOUS
10
18.686785
20
117.158950
30
0.0
11
18.686785
21
115.022620
31
0.0
0
LINE
8
0
6
CONTINUOUS
10
50.313185
20
115.022620
30
0.0
11
50.313185
21
117.158950
31
0.0
0
LINE
8
0
6
CONTINUOUS
10
18.686785
20
117.895080
30
0.0
11
18.686785
21
117.158950
31
0.0
0
LINE
8
0
6
CONTINUOUS
10
19.551105
20
117.895080
30
0.0
11
18.686785
21
117.895080
31
0.0
0
LINE
8
0
6
CONTINUOUS
10
50.313185
20
117.895080
30
0.0
11
49.448865
21
117.895080
31
0.0
0
LINE
8
0
6
CONTINUOUS
10
50.313185
20
117.158950
30
0.0
11
50.313185
21
117.895080
31
0.0
0
LINE
8
0
6
CONTINUOUS
10
9.081235
20
88.355070
30
0.0
11
17.518055
21
88.355070
31
0.0
0
LINE
8
0
6
CONTINUOUS
10
4.641145
20
88.058320
30
0.0
11
8.666145
21
88.355070
31
0.0
0
LINE
8
0
6
CONTINUOUS
10
-0.941657
20
86.095899
30
0.0
11
1.167465
21
87.139310
31
0.0
0
LINE
8
0
6
CONTINUOUS
10
8.666075
20
117.353600
30
0.0
11
4.641285
21
117.650930
31
0.0
0
LINE
8
0
6
CONTINUOUS
10
4.641285
20
117.650930
30
0.0
11
1.167685
21
118.570140
31
0.0
0
LINE
8
0
6
CONTINUOUS
10
1.167465
20
87.139310
30
0.0
11
4.641145
21
88.058320
31
0.0
0
LINE
8
0
6
CONTINUOUS
10
17.517975
20
117.353600
30
0.0
11
9.081175
21
117.353600
31
0.0
0
LINE
8
0
6
CONTINUOUS
10
2.766805
20
95.866460
30
0.0
11
3.686805
21
102.854580
31
0.0
0
LINE
8
0
6
CONTINUOUS
10
-47.889570
20
113.472757
30
0.0
11
-49.393195
21
109.842700
31
0.0
0
LINE
8
0
6
CONTINUOUS
10
1.262922
20
113.467524
30
0.0
11
2.766805
21
109.842690
31
0.0
0
LINE
8
0
6
CONTINUOUS
10
-50.313195
20
102.854580
30
0.0
11
-49.393195
21
95.866470
31
0.0
0
LINE
8
0
6
CONTINUOUS
10
-23.313195
20
129.854580
30
0.0
11
-30.301305
21
128.934580
31
0.0
0
LINE
8
0
6
CONTINUOUS
10
-16.325075
20
128.934580
30
0.0
11
-23.313195
21
129.854580
31
0.0
0
LINE
8
0
6
CONTINUOUS
10
2.766805
20
95.866460
30
0.0
11
0.065865
21
89.357350
31
0.0
0
LINE
8
0
6
CONTINUOUS
10
3.686805
20
102.854580
30
0.0
11
2.766805
21
109.842690
31
0.0
0
LINE
8
0
6
CONTINUOUS
10
-49.393195
20
95.866470
30
0.0
11
-46.695885
21
89.354580
31
0.0
0
LINE
8
0
6
CONTINUOUS
10
-46.695885
20
89.354580
30
0.0
11
-45.907151
21
88.326682
31
0.0
0
LINE
8
0
6
CONTINUOUS
10
-49.393195
20
109.842700
30
0.0
11
-50.313195
21
102.854580
31
0.0
0
LINE
8
0
6
CONTINUOUS
10
0.065865
20
89.357350
30
0.0
11
-0.718496
21
88.333827
31
0.0
0
LINE
8
0
6
CONTINUOUS
10
8.666145
20
88.355070
30
0.0
11
9.081235
21
88.355070
31
0.0
0
LINE
8
0
6
CONTINUOUS
10
9.081175
20
117.353600
30
0.0
11
8.666075
21
117.353600
31
0.0
0
LINE
8
0
6
CONTINUOUS
10
18.019595
20
91.274950
30
0.0
11
18.035145
21
96.022080
31
0.0
0
LINE
8
0
6
CONTINUOUS
10
17.518055
20
88.355070
30
0.0
11
18.018055
21
88.355070
31
0.0
0
LINE
8
0
6
CONTINUOUS
10
18.018055
20
88.355070
30
0.0
11
18.019595
21
91.274950
31
0.0
0
LINE
8
0
6
CONTINUOUS
10
18.036795
20
102.861290
30
0.0
11
18.033835
21
109.680070
31
0.0
0
LINE
8
0
6
CONTINUOUS
10
18.035145
20
96.022080
30
0.0
11
18.036795
21
102.861290
31
0.0
0
LINE
8
0
6
CONTINUOUS
10
18.033835
20
109.680070
30
0.0
11
18.020905
21
114.408970
31
0.0
0
LINE
8
0
6
CONTINUOUS
10
18.017985
20
117.353600
30
0.0
11
17.517975
21
117.353600
31
0.0
0
LINE
8
0
6
CONTINUOUS
10
18.020905
20
114.408970
30
0.0
11
18.017985
21
117.353600
31
0.0
0
LINE
8
0
6
CONTINUOUS
10
-39.691855
20
-111.737820
30
0.0
11
-39.691855
21
-113.459830
31
0.0
0
LINE
8
0
6
CONTINUOUS
10
-39.691855
20
-113.459830
30
0.0
11
-39.107365
21
-117.675590
31
0.0
0
LINE
8
0
6
CONTINUOUS
10
-39.107365
20
-117.675590
30
0.0
11
-37.470765
21
-121.657220
31
0.0
0
LINE
8
0
6
CONTINUOUS
10
-37.470765
20
-121.657220
30
0.0
11
-34.898975
21
-125.053270
31
0.0
0
LINE
8
0
6
CONTINUOUS
10
-39.691855
20
-111.630230
30
0.0
11
-39.691855
21
-111.737820
31
0.0
0
LINE
8
0
6
CONTINUOUS
10
-27.534305
20
-129.269020
30
0.0
11
-23.325915
21
-129.854580
31
0.0
0
LINE
8
0
6
CONTINUOUS
10
-31.508885
20
-127.629600
30
0.0
11
-27.534305
21
-129.269020
31
0.0
0
LINE
8
0
6
CONTINUOUS
10
-34.898975
20
-125.053270
30
0.0
11
-31.508885
21
-127.629600
31
0.0
0
LINE
8
0
6
CONTINUOUS
10
-39.691855
20
-92.276530
30
0.0
11
-39.691855
21
-109.694860
31
0.0
0
LINE
8
0
6
CONTINUOUS
10
-39.691855
20
-69.175050
30
0.0
11
-39.691855
21
-92.276530
31
0.0
0
LINE
8
0
6
CONTINUOUS
10
-39.691855
20
-43.924840
30
0.0
11
-39.691855
21
-69.175050
31
0.0
0
LINE
8
0
6
CONTINUOUS
10
-39.691855
20
-19.516110
30
0.0
11
-39.691855
21
-43.924840
31
0.0
0
LINE
8
0
6
CONTINUOUS
10
-39.691855
20
9.956900
30
0.0
11
-39.691855
21
-19.516110
31
0.0
0
LINE
8
0
6
CONTINUOUS
10
-39.691855
20
17.328195
30
0.0
11
-39.691855
21
9.956900
31
0.0
0
LINE
8
0
6
CONTINUOUS
10
-6.959975
20
9.956900
30
0.0
11
-6.959975
21
17.025213
31
0.0
0
LINE
8
0
6
CONTINUOUS
10
-6.959975
20
-19.516110
30
0.0
11
-6.959975
21
9.956900
31
0.0
0
LINE
8
0
6
CONTINUOUS
10
-6.959975
20
-43.924840
30
0.0
11
-6.959975
21
-19.516110
31
0.0
0
LINE
8
0
6
CONTINUOUS
10
-6.959975
20
-69.175050
30
0.0
11
-6.959975
21
-43.924840
31
0.0
0
LINE
8
0
6
CONTINUOUS
10
-6.959975
20
-113.459830
30
0.0
11
-6.959975
21
-111.737820
31
0.0
0
LINE
8
0
6
CONTINUOUS
10
-7.544475
20
-117.675590
30
0.0
11
-6.959975
21
-113.459830
31
0.0
0
LINE
8
0
6
CONTINUOUS
10
-9.181065
20
-121.657220
30
0.0
11
-7.544475
21
-117.675590
31
0.0
0
LINE
8
0
6
CONTINUOUS
10
-11.752855
20
-125.053270
30
0.0
11
-9.181065
21
-121.657220
31
0.0
0
LINE
8
0
6
CONTINUOUS
10
-6.959975
20
-111.737820
30
0.0
11
-6.959975
21
-111.630230
31
0.0
0
LINE
8
0
6
CONTINUOUS
10
-23.325915
20
-129.854580
30
0.0
11
-19.117535
21
-129.269020
31
0.0
0
LINE
8
0
6
CONTINUOUS
10
-19.117535
20
-129.269020
30
0.0
11
-15.142945
21
-127.629600
31
0.0
0
LINE
8
0
6
CONTINUOUS
10
-15.142945
20
-127.629600
30
0.0
11
-11.752855
21
-125.053270
31
0.0
0
LINE
8
0
6
CONTINUOUS
10
-6.959975
20
-109.694860
30
0.0
11
-6.959975
21
-92.276530
31
0.0
0
LINE
8
0
6
CONTINUOUS
10
-6.959975
20
-92.276530
30
0.0
11
-6.959975
21
-69.175050
31
0.0
0
LINE
8
0
6
CONTINUOUS
10
-39.691855
20
-109.694860
30
0.0
11
-39.691855
21
-111.630230
31
0.0
0
LINE
8
0
6
CONTINUOUS
10
-6.959975
20
-111.630230
30
0.0
11
-6.959975
21
-109.694860
31
0.0
0
LINE
8
0
6
CONTINUOUS
10
-45.769515
20
87.393210
30
0.0
11
-45.244945
21
81.409790
31
0.0
0
LINE
8
0
6
CONTINUOUS
10
-47.889570
20
113.472757
30
0.0
11
-47.670405
21
109.025340
31
0.0
0
LINE
8
0
6
CONTINUOUS
10
-38.582065
20
6.274220
30
0.0
11
-38.025865
21
3.734590
31
0.0
0
LINE
8
0
6
CONTINUOUS
10
-36.888395
20
1.375690
30
0.0
11
-34.972825
21
-0.653260
31
0.0
0
LINE
8
0
6
CONTINUOUS
10
-38.025865
20
3.734590
30
0.0
11
-36.888395
21
1.375690
31
0.0
0
LINE
8
0
6
CONTINUOUS
10
-34.972825
20
-0.653260
30
0.0
11
-32.316375
21
-2.051440
31
0.0
0
LINE
8
0
6
CONTINUOUS
10
-38.964725
20
8.668960
30
0.0
11
-38.582065
21
6.274220
31
0.0
0
LINE
8
0
6
CONTINUOUS
10
-32.316375
20
-2.051440
30
0.0
11
-29.363965
21
-2.736810
31
0.0
0
LINE
8
0
6
CONTINUOUS
10
-29.363965
20
-2.736810
30
0.0
11
-26.350125
21
-3.101800
31
0.0
0
LINE
8
0
6
CONTINUOUS
10
-44.086945
20
68.082800
30
0.0
11
-43.387795
21
60.036470
31
0.0
0
LINE
8
0
6
CONTINUOUS
10
-23.313195
20
128.931430
30
0.0
11
-28.822555
21
128.670250
31
0.0
0
LINE
8
0
6
CONTINUOUS
10
-45.244945
20
81.409790
30
0.0
11
-44.786095
21
76.129140
31
0.0
0
LINE
8
0
6
CONTINUOUS
10
-42.626955
20
52.281670
30
0.0
11
-38.964725
21
8.668960
31
0.0
0
LINE
8
0
6
CONTINUOUS
10
-45.694835
20
121.975910
30
0.0
11
-47.285965
21
118.606060
31
0.0
0
LINE
8
0
6
CONTINUOUS
10
-42.688645
20
51.990140
30
0.0
11
-39.691855
21
17.500957
31
0.0
0
LINE
8
0
6
CONTINUOUS
10
-28.822555
20
128.670250
30
0.0
11
-34.273445
21
127.908180
31
0.0
0
LINE
8
0
6
CONTINUOUS
10
-34.273445
20
127.908180
30
0.0
11
-39.604705
21
126.461250
31
0.0
0
LINE
8
0
6
CONTINUOUS
10
-39.604705
20
126.461250
30
0.0
11
-43.000405
21
124.604730
31
0.0
0
LINE
8
0
6
CONTINUOUS
10
-43.000405
20
124.604730
30
0.0
11
-45.694835
21
121.975910
31
0.0
0
LINE
8
0
6
CONTINUOUS
10
-47.285965
20
118.606060
30
0.0
11
-47.911045
21
113.837630
31
0.0
0
LINE
8
0
6
CONTINUOUS
10
-44.786095
20
76.129140
30
0.0
11
-44.086945
21
68.082800
31
0.0
0
LINE
8
0
6
CONTINUOUS
10
-43.387795
20
60.036470
30
0.0
11
-42.688645
21
51.990140
31
0.0
0
LINE
8
0
6
CONTINUOUS
10
-26.350125
20
-3.101800
30
0.0
11
-23.313195
21
-3.150290
31
0.0
0
LINE
8
0
6
CONTINUOUS
10
-23.313195
20
-3.103400
30
0.0
11
-26.350125
21
-3.101800
31
0.0
0
LINE
8
0
6
CONTINUOUS
10
-1.381445
20
81.409780
30
0.0
11
-0.864395
21
87.360430
31
0.0
0
LINE
8
0
6
CONTINUOUS
10
1.044015
20
109.025340
30
0.0
11
1.108208
21
110.327981
31
0.0
0
LINE
8
0
6
CONTINUOUS
10
-8.600515
20
3.734590
30
0.0
11
-8.044325
21
6.274220
31
0.0
0
LINE
8
0
6
CONTINUOUS
10
-11.653565
20
-0.653260
30
0.0
11
-9.737995
21
1.375690
31
0.0
0
LINE
8
0
6
CONTINUOUS
10
-9.737995
20
1.375690
30
0.0
11
-8.600515
21
3.734590
31
0.0
0
LINE
8
0
6
CONTINUOUS
10
-14.310015
20
-2.051440
30
0.0
11
-11.653565
21
-0.653260
31
0.0
0
LINE
8
0
6
CONTINUOUS
10
-8.044325
20
6.274220
30
0.0
11
-7.661665
21
8.668960
31
0.0
0
LINE
8
0
6
CONTINUOUS
10
-17.262415
20
-2.736810
30
0.0
11
-14.310015
21
-2.051440
31
0.0
0
LINE
8
0
6
CONTINUOUS
10
-20.276255
20
-3.101800
30
0.0
11
-17.262415
21
-2.736810
31
0.0
0
LINE
8
0
6
CONTINUOUS
10
-3.238585
20
60.036470
30
0.0
11
-2.539435
21
68.082800
31
0.0
0
LINE
8
0
6
CONTINUOUS
10
-17.803835
20
128.670250
30
0.0
11
-23.313195
21
128.931430
31
0.0
0
LINE
8
0
6
CONTINUOUS
10
-1.840285
20
76.129130
30
0.0
11
-1.381445
21
81.409780
31
0.0
0
LINE
8
0
6
CONTINUOUS
10
-7.661665
20
8.668960
30
0.0
11
-3.999425
21
52.281670
31
0.0
0
LINE
8
0
6
CONTINUOUS
10
0.659585
20
118.606060
30
0.0
11
-0.931545
21
121.975910
31
0.0
0
LINE
8
0
6
CONTINUOUS
10
-6.959975
20
17.208154
30
0.0
11
-3.937735
21
51.990150
31
0.0
0
LINE
8
0
6
CONTINUOUS
10
-12.352935
20
127.908180
30
0.0
11
-17.803835
21
128.670250
31
0.0
0
LINE
8
0
6
CONTINUOUS
10
-7.021685
20
126.461250
30
0.0
11
-12.352935
21
127.908180
31
0.0
0
LINE
8
0
6
CONTINUOUS
10
-3.625985
20
124.604730
30
0.0
11
-7.021685
21
126.461250
31
0.0
0
LINE
8
0
6
CONTINUOUS
10
-0.931545
20
121.975910
30
0.0
11
-3.625985
21
124.604730
31
0.0
0
LINE
8
0
6
CONTINUOUS
10
1.284665
20
113.837630
30
0.0
11
0.659585
21
118.606060
31
0.0
0
LINE
8
0
6
CONTINUOUS
10
-2.539435
20
68.082800
30
0.0
11
-1.840285
21
76.129130
31
0.0
0
LINE
8
0
6
CONTINUOUS
10
-3.937735
20
51.990150
30
0.0
11
-3.238585
21
60.036470
31
0.0
0
LINE
8
0
6
CONTINUOUS
10
-48.962975
20
102.865530
30
0.0
11
-48.589475
21
98.363220
31
0.0
0
LINE
8
0
6
CONTINUOUS
10
-48.467695
20
107.440230
30
0.0
11
-48.962975
21
102.865530
31
0.0
0
LINE
8
0
6
CONTINUOUS
10
-48.589475
20
98.363220
30
0.0
11
-47.306525
21
93.640000
31
0.0
0
LINE
8
0
6
CONTINUOUS
10
-47.521465
20
111.954550
30
0.0
11
-48.467695
21
107.440230
31
0.0
0
LINE
8
0
6
CONTINUOUS
10
-47.306525
20
93.640000
30
0.0
11
-45.557435
21
90.183730
31
0.0
0
LINE
8
0
6
CONTINUOUS
10
2.006005
20
98.610910
30
0.0
11
2.336595
21
102.865520
31
0.0
0
LINE
8
0
6
CONTINUOUS
10
2.336595
20
102.865520
30
0.0
11
1.841305
21
107.440210
31
0.0
0
LINE
8
0
6
CONTINUOUS
10
0.964075
20
94.445160
30
0.0
11
2.006005
21
98.610910
31
0.0
0
LINE
8
0
6
CONTINUOUS
10
1.841305
20
107.440210
30
0.0
11
0.895075
21
111.954540
31
0.0
0
LINE
8
0
6
CONTINUOUS
10
-0.859425
20
90.557530
30
0.0
11
0.964075
21
94.445160
31
0.0
0
LINE
8
0
6
CONTINUOUS
10
-47.723955
20
112.913710
30
0.0
11
-48.044215
21
108.267720
31
0.0
0
LINE
8
0
6
CONTINUOUS
10
-47.886709
20
110.090591
30
0.0
11
-47.948575
21
108.461550
31
0.0
0
LINE
8
0
6
CONTINUOUS
10
-47.817505
20
113.375670
30
0.0
11
-47.852945
21
108.655370
31
0.0
0
LINE
8
0
6
CONTINUOUS
10
-47.677175
20
112.682730
30
0.0
11
-48.139845
21
108.073900
31
0.0
0
LINE
8
0
6
CONTINUOUS
10
-23.313195
20
-3.150290
30
0.0
11
-20.276255
21
-3.101800
31
0.0
0
LINE
8
0
6
CONTINUOUS
10
-20.276255
20
-3.101800
30
0.0
11
-23.313195
21
-3.103400
31
0.0
0
LINE
8
0
6
CONTINUOUS
10
-46.443525
20
93.494790
30
0.0
11
-45.843925
21
87.717480
31
0.0
0
LINE
8
0
6
CONTINUOUS
10
-45.843925
20
87.717480
30
0.0
11
-45.225675
21
81.419800
31
0.0
0
LINE
8
0
6
CONTINUOUS
10
-47.670405
20
109.025340
30
0.0
11
-47.724391
21
110.301065
31
0.0
0
LINE
8
0
6
CONTINUOUS
10
-47.862722
20
113.537574
30
0.0
11
-47.757315
21
108.849190
31
0.0
0
LINE
8
0
6
CONTINUOUS
10
1.417825
20
108.267720
30
0.0
11
1.097565
21
112.913710
31
0.0
0
LINE
8
0
6
CONTINUOUS
10
1.322195
20
108.461550
30
0.0
11
1.144345
21
113.144690
31
0.0
0
LINE
8
0
6
CONTINUOUS
10
1.226565
20
108.655370
30
0.0
11
1.191115
21
113.375670
31
0.0
0
LINE
8
0
6
CONTINUOUS
10
1.513465
20
108.073900
30
0.0
11
1.050795
21
112.682730
31
0.0
0
LINE
8
0
6
CONTINUOUS
10
-0.782465
20
87.717480
30
0.0
11
-0.182855
21
93.494790
31
0.0
0
LINE
8
0
6
CONTINUOUS
10
-1.400715
20
81.419800
30
0.0
11
-0.782465
21
87.717480
31
0.0
0
LINE
8
0
6
CONTINUOUS
10
1.098003
20
110.301060
30
0.0
11
1.044015
21
109.025340
31
0.0
0
LINE
8
0
6
CONTINUOUS
10
1.130925
20
108.849190
30
0.0
11
1.237895
21
113.606650
31
0.0
0
ENDSEC
0
EOF
