999
Erzeugt mit innoplus bad 
0
SECTION
2
HEADER
9
$ACADVER
1
AC1009
9
$DWGCODEPAGE
3
ISO8859-1
0
ENDSEC
0
SECTION
2
TABLES
0
TABLE
2
LAYER
70
1
0
LAYER
2
0
70
0
62
7
6
CONTINUOUS
0
ENDTAB
0
ENDSEC
0
SECTION
2
ENTITIES
0
LINE
8
0
6
CONTINUOUS
10
17.823517
20
122.416009
30
0.0
11
15.087195
21
122.693340
31
0.0
0
LINE
8
0
6
CONTINUOUS
10
40.512565
20
124.571320
30
0.0
11
39.352455
21
124.571320
31
0.0
0
LINE
8
0
6
CONTINUOUS
10
37.032215
20
124.571320
30
0.0
11
35.872095
21
124.571320
31
0.0
0
LINE
8
0
6
CONTINUOUS
10
38.192335
20
124.571320
30
0.0
11
37.032215
21
124.571320
31
0.0
0
LINE
8
0
6
CONTINUOUS
10
43.992575
20
124.570120
30
0.0
11
42.832625
21
124.570730
31
0.0
0
LINE
8
0
6
CONTINUOUS
10
42.255635
20
85.552600
30
0.0
11
48.029455
21
35.848570
31
0.0
0
LINE
8
0
6
CONTINUOUS
10
39.352455
20
124.571320
30
0.0
11
38.192335
21
124.571320
31
0.0
0
LINE
8
0
6
CONTINUOUS
10
59.634155
20
38.634670
30
0.0
11
59.747385
21
38.004470
31
0.0
0
LINE
8
0
6
CONTINUOUS
10
60.005235
20
36.652960
30
0.0
11
59.875885
21
37.318050
31
0.0
0
LINE
8
0
6
CONTINUOUS
10
60.124685
20
36.055760
30
0.0
11
60.005235
21
36.652960
31
0.0
0
LINE
8
0
6
CONTINUOUS
10
59.875885
20
37.318050
30
0.0
11
59.747385
21
38.004470
31
0.0
0
LINE
8
0
6
CONTINUOUS
10
60.236965
20
35.503590
30
0.0
11
60.124685
21
36.055760
31
0.0
0
LINE
8
0
6
CONTINUOUS
10
44.976425
20
124.228770
30
0.0
11
45.203185
21
122.453720
31
0.0
0
LINE
8
0
6
CONTINUOUS
10
45.024315
20
124.569590
30
0.0
11
43.992575
21
124.570120
31
0.0
0
LINE
8
0
6
CONTINUOUS
10
45.024315
20
124.569590
30
0.0
11
44.976425
21
124.228770
31
0.0
0
LINE
8
0
6
CONTINUOUS
10
46.756105
20
116.900910
30
0.0
11
45.957065
21
120.717720
31
0.0
0
LINE
8
0
6
CONTINUOUS
10
45.957065
20
120.717720
30
0.0
11
45.360905
21
123.362530
31
0.0
0
LINE
8
0
6
CONTINUOUS
10
45.360905
20
123.362530
30
0.0
11
45.024315
21
124.569590
31
0.0
0
LINE
8
0
6
CONTINUOUS
10
45.203185
20
122.453720
30
0.0
11
45.689045
21
119.375910
31
0.0
0
LINE
8
0
6
CONTINUOUS
10
45.689045
20
119.375910
30
0.0
11
46.393975
21
115.206350
31
0.0
0
LINE
8
0
6
CONTINUOUS
10
47.148765
20
110.809790
30
0.0
11
46.393975
21
115.206350
31
0.0
0
LINE
8
0
6
CONTINUOUS
10
49.894295
20
94.817160
30
0.0
11
49.258335
21
98.521540
31
0.0
0
LINE
8
0
6
CONTINUOUS
10
49.258335
20
98.521540
30
0.0
11
48.622395
21
102.225910
31
0.0
0
LINE
8
0
6
CONTINUOUS
10
47.986455
20
105.930290
30
0.0
11
47.148765
21
110.809790
31
0.0
0
LINE
8
0
6
CONTINUOUS
10
48.622395
20
102.225910
30
0.0
11
47.986455
21
105.930290
31
0.0
0
LINE
8
0
6
CONTINUOUS
10
42.832625
20
124.570730
30
0.0
11
41.672685
21
124.571330
31
0.0
0
LINE
8
0
6
CONTINUOUS
10
41.672685
20
124.571330
30
0.0
11
40.512565
21
124.571320
31
0.0
0
LINE
8
0
6
CONTINUOUS
10
41.077675
20
80.694890
30
0.0
11
42.955045
21
79.531721
31
0.0
0
LINE
8
0
6
CONTINUOUS
10
35.999195
20
81.026520
30
0.0
11
39.412245
21
80.501210
31
0.0
0
LINE
8
0
6
CONTINUOUS
10
39.412245
20
80.501210
30
0.0
11
42.659215
21
79.806840
31
0.0
0
LINE
8
0
6
CONTINUOUS
10
49.480095
20
32.450930
30
0.0
11
50.151375
21
32.458470
31
0.0
0
LINE
8
0
6
CONTINUOUS
10
60.472515
20
34.646320
30
0.0
11
55.009695
21
69.743980
31
0.0
0
LINE
8
0
6
CONTINUOUS
10
50.553565
20
32.491380
30
0.0
11
59.547095
21
33.890950
31
0.0
0
LINE
8
0
6
CONTINUOUS
10
60.539785
20
34.195730
30
0.0
11
60.498345
21
34.477760
31
0.0
0
LINE
8
0
6
CONTINUOUS
10
48.275025
20
34.365780
30
0.0
11
48.449675
21
33.658500
31
0.0
0
LINE
8
0
6
CONTINUOUS
10
48.750225
20
32.999840
30
0.0
11
48.947745
21
32.834470
31
0.0
0
LINE
8
0
6
CONTINUOUS
10
48.449675
20
33.658500
30
0.0
11
48.750225
21
32.999840
31
0.0
0
LINE
8
0
6
CONTINUOUS
10
48.947745
20
32.834470
30
0.0
11
49.480095
21
32.450930
31
0.0
0
LINE
8
0
6
CONTINUOUS
10
60.554625
20
34.047730
30
0.0
11
60.539785
21
34.195730
31
0.0
0
LINE
8
0
6
CONTINUOUS
10
60.522075
20
34.150780
30
0.0
11
60.445555
21
34.494700
31
0.0
0
LINE
8
0
6
CONTINUOUS
10
60.445555
20
34.494700
30
0.0
11
60.346095
21
34.970510
31
0.0
0
LINE
8
0
6
CONTINUOUS
10
60.554625
20
34.047730
30
0.0
11
60.522075
21
34.150780
31
0.0
0
LINE
8
0
6
CONTINUOUS
10
59.547095
20
33.890950
30
0.0
11
60.554625
21
34.047730
31
0.0
0
LINE
8
0
6
CONTINUOUS
10
60.346095
20
34.970510
30
0.0
11
60.236965
21
35.503590
31
0.0
0
LINE
8
0
6
CONTINUOUS
10
51.807895
20
90.080670
30
0.0
11
50.906955
21
95.160160
31
0.0
0
LINE
8
0
6
CONTINUOUS
10
50.906955
20
95.160160
30
0.0
11
49.881035
21
100.764270
31
0.0
0
LINE
8
0
6
CONTINUOUS
10
47.724595
20
112.054130
30
0.0
11
46.756105
21
116.900910
31
0.0
0
LINE
8
0
6
CONTINUOUS
10
48.791865
20
106.545640
30
0.0
11
47.724595
21
112.054130
31
0.0
0
LINE
8
0
6
CONTINUOUS
10
49.881035
20
100.764270
30
0.0
11
48.791865
21
106.545640
31
0.0
0
LINE
8
0
6
CONTINUOUS
10
52.505415
20
85.965330
30
0.0
11
51.807895
21
90.080670
31
0.0
0
LINE
8
0
6
CONTINUOUS
10
53.020285
20
82.727390
30
0.0
11
52.505415
21
85.965330
31
0.0
0
LINE
8
0
6
CONTINUOUS
10
53.449265
20
79.927750
30
0.0
11
53.020285
21
82.727390
31
0.0
0
LINE
8
0
6
CONTINUOUS
10
55.009695
20
69.743980
30
0.0
11
54.648245
21
72.102850
31
0.0
0
LINE
8
0
6
CONTINUOUS
10
54.648245
20
72.102850
30
0.0
11
54.286815
21
74.461720
31
0.0
0
LINE
8
0
6
CONTINUOUS
10
53.925375
20
76.820590
30
0.0
11
53.449265
21
79.927750
31
0.0
0
LINE
8
0
6
CONTINUOUS
10
54.286815
20
74.461720
30
0.0
11
53.925375
21
76.820590
31
0.0
0
LINE
8
0
6
CONTINUOUS
10
50.356975
20
32.460780
30
0.0
11
50.553565
21
32.491380
31
0.0
0
LINE
8
0
6
CONTINUOUS
10
50.151375
20
32.458470
30
0.0
11
50.356975
21
32.460780
31
0.0
0
LINE
8
0
6
CONTINUOUS
10
49.894295
20
94.817160
30
0.0
11
59.489515
21
39.464570
31
0.0
0
LINE
8
0
6
CONTINUOUS
10
48.029455
20
35.848570
30
0.0
11
48.056535
21
35.612680
31
0.0
0
LINE
8
0
6
CONTINUOUS
10
59.634155
20
38.634670
30
0.0
11
59.535005
21
39.199630
31
0.0
0
LINE
8
0
6
CONTINUOUS
10
59.489515
20
39.464570
30
0.0
11
59.535005
21
39.199630
31
0.0
0
LINE
8
0
6
CONTINUOUS
10
60.498345
20
34.477760
30
0.0
11
60.472515
21
34.646320
31
0.0
0
LINE
8
0
6
CONTINUOUS
10
48.187975
20
34.836000
30
0.0
11
48.275025
21
34.365780
31
0.0
0
LINE
8
0
6
CONTINUOUS
10
48.056535
20
35.612680
30
0.0
11
48.187975
21
34.836000
31
0.0
0
LINE
8
0
6
CONTINUOUS
10
18.275635
20
81.026520
30
0.0
11
35.999195
21
81.026520
31
0.0
0
LINE
8
0
6
CONTINUOUS
10
35.872095
20
124.571320
30
0.0
11
24.524635
21
124.571320
31
0.0
0
LINE
8
0
6
CONTINUOUS
10
17.854105
20
122.446720
30
0.0
11
14.805255
21
119.385610
31
0.0
0
LINE
8
0
6
CONTINUOUS
10
21.025095
20
124.226420
30
0.0
11
17.854105
21
122.446720
31
0.0
0
LINE
8
0
6
CONTINUOUS
10
24.020975
20
124.572640
30
0.0
11
21.025095
21
124.226420
31
0.0
0
LINE
8
0
6
CONTINUOUS
10
24.524635
20
124.571320
30
0.0
11
24.020975
21
124.572640
31
0.0
0
LINE
8
0
6
CONTINUOUS
10
13.884785
20
115.081900
30
0.0
11
13.270715
21
110.023300
31
0.0
0
LINE
8
0
6
CONTINUOUS
10
13.053585
20
98.837090
30
0.0
11
13.473545
21
93.462250
31
0.0
0
LINE
8
0
6
CONTINUOUS
10
12.985525
20
104.503600
30
0.0
11
13.053585
21
98.837090
31
0.0
0
LINE
8
0
6
CONTINUOUS
10
13.270715
20
110.023300
30
0.0
11
12.985525
21
104.503600
31
0.0
0
LINE
8
0
6
CONTINUOUS
10
14.805255
20
119.385610
30
0.0
11
13.884785
21
115.081900
31
0.0
0
LINE
8
0
6
CONTINUOUS
10
13.473545
20
93.462250
30
0.0
11
14.214515
21
88.684580
31
0.0
0
LINE
8
0
6
CONTINUOUS
10
15.228245
20
84.861570
30
0.0
11
16.437695
21
82.249830
31
0.0
0
LINE
8
0
6
CONTINUOUS
10
17.775285
20
81.026520
30
0.0
11
18.275635
21
81.026520
31
0.0
0
LINE
8
0
6
CONTINUOUS
10
16.437695
20
82.249830
30
0.0
11
17.775285
21
81.026520
31
0.0
0
LINE
8
0
6
CONTINUOUS
10
14.214515
20
88.684580
30
0.0
11
15.228245
21
84.861570
31
0.0
0
LINE
8
0
6
CONTINUOUS
10
-18.675425
20
101.239250
30
0.0
11
-18.675425
21
102.640930
31
0.0
0
LINE
8
0
6
CONTINUOUS
10
-46.433845
20
102.640960
30
0.0
11
-46.433855
21
101.239270
31
0.0
0
LINE
8
0
6
CONTINUOUS
10
-18.675425
20
98.610530
30
0.0
11
-18.675425
21
101.239250
31
0.0
0
LINE
8
0
6
CONTINUOUS
10
-46.433855
20
101.239270
30
0.0
11
-46.433855
21
98.610540
31
0.0
0
LINE
8
0
6
CONTINUOUS
10
-18.675425
20
95.274960
30
0.0
11
-18.675425
21
98.610530
31
0.0
0
LINE
8
0
6
CONTINUOUS
10
-46.433855
20
98.610540
30
0.0
11
-46.433855
21
95.274980
31
0.0
0
LINE
8
0
6
CONTINUOUS
10
-18.675425
20
91.158700
30
0.0
11
-18.675425
21
95.274960
31
0.0
0
LINE
8
0
6
CONTINUOUS
10
-46.433855
20
95.274980
30
0.0
11
-46.433855
21
91.158720
31
0.0
0
LINE
8
0
6
CONTINUOUS
10
-18.605225
20
30.969230
30
0.0
11
-18.675425
21
43.434870
31
0.0
0
LINE
8
0
6
CONTINUOUS
10
-18.675425
20
85.590390
30
0.0
11
-18.675425
21
91.158700
31
0.0
0
LINE
8
0
6
CONTINUOUS
10
-46.433855
20
91.158720
30
0.0
11
-46.433855
21
85.590410
31
0.0
0
LINE
8
0
6
CONTINUOUS
10
-18.675425
20
79.904640
30
0.0
11
-18.675425
21
85.590390
31
0.0
0
LINE
8
0
6
CONTINUOUS
10
-46.433855
20
85.590410
30
0.0
11
-46.433855
21
79.904650
31
0.0
0
LINE
8
0
6
CONTINUOUS
10
-18.675425
20
73.649810
30
0.0
11
-18.675425
21
79.904640
31
0.0
0
LINE
8
0
6
CONTINUOUS
10
-46.433855
20
79.904650
30
0.0
11
-46.433855
21
73.649830
31
0.0
0
LINE
8
0
6
CONTINUOUS
10
-46.433855
20
43.434860
30
0.0
11
-46.503885
21
30.969220
31
0.0
0
LINE
8
0
6
CONTINUOUS
10
-18.675425
20
65.912820
30
0.0
11
-18.675425
21
73.649810
31
0.0
0
LINE
8
0
6
CONTINUOUS
10
-46.433855
20
73.649830
30
0.0
11
-46.433855
21
65.912800
31
0.0
0
LINE
8
0
6
CONTINUOUS
10
-18.675425
20
58.667710
30
0.0
11
-18.675425
21
65.912820
31
0.0
0
LINE
8
0
6
CONTINUOUS
10
-46.433855
20
65.912800
30
0.0
11
-46.433855
21
58.667700
31
0.0
0
LINE
8
0
6
CONTINUOUS
10
-18.675425
20
51.143750
30
0.0
11
-18.675425
21
58.667710
31
0.0
0
LINE
8
0
6
CONTINUOUS
10
-46.433855
20
58.667700
30
0.0
11
-46.433855
21
51.143720
31
0.0
0
LINE
8
0
6
CONTINUOUS
10
-18.675425
20
43.434870
30
0.0
11
-18.675425
21
51.143750
31
0.0
0
LINE
8
0
6
CONTINUOUS
10
-46.433855
20
51.143720
30
0.0
11
-46.433855
21
43.434860
31
0.0
0
LINE
8
0
6
CONTINUOUS
10
-25.345275
20
-129.235600
30
0.0
11
-20.067695
21
-123.970900
31
0.0
0
LINE
8
0
6
CONTINUOUS
10
-20.067695
20
-123.970900
30
0.0
11
-18.135955
21
-116.779130
31
0.0
0
LINE
8
0
6
CONTINUOUS
10
-18.135955
20
-116.779130
30
0.0
11
-18.135955
21
-116.712110
31
0.0
0
LINE
8
0
6
CONTINUOUS
10
-39.763885
20
-129.235570
30
0.0
11
-32.554585
21
-131.162600
31
0.0
0
LINE
8
0
6
CONTINUOUS
10
-46.973175
20
-116.779090
30
0.0
11
-45.041455
21
-123.970860
31
0.0
0
LINE
8
0
6
CONTINUOUS
10
-46.973175
20
-116.712030
30
0.0
11
-46.973175
21
-116.779090
31
0.0
0
LINE
8
0
6
CONTINUOUS
10
-45.041455
20
-123.970860
30
0.0
11
-39.763885
21
-129.235570
31
0.0
0
LINE
8
0
6
CONTINUOUS
10
-32.554585
20
-131.162600
30
0.0
11
-25.345275
21
-129.235600
31
0.0
0
LINE
8
0
6
CONTINUOUS
10
-47.134625
20
-109.528880
30
0.0
11
-47.134625
21
-109.953340
31
0.0
0
LINE
8
0
6
CONTINUOUS
10
-17.974535
20
-109.953340
30
0.0
11
-17.974535
21
-109.528950
31
0.0
0
LINE
8
0
6
CONTINUOUS
10
-39.844625
20
-122.582770
30
0.0
11
-32.554605
21
-124.531400
31
0.0
0
LINE
8
0
6
CONTINUOUS
10
-47.134625
20
-109.986830
30
0.0
11
-45.181285
21
-117.259130
31
0.0
0
LINE
8
0
6
CONTINUOUS
10
-19.927895
20
-117.259170
30
0.0
11
-17.974535
21
-109.986910
31
0.0
0
LINE
8
0
6
CONTINUOUS
10
-32.554605
20
-124.531400
30
0.0
11
-25.264575
21
-122.582810
31
0.0
0
LINE
8
0
6
CONTINUOUS
10
-25.264575
20
-122.582810
30
0.0
11
-19.927895
21
-117.259170
31
0.0
0
LINE
8
0
6
CONTINUOUS
10
-45.181285
20
-117.259130
30
0.0
11
-39.844625
21
-122.582770
31
0.0
0
LINE
8
0
6
CONTINUOUS
10
-32.554555
20
-94.950820
30
0.0
11
-39.844585
21
-96.899410
31
0.0
0
LINE
8
0
6
CONTINUOUS
10
-25.264535
20
-96.899450
30
0.0
11
-32.554555
21
-94.950820
31
0.0
0
LINE
8
0
6
CONTINUOUS
10
-39.844625
20
-122.091320
30
0.0
11
-32.554605
21
-124.039950
31
0.0
0
LINE
8
0
6
CONTINUOUS
10
-19.927875
20
-102.223160
30
0.0
11
-25.264535
21
-96.899450
31
0.0
0
LINE
8
0
6
CONTINUOUS
10
-45.181275
20
-116.767610
30
0.0
11
-47.134625
21
-109.495350
31
0.0
0
LINE
8
0
6
CONTINUOUS
10
-39.844585
20
-96.899410
30
0.0
11
-45.181255
21
-102.223080
31
0.0
0
LINE
8
0
6
CONTINUOUS
10
-19.927905
20
-116.767650
30
0.0
11
-17.974535
21
-109.495380
31
0.0
0
LINE
8
0
6
CONTINUOUS
10
-32.554605
20
-124.039950
30
0.0
11
-25.264575
21
-122.091320
31
0.0
0
LINE
8
0
6
CONTINUOUS
10
-25.264575
20
-122.091320
30
0.0
11
-19.927905
21
-116.767650
31
0.0
0
LINE
8
0
6
CONTINUOUS
10
-45.181275
20
-116.767610
30
0.0
11
-39.844625
21
-122.091320
31
0.0
0
LINE
8
0
6
CONTINUOUS
10
-17.974535
20
-109.495380
30
0.0
11
-19.927875
21
-102.223160
31
0.0
0
LINE
8
0
6
CONTINUOUS
10
-45.181255
20
-102.223080
30
0.0
11
-47.134625
21
-109.495350
31
0.0
0
LINE
8
0
6
CONTINUOUS
10
-18.135955
20
-116.712110
30
0.0
11
-18.135955
21
-113.199650
31
0.0
0
LINE
8
0
6
CONTINUOUS
10
-18.135965
20
-111.767690
30
0.0
11
-18.135965
21
-110.170590
31
0.0
0
LINE
8
0
6
CONTINUOUS
10
-46.504035
20
-87.834850
30
0.0
11
-46.937565
21
-106.218250
31
0.0
0
LINE
8
0
6
CONTINUOUS
10
-18.167685
20
-106.217910
30
0.0
11
-18.605095
21
-87.834850
31
0.0
0
LINE
8
0
6
CONTINUOUS
10
-46.973185
20
-110.170590
30
0.0
11
-46.973185
21
-111.767650
31
0.0
0
LINE
8
0
6
CONTINUOUS
10
-46.973175
20
-113.199610
30
0.0
11
-46.973175
21
-116.712030
31
0.0
0
LINE
8
0
6
CONTINUOUS
10
-46.937565
20
-106.218250
30
0.0
11
-47.051505
21
-109.135960
31
0.0
0
LINE
8
0
6
CONTINUOUS
10
-47.082845
20
-110.351980
30
0.0
11
-46.973175
21
-113.199610
31
0.0
0
LINE
8
0
6
CONTINUOUS
10
-18.135955
20
-113.199650
30
0.0
11
-18.011505
21
-110.355710
31
0.0
0
LINE
8
0
6
CONTINUOUS
10
-46.503885
20
30.969220
30
0.0
11
-46.504035
21
-62.675010
31
0.0
0
LINE
8
0
6
CONTINUOUS
10
-44.637455
20
-63.584700
30
0.0
11
-39.513615
21
-63.227840
31
0.0
0
LINE
8
0
6
CONTINUOUS
10
-43.642165
20
-63.366540
30
0.0
11
-44.637455
21
-63.584700
31
0.0
0
LINE
8
0
6
CONTINUOUS
10
-38.939225
20
-63.039120
30
0.0
11
-43.642165
21
-63.366540
31
0.0
0
LINE
8
0
6
CONTINUOUS
10
-46.504035
20
-64.074130
30
0.0
11
-46.504035
21
-64.742730
31
0.0
0
LINE
8
0
6
CONTINUOUS
10
-44.637455
20
-63.584700
30
0.0
11
-46.504035
21
-64.074130
31
0.0
0
LINE
8
0
6
CONTINUOUS
10
-46.504035
20
-63.557080
30
0.0
11
-44.647155
21
-64.045670
31
0.0
0
LINE
8
0
6
CONTINUOUS
10
-32.554565
20
-62.576590
30
0.0
11
-39.513615
21
-62.710790
31
0.0
0
LINE
8
0
6
CONTINUOUS
10
-44.637435
20
-63.067700
30
0.0
11
-39.513615
21
-62.710790
31
0.0
0
LINE
8
0
6
CONTINUOUS
10
-39.513615
20
-63.227840
30
0.0
11
-32.554565
21
-63.093640
31
0.0
0
LINE
8
0
6
CONTINUOUS
10
-32.554575
20
-62.915720
30
0.0
11
-38.939225
21
-63.039120
31
0.0
0
LINE
8
0
6
CONTINUOUS
10
-46.504035
20
-62.675010
30
0.0
11
-46.504035
21
-63.557080
31
0.0
0
LINE
8
0
6
CONTINUOUS
10
-46.504035
20
-63.557080
30
0.0
11
-44.637435
21
-63.067700
31
0.0
0
LINE
8
0
6
CONTINUOUS
10
-18.605105
20
-62.675010
30
0.0
11
-18.605225
21
30.969230
31
0.0
0
LINE
8
0
6
CONTINUOUS
10
-25.595515
20
-63.227840
30
0.0
11
-20.471675
21
-63.584700
31
0.0
0
LINE
8
0
6
CONTINUOUS
10
-21.466965
20
-63.366540
30
0.0
11
-26.169915
21
-63.039120
31
0.0
0
LINE
8
0
6
CONTINUOUS
10
-20.471675
20
-63.584700
30
0.0
11
-21.466965
21
-63.366540
31
0.0
0
LINE
8
0
6
CONTINUOUS
10
-18.605105
20
-64.074130
30
0.0
11
-20.471675
21
-63.584700
31
0.0
0
LINE
8
0
6
CONTINUOUS
10
-18.605105
20
-64.742730
30
0.0
11
-18.605105
21
-64.074130
31
0.0
0
LINE
8
0
6
CONTINUOUS
10
-20.461965
20
-64.045670
30
0.0
11
-18.605105
21
-63.557080
31
0.0
0
LINE
8
0
6
CONTINUOUS
10
-25.595515
20
-62.710790
30
0.0
11
-32.554565
21
-62.576590
31
0.0
0
LINE
8
0
6
CONTINUOUS
10
-25.595515
20
-62.710790
30
0.0
11
-20.471695
21
-63.067700
31
0.0
0
LINE
8
0
6
CONTINUOUS
10
-32.554565
20
-63.093640
30
0.0
11
-25.595515
21
-63.227840
31
0.0
0
LINE
8
0
6
CONTINUOUS
10
-26.169915
20
-63.039120
30
0.0
11
-32.554575
21
-62.915720
31
0.0
0
LINE
8
0
6
CONTINUOUS
10
-20.471695
20
-63.067700
30
0.0
11
-18.605105
21
-63.557080
31
0.0
0
LINE
8
0
6
CONTINUOUS
10
-18.605105
20
-63.557080
30
0.0
11
-18.605105
21
-62.675010
31
0.0
0
LINE
8
0
6
CONTINUOUS
10
-18.605095
20
-87.834850
30
0.0
11
-18.605105
21
-64.742730
31
0.0
0
LINE
8
0
6
CONTINUOUS
10
-46.504035
20
-64.742730
30
0.0
11
-46.504035
21
-87.834850
31
0.0
0
LINE
8
0
6
CONTINUOUS
10
-39.494235
20
115.182350
30
0.0
11
-44.574385
21
110.102210
31
0.0
0
LINE
8
0
6
CONTINUOUS
10
-44.574385
20
110.102210
30
0.0
11
-46.433845
21
103.162600
31
0.0
0
LINE
8
0
6
CONTINUOUS
10
-39.494235
20
115.182350
30
0.0
11
-32.554625
21
117.041810
31
0.0
0
LINE
8
0
6
CONTINUOUS
10
-18.675425
20
102.640930
30
0.0
11
-18.675415
21
103.162570
31
0.0
0
LINE
8
0
6
CONTINUOUS
10
-18.675415
20
103.162570
30
0.0
11
-20.534865
21
110.102180
31
0.0
0
LINE
8
0
6
CONTINUOUS
10
-20.534865
20
110.102180
30
0.0
11
-25.615005
21
115.182330
31
0.0
0
LINE
8
0
6
CONTINUOUS
10
-25.615005
20
115.182330
30
0.0
11
-32.554615
21
117.041800
31
0.0
0
LINE
8
0
6
CONTINUOUS
10
-32.554615
20
117.041800
30
0.0
11
-39.494235
21
115.182350
31
0.0
0
LINE
8
0
6
CONTINUOUS
10
-39.494235
20
115.182350
30
0.0
11
-44.574375
21
110.102200
31
0.0
0
LINE
8
0
6
CONTINUOUS
10
-46.433845
20
103.162590
30
0.0
11
-46.433845
21
102.640960
31
0.0
0
LINE
8
0
6
CONTINUOUS
10
-44.574375
20
110.102200
30
0.0
11
-46.433844
21
103.162595
31
0.0
0
LINE
8
0
6
CONTINUOUS
10
-28.931165
20
116.685590
30
0.0
11
-25.554635
21
115.286980
31
0.0
0
LINE
8
0
6
CONTINUOUS
10
-39.554625
20
115.286980
30
0.0
11
-36.178095
21
116.685590
31
0.0
0
LINE
8
0
6
CONTINUOUS
10
-22.655135
20
113.062120
30
0.0
11
-20.430275
21
110.162630
31
0.0
0
LINE
8
0
6
CONTINUOUS
10
-44.678985
20
110.162620
30
0.0
11
-42.454125
21
113.062120
31
0.0
0
LINE
8
0
6
CONTINUOUS
10
-46.077595
20
106.786090
30
0.0
11
-44.678985
21
110.162620
31
0.0
0
LINE
8
0
6
CONTINUOUS
10
-20.430275
20
110.162630
30
0.0
11
-19.031665
21
106.786090
31
0.0
0
LINE
8
0
6
CONTINUOUS
10
-28.931165
20
116.685590
30
0.0
11
-32.554635
21
117.162630
31
0.0
0
LINE
8
0
6
CONTINUOUS
10
-36.178095
20
116.685590
30
0.0
11
-32.554635
21
117.162630
31
0.0
0
LINE
8
0
6
CONTINUOUS
10
-25.554635
20
115.286980
30
0.0
11
-22.655135
21
113.062120
31
0.0
0
LINE
8
0
6
CONTINUOUS
10
-46.554635
20
103.162620
30
0.0
11
-46.077595
21
106.786090
31
0.0
0
LINE
8
0
6
CONTINUOUS
10
-42.454125
20
113.062120
30
0.0
11
-39.554625
21
115.286980
31
0.0
0
LINE
8
0
6
CONTINUOUS
10
-19.031665
20
106.786090
30
0.0
11
-18.554625
21
103.162620
31
0.0
0
LINE
8
0
6
CONTINUOUS
10
-39.801565
20
130.208530
30
0.0
11
-46.554625
21
127.411310
31
0.0
0
LINE
8
0
6
CONTINUOUS
10
-52.353615
20
122.961590
30
0.0
11
-56.803335
21
117.162600
31
0.0
0
LINE
8
0
6
CONTINUOUS
10
-25.307685
20
130.208530
30
0.0
11
-32.554625
21
131.162600
31
0.0
0
LINE
8
0
6
CONTINUOUS
10
-59.600555
20
110.409540
30
0.0
11
-60.554625
21
103.162620
31
0.0
0
LINE
8
0
6
CONTINUOUS
10
-16.581263
20
125.897104
30
0.0
11
-18.554615
21
127.411310
31
0.0
0
LINE
8
0
6
CONTINUOUS
10
-32.554625
20
131.162600
30
0.0
11
-39.801565
21
130.208530
31
0.0
0
LINE
8
0
6
CONTINUOUS
10
-46.554625
20
127.411310
30
0.0
11
-52.353615
21
122.961590
31
0.0
0
LINE
8
0
6
CONTINUOUS
10
-56.803335
20
117.162600
30
0.0
11
-59.600555
21
110.409540
31
0.0
0
LINE
8
0
6
CONTINUOUS
10
-18.554615
20
127.411310
30
0.0
11
-25.307685
21
130.208530
31
0.0
0
LINE
8
0
6
CONTINUOUS
10
-46.554625
20
78.913930
30
0.0
11
-46.433855
21
78.863905
31
0.0
0
LINE
8
0
6
CONTINUOUS
10
-56.803335
20
89.162630
30
0.0
11
-52.353615
21
83.363650
31
0.0
0
LINE
8
0
6
CONTINUOUS
10
-60.554625
20
103.162620
30
0.0
11
-59.600555
21
95.915700
31
0.0
0
LINE
8
0
6
CONTINUOUS
10
-18.554615
20
78.913930
30
0.0
11
-16.581262
21
80.428137
31
0.0
0
LINE
8
0
6
CONTINUOUS
10
-52.353615
20
83.363650
30
0.0
11
-46.554625
21
78.913930
31
0.0
0
LINE
8
0
6
CONTINUOUS
10
-59.600555
20
95.915700
30
0.0
11
-56.803335
21
89.162630
31
0.0
0
LINE
8
0
6
CONTINUOUS
10
-18.675425
20
78.863889
30
0.0
11
-18.554615
21
78.913930
31
0.0
0
LINE
8
0
6
CONTINUOUS
10
14.014765
20
123.314090
30
0.0
11
14.656575
21
124.412990
31
0.0
0
LINE
8
0
6
CONTINUOUS
10
18.695225
20
122.215180
30
0.0
11
18.053405
21
123.314090
31
0.0
0
LINE
8
0
6
CONTINUOUS
10
13.372935
20
122.215180
30
0.0
11
14.014765
21
123.314090
31
0.0
0
LINE
8
0
6
CONTINUOUS
10
18.053405
20
123.314090
30
0.0
11
17.411595
21
124.412990
31
0.0
0
LINE
8
0
6
CONTINUOUS
10
10.893155
20
108.856640
30
0.0
11
11.424855
21
114.162630
31
0.0
0
LINE
8
0
6
CONTINUOUS
10
12.270665
20
118.718960
30
0.0
11
13.372935
21
122.215180
31
0.0
0
LINE
8
0
6
CONTINUOUS
10
10.711805
20
103.162620
30
0.0
11
10.893155
21
108.856640
31
0.0
0
LINE
8
0
6
CONTINUOUS
10
16.034085
20
125.162620
30
0.0
11
15.548805
21
125.173550
31
0.0
0
LINE
8
0
6
CONTINUOUS
10
14.656575
20
124.412990
30
0.0
11
16.034085
21
125.162620
31
0.0
0
LINE
8
0
6
CONTINUOUS
10
17.411595
20
124.412990
30
0.0
11
16.034085
21
125.162620
31
0.0
0
LINE
8
0
6
CONTINUOUS
10
11.424855
20
114.162630
30
0.0
11
12.270665
21
118.718960
31
0.0
0
LINE
8
0
6
CONTINUOUS
10
14.014765
20
83.011160
30
0.0
11
14.656575
21
81.912260
31
0.0
0
LINE
8
0
6
CONTINUOUS
10
13.372935
20
84.110070
30
0.0
11
14.014765
21
83.011160
31
0.0
0
LINE
8
0
6
CONTINUOUS
10
10.893155
20
97.468610
30
0.0
11
11.424855
21
92.162620
31
0.0
0
LINE
8
0
6
CONTINUOUS
10
12.270665
20
87.606280
30
0.0
11
13.372935
21
84.110070
31
0.0
0
LINE
8
0
6
CONTINUOUS
10
10.711805
20
103.162620
30
0.0
11
10.893155
21
97.468610
31
0.0
0
LINE
8
0
6
CONTINUOUS
10
15.548805
20
81.151700
30
0.0
11
16.034085
21
81.162630
31
0.0
0
LINE
8
0
6
CONTINUOUS
10
14.656575
20
81.912260
30
0.0
11
16.034085
21
81.162630
31
0.0
0
LINE
8
0
6
CONTINUOUS
10
16.034085
20
81.162630
30
0.0
11
17.411595
21
81.912260
31
0.0
0
LINE
8
0
6
CONTINUOUS
10
11.424855
20
92.162620
30
0.0
11
12.270665
21
87.606280
31
0.0
0
LINE
8
0
6
CONTINUOUS
10
15.548805
20
125.173550
30
0.0
11
-20.787645
21
125.991830
31
0.0
0
LINE
8
0
6
CONTINUOUS
10
-20.787645
20
125.991830
30
0.0
11
-22.639085
21
126.033530
31
0.0
0
LINE
8
0
6
CONTINUOUS
10
-18.675425
20
80.380977
30
0.0
11
15.548805
21
81.151700
31
0.0
0
LINE
8
0
6
CONTINUOUS
10
-28.588415
20
126.167500
30
0.0
11
-30.571515
21
126.212160
31
0.0
0
LINE
8
0
6
CONTINUOUS
10
-26.605305
20
126.122840
30
0.0
11
-28.588415
21
126.167500
31
0.0
0
LINE
8
0
6
CONTINUOUS
10
-24.622195
20
126.078190
30
0.0
11
-26.605305
21
126.122840
31
0.0
0
LINE
8
0
6
CONTINUOUS
10
-22.639085
20
126.033530
30
0.0
11
-24.622195
21
126.078190
31
0.0
0
LINE
8
0
6
CONTINUOUS
10
15.053577
20
122.330510
30
0.0
11
13.857362
21
120.758013
31
0.0
0
LINE
8
0
6
CONTINUOUS
10
11.109131
20
104.448480
30
0.0
11
11.377784
21
109.516896
31
0.0
0
LINE
8
0
6
CONTINUOUS
10
13.152032
20
86.455666
30
0.0
11
12.224470
21
89.951585
31
0.0
0
LINE
8
0
6
CONTINUOUS
10
12.224470
20
89.951585
30
0.0
11
11.547409
21
94.320729
31
0.0
0
LINE
8
0
6
CONTINUOUS
10
15.493040
20
82.960722
30
0.0
11
14.266879
21
84.071217
31
0.0
0
LINE
8
0
6
CONTINUOUS
10
14.266879
20
84.071217
30
0.0
11
13.152032
21
86.455666
31
0.0
0
LINE
8
0
6
CONTINUOUS
10
11.547409
20
94.320729
30
0.0
11
11.166989
21
99.265347
31
0.0
0
LINE
8
0
6
CONTINUOUS
10
11.166989
20
99.265347
30
0.0
11
11.109131
21
104.448480
31
0.0
0
LINE
8
0
6
CONTINUOUS
10
11.377784
20
109.516896
30
0.0
11
11.954633
21
114.125197
31
0.0
0
ENDSEC
0
EOF
