999
Erzeugt mit innoplus bad 
0
SECTION
2
HEADER
9
$ACADVER
1
AC1009
9
$DWGCODEPAGE
3
ISO8859-1
0
ENDSEC
0
SECTION
2
TABLES
0
TABLE
2
LAYER
70
1
0
LAYER
2
0
70
0
62
7
6
CONTINUOUS
0
ENDTAB
0
ENDSEC
0
SECTION
2
ENTITIES
0
LINE
8
0
6
CONTINUOUS
10
84.892637
20
-167.039452
30
0.0
11
81.184506
21
-221.821212
31
0.0
0
LINE
8
0
6
CONTINUOUS
10
87.740449
20
-144.340884
30
0.0
11
86.623159
21
-149.814336
31
0.0
0
LINE
8
0
6
CONTINUOUS
10
132.761411
20
-150.092315
30
0.0
11
131.011603
21
-141.329480
31
0.0
0
LINE
8
0
6
CONTINUOUS
10
87.636776
20
-146.665113
30
0.0
11
87.733959
21
-145.952495
31
0.0
0
LINE
8
0
6
CONTINUOUS
10
85.087798
20
-164.156200
30
0.0
11
84.892637
21
-167.039452
31
0.0
0
LINE
8
0
6
CONTINUOUS
10
136.373772
20
-222.540720
30
0.0
11
138.097681
21
-222.540720
31
0.0
0
LINE
8
0
6
CONTINUOUS
10
92.822599
20
-49.886563
30
0.0
11
89.891751
21
-93.185284
31
0.0
0
LINE
8
0
6
CONTINUOUS
10
86.585435
20
-142.030948
30
0.0
11
86.029943
21
-150.237479
31
0.0
0
LINE
8
0
6
CONTINUOUS
10
129.572543
20
-222.540720
30
0.0
11
133.911041
21
-222.540720
31
0.0
0
LINE
8
0
6
CONTINUOUS
10
128.856328
20
-157.300576
30
0.0
11
127.233250
21
-159.590666
31
0.0
0
LINE
8
0
6
CONTINUOUS
10
89.282631
20
-222.540720
30
0.0
11
94.544668
21
-222.540720
31
0.0
0
LINE
8
0
6
CONTINUOUS
10
125.371518
20
-161.728225
30
0.0
11
123.143510
21
-163.501180
31
0.0
0
LINE
8
0
6
CONTINUOUS
10
94.206122
20
-174.260130
30
0.0
11
97.936190
21
-175.366618
31
0.0
0
LINE
8
0
6
CONTINUOUS
10
82.899133
20
-222.540720
30
0.0
11
85.033071
21
-222.540720
31
0.0
0
LINE
8
0
6
CONTINUOUS
10
98.603069
20
-165.047957
30
0.0
11
96.209639
21
-163.494471
31
0.0
0
LINE
8
0
6
CONTINUOUS
10
88.652654
20
-170.966363
30
0.0
11
90.979232
21
-172.776272
31
0.0
0
LINE
8
0
6
CONTINUOUS
10
81.427662
20
-222.540720
30
0.0
11
81.899500
21
-222.540720
31
0.0
0
LINE
8
0
6
CONTINUOUS
10
81.899500
20
-222.540720
30
0.0
11
82.899133
21
-222.540720
31
0.0
0
LINE
8
0
6
CONTINUOUS
10
85.033071
20
-222.540720
30
0.0
11
89.282631
21
-222.540720
31
0.0
0
LINE
8
0
6
CONTINUOUS
10
94.544668
20
-222.540720
30
0.0
11
102.159292
21
-222.540720
31
0.0
0
LINE
8
0
6
CONTINUOUS
10
102.159292
20
-222.540720
30
0.0
11
109.751718
21
-222.540720
31
0.0
0
LINE
8
0
6
CONTINUOUS
10
109.751718
20
-222.540720
30
0.0
11
117.336903
21
-222.540720
31
0.0
0
LINE
8
0
6
CONTINUOUS
10
117.336903
20
-222.540720
30
0.0
11
124.696756
21
-222.540720
31
0.0
0
LINE
8
0
6
CONTINUOUS
10
124.696756
20
-222.540720
30
0.0
11
129.572543
21
-222.540720
31
0.0
0
LINE
8
0
6
CONTINUOUS
10
133.911041
20
-222.540720
30
0.0
11
136.373772
21
-222.540720
31
0.0
0
LINE
8
0
6
CONTINUOUS
10
138.097681
20
-222.540720
30
0.0
11
138.776244
21
-222.540720
31
0.0
0
LINE
8
0
6
CONTINUOUS
10
138.776244
20
-222.540720
30
0.0
11
138.891210
21
-222.540720
31
0.0
0
LINE
8
0
6
CONTINUOUS
10
138.891210
20
-222.540720
30
0.0
11
138.956490
21
-221.821212
31
0.0
0
LINE
8
0
6
CONTINUOUS
10
90.506554
20
-157.296566
30
0.0
11
88.378438
21
-152.146519
31
0.0
0
LINE
8
0
6
CONTINUOUS
10
92.125191
20
-159.584577
30
0.0
11
90.506554
21
-157.296566
31
0.0
0
LINE
8
0
6
CONTINUOUS
10
96.209639
20
-163.494471
30
0.0
11
93.983442
21
-161.719027
31
0.0
0
LINE
8
0
6
CONTINUOUS
10
103.971329
20
-167.096822
30
0.0
11
98.603069
21
-165.047957
31
0.0
0
LINE
8
0
6
CONTINUOUS
10
109.674844
20
-167.817900
30
0.0
11
103.971329
21
-167.096822
31
0.0
0
LINE
8
0
6
CONTINUOUS
10
115.382371
20
-167.101431
30
0.0
11
109.674844
21
-167.817900
31
0.0
0
LINE
8
0
6
CONTINUOUS
10
120.749611
20
-165.053386
30
0.0
11
115.382371
21
-167.101431
31
0.0
0
LINE
8
0
6
CONTINUOUS
10
123.143510
20
-163.501180
30
0.0
11
120.749611
21
-165.053386
31
0.0
0
LINE
8
0
6
CONTINUOUS
10
127.233250
20
-159.590666
30
0.0
11
125.371518
21
-161.728225
31
0.0
0
LINE
8
0
6
CONTINUOUS
10
130.985705
20
-152.148849
30
0.0
11
128.856328
21
-157.300576
31
0.0
0
LINE
8
0
6
CONTINUOUS
10
131.727437
20
-146.666123
30
0.0
11
130.985705
21
-152.148849
31
0.0
0
LINE
8
0
6
CONTINUOUS
10
93.383815
20
-49.124903
30
0.0
11
92.902594
21
-49.196060
31
0.0
0
LINE
8
0
6
CONTINUOUS
10
127.439315
20
-49.196060
30
0.0
11
126.969918
21
-49.125283
31
0.0
0
LINE
8
0
6
CONTINUOUS
10
94.049313
20
-49.124353
30
0.0
11
93.383815
21
-49.124903
31
0.0
0
LINE
8
0
6
CONTINUOUS
10
95.701340
20
-49.123573
30
0.0
11
94.049313
21
-49.124353
31
0.0
0
LINE
8
0
6
CONTINUOUS
10
95.770410
20
-49.123391
30
0.0
11
95.701340
21
-49.123573
31
0.0
0
LINE
8
0
6
CONTINUOUS
10
126.258315
20
-49.124983
30
0.0
11
124.677500
21
-49.124056
31
0.0
0
LINE
8
0
6
CONTINUOUS
10
126.969918
20
-49.125283
30
0.0
11
126.258315
21
-49.124983
31
0.0
0
LINE
8
0
6
CONTINUOUS
10
134.191468
20
-150.187448
30
0.0
11
127.519610
21
-49.887763
31
0.0
0
LINE
8
0
6
CONTINUOUS
10
93.367670
20
-49.196000
30
0.0
11
92.902594
21
-49.196060
31
0.0
0
LINE
8
0
6
CONTINUOUS
10
92.902594
20
-49.196060
30
0.0
11
92.822599
21
-49.886563
31
0.0
0
LINE
8
0
6
CONTINUOUS
10
87.371880
20
-143.603776
30
0.0
11
87.212123
21
-143.844609
31
0.0
0
LINE
8
0
6
CONTINUOUS
10
85.912636
20
-151.713279
30
0.0
11
85.390283
21
-159.687459
31
0.0
0
LINE
8
0
6
CONTINUOUS
10
85.390283
20
-159.687459
30
0.0
11
85.087798
21
-164.156200
31
0.0
0
LINE
8
0
6
CONTINUOUS
10
135.307628
20
-166.966936
30
0.0
11
135.115578
21
-164.079874
31
0.0
0
LINE
8
0
6
CONTINUOUS
10
86.240089
20
-147.278261
30
0.0
11
85.912636
21
-151.713279
31
0.0
0
LINE
8
0
6
CONTINUOUS
10
134.820125
20
-159.638158
30
0.0
11
134.505787
21
-154.912723
31
0.0
0
LINE
8
0
6
CONTINUOUS
10
94.929539
20
-49.195920
30
0.0
11
93.367670
21
-49.196000
31
0.0
0
LINE
8
0
6
CONTINUOUS
10
97.528732
20
-49.195850
30
0.0
11
94.929539
21
-49.195920
31
0.0
0
LINE
8
0
6
CONTINUOUS
10
101.026407
20
-49.195900
30
0.0
11
97.528732
21
-49.195850
31
0.0
0
LINE
8
0
6
CONTINUOUS
10
105.210067
20
-49.196000
30
0.0
11
101.026407
21
-49.195900
31
0.0
0
LINE
8
0
6
CONTINUOUS
10
109.725050
20
-49.196060
30
0.0
11
105.210067
21
-49.196000
31
0.0
0
LINE
8
0
6
CONTINUOUS
10
114.362191
20
-49.196000
30
0.0
11
109.725050
21
-49.196060
31
0.0
0
LINE
8
0
6
CONTINUOUS
10
118.655095
20
-49.195920
30
0.0
11
114.362191
21
-49.196000
31
0.0
0
LINE
8
0
6
CONTINUOUS
10
122.373469
20
-49.195870
30
0.0
11
118.655095
21
-49.195920
31
0.0
0
LINE
8
0
6
CONTINUOUS
10
125.244608
20
-49.195920
30
0.0
11
122.373469
21
-49.195870
31
0.0
0
LINE
8
0
6
CONTINUOUS
10
126.936658
20
-49.196000
30
0.0
11
125.244608
21
-49.195920
31
0.0
0
LINE
8
0
6
CONTINUOUS
10
127.439315
20
-49.196060
30
0.0
11
126.936658
21
-49.196000
31
0.0
0
LINE
8
0
6
CONTINUOUS
10
127.519610
20
-49.887763
30
0.0
11
127.439315
21
-49.196060
31
0.0
0
LINE
8
0
6
CONTINUOUS
10
81.250597
20
-222.540720
30
0.0
11
81.427662
21
-222.540720
31
0.0
0
LINE
8
0
6
CONTINUOUS
10
81.184506
20
-221.821212
30
0.0
11
81.250597
21
-222.540720
31
0.0
0
LINE
8
0
6
CONTINUOUS
10
138.956490
20
-221.821212
30
0.0
11
135.307628
21
-166.966936
31
0.0
0
LINE
8
0
6
CONTINUOUS
10
134.505787
20
-154.912723
30
0.0
11
134.191468
21
-150.187448
31
0.0
0
LINE
8
0
6
CONTINUOUS
10
90.979232
20
-172.776272
30
0.0
11
94.206122
21
-174.260130
31
0.0
0
LINE
8
0
6
CONTINUOUS
10
109.847808
20
-176.126638
30
0.0
11
115.888209
21
-175.911228
31
0.0
0
LINE
8
0
6
CONTINUOUS
10
115.888209
20
-175.911228
30
0.0
11
121.640310
21
-174.993296
31
0.0
0
LINE
8
0
6
CONTINUOUS
10
121.640310
20
-174.993296
30
0.0
11
125.471029
21
-174.067196
31
0.0
0
LINE
8
0
6
CONTINUOUS
10
93.983442
20
-161.719027
30
0.0
11
92.125191
21
-159.584577
31
0.0
0
LINE
8
0
6
CONTINUOUS
10
85.390283
20
-159.687459
30
0.0
11
85.106644
21
-165.255209
31
0.0
0
LINE
8
0
6
CONTINUOUS
10
85.106644
20
-165.255209
30
0.0
11
84.929738
21
-168.741511
31
0.0
0
LINE
8
0
6
CONTINUOUS
10
116.676946
20
-178.456392
30
0.0
11
109.682167
21
-178.915448
31
0.0
0
LINE
8
0
6
CONTINUOUS
10
135.115578
20
-164.079874
30
0.0
11
134.820125
21
-159.638158
31
0.0
0
LINE
8
0
6
CONTINUOUS
10
131.443358
20
-140.992452
30
0.0
11
131.442438
21
-140.843889
31
0.0
0
LINE
8
0
6
CONTINUOUS
10
131.475008
20
-146.620231
30
0.0
11
131.476329
21
-143.818324
31
0.0
0
LINE
8
0
6
CONTINUOUS
10
131.476789
20
-142.819897
30
0.0
11
131.477029
21
-142.320688
31
0.0
0
LINE
8
0
6
CONTINUOUS
10
131.476329
20
-143.818324
30
0.0
11
131.476559
21
-143.319116
31
0.0
0
LINE
8
0
6
CONTINUOUS
10
131.476559
20
-143.319116
30
0.0
11
131.476789
21
-142.819897
31
0.0
0
LINE
8
0
6
CONTINUOUS
10
40.981582
20
-43.107484
30
0.0
11
40.719960
21
-42.937476
31
0.0
0
LINE
8
0
6
CONTINUOUS
10
123.867407
20
-155.874597
30
0.0
11
127.661004
21
-151.654669
31
0.0
0
LINE
8
0
6
CONTINUOUS
10
131.186068
20
-135.000859
30
0.0
11
129.537502
21
-129.325368
31
0.0
0
LINE
8
0
6
CONTINUOUS
10
131.442438
20
-140.843889
30
0.0
11
131.186068
21
-135.000859
31
0.0
0
LINE
8
0
6
CONTINUOUS
10
127.661004
20
-151.654669
30
0.0
11
130.220746
21
-146.506252
31
0.0
0
LINE
8
0
6
CONTINUOUS
10
130.220746
20
-146.506252
30
0.0
11
131.442438
21
-140.843889
31
0.0
0
LINE
8
0
6
CONTINUOUS
10
129.537502
20
-129.325368
30
0.0
11
126.509364
21
-124.240189
31
0.0
0
LINE
8
0
6
CONTINUOUS
10
126.509364
20
-124.240189
30
0.0
11
122.258373
21
-120.166415
31
0.0
0
LINE
8
0
6
CONTINUOUS
10
71.958358
20
-78.031230
30
0.0
11
70.563622
21
-76.831250
31
0.0
0
LINE
8
0
6
CONTINUOUS
10
73.456037
20
-79.310156
30
0.0
11
71.958358
21
-78.031230
31
0.0
0
LINE
8
0
6
CONTINUOUS
10
54.815682
20
-60.733997
30
0.0
11
42.920859
21
-45.842924
31
0.0
0
LINE
8
0
6
CONTINUOUS
10
122.258373
20
-120.166415
30
0.0
11
112.174447
21
-111.770372
31
0.0
0
LINE
8
0
6
CONTINUOUS
10
112.174447
20
-111.770372
30
0.0
11
102.097282
21
-103.366001
31
0.0
0
LINE
8
0
6
CONTINUOUS
10
102.097282
20
-103.366001
30
0.0
11
92.020928
21
-94.960630
31
0.0
0
LINE
8
0
6
CONTINUOUS
10
92.020928
20
-94.960630
30
0.0
11
81.942823
21
-86.557329
31
0.0
0
LINE
8
0
6
CONTINUOUS
10
56.120791
20
-62.172084
30
0.0
11
54.815682
21
-60.733997
31
0.0
0
LINE
8
0
6
CONTINUOUS
10
70.563622
20
-76.831250
30
0.0
11
56.120791
21
-62.172084
31
0.0
0
LINE
8
0
6
CONTINUOUS
10
81.942823
20
-86.557329
30
0.0
11
73.456037
21
-79.310156
31
0.0
0
LINE
8
0
6
CONTINUOUS
10
39.562668
20
-42.785043
30
0.0
11
38.830268
21
-43.045486
31
0.0
0
LINE
8
0
6
CONTINUOUS
10
40.316313
20
-42.805950
30
0.0
11
39.562668
21
-42.785043
31
0.0
0
LINE
8
0
6
CONTINUOUS
10
40.981582
20
-43.107484
30
0.0
11
40.316313
21
-42.805950
31
0.0
0
LINE
8
0
6
CONTINUOUS
10
41.493682
20
-43.638147
30
0.0
11
40.981582
21
-43.107484
31
0.0
0
LINE
8
0
6
CONTINUOUS
10
42.920859
20
-45.842924
30
0.0
11
41.779121
21
-44.079097
31
0.0
0
LINE
8
0
6
CONTINUOUS
10
38.830268
20
-43.045486
30
0.0
11
38.181215
21
-43.517619
31
0.0
0
LINE
8
0
6
CONTINUOUS
10
131.460193
20
-141.656570
30
0.0
11
131.443358
21
-140.992452
31
0.0
0
LINE
8
0
6
CONTINUOUS
10
40.719960
20
-42.937476
30
0.0
11
34.548348
21
-38.934169
31
0.0
0
LINE
8
0
6
CONTINUOUS
10
127.706999
20
-156.738259
30
0.0
11
130.261608
21
-151.938347
31
0.0
0
LINE
8
0
6
CONTINUOUS
10
131.474928
20
-146.806557
30
0.0
11
131.475008
21
-146.620231
31
0.0
0
LINE
8
0
6
CONTINUOUS
10
130.261608
20
-151.938347
30
0.0
11
131.474928
21
-146.806557
31
0.0
0
LINE
8
0
6
CONTINUOUS
10
123.913841
20
-160.829969
30
0.0
11
127.706999
21
-156.738259
31
0.0
0
LINE
8
0
6
CONTINUOUS
10
131.477029
20
-142.320688
30
0.0
11
131.460193
21
-141.656570
31
0.0
0
LINE
8
0
6
CONTINUOUS
10
32.056408
20
-38.680075
30
0.0
11
31.400573
21
-39.154078
31
0.0
0
LINE
8
0
6
CONTINUOUS
10
32.803882
20
-38.423812
30
0.0
11
32.056408
21
-38.680075
31
0.0
0
LINE
8
0
6
CONTINUOUS
10
33.580165
20
-38.450857
30
0.0
11
32.803882
21
-38.423812
31
0.0
0
LINE
8
0
6
CONTINUOUS
10
34.276513
20
-38.757831
30
0.0
11
33.580165
21
-38.450857
31
0.0
0
LINE
8
0
6
CONTINUOUS
10
34.548348
20
-38.934169
30
0.0
11
34.276513
21
-38.757831
31
0.0
0
LINE
8
0
6
CONTINUOUS
10
41.779121
20
-44.079097
30
0.0
11
41.493682
21
-43.638147
31
0.0
0
LINE
8
0
6
CONTINUOUS
10
88.846067
20
-146.552032
30
0.0
11
89.632070
21
-149.068513
31
0.0
0
LINE
8
0
6
CONTINUOUS
10
42.526135
20
-61.407664
30
0.0
11
43.977349
21
-63.592354
31
0.0
0
LINE
8
0
6
CONTINUOUS
10
59.601270
20
-89.432322
30
0.0
11
60.506003
21
-91.191170
31
0.0
0
LINE
8
0
6
CONTINUOUS
10
30.631252
20
-42.700449
30
0.0
11
30.950632
21
-43.132270
31
0.0
0
LINE
8
0
6
CONTINUOUS
10
83.736505
20
-136.333315
30
0.0
11
89.632511
21
-148.124856
31
0.0
0
LINE
8
0
6
CONTINUOUS
10
77.693603
20
-124.610421
30
0.0
11
83.736505
21
-136.333315
31
0.0
0
LINE
8
0
6
CONTINUOUS
10
71.662035
20
-112.884758
30
0.0
11
77.693603
21
-124.610421
31
0.0
0
LINE
8
0
6
CONTINUOUS
10
65.632838
20
-101.157885
30
0.0
11
71.662035
21
-112.884758
31
0.0
0
LINE
8
0
6
CONTINUOUS
10
87.954954
20
-144.769877
30
0.0
11
87.999669
21
-145.478210
31
0.0
0
LINE
8
0
6
CONTINUOUS
10
32.228122
20
-44.859574
30
0.0
11
42.526135
21
-61.407664
31
0.0
0
LINE
8
0
6
CONTINUOUS
10
43.977349
20
-63.592354
30
0.0
11
58.476108
21
-87.300023
31
0.0
0
LINE
8
0
6
CONTINUOUS
10
58.476108
20
-87.300023
30
0.0
11
59.601270
21
-89.432322
31
0.0
0
LINE
8
0
6
CONTINUOUS
10
60.506003
20
-91.191170
30
0.0
11
65.632838
21
-101.157885
31
0.0
0
LINE
8
0
6
CONTINUOUS
10
118.969104
20
-158.708308
30
0.0
11
123.867407
21
-155.874597
31
0.0
0
LINE
8
0
6
CONTINUOUS
10
96.954172
20
-155.767366
30
0.0
11
102.093751
21
-158.609816
31
0.0
0
LINE
8
0
6
CONTINUOUS
10
102.093751
20
-158.609816
30
0.0
11
107.694174
21
-160.116050
31
0.0
0
LINE
8
0
6
CONTINUOUS
10
113.436842
20
-160.126718
30
0.0
11
118.969104
21
-158.708308
31
0.0
0
LINE
8
0
6
CONTINUOUS
10
107.694174
20
-160.116050
30
0.0
11
113.436842
21
-160.126718
31
0.0
0
LINE
8
0
6
CONTINUOUS
10
92.681915
20
-151.691813
30
0.0
11
96.954172
21
-155.767366
31
0.0
0
LINE
8
0
6
CONTINUOUS
10
89.650926
20
-146.627980
30
0.0
11
92.681915
21
-151.691813
31
0.0
0
LINE
8
0
6
CONTINUOUS
10
37.580877
20
-44.059400
30
0.0
11
37.146351
21
-44.745934
31
0.0
0
LINE
8
0
6
CONTINUOUS
10
37.146351
20
-44.745934
30
0.0
11
36.956942
21
-45.532140
31
0.0
0
LINE
8
0
6
CONTINUOUS
10
36.956942
20
-45.532140
30
0.0
11
37.042299
21
-46.304279
31
0.0
0
LINE
8
0
6
CONTINUOUS
10
37.042299
20
-46.304279
30
0.0
11
37.374353
21
-46.981075
31
0.0
0
LINE
8
0
6
CONTINUOUS
10
38.181215
20
-43.517619
30
0.0
11
37.580877
21
-44.059400
31
0.0
0
LINE
8
0
6
CONTINUOUS
10
49.870634
20
-67.244235
30
0.0
11
48.947985
21
-65.495765
31
0.0
0
LINE
8
0
6
CONTINUOUS
10
60.576365
20
-89.762242
30
0.0
11
59.659818
21
-88.011742
31
0.0
0
LINE
8
0
6
CONTINUOUS
10
89.650926
20
-146.627980
30
0.0
11
83.687830
21
-134.887799
31
0.0
0
LINE
8
0
6
CONTINUOUS
10
83.687830
20
-134.887799
30
0.0
11
77.715220
21
-123.152488
31
0.0
0
LINE
8
0
6
CONTINUOUS
10
77.715220
20
-123.152488
30
0.0
11
71.741490
21
-111.417787
31
0.0
0
LINE
8
0
6
CONTINUOUS
10
71.741490
20
-111.417787
30
0.0
11
65.770121
21
-99.681786
31
0.0
0
LINE
8
0
6
CONTINUOUS
10
48.947985
20
-65.495765
30
0.0
11
38.947255
21
-49.067603
31
0.0
0
LINE
8
0
6
CONTINUOUS
10
58.961120
20
-86.246936
30
0.0
11
49.870634
21
-67.244235
31
0.0
0
LINE
8
0
6
CONTINUOUS
10
59.659818
20
-88.011742
30
0.0
11
58.961120
21
-86.246936
31
0.0
0
LINE
8
0
6
CONTINUOUS
10
65.770121
20
-99.681786
30
0.0
11
60.576365
21
-89.762242
31
0.0
0
LINE
8
0
6
CONTINUOUS
10
92.710744
20
-159.995852
30
0.0
11
96.958044
21
-163.218452
31
0.0
0
LINE
8
0
6
CONTINUOUS
10
96.958044
20
-163.218452
30
0.0
11
102.110096
21
-165.264217
31
0.0
0
LINE
8
0
6
CONTINUOUS
10
102.110096
20
-165.264217
30
0.0
11
107.721563
21
-166.082877
31
0.0
0
LINE
8
0
6
CONTINUOUS
10
87.997589
20
-149.921127
30
0.0
11
89.629179
21
-155.238723
31
0.0
0
LINE
8
0
6
CONTINUOUS
10
87.777820
20
-144.398348
30
0.0
11
87.997589
21
-149.921127
31
0.0
0
LINE
8
0
6
CONTINUOUS
10
113.473103
20
-165.562553
30
0.0
11
119.011637
21
-163.794726
31
0.0
0
LINE
8
0
6
CONTINUOUS
10
107.721563
20
-166.082877
30
0.0
11
113.473103
21
-165.562553
31
0.0
0
LINE
8
0
6
CONTINUOUS
10
89.629179
20
-155.238723
30
0.0
11
92.710744
21
-159.995852
31
0.0
0
LINE
8
0
6
CONTINUOUS
10
119.011637
20
-163.794726
30
0.0
11
123.913841
21
-160.829969
31
0.0
0
LINE
8
0
6
CONTINUOUS
10
31.400573
20
-39.154078
30
0.0
11
30.797684
21
-39.701568
31
0.0
0
LINE
8
0
6
CONTINUOUS
10
30.797684
20
-39.701568
30
0.0
11
30.368790
21
-40.399930
31
0.0
0
LINE
8
0
6
CONTINUOUS
10
30.368790
20
-40.399930
30
0.0
11
30.190074
21
-41.201993
31
0.0
0
LINE
8
0
6
CONTINUOUS
10
30.190074
20
-41.201993
30
0.0
11
30.286844
21
-41.995528
31
0.0
0
LINE
8
0
6
CONTINUOUS
10
30.286844
20
-41.995528
30
0.0
11
30.631252
21
-42.700449
31
0.0
0
LINE
8
0
6
CONTINUOUS
10
30.950632
20
-43.132270
30
0.0
11
32.228122
21
-44.859574
31
0.0
0
LINE
8
0
6
CONTINUOUS
10
37.374353
20
-46.981075
30
0.0
11
37.688931
21
-47.398369
31
0.0
0
LINE
8
0
6
CONTINUOUS
10
38.947255
20
-49.067603
30
0.0
11
37.688931
21
-47.398369
31
0.0
0
LINE
8
0
6
CONTINUOUS
10
-101.338710
20
191.374220
30
0.0
11
-104.664370
21
193.308660
31
0.0
0
LINE
8
0
6
CONTINUOUS
10
-117.359140
20
117.113280
30
0.0
11
-124.558260
21
117.496430
31
0.0
0
LINE
8
0
6
CONTINUOUS
10
-137.027490
20
118.160040
30
0.0
11
-131.757380
21
117.879540
31
0.0
0
LINE
8
0
6
CONTINUOUS
10
-131.757380
20
117.879540
30
0.0
11
-124.558260
21
117.496430
31
0.0
0
LINE
8
0
6
CONTINUOUS
10
-117.359140
20
117.113280
30
0.0
11
-112.089030
21
116.832830
31
0.0
0
LINE
8
0
6
CONTINUOUS
10
-112.089030
20
116.832830
30
0.0
11
-110.160030
21
116.730170
31
0.0
0
LINE
8
0
6
CONTINUOUS
10
-110.160030
20
116.730170
30
0.0
11
-110.108930
21
117.690030
31
0.0
0
LINE
8
0
6
CONTINUOUS
10
-138.956490
20
118.262690
30
0.0
11
-137.027490
21
118.160040
31
0.0
0
LINE
8
0
6
CONTINUOUS
10
-138.905410
20
119.222580
30
0.0
11
-138.956490
21
118.262690
31
0.0
0
LINE
8
0
6
CONTINUOUS
10
-106.900450
20
212.390650
30
0.0
11
-106.837100
21
213.580910
31
0.0
0
LINE
8
0
6
CONTINUOUS
10
-131.981010
20
214.919070
30
0.0
11
-132.044380
21
213.728810
31
0.0
0
LINE
8
0
6
CONTINUOUS
10
-133.594060
20
222.060790
30
0.0
11
-133.917430
21
215.984740
31
0.0
0
LINE
8
0
6
CONTINUOUS
10
-104.798530
20
214.435020
30
0.0
11
-104.475180
21
220.511070
31
0.0
0
LINE
8
0
6
CONTINUOUS
10
-133.896180
20
213.346040
30
0.0
11
-133.921720
21
212.866110
31
0.0
0
LINE
8
0
6
CONTINUOUS
10
-133.896180
20
213.346040
30
0.0
11
-131.967180
21
213.243430
31
0.0
0
LINE
8
0
6
CONTINUOUS
10
-105.099720
20
211.813520
30
0.0
11
-107.028720
21
211.916220
31
0.0
0
LINE
8
0
6
CONTINUOUS
10
-105.125260
20
211.333600
30
0.0
11
-105.099720
21
211.813520
31
0.0
0
LINE
8
0
6
CONTINUOUS
10
-112.298830
20
212.196670
30
0.0
11
-119.497950
21
212.579820
31
0.0
0
LINE
8
0
6
CONTINUOUS
10
-126.697070
20
212.962930
30
0.0
11
-131.967180
21
213.243430
31
0.0
0
LINE
8
0
6
CONTINUOUS
10
-107.028720
20
211.916220
30
0.0
11
-112.298830
21
212.196670
31
0.0
0
LINE
8
0
6
CONTINUOUS
10
-119.497950
20
212.579820
30
0.0
11
-126.697070
21
212.962930
31
0.0
0
LINE
8
0
6
CONTINUOUS
10
-106.925990
20
211.910720
30
0.0
11
-106.900450
21
212.390650
31
0.0
0
LINE
8
0
6
CONTINUOUS
10
-132.044380
20
213.728810
30
0.0
11
-132.069910
21
213.248880
31
0.0
0
LINE
8
0
6
CONTINUOUS
10
-106.837100
20
213.580910
30
0.0
11
-106.811560
21
214.060840
31
0.0
0
LINE
8
0
6
CONTINUOUS
10
-131.955490
20
215.399030
30
0.0
11
-131.981010
21
214.919070
31
0.0
0
LINE
8
0
6
CONTINUOUS
10
-106.774680
20
214.058890
30
0.0
11
-104.824070
21
213.955100
31
0.0
0
LINE
8
0
6
CONTINUOUS
10
-104.824070
20
213.955100
30
0.0
11
-104.798530
21
214.435020
31
0.0
0
LINE
8
0
6
CONTINUOUS
10
-112.103790
20
214.342520
30
0.0
11
-106.774680
21
214.058890
31
0.0
0
LINE
8
0
6
CONTINUOUS
10
-126.663250
20
215.117360
30
0.0
11
-119.383530
21
214.729940
31
0.0
0
LINE
8
0
6
CONTINUOUS
10
-133.942970
20
215.504780
30
0.0
11
-131.992380
21
215.400980
31
0.0
0
LINE
8
0
6
CONTINUOUS
10
-133.917430
20
215.984740
30
0.0
11
-133.942970
21
215.504780
31
0.0
0
LINE
8
0
6
CONTINUOUS
10
-131.992380
20
215.400980
30
0.0
11
-126.663250
21
215.117360
31
0.0
0
LINE
8
0
6
CONTINUOUS
10
-119.383530
20
214.729940
30
0.0
11
-112.103790
21
214.342520
31
0.0
0
LINE
8
0
6
CONTINUOUS
10
-104.449620
20
220.991000
30
0.0
11
-106.400230
21
221.094840
31
0.0
0
LINE
8
0
6
CONTINUOUS
10
-104.475180
20
220.511070
30
0.0
11
-104.449620
21
220.991000
31
0.0
0
LINE
8
0
6
CONTINUOUS
10
-106.400230
20
221.094840
30
0.0
11
-111.729340
21
221.378460
31
0.0
0
LINE
8
0
6
CONTINUOUS
10
-119.009080
20
221.765880
30
0.0
11
-126.288800
21
222.153300
31
0.0
0
LINE
8
0
6
CONTINUOUS
10
-133.568520
20
222.540720
30
0.0
11
-133.594060
21
222.060790
31
0.0
0
LINE
8
0
6
CONTINUOUS
10
-133.568520
20
222.540720
30
0.0
11
-131.617930
21
222.436920
31
0.0
0
LINE
8
0
6
CONTINUOUS
10
-126.288800
20
222.153300
30
0.0
11
-131.617930
21
222.436920
31
0.0
0
LINE
8
0
6
CONTINUOUS
10
-119.009080
20
221.765880
30
0.0
11
-111.729340
21
221.378460
31
0.0
0
LINE
8
0
6
CONTINUOUS
10
-103.850650
20
162.455800
30
0.0
11
-102.008940
21
162.362570
31
0.0
0
LINE
8
0
6
CONTINUOUS
10
-99.562630
20
190.878050
30
0.0
11
-101.338710
21
191.374220
31
0.0
0
LINE
8
0
6
CONTINUOUS
10
-110.108930
20
117.690030
30
0.0
11
-107.962020
21
158.030830
31
0.0
0
LINE
8
0
6
CONTINUOUS
10
-105.862930
20
197.472740
30
0.0
11
-105.125260
21
211.333600
31
0.0
0
LINE
8
0
6
CONTINUOUS
10
-135.845280
20
176.722510
30
0.0
11
-138.905410
21
119.222580
31
0.0
0
LINE
8
0
6
CONTINUOUS
10
-133.921720
20
212.866110
30
0.0
11
-135.302370
21
186.923730
31
0.0
0
LINE
8
0
6
CONTINUOUS
10
-106.345660
20
161.717090
30
0.0
11
-103.850650
21
162.455800
31
0.0
0
LINE
8
0
6
CONTINUOUS
10
-102.008940
20
162.362570
30
0.0
11
-101.265720
21
162.324920
31
0.0
0
LINE
8
0
6
CONTINUOUS
10
-107.962020
20
158.030830
30
0.0
11
-107.902870
21
159.142210
31
0.0
0
LINE
8
0
6
CONTINUOUS
10
-94.968950
20
189.594710
30
0.0
11
-99.562630
21
190.878050
31
0.0
0
LINE
8
0
6
CONTINUOUS
10
-135.356220
20
185.911960
30
0.0
11
-135.572570
21
181.847020
31
0.0
0
LINE
8
0
6
CONTINUOUS
10
-135.572570
20
181.847020
30
0.0
11
-135.790160
21
177.758160
31
0.0
0
LINE
8
0
6
CONTINUOUS
10
-105.919540
20
196.409090
30
0.0
11
-105.862930
21
197.472740
31
0.0
0
LINE
8
0
6
CONTINUOUS
10
-106.679500
20
191.792660
30
0.0
11
-104.664370
21
193.308660
31
0.0
0
LINE
8
0
6
CONTINUOUS
10
-104.664370
20
193.308660
30
0.0
11
-105.919540
21
196.409090
31
0.0
0
LINE
8
0
6
CONTINUOUS
10
-135.790160
20
177.758160
30
0.0
11
-135.845280
21
176.722510
31
0.0
0
LINE
8
0
6
CONTINUOUS
10
-135.302370
20
186.923730
30
0.0
11
-135.356220
21
185.911960
31
0.0
0
LINE
8
0
6
CONTINUOUS
10
-106.345660
20
161.717090
30
0.0
11
-108.152320
21
164.118670
31
0.0
0
LINE
8
0
6
CONTINUOUS
10
-107.902870
20
159.142210
30
0.0
11
-106.345660
21
161.717090
31
0.0
0
LINE
8
0
6
CONTINUOUS
10
-77.545820
20
158.027900
30
0.0
11
-77.552000
21
156.849230
31
0.0
0
LINE
8
0
6
CONTINUOUS
10
92.929530
20
-47.286150
30
0.0
11
92.929480
21
-48.189030
31
0.0
0
LINE
8
0
6
CONTINUOUS
10
95.869610
20
76.963250
30
0.0
11
92.929530
21
-47.286150
31
0.0
0
LINE
8
0
6
CONTINUOUS
10
95.264890
20
-48.188990
30
0.0
11
103.047220
21
-48.189010
31
0.0
0
LINE
8
0
6
CONTINUOUS
10
110.191910
20
-48.189010
30
0.0
11
118.926790
21
-48.188990
31
0.0
0
LINE
8
0
6
CONTINUOUS
10
127.442280
20
-48.189030
30
0.0
11
127.442410
21
-47.286110
31
0.0
0
LINE
8
0
6
CONTINUOUS
10
103.047220
20
-48.189010
30
0.0
11
110.191910
21
-48.189010
31
0.0
0
LINE
8
0
6
CONTINUOUS
10
95.770410
20
-48.189045
30
0.0
11
95.770410
21
-49.124990
31
0.0
0
LINE
8
0
6
CONTINUOUS
10
124.677500
20
-49.124056
30
0.0
11
124.677500
21
-48.189030
31
0.0
0
LINE
8
0
6
CONTINUOUS
10
125.201760
20
-48.189010
30
0.0
11
118.926790
21
-48.188990
31
0.0
0
LINE
8
0
6
CONTINUOUS
10
127.442280
20
-48.189030
30
0.0
11
125.201760
21
-48.189010
31
0.0
0
LINE
8
0
6
CONTINUOUS
10
95.264890
20
-48.188990
30
0.0
11
92.929480
21
-48.189030
31
0.0
0
LINE
8
0
6
CONTINUOUS
10
95.418600
20
88.425160
30
0.0
11
95.869610
21
76.963250
31
0.0
0
LINE
8
0
6
CONTINUOUS
10
94.284760
20
97.473350
30
0.0
11
95.418600
21
88.425160
31
0.0
0
LINE
8
0
6
CONTINUOUS
10
92.078380
20
103.188040
30
0.0
11
94.284760
21
97.473350
31
0.0
0
LINE
8
0
6
CONTINUOUS
10
89.056740
20
108.516710
30
0.0
11
92.078380
21
103.188040
31
0.0
0
LINE
8
0
6
CONTINUOUS
10
85.130940
20
113.219200
30
0.0
11
89.056740
21
108.516710
31
0.0
0
LINE
8
0
6
CONTINUOUS
10
80.385850
20
117.093450
30
0.0
11
85.130940
21
113.219200
31
0.0
0
LINE
8
0
6
CONTINUOUS
10
75.069140
20
120.136010
30
0.0
11
80.385850
21
117.093450
31
0.0
0
LINE
8
0
6
CONTINUOUS
10
69.363190
20
122.364860
30
0.0
11
75.069140
21
120.136010
31
0.0
0
LINE
8
0
6
CONTINUOUS
10
63.526590
20
124.224790
30
0.0
11
69.363190
21
122.364860
31
0.0
0
LINE
8
0
6
CONTINUOUS
10
54.240190
20
126.417520
30
0.0
11
63.526590
21
124.224790
31
0.0
0
LINE
8
0
6
CONTINUOUS
10
-77.299480
20
156.790900
30
0.0
11
54.240190
21
126.417520
31
0.0
0
LINE
8
0
6
CONTINUOUS
10
-78.710080
20
157.116640
30
0.0
11
-78.057010
21
156.965850
31
0.0
0
LINE
8
0
6
CONTINUOUS
10
-77.581850
20
159.023840
30
0.0
11
-78.057010
21
156.965850
31
0.0
0
LINE
8
0
6
CONTINUOUS
10
-77.545820
20
158.027900
30
0.0
11
-77.110770
21
159.912050
31
0.0
0
LINE
8
0
6
CONTINUOUS
10
-78.057010
20
156.965850
30
0.0
11
-77.545820
21
158.027900
31
0.0
0
LINE
8
0
6
CONTINUOUS
10
-77.076800
20
158.907180
30
0.0
11
-77.552000
21
156.849230
31
0.0
0
LINE
8
0
6
CONTINUOUS
10
-77.552000
20
156.849230
30
0.0
11
-77.299480
21
156.790900
31
0.0
0
LINE
8
0
6
CONTINUOUS
10
-72.149010
20
182.551940
30
0.0
11
-73.254020
21
177.766400
31
0.0
0
LINE
8
0
6
CONTINUOUS
10
-73.138180
20
177.116030
30
0.0
11
-72.122960
21
181.512660
31
0.0
0
LINE
8
0
6
CONTINUOUS
10
-71.643980
20
182.435320
30
0.0
11
-72.748990
21
177.649780
31
0.0
0
LINE
8
0
6
CONTINUOUS
10
-73.254020
20
177.766400
30
0.0
11
-74.780350
21
171.156210
31
0.0
0
LINE
8
0
6
CONTINUOUS
10
-74.541210
20
171.040060
30
0.0
11
-73.138180
21
177.116030
31
0.0
0
LINE
8
0
6
CONTINUOUS
10
-72.748990
20
177.649780
30
0.0
11
-74.275320
21
171.039640
31
0.0
0
LINE
8
0
6
CONTINUOUS
10
-76.208940
20
164.969420
30
0.0
11
-77.581850
21
159.023840
31
0.0
0
LINE
8
0
6
CONTINUOUS
10
-77.110770
20
159.912050
30
0.0
11
-75.842060
21
165.406440
31
0.0
0
LINE
8
0
6
CONTINUOUS
10
-75.703930
20
164.852770
30
0.0
11
-77.076800
21
158.907180
31
0.0
0
LINE
8
0
6
CONTINUOUS
10
-71.255190
20
184.119010
30
0.0
11
-71.766320
21
183.056960
31
0.0
0
LINE
8
0
6
CONTINUOUS
10
-74.780350
20
171.156210
30
0.0
11
-76.208940
21
164.969420
31
0.0
0
LINE
8
0
6
CONTINUOUS
10
-75.842060
20
165.406440
30
0.0
11
-74.541210
21
171.040060
31
0.0
0
LINE
8
0
6
CONTINUOUS
10
-74.275320
20
171.039640
30
0.0
11
-75.703930
21
164.852770
31
0.0
0
LINE
8
0
6
CONTINUOUS
10
127.442410
20
-47.286110
30
0.0
11
123.857040
21
76.963250
31
0.0
0
LINE
8
0
6
CONTINUOUS
10
123.857040
20
76.963250
30
0.0
11
123.102610
21
92.535130
31
0.0
0
LINE
8
0
6
CONTINUOUS
10
123.102610
20
92.535130
30
0.0
11
121.065080
21
105.604190
31
0.0
0
LINE
8
0
6
CONTINUOUS
10
121.065080
20
105.604190
30
0.0
11
117.374340
21
115.163360
31
0.0
0
LINE
8
0
6
CONTINUOUS
10
117.374340
20
115.163360
30
0.0
11
112.319890
21
124.076970
31
0.0
0
LINE
8
0
6
CONTINUOUS
10
112.319890
20
124.076970
30
0.0
11
105.236780
21
132.688390
31
0.0
0
LINE
8
0
6
CONTINUOUS
10
105.236780
20
132.688390
30
0.0
11
96.442180
21
140.016950
31
0.0
0
LINE
8
0
6
CONTINUOUS
10
96.442180
20
140.016950
30
0.0
11
87.143950
21
145.384650
31
0.0
0
LINE
8
0
6
CONTINUOUS
10
87.143950
20
145.384650
30
0.0
11
79.800950
21
148.333070
31
0.0
0
LINE
8
0
6
CONTINUOUS
10
79.800950
20
148.333070
30
0.0
11
72.500840
21
150.734270
31
0.0
0
LINE
8
0
6
CONTINUOUS
10
72.500840
20
150.734270
30
0.0
11
60.536950
21
153.687300
31
0.0
0
LINE
8
0
6
CONTINUOUS
10
60.536950
20
153.687300
30
0.0
11
-71.002680
21
184.060720
31
0.0
0
LINE
8
0
6
CONTINUOUS
10
-71.760220
20
184.235630
30
0.0
11
-72.413290
21
184.386420
31
0.0
0
LINE
8
0
6
CONTINUOUS
10
-71.760220
20
184.235630
30
0.0
11
-72.149010
21
182.551940
31
0.0
0
LINE
8
0
6
CONTINUOUS
10
-71.766320
20
183.056960
30
0.0
11
-71.760220
21
184.235630
31
0.0
0
LINE
8
0
6
CONTINUOUS
10
-72.122960
20
181.512660
30
0.0
11
-71.766320
21
183.056960
31
0.0
0
LINE
8
0
6
CONTINUOUS
10
-71.255190
20
184.119010
30
0.0
11
-71.643980
21
182.435320
31
0.0
0
LINE
8
0
6
CONTINUOUS
10
-71.002680
20
184.060720
30
0.0
11
-71.255190
21
184.119010
31
0.0
0
LINE
8
0
6
CONTINUOUS
10
-72.413290
20
184.386420
30
0.0
11
-94.968950
21
189.594710
31
0.0
0
LINE
8
0
6
CONTINUOUS
10
-101.265720
20
162.324920
30
0.0
11
-78.710080
21
157.116640
31
0.0
0
LINE
8
0
6
CONTINUOUS
10
-118.823280
20
112.503030
30
0.0
11
-114.389310
21
112.284180
31
0.0
0
LINE
8
0
6
CONTINUOUS
10
-124.880200
20
112.801990
30
0.0
11
-118.823280
21
112.503030
31
0.0
0
LINE
8
0
6
CONTINUOUS
10
-130.937140
20
113.100950
30
0.0
11
-124.880200
21
112.801990
31
0.0
0
LINE
8
0
6
CONTINUOUS
10
-135.371120
20
113.319800
30
0.0
11
-130.937140
21
113.100950
31
0.0
0
LINE
8
0
6
CONTINUOUS
10
-136.994080
20
113.399900
30
0.0
11
-135.371120
21
113.319800
31
0.0
0
LINE
8
0
6
CONTINUOUS
10
-136.979530
20
113.694740
30
0.0
11
-136.994080
21
113.399900
31
0.0
0
LINE
8
0
6
CONTINUOUS
10
-112.766340
20
112.204070
30
0.0
11
-112.751810
21
112.498910
31
0.0
0
LINE
8
0
6
CONTINUOUS
10
-114.483130
20
112.288800
30
0.0
11
-114.621390
21
112.295630
31
0.0
0
LINE
8
0
6
CONTINUOUS
10
-112.751810
20
112.498910
30
0.0
11
-112.536715
21
116.856629
31
0.0
0
LINE
8
0
6
CONTINUOUS
10
-114.389310
20
112.284180
30
0.0
11
-114.569550
21
112.293070
31
0.0
0
LINE
8
0
6
CONTINUOUS
10
-112.766340
20
112.204070
30
0.0
11
-114.389310
21
112.284180
31
0.0
0
LINE
8
0
6
CONTINUOUS
10
104.166248
20
-165.666630
30
0.0
11
105.083757
21
-165.859275
31
0.0
0
LINE
8
0
6
CONTINUOUS
10
105.083757
20
-165.859275
30
0.0
11
105.929630
21
-166.036287
31
0.0
0
LINE
8
0
6
CONTINUOUS
10
105.929630
20
-166.036287
30
0.0
11
107.505925
21
-166.367843
31
0.0
0
LINE
8
0
6
CONTINUOUS
10
103.684262
20
-165.565425
30
0.0
11
104.166248
21
-165.666630
31
0.0
0
LINE
8
0
6
CONTINUOUS
10
107.866542
20
-166.443545
30
0.0
11
109.485010
21
-166.368647
31
0.0
0
ENDSEC
0
EOF
