999
Erzeugt mit innoplus bad 
0
SECTION
2
HEADER
9
$ACADVER
1
AC1009
9
$DWGCODEPAGE
3
ISO8859-1
0
ENDSEC
0
SECTION
2
TABLES
0
TABLE
2
LAYER
70
1
0
LAYER
2
0
70
0
62
7
6
CONTINUOUS
0
ENDTAB
0
ENDSEC
0
SECTION
2
ENTITIES
0
LINE
8
0
6
CONTINUOUS
10
0.020380
20
0.095686
30
0.0
11
0.019628
21
0.102362
31
0.0
0
LINE
8
0
6
CONTINUOUS
10
0.019628
20
0.102362
30
0.0
11
0.017409
21
0.108703
31
0.0
0
LINE
8
0
6
CONTINUOUS
10
0.017409
20
0.108703
30
0.0
11
0.013835
21
0.114391
31
0.0
0
LINE
8
0
6
CONTINUOUS
10
0.013835
20
0.114391
30
0.0
11
0.009085
21
0.119141
31
0.0
0
LINE
8
0
6
CONTINUOUS
10
0.009085
20
0.119141
30
0.0
11
0.003397
21
0.122715
31
0.0
0
LINE
8
0
6
CONTINUOUS
10
0.003397
20
0.122715
30
0.0
11
-0.002944
21
0.124934
31
0.0
0
LINE
8
0
6
CONTINUOUS
10
-0.002944
20
0.124934
30
0.0
11
-0.009620
21
0.125686
31
0.0
0
LINE
8
0
6
CONTINUOUS
10
-0.009620
20
0.125686
30
0.0
11
-0.016295
21
0.124934
31
0.0
0
LINE
8
0
6
CONTINUOUS
10
-0.016295
20
0.124934
30
0.0
11
-0.022636
21
0.122715
31
0.0
0
LINE
8
0
6
CONTINUOUS
10
-0.022636
20
0.122715
30
0.0
11
-0.028324
21
0.119141
31
0.0
0
LINE
8
0
6
CONTINUOUS
10
-0.028324
20
0.119141
30
0.0
11
-0.033075
21
0.114391
31
0.0
0
LINE
8
0
6
CONTINUOUS
10
-0.033075
20
0.114391
30
0.0
11
-0.036649
21
0.108703
31
0.0
0
LINE
8
0
6
CONTINUOUS
10
-0.036649
20
0.108703
30
0.0
11
-0.038868
21
0.102362
31
0.0
0
LINE
8
0
6
CONTINUOUS
10
-0.038868
20
0.102362
30
0.0
11
-0.039620
21
0.095686
31
0.0
0
LINE
8
0
6
CONTINUOUS
10
-0.039620
20
0.095686
30
0.0
11
-0.038868
21
0.089010
31
0.0
0
LINE
8
0
6
CONTINUOUS
10
-0.038868
20
0.089010
30
0.0
11
-0.036649
21
0.082670
31
0.0
0
LINE
8
0
6
CONTINUOUS
10
-0.036649
20
0.082670
30
0.0
11
-0.033075
21
0.076981
31
0.0
0
LINE
8
0
6
CONTINUOUS
10
-0.033075
20
0.076981
30
0.0
11
-0.028324
21
0.072231
31
0.0
0
LINE
8
0
6
CONTINUOUS
10
-0.028324
20
0.072231
30
0.0
11
-0.026937
21
0.071359
31
0.0
0
LINE
8
0
6
CONTINUOUS
10
0.007683
20
0.071350
30
0.0
11
0.009085
21
0.072231
31
0.0
0
LINE
8
0
6
CONTINUOUS
10
0.009085
20
0.072231
30
0.0
11
0.013835
21
0.076981
31
0.0
0
LINE
8
0
6
CONTINUOUS
10
0.013835
20
0.076981
30
0.0
11
0.017409
21
0.082670
31
0.0
0
LINE
8
0
6
CONTINUOUS
10
0.017409
20
0.082670
30
0.0
11
0.019628
21
0.089010
31
0.0
0
LINE
8
0
6
CONTINUOUS
10
0.019628
20
0.089010
30
0.0
11
0.020380
21
0.095686
31
0.0
0
LINE
8
0
6
CONTINUOUS
10
-0.028627
20
0.095665
30
0.0
11
-0.028283
21
0.090731
31
0.0
0
LINE
8
0
6
CONTINUOUS
10
-0.009627
20
0.114665
30
0.0
11
-0.014544
21
0.114018
31
0.0
0
LINE
8
0
6
CONTINUOUS
10
-0.014544
20
0.114018
30
0.0
11
-0.019127
21
0.112120
31
0.0
0
LINE
8
0
6
CONTINUOUS
10
-0.019127
20
0.112120
30
0.0
11
-0.023062
21
0.109100
31
0.0
0
LINE
8
0
6
CONTINUOUS
10
-0.023062
20
0.109100
30
0.0
11
-0.026081
21
0.105165
31
0.0
0
LINE
8
0
6
CONTINUOUS
10
-0.026081
20
0.105165
30
0.0
11
-0.027979
21
0.100583
31
0.0
0
LINE
8
0
6
CONTINUOUS
10
-0.027979
20
0.100583
30
0.0
11
-0.028627
21
0.095665
31
0.0
0
LINE
8
0
6
CONTINUOUS
10
-0.019711
20
0.018727
30
0.0
11
-0.016058
21
0.017802
31
0.0
0
LINE
8
0
6
CONTINUOUS
10
-0.022483
20
0.021281
30
0.0
11
-0.019711
21
0.018727
31
0.0
0
LINE
8
0
6
CONTINUOUS
10
-0.016058
20
0.017802
30
0.0
11
-0.012843
21
0.017801
31
0.0
0
LINE
8
0
6
CONTINUOUS
10
-0.025225
20
0.046728
30
0.0
11
-0.024464
21
0.035787
31
0.0
0
LINE
8
0
6
CONTINUOUS
10
-0.012843
20
0.017801
30
0.0
11
-0.009627
21
0.017801
31
0.0
0
LINE
8
0
6
CONTINUOUS
10
-0.026746
20
0.068610
30
0.0
11
-0.026239
21
0.061316
31
0.0
0
LINE
8
0
6
CONTINUOUS
10
-0.023704
20
0.024846
30
0.0
11
-0.022483
21
0.021281
31
0.0
0
LINE
8
0
6
CONTINUOUS
10
-0.024464
20
0.035787
30
0.0
11
-0.023704
21
0.024846
31
0.0
0
LINE
8
0
6
CONTINUOUS
10
-0.026239
20
0.061316
30
0.0
11
-0.025732
21
0.054022
31
0.0
0
LINE
8
0
6
CONTINUOUS
10
-0.025732
20
0.054022
30
0.0
11
-0.025225
21
0.046728
31
0.0
0
LINE
8
0
6
CONTINUOUS
10
-0.028283
20
0.090731
30
0.0
11
-0.027515
21
0.079670
31
0.0
0
LINE
8
0
6
CONTINUOUS
10
-0.027515
20
0.079670
30
0.0
11
-0.026746
21
0.068610
31
0.0
0
LINE
8
0
6
CONTINUOUS
10
0.009030
20
0.090731
30
0.0
11
0.009373
21
0.095665
31
0.0
0
LINE
8
0
6
CONTINUOUS
10
-0.004709
20
0.114018
30
0.0
11
-0.009627
21
0.114665
31
0.0
0
LINE
8
0
6
CONTINUOUS
10
-0.000127
20
0.112120
30
0.0
11
-0.004709
21
0.114018
31
0.0
0
LINE
8
0
6
CONTINUOUS
10
0.003808
20
0.109100
30
0.0
11
-0.000127
21
0.112120
31
0.0
0
LINE
8
0
6
CONTINUOUS
10
0.006828
20
0.105165
30
0.0
11
0.003808
21
0.109100
31
0.0
0
LINE
8
0
6
CONTINUOUS
10
0.008726
20
0.100583
30
0.0
11
0.006828
21
0.105165
31
0.0
0
LINE
8
0
6
CONTINUOUS
10
0.009373
20
0.095665
30
0.0
11
0.008726
21
0.100583
31
0.0
0
LINE
8
0
6
CONTINUOUS
10
-0.003195
20
0.017802
30
0.0
11
0.000458
21
0.018727
31
0.0
0
LINE
8
0
6
CONTINUOUS
10
0.000458
20
0.018727
30
0.0
11
0.003230
21
0.021281
31
0.0
0
LINE
8
0
6
CONTINUOUS
10
-0.006411
20
0.017801
30
0.0
11
-0.003195
21
0.017802
31
0.0
0
LINE
8
0
6
CONTINUOUS
10
0.005211
20
0.035787
30
0.0
11
0.005972
21
0.046728
31
0.0
0
LINE
8
0
6
CONTINUOUS
10
-0.009627
20
0.017801
30
0.0
11
-0.006411
21
0.017801
31
0.0
0
LINE
8
0
6
CONTINUOUS
10
0.006986
20
0.061316
30
0.0
11
0.007493
21
0.068610
31
0.0
0
LINE
8
0
6
CONTINUOUS
10
0.003230
20
0.021281
30
0.0
11
0.004451
21
0.024846
31
0.0
0
LINE
8
0
6
CONTINUOUS
10
0.004451
20
0.024846
30
0.0
11
0.005211
21
0.035787
31
0.0
0
LINE
8
0
6
CONTINUOUS
10
0.006479
20
0.054022
30
0.0
11
0.006986
21
0.061316
31
0.0
0
LINE
8
0
6
CONTINUOUS
10
0.005972
20
0.046728
30
0.0
11
0.006479
21
0.054022
31
0.0
0
LINE
8
0
6
CONTINUOUS
10
0.008261
20
0.079670
30
0.0
11
0.009030
21
0.090731
31
0.0
0
LINE
8
0
6
CONTINUOUS
10
0.007493
20
0.068610
30
0.0
11
0.008261
21
0.079670
31
0.0
0
LINE
8
0
6
CONTINUOUS
10
-0.084620
20
0.095686
30
0.0
11
-0.085497
21
0.103474
31
0.0
0
LINE
8
0
6
CONTINUOUS
10
-0.085497
20
0.103474
30
0.0
11
-0.088086
21
0.110872
31
0.0
0
LINE
8
0
6
CONTINUOUS
10
-0.088086
20
0.110872
30
0.0
11
-0.092256
21
0.117508
31
0.0
0
LINE
8
0
6
CONTINUOUS
10
-0.092256
20
0.117508
30
0.0
11
-0.097797
21
0.123050
31
0.0
0
LINE
8
0
6
CONTINUOUS
10
-0.097797
20
0.123050
30
0.0
11
-0.104434
21
0.127220
31
0.0
0
LINE
8
0
6
CONTINUOUS
10
-0.104434
20
0.127220
30
0.0
11
-0.111831
21
0.129809
31
0.0
0
LINE
8
0
6
CONTINUOUS
10
-0.111831
20
0.129809
30
0.0
11
-0.116812
21
0.130370
31
0.0
0
LINE
8
0
6
CONTINUOUS
10
-0.122427
20
0.130370
30
0.0
11
-0.127408
21
0.129809
31
0.0
0
LINE
8
0
6
CONTINUOUS
10
-0.127408
20
0.129809
30
0.0
11
-0.134806
21
0.127220
31
0.0
0
LINE
8
0
6
CONTINUOUS
10
-0.134806
20
0.127220
30
0.0
11
-0.141442
21
0.123050
31
0.0
0
LINE
8
0
6
CONTINUOUS
10
-0.141442
20
0.123050
30
0.0
11
-0.146984
21
0.117508
31
0.0
0
LINE
8
0
6
CONTINUOUS
10
-0.146984
20
0.117508
30
0.0
11
-0.151154
21
0.110872
31
0.0
0
LINE
8
0
6
CONTINUOUS
10
-0.151154
20
0.110872
30
0.0
11
-0.153742
21
0.103474
31
0.0
0
LINE
8
0
6
CONTINUOUS
10
-0.153742
20
0.103474
30
0.0
11
-0.154620
21
0.095686
31
0.0
0
LINE
8
0
6
CONTINUOUS
10
-0.154620
20
0.095686
30
0.0
11
-0.153742
21
0.087898
31
0.0
0
LINE
8
0
6
CONTINUOUS
10
-0.153742
20
0.087898
30
0.0
11
-0.151154
21
0.080500
31
0.0
0
LINE
8
0
6
CONTINUOUS
10
-0.151154
20
0.080500
30
0.0
11
-0.146984
21
0.073864
31
0.0
0
LINE
8
0
6
CONTINUOUS
10
-0.146984
20
0.073864
30
0.0
11
-0.143169
21
0.070049
31
0.0
0
LINE
8
0
6
CONTINUOUS
10
-0.096071
20
0.070049
30
0.0
11
-0.092256
21
0.073864
31
0.0
0
LINE
8
0
6
CONTINUOUS
10
-0.092256
20
0.073864
30
0.0
11
-0.088086
21
0.080500
31
0.0
0
LINE
8
0
6
CONTINUOUS
10
-0.088086
20
0.080500
30
0.0
11
-0.085497
21
0.087898
31
0.0
0
LINE
8
0
6
CONTINUOUS
10
-0.085497
20
0.087898
30
0.0
11
-0.084620
21
0.095686
31
0.0
0
LINE
8
0
6
CONTINUOUS
10
-0.096064
20
0.083918
30
0.0
11
-0.096069
21
0.096666
31
0.0
0
LINE
8
0
6
CONTINUOUS
10
-0.104106
20
-0.114312
30
0.0
11
-0.101696
21
-0.114312
31
0.0
0
LINE
8
0
6
CONTINUOUS
10
-0.097903
20
-0.111573
30
0.0
11
-0.097857
21
-0.109578
31
0.0
0
LINE
8
0
6
CONTINUOUS
10
-0.097857
20
-0.109578
30
0.0
11
-0.096060
21
0.071171
31
0.0
0
LINE
8
0
6
CONTINUOUS
10
-0.119620
20
-0.114312
30
0.0
11
-0.104106
21
-0.114312
31
0.0
0
LINE
8
0
6
CONTINUOUS
10
-0.098722
20
-0.113747
30
0.0
11
-0.097903
21
-0.111573
31
0.0
0
LINE
8
0
6
CONTINUOUS
10
-0.101696
20
-0.114312
30
0.0
11
-0.098722
21
-0.113747
31
0.0
0
LINE
8
0
6
CONTINUOUS
10
-0.113522
20
0.119344
30
0.0
11
-0.119620
21
0.120077
31
0.0
0
LINE
8
0
6
CONTINUOUS
10
-0.096069
20
0.096666
30
0.0
11
-0.096862
21
0.102673
31
0.0
0
LINE
8
0
6
CONTINUOUS
10
-0.102960
20
0.113244
30
0.0
11
-0.107840
21
0.116990
31
0.0
0
LINE
8
0
6
CONTINUOUS
10
-0.099216
20
0.108360
30
0.0
11
-0.102960
21
0.113244
31
0.0
0
LINE
8
0
6
CONTINUOUS
10
-0.096862
20
0.102673
30
0.0
11
-0.099216
21
0.108360
31
0.0
0
LINE
8
0
6
CONTINUOUS
10
-0.107840
20
0.116990
30
0.0
11
-0.113522
21
0.119344
31
0.0
0
LINE
8
0
6
CONTINUOUS
10
-0.096060
20
0.071171
30
0.0
11
-0.096064
21
0.083918
31
0.0
0
LINE
8
0
6
CONTINUOUS
10
-0.095996
20
0.090036
30
0.0
11
-0.096069
21
0.096666
31
0.0
0
LINE
8
0
6
CONTINUOUS
10
-0.096103
20
0.083029
30
0.0
11
-0.095996
21
0.090036
31
0.0
0
LINE
8
0
6
CONTINUOUS
10
-0.143170
20
0.096666
30
0.0
11
-0.143175
21
0.083918
31
0.0
0
LINE
8
0
6
CONTINUOUS
10
-0.137543
20
-0.114312
30
0.0
11
-0.135134
21
-0.114312
31
0.0
0
LINE
8
0
6
CONTINUOUS
10
-0.141382
20
-0.109578
30
0.0
11
-0.141337
21
-0.111573
31
0.0
0
LINE
8
0
6
CONTINUOUS
10
-0.143180
20
0.071171
30
0.0
11
-0.141382
21
-0.109578
31
0.0
0
LINE
8
0
6
CONTINUOUS
10
-0.135134
20
-0.114312
30
0.0
11
-0.119620
21
-0.114312
31
0.0
0
LINE
8
0
6
CONTINUOUS
10
-0.141337
20
-0.111573
30
0.0
11
-0.140517
21
-0.113747
31
0.0
0
LINE
8
0
6
CONTINUOUS
10
-0.140517
20
-0.113747
30
0.0
11
-0.137543
21
-0.114312
31
0.0
0
LINE
8
0
6
CONTINUOUS
10
-0.119620
20
0.120077
30
0.0
11
-0.125717
21
0.119344
31
0.0
0
LINE
8
0
6
CONTINUOUS
10
-0.142377
20
0.102673
30
0.0
11
-0.143170
21
0.096666
31
0.0
0
LINE
8
0
6
CONTINUOUS
10
-0.131400
20
0.116990
30
0.0
11
-0.136279
21
0.113244
31
0.0
0
LINE
8
0
6
CONTINUOUS
10
-0.136279
20
0.113244
30
0.0
11
-0.140023
21
0.108360
31
0.0
0
LINE
8
0
6
CONTINUOUS
10
-0.140023
20
0.108360
30
0.0
11
-0.142377
21
0.102673
31
0.0
0
LINE
8
0
6
CONTINUOUS
10
-0.125717
20
0.119344
30
0.0
11
-0.131400
21
0.116990
31
0.0
0
LINE
8
0
6
CONTINUOUS
10
-0.143175
20
0.083918
30
0.0
11
-0.143180
21
0.071171
31
0.0
0
LINE
8
0
6
CONTINUOUS
10
-0.143170
20
0.096666
30
0.0
11
-0.143243
21
0.090036
31
0.0
0
LINE
8
0
6
CONTINUOUS
10
-0.143243
20
0.090036
30
0.0
11
-0.143137
21
0.083029
31
0.0
0
LINE
8
0
6
CONTINUOUS
10
-0.122427
20
0.132814
30
0.0
11
-0.122427
21
0.119739
31
0.0
0
LINE
8
0
6
CONTINUOUS
10
-0.121605
20
0.132814
30
0.0
11
-0.121605
21
0.119838
31
0.0
0
LINE
8
0
6
CONTINUOUS
10
-0.119620
20
0.132814
30
0.0
11
-0.119620
21
0.120077
31
0.0
0
LINE
8
0
6
CONTINUOUS
10
-0.116812
20
0.119739
30
0.0
11
-0.116812
21
0.132814
31
0.0
0
LINE
8
0
6
CONTINUOUS
10
-0.117634
20
0.132814
30
0.0
11
-0.117634
21
0.119838
31
0.0
0
LINE
8
0
6
CONTINUOUS
10
-0.122427
20
0.133314
30
0.0
11
-0.122427
21
0.132814
31
0.0
0
LINE
8
0
6
CONTINUOUS
10
-0.121605
20
0.133314
30
0.0
11
-0.122427
21
0.133314
31
0.0
0
LINE
8
0
6
CONTINUOUS
10
-0.121605
20
0.133314
30
0.0
11
-0.121605
21
0.132814
31
0.0
0
LINE
8
0
6
CONTINUOUS
10
-0.119620
20
0.133314
30
0.0
11
-0.121605
21
0.133314
31
0.0
0
LINE
8
0
6
CONTINUOUS
10
-0.119620
20
0.133314
30
0.0
11
-0.119620
21
0.132814
31
0.0
0
LINE
8
0
6
CONTINUOUS
10
-0.117634
20
0.133314
30
0.0
11
-0.119620
21
0.133314
31
0.0
0
LINE
8
0
6
CONTINUOUS
10
-0.117634
20
0.133314
30
0.0
11
-0.117634
21
0.132814
31
0.0
0
LINE
8
0
6
CONTINUOUS
10
-0.116812
20
0.133314
30
0.0
11
-0.117634
21
0.133314
31
0.0
0
LINE
8
0
6
CONTINUOUS
10
-0.116812
20
0.132814
30
0.0
11
-0.116812
21
0.133314
31
0.0
0
LINE
8
0
6
CONTINUOUS
10
0.050984
20
-0.109973
30
0.0
11
0.054427
21
-0.116808
31
0.0
0
LINE
8
0
6
CONTINUOUS
10
0.087628
20
-0.132598
30
0.0
11
0.100380
21
-0.133314
31
0.0
0
LINE
8
0
6
CONTINUOUS
10
0.074879
20
-0.130302
30
0.0
11
0.087628
21
-0.132598
31
0.0
0
LINE
8
0
6
CONTINUOUS
10
0.065932
20
-0.127179
30
0.0
11
0.074879
21
-0.130302
31
0.0
0
LINE
8
0
6
CONTINUOUS
10
0.054765
20
-0.117272
30
0.0
11
0.059896
21
-0.123039
31
0.0
0
LINE
8
0
6
CONTINUOUS
10
0.054427
20
-0.116808
30
0.0
11
0.054765
21
-0.117272
31
0.0
0
LINE
8
0
6
CONTINUOUS
10
0.059896
20
-0.123039
30
0.0
11
0.065932
21
-0.127179
31
0.0
0
LINE
8
0
6
CONTINUOUS
10
0.058978
20
-0.042010
30
0.0
11
0.055216
21
-0.045503
31
0.0
0
LINE
8
0
6
CONTINUOUS
10
0.093801
20
0.058052
30
0.0
11
0.090825
21
0.056589
31
0.0
0
LINE
8
0
6
CONTINUOUS
10
0.088420
20
0.054621
30
0.0
11
0.088096
21
0.054286
31
0.0
0
LINE
8
0
6
CONTINUOUS
10
0.086770
20
0.043637
30
0.0
11
0.085242
21
0.021965
31
0.0
0
LINE
8
0
6
CONTINUOUS
10
0.085386
20
0.022546
30
0.0
11
0.086847
21
0.044161
31
0.0
0
LINE
8
0
6
CONTINUOUS
10
0.085242
20
0.021965
30
0.0
11
0.084107
21
0.004834
31
0.0
0
LINE
8
0
6
CONTINUOUS
10
0.084271
20
0.005547
30
0.0
11
0.085386
21
0.022546
31
0.0
0
LINE
8
0
6
CONTINUOUS
10
0.084107
20
0.004834
30
0.0
11
0.083036
21
-0.008650
31
0.0
0
LINE
8
0
6
CONTINUOUS
10
0.083212
20
-0.007828
30
0.0
11
0.084271
21
0.005547
31
0.0
0
LINE
8
0
6
CONTINUOUS
10
0.083036
20
-0.008650
30
0.0
11
0.082052
21
-0.017771
31
0.0
0
LINE
8
0
6
CONTINUOUS
10
0.083212
20
-0.007828
30
0.0
11
0.082201
21
-0.017293
31
0.0
0
LINE
8
0
6
CONTINUOUS
10
0.080187
20
-0.023779
30
0.0
11
0.076220
21
-0.029977
31
0.0
0
LINE
8
0
6
CONTINUOUS
10
0.077145
20
-0.029099
30
0.0
11
0.080857
21
-0.023283
31
0.0
0
LINE
8
0
6
CONTINUOUS
10
0.077145
20
-0.029099
30
0.0
11
0.072948
21
-0.033084
31
0.0
0
LINE
8
0
6
CONTINUOUS
10
0.054255
20
-0.109651
30
0.0
11
0.050784
21
-0.102848
31
0.0
0
LINE
8
0
6
CONTINUOUS
10
0.046141
20
-0.080748
30
0.0
11
0.046695
21
-0.088771
31
0.0
0
LINE
8
0
6
CONTINUOUS
10
0.047526
20
-0.063069
30
0.0
11
0.046365
21
-0.072172
31
0.0
0
LINE
8
0
6
CONTINUOUS
10
0.049846
20
-0.054525
30
0.0
11
0.047526
21
-0.063069
31
0.0
0
LINE
8
0
6
CONTINUOUS
10
0.047553
20
-0.063231
30
0.0
11
0.049878
21
-0.054848
31
0.0
0
LINE
8
0
6
CONTINUOUS
10
0.055216
20
-0.045503
30
0.0
11
0.052406
21
-0.049305
31
0.0
0
LINE
8
0
6
CONTINUOUS
10
0.100380
20
-0.125959
30
0.0
11
0.087773
21
-0.125468
31
0.0
0
LINE
8
0
6
CONTINUOUS
10
0.100380
20
-0.127474
30
0.0
11
0.086944
21
-0.126673
31
0.0
0
LINE
8
0
6
CONTINUOUS
10
0.087773
20
-0.125468
30
0.0
11
0.075404
21
-0.123530
31
0.0
0
LINE
8
0
6
CONTINUOUS
10
0.086944
20
-0.126673
30
0.0
11
0.074211
21
-0.124306
31
0.0
0
LINE
8
0
6
CONTINUOUS
10
0.075404
20
-0.123530
30
0.0
11
0.066443
21
-0.120667
31
0.0
0
LINE
8
0
6
CONTINUOUS
10
0.059648
20
-0.115755
30
0.0
11
0.054255
21
-0.109651
31
0.0
0
LINE
8
0
6
CONTINUOUS
10
0.058575
20
-0.116458
30
0.0
11
0.053338
21
-0.110352
31
0.0
0
LINE
8
0
6
CONTINUOUS
10
0.066443
20
-0.120667
30
0.0
11
0.059648
21
-0.115755
31
0.0
0
LINE
8
0
6
CONTINUOUS
10
0.064956
20
-0.121024
30
0.0
11
0.058575
21
-0.116458
31
0.0
0
LINE
8
0
6
CONTINUOUS
10
0.055467
20
-0.045246
30
0.0
11
0.055216
21
-0.045503
31
0.0
0
LINE
8
0
6
CONTINUOUS
10
0.076167
20
-0.030059
30
0.0
11
0.071394
21
-0.034098
31
0.0
0
LINE
8
0
6
CONTINUOUS
10
0.071394
20
-0.034098
30
0.0
11
0.062884
21
-0.039356
31
0.0
0
LINE
8
0
6
CONTINUOUS
10
0.082201
20
-0.017293
30
0.0
11
0.080187
21
-0.023779
31
0.0
0
LINE
8
0
6
CONTINUOUS
10
0.074225
20
-0.033668
30
0.0
11
0.070919
21
-0.035333
31
0.0
0
LINE
8
0
6
CONTINUOUS
10
0.053338
20
-0.110352
30
0.0
11
0.049881
21
-0.103387
31
0.0
0
LINE
8
0
6
CONTINUOUS
10
0.088090
20
0.054195
30
0.0
11
0.088096
21
0.054286
31
0.0
0
LINE
8
0
6
CONTINUOUS
10
0.097240
20
0.058971
30
0.0
11
0.093801
21
0.058052
31
0.0
0
LINE
8
0
6
CONTINUOUS
10
0.100380
20
0.059283
30
0.0
11
0.097240
21
0.058971
31
0.0
0
LINE
8
0
6
CONTINUOUS
10
0.090825
20
0.056589
30
0.0
11
0.088420
21
0.054621
31
0.0
0
LINE
8
0
6
CONTINUOUS
10
0.086847
20
0.044161
30
0.0
11
0.088090
21
0.054195
31
0.0
0
LINE
8
0
6
CONTINUOUS
10
0.055216
20
-0.045503
30
0.0
11
0.052296
21
-0.049595
31
0.0
0
LINE
8
0
6
CONTINUOUS
10
0.052406
20
-0.049305
30
0.0
11
0.049846
21
-0.054525
31
0.0
0
LINE
8
0
6
CONTINUOUS
10
0.049878
20
-0.054848
30
0.0
11
0.052296
21
-0.049595
31
0.0
0
LINE
8
0
6
CONTINUOUS
10
0.062884
20
-0.039356
30
0.0
11
0.058978
21
-0.042010
31
0.0
0
LINE
8
0
6
CONTINUOUS
10
0.059233
20
-0.041805
30
0.0
11
0.058978
21
-0.042010
31
0.0
0
LINE
8
0
6
CONTINUOUS
10
0.046365
20
-0.072172
30
0.0
11
0.046141
21
-0.080748
31
0.0
0
LINE
8
0
6
CONTINUOUS
10
0.046571
20
-0.080690
30
0.0
11
0.046594
21
-0.072224
31
0.0
0
LINE
8
0
6
CONTINUOUS
10
0.047553
20
-0.063231
30
0.0
11
0.046594
21
-0.072224
31
0.0
0
LINE
8
0
6
CONTINUOUS
10
0.049087
20
-0.103138
30
0.0
11
0.050984
21
-0.109973
31
0.0
0
LINE
8
0
6
CONTINUOUS
10
0.049062
20
-0.103037
30
0.0
11
0.049087
21
-0.103138
31
0.0
0
LINE
8
0
6
CONTINUOUS
10
0.050784
20
-0.102848
30
0.0
11
0.048858
21
-0.096046
31
0.0
0
LINE
8
0
6
CONTINUOUS
10
0.049881
20
-0.103387
30
0.0
11
0.047970
21
-0.096422
31
0.0
0
LINE
8
0
6
CONTINUOUS
10
0.048366
20
-0.100312
30
0.0
11
0.049062
21
-0.103037
31
0.0
0
LINE
8
0
6
CONTINUOUS
10
0.048858
20
-0.096046
30
0.0
11
0.047354
21
-0.088554
31
0.0
0
LINE
8
0
6
CONTINUOUS
10
0.046695
20
-0.088771
30
0.0
11
0.046726
21
-0.089095
31
0.0
0
LINE
8
0
6
CONTINUOUS
10
0.047970
20
-0.096422
30
0.0
11
0.046695
21
-0.088771
31
0.0
0
LINE
8
0
6
CONTINUOUS
10
0.046571
20
-0.080690
30
0.0
11
0.047354
21
-0.088554
31
0.0
0
LINE
8
0
6
CONTINUOUS
10
0.047059
20
-0.092811
30
0.0
11
0.048366
21
-0.100312
31
0.0
0
LINE
8
0
6
CONTINUOUS
10
0.046726
20
-0.089095
30
0.0
11
0.047059
21
-0.092811
31
0.0
0
LINE
8
0
6
CONTINUOUS
10
0.146334
20
-0.116808
30
0.0
11
0.149777
21
-0.109973
31
0.0
0
LINE
8
0
6
CONTINUOUS
10
0.100380
20
-0.133314
30
0.0
11
0.113133
21
-0.132598
31
0.0
0
LINE
8
0
6
CONTINUOUS
10
0.113133
20
-0.132598
30
0.0
11
0.125882
21
-0.130302
31
0.0
0
LINE
8
0
6
CONTINUOUS
10
0.125882
20
-0.130302
30
0.0
11
0.134829
21
-0.127179
31
0.0
0
LINE
8
0
6
CONTINUOUS
10
0.145996
20
-0.117271
30
0.0
11
0.146334
21
-0.116808
31
0.0
0
LINE
8
0
6
CONTINUOUS
10
0.140865
20
-0.123039
30
0.0
11
0.145996
21
-0.117271
31
0.0
0
LINE
8
0
6
CONTINUOUS
10
0.134829
20
-0.127179
30
0.0
11
0.140865
21
-0.123039
31
0.0
0
LINE
8
0
6
CONTINUOUS
10
0.145545
20
-0.045503
30
0.0
11
0.141782
21
-0.042010
31
0.0
0
LINE
8
0
6
CONTINUOUS
10
0.109935
20
0.056589
30
0.0
11
0.106959
21
0.058052
31
0.0
0
LINE
8
0
6
CONTINUOUS
10
0.112664
20
0.054286
30
0.0
11
0.112340
21
0.054621
31
0.0
0
LINE
8
0
6
CONTINUOUS
10
0.113913
20
0.044161
30
0.0
11
0.115374
21
0.022546
31
0.0
0
LINE
8
0
6
CONTINUOUS
10
0.115518
20
0.021965
30
0.0
11
0.113990
21
0.043637
31
0.0
0
LINE
8
0
6
CONTINUOUS
10
0.115374
20
0.022546
30
0.0
11
0.116489
21
0.005547
31
0.0
0
LINE
8
0
6
CONTINUOUS
10
0.116653
20
0.004834
30
0.0
11
0.115518
21
0.021965
31
0.0
0
LINE
8
0
6
CONTINUOUS
10
0.116489
20
0.005547
30
0.0
11
0.117548
21
-0.007828
31
0.0
0
LINE
8
0
6
CONTINUOUS
10
0.117724
20
-0.008650
30
0.0
11
0.116653
21
0.004834
31
0.0
0
LINE
8
0
6
CONTINUOUS
10
0.118708
20
-0.017771
30
0.0
11
0.117724
21
-0.008650
31
0.0
0
LINE
8
0
6
CONTINUOUS
10
0.118559
20
-0.017293
30
0.0
11
0.117548
21
-0.007828
31
0.0
0
LINE
8
0
6
CONTINUOUS
10
0.119904
20
-0.023283
30
0.0
11
0.123616
21
-0.029099
31
0.0
0
LINE
8
0
6
CONTINUOUS
10
0.124540
20
-0.029977
30
0.0
11
0.120573
21
-0.023779
31
0.0
0
LINE
8
0
6
CONTINUOUS
10
0.127813
20
-0.033084
30
0.0
11
0.123616
21
-0.029099
31
0.0
0
LINE
8
0
6
CONTINUOUS
10
0.149977
20
-0.102848
30
0.0
11
0.146505
21
-0.109651
31
0.0
0
LINE
8
0
6
CONTINUOUS
10
0.154066
20
-0.088771
30
0.0
11
0.154620
21
-0.080748
31
0.0
0
LINE
8
0
6
CONTINUOUS
10
0.154395
20
-0.072172
30
0.0
11
0.153234
21
-0.063069
31
0.0
0
LINE
8
0
6
CONTINUOUS
10
0.150882
20
-0.054848
30
0.0
11
0.153207
21
-0.063230
31
0.0
0
LINE
8
0
6
CONTINUOUS
10
0.153234
20
-0.063069
30
0.0
11
0.150914
21
-0.054525
31
0.0
0
LINE
8
0
6
CONTINUOUS
10
0.148354
20
-0.049304
30
0.0
11
0.145545
21
-0.045503
31
0.0
0
LINE
8
0
6
CONTINUOUS
10
0.112988
20
-0.125468
30
0.0
11
0.100380
21
-0.125959
31
0.0
0
LINE
8
0
6
CONTINUOUS
10
0.113816
20
-0.126673
30
0.0
11
0.100380
21
-0.127474
31
0.0
0
LINE
8
0
6
CONTINUOUS
10
0.125357
20
-0.123529
30
0.0
11
0.112988
21
-0.125468
31
0.0
0
LINE
8
0
6
CONTINUOUS
10
0.126550
20
-0.124306
30
0.0
11
0.113816
21
-0.126673
31
0.0
0
LINE
8
0
6
CONTINUOUS
10
0.134317
20
-0.120666
30
0.0
11
0.125357
21
-0.123529
31
0.0
0
LINE
8
0
6
CONTINUOUS
10
0.146505
20
-0.109651
30
0.0
11
0.141113
21
-0.115755
31
0.0
0
LINE
8
0
6
CONTINUOUS
10
0.147423
20
-0.110352
30
0.0
11
0.142186
21
-0.116458
31
0.0
0
LINE
8
0
6
CONTINUOUS
10
0.141113
20
-0.115755
30
0.0
11
0.134317
21
-0.120666
31
0.0
0
LINE
8
0
6
CONTINUOUS
10
0.142186
20
-0.116458
30
0.0
11
0.135805
21
-0.121024
31
0.0
0
LINE
8
0
6
CONTINUOUS
10
0.145545
20
-0.045503
30
0.0
11
0.145293
21
-0.045245
31
0.0
0
LINE
8
0
6
CONTINUOUS
10
0.129366
20
-0.034098
30
0.0
11
0.124593
21
-0.030059
31
0.0
0
LINE
8
0
6
CONTINUOUS
10
0.131767
20
-0.036270
30
0.0
11
0.127813
21
-0.033084
31
0.0
0
LINE
8
0
6
CONTINUOUS
10
0.137876
20
-0.039356
30
0.0
11
0.129366
21
-0.034098
31
0.0
0
LINE
8
0
6
CONTINUOUS
10
0.120573
20
-0.023779
30
0.0
11
0.118559
21
-0.017293
31
0.0
0
LINE
8
0
6
CONTINUOUS
10
0.150879
20
-0.103387
30
0.0
11
0.147423
21
-0.110352
31
0.0
0
LINE
8
0
6
CONTINUOUS
10
0.112664
20
0.054286
30
0.0
11
0.112670
21
0.054195
31
0.0
0
LINE
8
0
6
CONTINUOUS
10
0.106959
20
0.058052
30
0.0
11
0.103520
21
0.058971
31
0.0
0
LINE
8
0
6
CONTINUOUS
10
0.103520
20
0.058971
30
0.0
11
0.100380
21
0.059283
31
0.0
0
LINE
8
0
6
CONTINUOUS
10
0.112340
20
0.054621
30
0.0
11
0.109935
21
0.056589
31
0.0
0
LINE
8
0
6
CONTINUOUS
10
0.112670
20
0.054195
30
0.0
11
0.113913
21
0.044161
31
0.0
0
LINE
8
0
6
CONTINUOUS
10
0.148464
20
-0.049595
30
0.0
11
0.145545
21
-0.045503
31
0.0
0
LINE
8
0
6
CONTINUOUS
10
0.148464
20
-0.049595
30
0.0
11
0.150882
21
-0.054848
31
0.0
0
LINE
8
0
6
CONTINUOUS
10
0.150914
20
-0.054525
30
0.0
11
0.148354
21
-0.049304
31
0.0
0
LINE
8
0
6
CONTINUOUS
10
0.141782
20
-0.042010
30
0.0
11
0.137876
21
-0.039356
31
0.0
0
LINE
8
0
6
CONTINUOUS
10
0.141782
20
-0.042010
30
0.0
11
0.141528
21
-0.041804
31
0.0
0
LINE
8
0
6
CONTINUOUS
10
0.154167
20
-0.072223
30
0.0
11
0.154190
21
-0.080690
31
0.0
0
LINE
8
0
6
CONTINUOUS
10
0.154620
20
-0.080748
30
0.0
11
0.154395
21
-0.072172
31
0.0
0
LINE
8
0
6
CONTINUOUS
10
0.154167
20
-0.072223
30
0.0
11
0.153207
21
-0.063230
31
0.0
0
LINE
8
0
6
CONTINUOUS
10
0.151673
20
-0.103138
30
0.0
11
0.151699
21
-0.103037
31
0.0
0
LINE
8
0
6
CONTINUOUS
10
0.149777
20
-0.109973
30
0.0
11
0.151673
21
-0.103138
31
0.0
0
LINE
8
0
6
CONTINUOUS
10
0.151903
20
-0.096046
30
0.0
11
0.149977
21
-0.102848
31
0.0
0
LINE
8
0
6
CONTINUOUS
10
0.152790
20
-0.096422
30
0.0
11
0.150879
21
-0.103387
31
0.0
0
LINE
8
0
6
CONTINUOUS
10
0.151699
20
-0.103037
30
0.0
11
0.152395
21
-0.100312
31
0.0
0
LINE
8
0
6
CONTINUOUS
10
0.153407
20
-0.088554
30
0.0
11
0.151903
21
-0.096046
31
0.0
0
LINE
8
0
6
CONTINUOUS
10
0.154066
20
-0.088771
30
0.0
11
0.152790
21
-0.096422
31
0.0
0
LINE
8
0
6
CONTINUOUS
10
0.154035
20
-0.089095
30
0.0
11
0.154066
21
-0.088771
31
0.0
0
LINE
8
0
6
CONTINUOUS
10
0.153407
20
-0.088554
30
0.0
11
0.154190
21
-0.080690
31
0.0
0
LINE
8
0
6
CONTINUOUS
10
0.153701
20
-0.092810
30
0.0
11
0.154035
21
-0.089095
31
0.0
0
LINE
8
0
6
CONTINUOUS
10
0.152395
20
-0.100312
30
0.0
11
0.153701
21
-0.092810
31
0.0
0
LINE
8
0
6
CONTINUOUS
10
0.113020
20
0.071805
30
0.0
11
0.110466
21
0.073785
31
0.0
0
LINE
8
0
6
CONTINUOUS
10
0.110469
20
0.074121
30
0.0
11
0.113023
21
0.072141
31
0.0
0
LINE
8
0
6
CONTINUOUS
10
0.087741
20
0.071805
30
0.0
11
0.085821
21
0.069437
31
0.0
0
LINE
8
0
6
CONTINUOUS
10
0.085817
20
0.069772
30
0.0
11
0.087738
21
0.072141
31
0.0
0
LINE
8
0
6
CONTINUOUS
10
0.107405
20
0.075278
30
0.0
11
0.103986
21
0.076207
31
0.0
0
LINE
8
0
6
CONTINUOUS
10
0.103987
20
0.076544
30
0.0
11
0.107407
21
0.075614
31
0.0
0
LINE
8
0
6
CONTINUOUS
10
0.114940
20
0.069437
30
0.0
11
0.113020
21
0.071805
31
0.0
0
LINE
8
0
6
CONTINUOUS
10
0.113023
20
0.072141
30
0.0
11
0.114944
21
0.069772
31
0.0
0
LINE
8
0
6
CONTINUOUS
10
0.116542
20
0.063851
30
0.0
11
0.116544
21
0.064018
31
0.0
0
LINE
8
0
6
CONTINUOUS
10
0.116544
20
0.064018
30
0.0
11
0.116134
21
0.066798
31
0.0
0
LINE
8
0
6
CONTINUOUS
10
0.116548
20
0.064351
30
0.0
11
0.116550
21
0.064517
31
0.0
0
LINE
8
0
6
CONTINUOUS
10
0.116138
20
0.067132
30
0.0
11
0.116548
21
0.064351
31
0.0
0
LINE
8
0
6
CONTINUOUS
10
0.084217
20
0.064018
30
0.0
11
0.084219
21
0.063851
31
0.0
0
LINE
8
0
6
CONTINUOUS
10
0.084626
20
0.066798
30
0.0
11
0.084217
21
0.064018
31
0.0
0
LINE
8
0
6
CONTINUOUS
10
0.084213
20
0.064351
30
0.0
11
0.084622
21
0.067132
31
0.0
0
LINE
8
0
6
CONTINUOUS
10
0.084211
20
0.064517
30
0.0
11
0.084213
21
0.064351
31
0.0
0
LINE
8
0
6
CONTINUOUS
10
0.085821
20
0.069437
30
0.0
11
0.084626
21
0.066798
31
0.0
0
LINE
8
0
6
CONTINUOUS
10
0.084622
20
0.067132
30
0.0
11
0.085817
21
0.069772
31
0.0
0
LINE
8
0
6
CONTINUOUS
10
0.100380
20
0.076523
30
0.0
11
0.096775
21
0.076207
31
0.0
0
LINE
8
0
6
CONTINUOUS
10
0.096774
20
0.076544
30
0.0
11
0.100380
21
0.076860
31
0.0
0
LINE
8
0
6
CONTINUOUS
10
0.090295
20
0.073785
30
0.0
11
0.087741
21
0.071805
31
0.0
0
LINE
8
0
6
CONTINUOUS
10
0.087738
20
0.072141
30
0.0
11
0.090292
21
0.074121
31
0.0
0
LINE
8
0
6
CONTINUOUS
10
0.096775
20
0.076207
30
0.0
11
0.093356
21
0.075278
31
0.0
0
LINE
8
0
6
CONTINUOUS
10
0.093354
20
0.075614
30
0.0
11
0.096774
21
0.076544
31
0.0
0
LINE
8
0
6
CONTINUOUS
10
0.093356
20
0.075278
30
0.0
11
0.090295
21
0.073785
31
0.0
0
LINE
8
0
6
CONTINUOUS
10
0.090292
20
0.074121
30
0.0
11
0.093354
21
0.075614
31
0.0
0
LINE
8
0
6
CONTINUOUS
10
0.116134
20
0.066798
30
0.0
11
0.114940
21
0.069437
31
0.0
0
LINE
8
0
6
CONTINUOUS
10
0.114944
20
0.069772
30
0.0
11
0.116138
21
0.067132
31
0.0
0
LINE
8
0
6
CONTINUOUS
10
0.110466
20
0.073785
30
0.0
11
0.107405
21
0.075278
31
0.0
0
LINE
8
0
6
CONTINUOUS
10
0.107407
20
0.075614
30
0.0
11
0.110469
21
0.074121
31
0.0
0
LINE
8
0
6
CONTINUOUS
10
0.103986
20
0.076207
30
0.0
11
0.100380
21
0.076523
31
0.0
0
LINE
8
0
6
CONTINUOUS
10
0.100380
20
0.076860
30
0.0
11
0.103987
21
0.076544
31
0.0
0
LINE
8
0
6
CONTINUOUS
10
0.083858
20
0.093621
30
0.0
11
0.084211
21
0.064517
31
0.0
0
LINE
8
0
6
CONTINUOUS
10
0.116550
20
0.064517
30
0.0
11
0.116903
21
0.093621
31
0.0
0
LINE
8
0
6
CONTINUOUS
10
0.092605
20
0.129714
30
0.0
11
0.085190
21
0.127275
31
0.0
0
LINE
8
0
6
CONTINUOUS
10
0.108155
20
0.129714
30
0.0
11
0.100380
21
0.130686
31
0.0
0
LINE
8
0
6
CONTINUOUS
10
0.082604
20
0.089732
30
0.0
11
0.083855
21
0.085076
31
0.0
0
LINE
8
0
6
CONTINUOUS
10
0.083527
20
0.089378
30
0.0
11
0.083927
21
0.087890
31
0.0
0
LINE
8
0
6
CONTINUOUS
10
0.116797
20
0.084848
30
0.0
11
0.116906
21
0.085076
31
0.0
0
LINE
8
0
6
CONTINUOUS
10
0.083528
20
0.098949
30
0.0
11
0.084755
21
0.103516
31
0.0
0
LINE
8
0
6
CONTINUOUS
10
0.083114
20
0.094161
30
0.0
11
0.083528
21
0.098949
31
0.0
0
LINE
8
0
6
CONTINUOUS
10
0.083855
20
0.085076
30
0.0
11
0.083964
21
0.084849
31
0.0
0
LINE
8
0
6
CONTINUOUS
10
0.082181
20
0.094621
30
0.0
11
0.082604
21
0.089732
31
0.0
0
LINE
8
0
6
CONTINUOUS
10
0.083527
20
0.089378
30
0.0
11
0.083114
21
0.094161
31
0.0
0
LINE
8
0
6
CONTINUOUS
10
0.108070
20
0.113807
30
0.0
11
0.111335
21
0.111134
31
0.0
0
LINE
8
0
6
CONTINUOUS
10
0.086746
20
0.107644
30
0.0
11
0.089426
21
0.111134
31
0.0
0
LINE
8
0
6
CONTINUOUS
10
0.089426
20
0.111134
30
0.0
11
0.092691
21
0.113807
31
0.0
0
LINE
8
0
6
CONTINUOUS
10
0.111335
20
0.111134
30
0.0
11
0.114015
21
0.107644
31
0.0
0
LINE
8
0
6
CONTINUOUS
10
0.114015
20
0.107644
30
0.0
11
0.116006
21
0.103516
31
0.0
0
LINE
8
0
6
CONTINUOUS
10
0.118157
20
0.089732
30
0.0
11
0.118580
21
0.094621
31
0.0
0
LINE
8
0
6
CONTINUOUS
10
0.117647
20
0.094161
30
0.0
11
0.117233
21
0.089378
31
0.0
0
LINE
8
0
6
CONTINUOUS
10
0.116006
20
0.103516
30
0.0
11
0.117233
21
0.098949
31
0.0
0
LINE
8
0
6
CONTINUOUS
10
0.117233
20
0.098949
30
0.0
11
0.117647
21
0.094161
31
0.0
0
LINE
8
0
6
CONTINUOUS
10
0.116906
20
0.085076
30
0.0
11
0.118157
21
0.089732
31
0.0
0
LINE
8
0
6
CONTINUOUS
10
0.117233
20
0.089378
30
0.0
11
0.116833
21
0.087889
31
0.0
0
LINE
8
0
6
CONTINUOUS
10
0.084219
20
0.063851
30
0.0
11
0.084379
21
0.050640
31
0.0
0
LINE
8
0
6
CONTINUOUS
10
0.116381
20
0.050640
30
0.0
11
0.116542
21
0.063851
31
0.0
0
LINE
8
0
6
CONTINUOUS
10
0.113386
20
0.047235
30
0.0
11
0.113720
21
0.049514
31
0.0
0
LINE
8
0
6
CONTINUOUS
10
0.087041
20
0.049514
30
0.0
11
0.087375
21
0.047235
31
0.0
0
LINE
8
0
6
CONTINUOUS
10
0.089951
20
0.055898
30
0.0
11
0.092063
21
0.057520
31
0.0
0
LINE
8
0
6
CONTINUOUS
10
0.092063
20
0.057864
30
0.0
11
0.089951
21
0.056243
31
0.0
0
LINE
8
0
6
CONTINUOUS
10
0.100380
20
0.059754
30
0.0
11
0.103349
21
0.059497
31
0.0
0
LINE
8
0
6
CONTINUOUS
10
0.103349
20
0.059842
30
0.0
11
0.100380
21
0.060098
31
0.0
0
LINE
8
0
6
CONTINUOUS
10
0.112399
20
0.054301
30
0.0
11
0.110810
21
0.056243
31
0.0
0
LINE
8
0
6
CONTINUOUS
10
0.089951
20
0.056243
30
0.0
11
0.088362
21
0.054301
31
0.0
0
LINE
8
0
6
CONTINUOUS
10
0.097412
20
0.059497
30
0.0
11
0.100380
21
0.059754
31
0.0
0
LINE
8
0
6
CONTINUOUS
10
0.100380
20
0.060098
30
0.0
11
0.097412
21
0.059842
31
0.0
0
LINE
8
0
6
CONTINUOUS
10
0.108698
20
0.057520
30
0.0
11
0.110810
21
0.055898
31
0.0
0
LINE
8
0
6
CONTINUOUS
10
0.110810
20
0.056243
30
0.0
11
0.108698
21
0.057864
31
0.0
0
LINE
8
0
6
CONTINUOUS
10
0.094592
20
0.058740
30
0.0
11
0.097412
21
0.059497
31
0.0
0
LINE
8
0
6
CONTINUOUS
10
0.097412
20
0.059842
30
0.0
11
0.094592
21
0.059084
31
0.0
0
LINE
8
0
6
CONTINUOUS
10
0.087375
20
0.051792
30
0.0
11
0.088362
21
0.053957
31
0.0
0
LINE
8
0
6
CONTINUOUS
10
0.088362
20
0.054301
30
0.0
11
0.087375
21
0.052137
31
0.0
0
LINE
8
0
6
CONTINUOUS
10
0.106168
20
0.058740
30
0.0
11
0.108698
21
0.057520
31
0.0
0
LINE
8
0
6
CONTINUOUS
10
0.108698
20
0.057864
30
0.0
11
0.106168
21
0.059084
31
0.0
0
LINE
8
0
6
CONTINUOUS
10
0.113720
20
0.049514
30
0.0
11
0.113720
21
0.049858
31
0.0
0
LINE
8
0
6
CONTINUOUS
10
0.113386
20
0.051792
30
0.0
11
0.113720
21
0.049514
31
0.0
0
LINE
8
0
6
CONTINUOUS
10
0.113720
20
0.049858
30
0.0
11
0.113386
21
0.052137
31
0.0
0
LINE
8
0
6
CONTINUOUS
10
0.087041
20
0.049514
30
0.0
11
0.087375
21
0.051792
31
0.0
0
LINE
8
0
6
CONTINUOUS
10
0.087041
20
0.049858
30
0.0
11
0.087041
21
0.049514
31
0.0
0
LINE
8
0
6
CONTINUOUS
10
0.087375
20
0.052137
30
0.0
11
0.087041
21
0.049858
31
0.0
0
LINE
8
0
6
CONTINUOUS
10
0.092063
20
0.057520
30
0.0
11
0.094592
21
0.058740
31
0.0
0
LINE
8
0
6
CONTINUOUS
10
0.094592
20
0.059084
30
0.0
11
0.092063
21
0.057864
31
0.0
0
LINE
8
0
6
CONTINUOUS
10
0.103349
20
0.059497
30
0.0
11
0.106168
21
0.058740
31
0.0
0
LINE
8
0
6
CONTINUOUS
10
0.106168
20
0.059084
30
0.0
11
0.103349
21
0.059842
31
0.0
0
LINE
8
0
6
CONTINUOUS
10
0.112399
20
0.053957
30
0.0
11
0.113386
21
0.051792
31
0.0
0
LINE
8
0
6
CONTINUOUS
10
0.113386
20
0.052137
30
0.0
11
0.112399
21
0.054301
31
0.0
0
LINE
8
0
6
CONTINUOUS
10
0.113996
20
0.043550
30
0.0
11
0.114797
21
0.044528
31
0.0
0
LINE
8
0
6
CONTINUOUS
10
0.114797
20
0.044528
30
0.0
11
0.115980
21
0.047124
31
0.0
0
LINE
8
0
6
CONTINUOUS
10
0.115980
20
0.047124
30
0.0
11
0.116381
21
0.049858
31
0.0
0
LINE
8
0
6
CONTINUOUS
10
0.116381
20
0.049858
30
0.0
11
0.116381
21
0.050640
31
0.0
0
LINE
8
0
6
CONTINUOUS
10
0.115980
20
0.052591
30
0.0
11
0.116381
21
0.049858
31
0.0
0
LINE
8
0
6
CONTINUOUS
10
0.114797
20
0.055187
30
0.0
11
0.115980
21
0.052591
31
0.0
0
LINE
8
0
6
CONTINUOUS
10
0.112891
20
0.057517
30
0.0
11
0.114797
21
0.055187
31
0.0
0
LINE
8
0
6
CONTINUOUS
10
0.110357
20
0.059462
30
0.0
11
0.112891
21
0.057517
31
0.0
0
LINE
8
0
6
CONTINUOUS
10
0.107323
20
0.060925
30
0.0
11
0.110357
21
0.059462
31
0.0
0
LINE
8
0
6
CONTINUOUS
10
0.103941
20
0.061834
30
0.0
11
0.107323
21
0.060925
31
0.0
0
LINE
8
0
6
CONTINUOUS
10
0.100380
20
0.062141
30
0.0
11
0.103941
21
0.061834
31
0.0
0
LINE
8
0
6
CONTINUOUS
10
0.096820
20
0.061834
30
0.0
11
0.100380
21
0.062141
31
0.0
0
LINE
8
0
6
CONTINUOUS
10
0.093438
20
0.060925
30
0.0
11
0.096820
21
0.061834
31
0.0
0
LINE
8
0
6
CONTINUOUS
10
0.090404
20
0.059462
30
0.0
11
0.093438
21
0.060925
31
0.0
0
LINE
8
0
6
CONTINUOUS
10
0.087870
20
0.057517
30
0.0
11
0.090404
21
0.059462
31
0.0
0
LINE
8
0
6
CONTINUOUS
10
0.085964
20
0.055187
30
0.0
11
0.087870
21
0.057517
31
0.0
0
LINE
8
0
6
CONTINUOUS
10
0.084780
20
0.052591
30
0.0
11
0.085964
21
0.055187
31
0.0
0
LINE
8
0
6
CONTINUOUS
10
0.084379
20
0.049858
30
0.0
11
0.084780
21
0.052591
31
0.0
0
LINE
8
0
6
CONTINUOUS
10
0.084379
20
0.050640
30
0.0
11
0.084379
21
0.049858
31
0.0
0
LINE
8
0
6
CONTINUOUS
10
0.084379
20
0.049858
30
0.0
11
0.084780
21
0.047124
31
0.0
0
LINE
8
0
6
CONTINUOUS
10
0.084780
20
0.047124
30
0.0
11
0.085964
21
0.044528
31
0.0
0
LINE
8
0
6
CONTINUOUS
10
0.085964
20
0.044528
30
0.0
11
0.086764
21
0.043550
31
0.0
0
LINE
8
0
6
CONTINUOUS
10
0.084755
20
0.103516
30
0.0
11
0.086746
21
0.107644
31
0.0
0
LINE
8
0
6
CONTINUOUS
10
0.115574
20
0.127274
30
0.0
11
0.108155
21
0.129714
31
0.0
0
LINE
8
0
6
CONTINUOUS
10
0.122199
20
0.123029
30
0.0
11
0.115574
21
0.127274
31
0.0
0
LINE
8
0
6
CONTINUOUS
10
0.127745
20
0.117515
30
0.0
11
0.122199
21
0.123029
31
0.0
0
LINE
8
0
6
CONTINUOUS
10
0.131914
20
0.110870
30
0.0
11
0.127745
21
0.117515
31
0.0
0
LINE
8
0
6
CONTINUOUS
10
0.134503
20
0.103475
30
0.0
11
0.131914
21
0.110870
31
0.0
0
LINE
8
0
6
CONTINUOUS
10
0.135380
20
0.095686
30
0.0
11
0.134503
21
0.103475
31
0.0
0
LINE
8
0
6
CONTINUOUS
10
0.134503
20
0.087897
30
0.0
11
0.135380
21
0.095686
31
0.0
0
LINE
8
0
6
CONTINUOUS
10
0.131914
20
0.080502
30
0.0
11
0.134503
21
0.087897
31
0.0
0
LINE
8
0
6
CONTINUOUS
10
0.127745
20
0.073857
30
0.0
11
0.131914
21
0.080502
31
0.0
0
LINE
8
0
6
CONTINUOUS
10
0.122199
20
0.068344
30
0.0
11
0.127745
21
0.073857
31
0.0
0
LINE
8
0
6
CONTINUOUS
10
0.116552
20
0.064725
30
0.0
11
0.122199
21
0.068344
31
0.0
0
LINE
8
0
6
CONTINUOUS
10
0.078561
20
0.068344
30
0.0
11
0.084208
21
0.064725
31
0.0
0
LINE
8
0
6
CONTINUOUS
10
0.073016
20
0.073857
30
0.0
11
0.078561
21
0.068344
31
0.0
0
LINE
8
0
6
CONTINUOUS
10
0.068847
20
0.080502
30
0.0
11
0.073016
21
0.073857
31
0.0
0
LINE
8
0
6
CONTINUOUS
10
0.066258
20
0.087897
30
0.0
11
0.068847
21
0.080502
31
0.0
0
LINE
8
0
6
CONTINUOUS
10
0.065380
20
0.095686
30
0.0
11
0.066258
21
0.087897
31
0.0
0
LINE
8
0
6
CONTINUOUS
10
0.066258
20
0.103475
30
0.0
11
0.065382
21
0.095702
31
0.0
0
LINE
8
0
6
CONTINUOUS
10
0.068847
20
0.110870
30
0.0
11
0.066263
21
0.103488
31
0.0
0
LINE
8
0
6
CONTINUOUS
10
0.073016
20
0.117515
30
0.0
11
0.068853
21
0.110880
31
0.0
0
LINE
8
0
6
CONTINUOUS
10
0.078561
20
0.123029
30
0.0
11
0.073022
21
0.117521
31
0.0
0
LINE
8
0
6
CONTINUOUS
10
0.085187
20
0.127274
30
0.0
11
0.078568
21
0.123032
31
0.0
0
LINE
8
0
6
CONTINUOUS
10
0.100380
20
0.130686
30
0.0
11
0.092609
21
0.129715
31
0.0
0
LINE
8
0
6
CONTINUOUS
10
0.072971
20
0.073869
30
0.0
11
0.078561
21
0.068344
31
0.0
0
LINE
8
0
6
CONTINUOUS
10
0.068833
20
0.080546
30
0.0
11
0.072971
21
0.073869
31
0.0
0
ENDSEC
0
EOF
