999
Erzeugt mit innoplus bad 
0
SECTION
2
HEADER
9
$ACADVER
1
AC1009
9
$DWGCODEPAGE
3
ISO8859-1
0
ENDSEC
0
SECTION
2
TABLES
0
TABLE
2
LAYER
70
1
0
LAYER
2
0
70
0
62
7
6
CONTINUOUS
0
ENDTAB
0
ENDSEC
0
SECTION
2
ENTITIES
0
LINE
8
0
6
CONTINUOUS
10
0.122715
20
-0.103000
30
0.0
11
0.119141
21
-0.103000
31
0.0
0
LINE
8
0
6
CONTINUOUS
10
0.124934
20
-0.103000
30
0.0
11
0.122715
21
-0.103000
31
0.0
0
LINE
8
0
6
CONTINUOUS
10
0.125686
20
-0.103000
30
0.0
11
0.124934
21
-0.103000
31
0.0
0
LINE
8
0
6
CONTINUOUS
10
0.066438
20
-0.103000
30
0.0
11
0.065686
21
-0.103000
31
0.0
0
LINE
8
0
6
CONTINUOUS
10
0.068657
20
-0.103000
30
0.0
11
0.066438
21
-0.103000
31
0.0
0
LINE
8
0
6
CONTINUOUS
10
0.072231
20
-0.103000
30
0.0
11
0.068657
21
-0.103000
31
0.0
0
LINE
8
0
6
CONTINUOUS
10
0.113201
20
-0.099132
30
0.0
11
0.113201
21
-0.083198
31
0.0
0
LINE
8
0
6
CONTINUOUS
10
0.102383
20
-0.049000
30
0.0
11
0.095665
21
-0.049000
31
0.0
0
LINE
8
0
6
CONTINUOUS
10
0.103892
20
-0.049000
30
0.0
11
0.102383
21
-0.049000
31
0.0
0
LINE
8
0
6
CONTINUOUS
10
0.108534
20
-0.049000
30
0.0
11
0.109100
21
-0.049000
31
0.0
0
LINE
8
0
6
CONTINUOUS
10
0.109100
20
-0.049000
30
0.0
11
0.105165
21
-0.049000
31
0.0
0
LINE
8
0
6
CONTINUOUS
10
0.100583
20
-0.049000
30
0.0
11
0.100824
21
-0.049000
31
0.0
0
LINE
8
0
6
CONTINUOUS
10
0.105165
20
-0.049000
30
0.0
11
0.100583
21
-0.049000
31
0.0
0
LINE
8
0
6
CONTINUOUS
10
0.073226
20
-0.049000
30
0.0
11
0.079682
21
-0.049000
31
0.0
0
LINE
8
0
6
CONTINUOUS
10
0.079682
20
-0.049000
30
0.0
11
0.073255
21
-0.049000
31
0.0
0
LINE
8
0
6
CONTINUOUS
10
0.090731
20
-0.049000
30
0.0
11
0.095665
21
-0.049000
31
0.0
0
LINE
8
0
6
CONTINUOUS
10
0.095665
20
-0.049000
30
0.0
11
0.090731
21
-0.049000
31
0.0
0
LINE
8
0
6
CONTINUOUS
10
0.095665
20
-0.049000
30
0.0
11
0.090731
21
-0.049000
31
0.0
0
LINE
8
0
6
CONTINUOUS
10
0.079682
20
-0.049000
30
0.0
11
0.090731
21
-0.049000
31
0.0
0
LINE
8
0
6
CONTINUOUS
10
0.090731
20
-0.049000
30
0.0
11
0.079682
21
-0.049000
31
0.0
0
LINE
8
0
6
CONTINUOUS
10
0.114665
20
-0.082724
30
0.0
11
0.114665
21
-0.070159
31
0.0
0
LINE
8
0
6
CONTINUOUS
10
0.114665
20
-0.070159
30
0.0
11
0.114665
21
-0.067340
31
0.0
0
LINE
8
0
6
CONTINUOUS
10
0.017802
20
-0.050505
30
0.0
11
0.019176
21
-0.051577
31
0.0
0
LINE
8
0
6
CONTINUOUS
10
0.081101
20
-0.058875
30
0.0
11
0.082475
21
-0.058875
31
0.0
0
LINE
8
0
6
CONTINUOUS
10
0.080703
20
-0.058376
30
0.0
11
0.082475
21
-0.058875
31
0.0
0
LINE
8
0
6
CONTINUOUS
10
0.035793
20
-0.049000
30
0.0
11
0.024846
21
-0.049000
31
0.0
0
LINE
8
0
6
CONTINUOUS
10
0.038592
20
-0.052094
30
0.0
11
0.040960
21
-0.052125
31
0.0
0
LINE
8
0
6
CONTINUOUS
10
0.021614
20
-0.052779
30
0.0
11
0.025990
21
-0.053835
31
0.0
0
LINE
8
0
6
CONTINUOUS
10
0.019064
20
-0.051551
30
0.0
11
0.021614
21
-0.052779
31
0.0
0
LINE
8
0
6
CONTINUOUS
10
0.022300
20
-0.052528
30
0.0
11
0.029251
21
-0.053470
31
0.0
0
LINE
8
0
6
CONTINUOUS
10
0.114665
20
-0.052808
30
0.0
11
0.114665
21
-0.049552
31
0.0
0
LINE
8
0
6
CONTINUOUS
10
0.114665
20
-0.064521
30
0.0
11
0.114665
21
-0.061703
31
0.0
0
LINE
8
0
6
CONTINUOUS
10
0.114665
20
-0.067340
30
0.0
11
0.114665
21
-0.064521
31
0.0
0
LINE
8
0
6
CONTINUOUS
10
0.114665
20
-0.058875
30
0.0
11
0.114665
21
-0.056065
31
0.0
0
LINE
8
0
6
CONTINUOUS
10
0.022300
20
-0.052528
30
0.0
11
0.019846
21
-0.051711
31
0.0
0
LINE
8
0
6
CONTINUOUS
10
0.114665
20
-0.061703
30
0.0
11
0.114665
21
-0.058875
31
0.0
0
LINE
8
0
6
CONTINUOUS
10
0.084509
20
-0.063150
30
0.0
11
0.085587
21
-0.063275
31
0.0
0
LINE
8
0
6
CONTINUOUS
10
0.084421
20
-0.060830
30
0.0
11
0.082576
21
-0.060726
31
0.0
0
LINE
8
0
6
CONTINUOUS
10
0.073226
20
-0.049000
30
0.0
11
0.079682
21
-0.049000
31
0.0
0
LINE
8
0
6
CONTINUOUS
10
0.079682
20
-0.049000
30
0.0
11
0.073255
21
-0.049000
31
0.0
0
LINE
8
0
6
CONTINUOUS
10
0.024846
20
-0.049000
30
0.0
11
0.035790
21
-0.049000
31
0.0
0
LINE
8
0
6
CONTINUOUS
10
0.019353
20
-0.050882
30
0.0
11
0.017802
21
-0.049591
31
0.0
0
LINE
8
0
6
CONTINUOUS
10
0.017802
20
-0.050505
30
0.0
11
0.019353
21
-0.050882
31
0.0
0
LINE
8
0
6
CONTINUOUS
10
0.017802
20
-0.049591
30
0.0
11
0.017802
21
-0.050505
31
0.0
0
LINE
8
0
6
CONTINUOUS
10
0.103892
20
-0.049000
30
0.0
11
0.104842
21
-0.049000
31
0.0
0
LINE
8
0
6
CONTINUOUS
10
0.104842
20
-0.049000
30
0.0
11
0.095665
21
-0.049000
31
0.0
0
LINE
8
0
6
CONTINUOUS
10
0.019353
20
-0.050882
30
0.0
11
0.022233
21
-0.051442
31
0.0
0
LINE
8
0
6
CONTINUOUS
10
0.018853
20
-0.049573
30
0.0
11
0.019353
21
-0.050882
31
0.0
0
LINE
8
0
6
CONTINUOUS
10
0.024846
20
-0.049000
30
0.0
11
0.018581
21
-0.049000
31
0.0
0
LINE
8
0
6
CONTINUOUS
10
0.102383
20
-0.049000
30
0.0
11
0.100824
21
-0.049000
31
0.0
0
LINE
8
0
6
CONTINUOUS
10
0.108534
20
-0.049000
30
0.0
11
0.102383
21
-0.049000
31
0.0
0
LINE
8
0
6
CONTINUOUS
10
0.104842
20
-0.049000
30
0.0
11
0.113445
21
-0.049000
31
0.0
0
LINE
8
0
6
CONTINUOUS
10
0.105165
20
-0.049000
30
0.0
11
0.104842
21
-0.049000
31
0.0
0
LINE
8
0
6
CONTINUOUS
10
0.114091
20
-0.049000
30
0.0
11
0.105165
21
-0.049000
31
0.0
0
LINE
8
0
6
CONTINUOUS
10
0.113445
20
-0.049000
30
0.0
11
0.114091
21
-0.049000
31
0.0
0
LINE
8
0
6
CONTINUOUS
10
0.018581
20
-0.049000
30
0.0
11
0.024846
21
-0.049000
31
0.0
0
LINE
8
0
6
CONTINUOUS
10
0.022233
20
-0.051442
30
0.0
11
0.028437
21
-0.051988
31
0.0
0
LINE
8
0
6
CONTINUOUS
10
0.021378
20
-0.049568
30
0.0
11
0.022233
21
-0.051442
31
0.0
0
LINE
8
0
6
CONTINUOUS
10
0.114665
20
-0.083198
30
0.0
11
0.114665
21
-0.082724
31
0.0
0
LINE
8
0
6
CONTINUOUS
10
0.114020
20
-0.083198
30
0.0
11
0.114665
21
-0.083198
31
0.0
0
LINE
8
0
6
CONTINUOUS
10
0.112122
20
-0.083198
30
0.0
11
0.114020
21
-0.083198
31
0.0
0
LINE
8
0
6
CONTINUOUS
10
0.100575
20
-0.083198
30
0.0
11
0.105162
21
-0.083198
31
0.0
0
LINE
8
0
6
CONTINUOUS
10
0.105162
20
-0.083198
30
0.0
11
0.109100
21
-0.083198
31
0.0
0
LINE
8
0
6
CONTINUOUS
10
0.109100
20
-0.083198
30
0.0
11
0.112122
21
-0.083198
31
0.0
0
LINE
8
0
6
CONTINUOUS
10
0.100495
20
-0.083198
30
0.0
11
0.100575
21
-0.083198
31
0.0
0
LINE
8
0
6
CONTINUOUS
10
0.035790
20
-0.049000
30
0.0
11
0.038631
21
-0.049000
31
0.0
0
LINE
8
0
6
CONTINUOUS
10
0.044592
20
-0.049000
30
0.0
11
0.044703
21
-0.049000
31
0.0
0
LINE
8
0
6
CONTINUOUS
10
0.044703
20
-0.049000
30
0.0
11
0.044592
21
-0.049000
31
0.0
0
LINE
8
0
6
CONTINUOUS
10
0.038631
20
-0.049000
30
0.0
11
0.035792
21
-0.049000
31
0.0
0
LINE
8
0
6
CONTINUOUS
10
0.025925
20
-0.053835
30
0.0
11
0.036946
21
-0.055174
31
0.0
0
LINE
8
0
6
CONTINUOUS
10
0.038592
20
-0.052094
30
0.0
11
0.028437
21
-0.051988
31
0.0
0
LINE
8
0
6
CONTINUOUS
10
0.029251
20
-0.053470
30
0.0
11
0.039681
21
-0.053892
31
0.0
0
LINE
8
0
6
CONTINUOUS
10
0.114665
20
-0.049000
30
0.0
11
0.114018
21
-0.049000
31
0.0
0
LINE
8
0
6
CONTINUOUS
10
0.114665
20
-0.049552
30
0.0
11
0.114665
21
-0.049000
31
0.0
0
LINE
8
0
6
CONTINUOUS
10
0.114018
20
-0.049000
30
0.0
11
0.112120
21
-0.049000
31
0.0
0
LINE
8
0
6
CONTINUOUS
10
0.112120
20
-0.049000
30
0.0
11
0.109100
21
-0.049000
31
0.0
0
LINE
8
0
6
CONTINUOUS
10
0.109100
20
-0.049000
30
0.0
11
0.105165
21
-0.049000
31
0.0
0
LINE
8
0
6
CONTINUOUS
10
0.105165
20
-0.049000
30
0.0
11
0.100583
21
-0.049000
31
0.0
0
LINE
8
0
6
CONTINUOUS
10
0.100583
20
-0.049000
30
0.0
11
0.095665
21
-0.049000
31
0.0
0
LINE
8
0
6
CONTINUOUS
10
0.018727
20
-0.049000
30
0.0
11
0.017802
21
-0.049000
31
0.0
0
LINE
8
0
6
CONTINUOUS
10
0.017802
20
-0.049591
30
0.0
11
0.018853
21
-0.049573
31
0.0
0
LINE
8
0
6
CONTINUOUS
10
0.021281
20
-0.049000
30
0.0
11
0.018727
21
-0.049000
31
0.0
0
LINE
8
0
6
CONTINUOUS
10
0.018727
20
-0.049000
30
0.0
11
0.018853
21
-0.049573
31
0.0
0
LINE
8
0
6
CONTINUOUS
10
0.095665
20
-0.049000
30
0.0
11
0.090731
21
-0.049000
31
0.0
0
LINE
8
0
6
CONTINUOUS
10
0.044703
20
-0.049000
30
0.0
11
0.044592
21
-0.049000
31
0.0
0
LINE
8
0
6
CONTINUOUS
10
0.038631
20
-0.049000
30
0.0
11
0.035787
21
-0.049000
31
0.0
0
LINE
8
0
6
CONTINUOUS
10
0.018581
20
-0.049000
30
0.0
11
0.017801
21
-0.049000
31
0.0
0
LINE
8
0
6
CONTINUOUS
10
0.017801
20
-0.049000
30
0.0
11
0.018581
21
-0.049000
31
0.0
0
LINE
8
0
6
CONTINUOUS
10
0.021281
20
-0.049000
30
0.0
11
0.021378
21
-0.049568
31
0.0
0
LINE
8
0
6
CONTINUOUS
10
0.024846
20
-0.049000
30
0.0
11
0.021281
21
-0.049000
31
0.0
0
LINE
8
0
6
CONTINUOUS
10
0.035787
20
-0.049000
30
0.0
11
0.024846
21
-0.049000
31
0.0
0
LINE
8
0
6
CONTINUOUS
10
0.114665
20
-0.056065
30
0.0
11
0.114665
21
-0.052808
31
0.0
0
LINE
8
0
6
CONTINUOUS
10
0.090731
20
-0.049000
30
0.0
11
0.079670
21
-0.049000
31
0.0
0
LINE
8
0
6
CONTINUOUS
10
0.095665
20
-0.049000
30
0.0
11
0.090731
21
-0.049000
31
0.0
0
LINE
8
0
6
CONTINUOUS
10
0.079670
20
-0.049000
30
0.0
11
0.073255
21
-0.049000
31
0.0
0
LINE
8
0
6
CONTINUOUS
10
0.079682
20
-0.049000
30
0.0
11
0.090731
21
-0.049000
31
0.0
0
LINE
8
0
6
CONTINUOUS
10
0.090731
20
-0.049000
30
0.0
11
0.079682
21
-0.049000
31
0.0
0
LINE
8
0
6
CONTINUOUS
10
0.123050
20
-0.103000
30
0.0
11
0.117508
21
-0.103000
31
0.0
0
LINE
8
0
6
CONTINUOUS
10
0.127220
20
-0.103000
30
0.0
11
0.123050
21
-0.103000
31
0.0
0
LINE
8
0
6
CONTINUOUS
10
0.129809
20
-0.103000
30
0.0
11
0.127220
21
-0.103000
31
0.0
0
LINE
8
0
6
CONTINUOUS
10
0.130686
20
-0.103000
30
0.0
11
0.129809
21
-0.103000
31
0.0
0
LINE
8
0
6
CONTINUOUS
10
0.061564
20
-0.103000
30
0.0
11
0.060686
21
-0.103000
31
0.0
0
LINE
8
0
6
CONTINUOUS
10
0.064152
20
-0.103000
30
0.0
11
0.061564
21
-0.103000
31
0.0
0
LINE
8
0
6
CONTINUOUS
10
0.068322
20
-0.103000
30
0.0
11
0.064152
21
-0.103000
31
0.0
0
LINE
8
0
6
CONTINUOUS
10
0.073255
20
-0.103000
30
0.0
11
0.068322
21
-0.103000
31
0.0
0
LINE
8
0
6
CONTINUOUS
10
0.120077
20
-0.027776
30
0.0
11
0.120077
21
-0.015253
31
0.0
0
LINE
8
0
6
CONTINUOUS
10
-0.084020
20
-0.001409
30
0.0
11
-0.082029
21
-0.001561
31
0.0
0
LINE
8
0
6
CONTINUOUS
10
0.073255
20
-0.027676
30
0.0
11
0.073255
21
-0.031085
31
0.0
0
LINE
8
0
6
CONTINUOUS
10
-0.109578
20
0.022000
30
0.0
11
-0.111573
21
0.022000
31
0.0
0
LINE
8
0
6
CONTINUOUS
10
-0.113727
20
0.021008
30
0.0
11
-0.114312
21
0.022000
31
0.0
0
LINE
8
0
6
CONTINUOUS
10
-0.114312
20
0.022000
30
0.0
11
-0.113727
21
0.021008
31
0.0
0
LINE
8
0
6
CONTINUOUS
10
-0.111573
20
0.022000
30
0.0
11
-0.113747
21
0.022000
31
0.0
0
LINE
8
0
6
CONTINUOUS
10
-0.113747
20
0.022000
30
0.0
11
-0.114312
21
0.022000
31
0.0
0
LINE
8
0
6
CONTINUOUS
10
-0.113157
20
0.021013
30
0.0
11
-0.113747
21
0.022000
31
0.0
0
LINE
8
0
6
CONTINUOUS
10
-0.114312
20
0.022000
30
0.0
11
-0.113727
21
0.021008
31
0.0
0
LINE
8
0
6
CONTINUOUS
10
0.120077
20
0.022000
30
0.0
11
0.119344
21
0.022000
31
0.0
0
LINE
8
0
6
CONTINUOUS
10
0.120077
20
0.021349
30
0.0
11
0.120077
21
0.022000
31
0.0
0
LINE
8
0
6
CONTINUOUS
10
0.102673
20
0.022000
30
0.0
11
0.096666
21
0.022000
31
0.0
0
LINE
8
0
6
CONTINUOUS
10
0.116990
20
0.022000
30
0.0
11
0.113244
21
0.022000
31
0.0
0
LINE
8
0
6
CONTINUOUS
10
0.113244
20
0.022000
30
0.0
11
0.108360
21
0.022000
31
0.0
0
LINE
8
0
6
CONTINUOUS
10
0.108360
20
0.022000
30
0.0
11
0.102673
21
0.022000
31
0.0
0
LINE
8
0
6
CONTINUOUS
10
0.119344
20
0.022000
30
0.0
11
0.116990
21
0.022000
31
0.0
0
LINE
8
0
6
CONTINUOUS
10
0.096666
20
0.022000
30
0.0
11
0.083918
21
0.022000
31
0.0
0
LINE
8
0
6
CONTINUOUS
10
-0.108399
20
0.016705
30
0.0
11
-0.104536
21
0.012666
31
0.0
0
LINE
8
0
6
CONTINUOUS
10
0.120077
20
0.015571
30
0.0
11
0.120077
21
0.021349
31
0.0
0
LINE
8
0
6
CONTINUOUS
10
0.120077
20
0.005296
30
0.0
11
0.120077
21
0.015571
31
0.0
0
LINE
8
0
6
CONTINUOUS
10
0.083918
20
0.022000
30
0.0
11
0.071171
21
0.022000
31
0.0
0
LINE
8
0
6
CONTINUOUS
10
0.120077
20
-0.015253
30
0.0
11
0.120077
21
-0.004978
31
0.0
0
LINE
8
0
6
CONTINUOUS
10
0.120077
20
-0.004978
30
0.0
11
0.120077
21
0.005296
31
0.0
0
LINE
8
0
6
CONTINUOUS
10
0.120077
20
-0.031180
30
0.0
11
0.120077
21
-0.027776
31
0.0
0
LINE
8
0
6
CONTINUOUS
10
-0.107701
20
0.013057
30
0.0
11
-0.103421
21
0.009504
31
0.0
0
LINE
8
0
6
CONTINUOUS
10
-0.110622
20
0.016763
30
0.0
11
-0.113157
21
0.021013
31
0.0
0
LINE
8
0
6
CONTINUOUS
10
-0.113727
20
0.021008
30
0.0
11
-0.111328
21
0.016939
31
0.0
0
LINE
8
0
6
CONTINUOUS
10
0.064880
20
-0.011989
30
0.0
11
0.068706
21
-0.014873
31
0.0
0
LINE
8
0
6
CONTINUOUS
10
-0.082029
20
-0.001561
30
0.0
11
0.002323
21
-0.006390
31
0.0
0
LINE
8
0
6
CONTINUOUS
10
0.035013
20
-0.008261
30
0.0
11
0.053955
21
-0.009345
31
0.0
0
LINE
8
0
6
CONTINUOUS
10
-0.103421
20
0.009504
30
0.0
11
-0.099005
21
0.006517
31
0.0
0
LINE
8
0
6
CONTINUOUS
10
0.079964
20
-0.009548
30
0.0
11
0.077596
21
-0.003270
31
0.0
0
LINE
8
0
6
CONTINUOUS
10
0.072635
20
-0.022719
30
0.0
11
0.073255
21
-0.027676
31
0.0
0
LINE
8
0
6
CONTINUOUS
10
0.053955
20
-0.009345
30
0.0
11
0.058657
21
-0.010023
31
0.0
0
LINE
8
0
6
CONTINUOUS
10
-0.086546
20
-0.000944
30
0.0
11
-0.084020
21
-0.001409
31
0.0
0
LINE
8
0
6
CONTINUOUS
10
0.069311
20
0.002439
30
0.0
11
0.077596
21
-0.003270
31
0.0
0
LINE
8
0
6
CONTINUOUS
10
-0.099569
20
0.008702
30
0.0
11
-0.104536
21
0.012666
31
0.0
0
LINE
8
0
6
CONTINUOUS
10
-0.106821
20
0.012766
30
0.0
11
-0.102006
21
0.008887
31
0.0
0
LINE
8
0
6
CONTINUOUS
10
0.079964
20
-0.009548
30
0.0
11
0.080899
21
-0.015604
31
0.0
0
LINE
8
0
6
CONTINUOUS
10
-0.091883
20
0.002654
30
0.0
11
-0.096601
21
0.005410
31
0.0
0
LINE
8
0
6
CONTINUOUS
10
0.071171
20
0.022000
30
0.0
11
0.008867
21
0.022000
31
0.0
0
LINE
8
0
6
CONTINUOUS
10
-0.021433
20
0.022000
30
0.0
11
-0.109578
21
0.022000
31
0.0
0
LINE
8
0
6
CONTINUOUS
10
0.068706
20
-0.014873
30
0.0
11
0.071492
21
-0.018915
31
0.0
0
LINE
8
0
6
CONTINUOUS
10
-0.106821
20
0.012766
30
0.0
11
-0.110622
21
0.016763
31
0.0
0
LINE
8
0
6
CONTINUOUS
10
-0.111328
20
0.016939
30
0.0
11
-0.107701
21
0.013057
31
0.0
0
LINE
8
0
6
CONTINUOUS
10
0.064880
20
-0.011989
30
0.0
11
0.066923
21
-0.010966
31
0.0
0
LINE
8
0
6
CONTINUOUS
10
0.058657
20
-0.010023
30
0.0
11
0.064880
21
-0.011989
31
0.0
0
LINE
8
0
6
CONTINUOUS
10
0.071492
20
-0.018915
30
0.0
11
0.072635
21
-0.022719
31
0.0
0
LINE
8
0
6
CONTINUOUS
10
-0.102006
20
0.008887
30
0.0
11
-0.096601
21
0.005410
31
0.0
0
LINE
8
0
6
CONTINUOUS
10
0.120077
20
-0.103000
30
0.0
11
0.120077
21
-0.037988
31
0.0
0
LINE
8
0
6
CONTINUOUS
10
0.120077
20
-0.032373
30
0.0
11
0.120077
21
-0.031180
31
0.0
0
LINE
8
0
6
CONTINUOUS
10
0.073255
20
-0.031085
30
0.0
11
0.073255
21
-0.049000
31
0.0
0
LINE
8
0
6
CONTINUOUS
10
0.132814
20
-0.032373
30
0.0
11
0.120077
21
-0.032373
31
0.0
0
LINE
8
0
6
CONTINUOUS
10
0.120077
20
-0.035180
30
0.0
11
0.132814
21
-0.035180
31
0.0
0
LINE
8
0
6
CONTINUOUS
10
0.132814
20
-0.033195
30
0.0
11
0.119838
21
-0.033195
31
0.0
0
LINE
8
0
6
CONTINUOUS
10
0.120077
20
-0.037988
30
0.0
11
0.132814
21
-0.037988
31
0.0
0
LINE
8
0
6
CONTINUOUS
10
0.132814
20
-0.037166
30
0.0
11
0.119838
21
-0.037166
31
0.0
0
LINE
8
0
6
CONTINUOUS
10
0.133314
20
-0.037988
30
0.0
11
0.133314
21
-0.037166
31
0.0
0
LINE
8
0
6
CONTINUOUS
10
0.132814
20
-0.037988
30
0.0
11
0.133314
21
-0.037988
31
0.0
0
LINE
8
0
6
CONTINUOUS
10
0.133314
20
-0.032373
30
0.0
11
0.132814
21
-0.032373
31
0.0
0
LINE
8
0
6
CONTINUOUS
10
0.133314
20
-0.033195
30
0.0
11
0.133314
21
-0.032373
31
0.0
0
LINE
8
0
6
CONTINUOUS
10
0.133314
20
-0.033195
30
0.0
11
0.132814
21
-0.033195
31
0.0
0
LINE
8
0
6
CONTINUOUS
10
0.133314
20
-0.035180
30
0.0
11
0.133314
21
-0.033195
31
0.0
0
LINE
8
0
6
CONTINUOUS
10
0.133314
20
-0.035180
30
0.0
11
0.132814
21
-0.035180
31
0.0
0
LINE
8
0
6
CONTINUOUS
10
0.133314
20
-0.037166
30
0.0
11
0.133314
21
-0.035180
31
0.0
0
LINE
8
0
6
CONTINUOUS
10
0.132814
20
-0.037166
30
0.0
11
0.133314
21
-0.037166
31
0.0
0
LINE
8
0
6
CONTINUOUS
10
-0.088033
20
-0.003586
30
0.0
11
-0.087788
21
-0.003150
31
0.0
0
LINE
8
0
6
CONTINUOUS
10
-0.088514
20
-0.003315
30
0.0
11
-0.088033
21
-0.003586
31
0.0
0
LINE
8
0
6
CONTINUOUS
10
-0.089909
20
-0.002529
30
0.0
11
-0.088514
21
-0.003315
31
0.0
0
LINE
8
0
6
CONTINUOUS
10
-0.092083
20
-0.001306
30
0.0
11
-0.089909
21
-0.002529
31
0.0
0
LINE
8
0
6
CONTINUOUS
10
-0.094821
20
0.000236
30
0.0
11
-0.092083
21
-0.001306
31
0.0
0
LINE
8
0
6
CONTINUOUS
10
-0.097857
20
0.001945
30
0.0
11
-0.094821
21
0.000236
31
0.0
0
LINE
8
0
6
CONTINUOUS
10
-0.100893
20
0.003654
30
0.0
11
-0.097857
21
0.001945
31
0.0
0
LINE
8
0
6
CONTINUOUS
10
-0.103631
20
0.005196
30
0.0
11
-0.100893
21
0.003654
31
0.0
0
LINE
8
0
6
CONTINUOUS
10
-0.105805
20
0.006420
30
0.0
11
-0.103631
21
0.005196
31
0.0
0
LINE
8
0
6
CONTINUOUS
10
-0.107200
20
0.007205
30
0.0
11
-0.105805
21
0.006420
31
0.0
0
LINE
8
0
6
CONTINUOUS
10
-0.107681
20
0.007476
30
0.0
11
-0.107200
21
0.007205
31
0.0
0
LINE
8
0
6
CONTINUOUS
10
-0.107435
20
0.007912
30
0.0
11
-0.107681
21
0.007476
31
0.0
0
LINE
8
0
6
CONTINUOUS
10
-0.105546
20
0.011268
30
0.0
11
-0.107435
21
0.007912
31
0.0
0
LINE
8
0
6
CONTINUOUS
10
-0.087788
20
-0.003150
30
0.0
11
-0.086546
21
-0.000944
31
0.0
0
LINE
8
0
6
CONTINUOUS
10
-0.133014
20
0.094578
30
0.0
11
-0.133314
21
0.093352
31
0.0
0
LINE
8
0
6
CONTINUOUS
10
-0.027678
20
0.062239
30
0.0
11
-0.030513
21
0.064726
31
0.0
0
LINE
8
0
6
CONTINUOUS
10
-0.115548
20
0.103973
30
0.0
11
-0.120163
21
0.106237
31
0.0
0
LINE
8
0
6
CONTINUOUS
10
-0.125387
20
0.108889
30
0.0
11
-0.125959
21
0.109000
31
0.0
0
LINE
8
0
6
CONTINUOUS
10
-0.109791
20
0.101096
30
0.0
11
-0.115548
21
0.103973
31
0.0
0
LINE
8
0
6
CONTINUOUS
10
0.030517
20
-0.039337
30
0.0
11
0.040777
21
-0.051556
31
0.0
0
LINE
8
0
6
CONTINUOUS
10
0.059189
20
-0.036356
30
0.0
11
0.048967
21
-0.024388
31
0.0
0
LINE
8
0
6
CONTINUOUS
10
0.048967
20
-0.024388
30
0.0
11
0.026143
21
0.001989
31
0.0
0
LINE
8
0
6
CONTINUOUS
10
0.009931
20
-0.011196
30
0.0
11
0.033028
21
-0.037310
31
0.0
0
LINE
8
0
6
CONTINUOUS
10
-0.009953
20
0.007478
30
0.0
11
0.007964
21
-0.012762
31
0.0
0
LINE
8
0
6
CONTINUOUS
10
0.044161
20
-0.028060
30
0.0
11
0.022546
21
-0.000990
31
0.0
0
LINE
8
0
6
CONTINUOUS
10
-0.022366
20
0.023181
30
0.0
11
-0.009953
21
0.007478
31
0.0
0
LINE
8
0
6
CONTINUOUS
10
0.026143
20
0.001989
30
0.0
11
0.008643
21
0.022259
31
0.0
0
LINE
8
0
6
CONTINUOUS
10
0.022546
20
-0.000990
30
0.0
11
0.005547
21
0.019742
31
0.0
0
LINE
8
0
6
CONTINUOUS
10
-0.008244
20
0.008772
30
0.0
11
0.009931
21
-0.011196
31
0.0
0
LINE
8
0
6
CONTINUOUS
10
0.012019
20
-0.009547
30
0.0
11
-0.006042
21
0.010490
31
0.0
0
LINE
8
0
6
CONTINUOUS
10
0.008643
20
0.022259
30
0.0
11
-0.005792
21
0.038935
31
0.0
0
LINE
8
0
6
CONTINUOUS
10
0.005547
20
0.019742
30
0.0
11
-0.007828
21
0.036185
31
0.0
0
LINE
8
0
6
CONTINUOUS
10
-0.022205
20
0.025845
30
0.0
11
-0.008244
21
0.008772
31
0.0
0
LINE
8
0
6
CONTINUOUS
10
-0.006042
20
0.010490
30
0.0
11
-0.020319
21
0.027244
31
0.0
0
LINE
8
0
6
CONTINUOUS
10
-0.005792
20
0.038935
30
0.0
11
-0.013407
21
0.047569
31
0.0
0
LINE
8
0
6
CONTINUOUS
10
-0.017293
20
0.047666
30
0.0
11
-0.007828
21
0.036185
31
0.0
0
LINE
8
0
6
CONTINUOUS
10
-0.013407
20
0.047569
30
0.0
11
-0.018799
21
0.053462
31
0.0
0
LINE
8
0
6
CONTINUOUS
10
-0.023283
20
0.054854
30
0.0
11
-0.029099
21
0.060104
31
0.0
0
LINE
8
0
6
CONTINUOUS
10
-0.023779
20
0.054684
30
0.0
11
-0.030059
21
0.059994
31
0.0
0
LINE
8
0
6
CONTINUOUS
10
-0.018799
20
0.053462
30
0.0
11
-0.021975
21
0.056774
31
0.0
0
LINE
8
0
6
CONTINUOUS
10
-0.025008
20
0.059721
30
0.0
11
-0.027678
21
0.062239
31
0.0
0
LINE
8
0
6
CONTINUOUS
10
-0.034557
20
0.063058
30
0.0
11
-0.039202
21
0.065437
31
0.0
0
LINE
8
0
6
CONTINUOUS
10
-0.102848
20
0.097612
30
0.0
11
-0.109651
21
0.100857
31
0.0
0
LINE
8
0
6
CONTINUOUS
10
-0.054848
20
0.074300
30
0.0
11
-0.063230
21
0.078133
31
0.0
0
LINE
8
0
6
CONTINUOUS
10
-0.125959
20
0.109000
30
0.0
11
-0.127474
21
0.108298
31
0.0
0
LINE
8
0
6
CONTINUOUS
10
-0.125468
20
0.108737
30
0.0
11
-0.125959
21
0.109000
31
0.0
0
LINE
8
0
6
CONTINUOUS
10
-0.127474
20
0.108298
30
0.0
11
-0.127796
21
0.107529
31
0.0
0
LINE
8
0
6
CONTINUOUS
10
-0.126673
20
0.107847
30
0.0
11
-0.127474
21
0.108298
31
0.0
0
LINE
8
0
6
CONTINUOUS
10
-0.131309
20
0.099142
30
0.0
11
-0.132954
21
0.094741
31
0.0
0
LINE
8
0
6
CONTINUOUS
10
-0.123529
20
0.107755
30
0.0
11
-0.125468
21
0.108737
31
0.0
0
LINE
8
0
6
CONTINUOUS
10
-0.124306
20
0.106757
30
0.0
11
-0.126673
21
0.107847
31
0.0
0
LINE
8
0
6
CONTINUOUS
10
-0.120666
20
0.106357
30
0.0
11
-0.123529
21
0.107755
31
0.0
0
LINE
8
0
6
CONTINUOUS
10
-0.109651
20
0.100857
30
0.0
11
-0.115755
21
0.103938
31
0.0
0
LINE
8
0
6
CONTINUOUS
10
-0.110352
20
0.099651
30
0.0
11
-0.116458
21
0.102727
31
0.0
0
LINE
8
0
6
CONTINUOUS
10
-0.115755
20
0.103938
30
0.0
11
-0.120666
21
0.106357
31
0.0
0
LINE
8
0
6
CONTINUOUS
10
-0.116458
20
0.102727
30
0.0
11
-0.121024
21
0.105023
31
0.0
0
LINE
8
0
6
CONTINUOUS
10
-0.029647
20
0.037251
30
0.0
11
-0.036189
21
0.042898
31
0.0
0
LINE
8
0
6
CONTINUOUS
10
-0.036189
20
0.042898
30
0.0
11
-0.040466
21
0.046386
31
0.0
0
LINE
8
0
6
CONTINUOUS
10
-0.042010
20
0.068024
30
0.0
11
-0.045503
21
0.069692
31
0.0
0
LINE
8
0
6
CONTINUOUS
10
-0.021975
20
0.056774
30
0.0
11
-0.025008
21
0.059721
31
0.0
0
LINE
8
0
6
CONTINUOUS
10
-0.029099
20
0.060104
30
0.0
11
-0.033084
21
0.063409
31
0.0
0
LINE
8
0
6
CONTINUOUS
10
-0.036270
20
0.065395
30
0.0
11
-0.033084
21
0.063409
31
0.0
0
LINE
8
0
6
CONTINUOUS
10
-0.030059
20
0.059994
30
0.0
11
-0.034098
21
0.063582
31
0.0
0
LINE
8
0
6
CONTINUOUS
10
-0.039356
20
0.066757
30
0.0
11
-0.034098
21
0.063582
31
0.0
0
LINE
8
0
6
CONTINUOUS
10
-0.043788
20
0.049056
30
0.0
11
-0.047626
21
0.052057
31
0.0
0
LINE
8
0
6
CONTINUOUS
10
-0.023779
20
0.054684
30
0.0
11
-0.017293
21
0.047666
31
0.0
0
LINE
8
0
6
CONTINUOUS
10
0.007964
20
-0.012762
30
0.0
11
0.030517
21
-0.039337
31
0.0
0
LINE
8
0
6
CONTINUOUS
10
-0.029647
20
0.037251
30
0.0
11
-0.020319
21
0.027244
31
0.0
0
LINE
8
0
6
CONTINUOUS
10
-0.030513
20
0.064726
30
0.0
11
-0.033968
21
0.067593
31
0.0
0
LINE
8
0
6
CONTINUOUS
10
-0.033968
20
0.067593
30
0.0
11
-0.037554
21
0.070461
31
0.0
0
LINE
8
0
6
CONTINUOUS
10
-0.046201
20
0.076481
30
0.0
11
-0.049090
21
0.078354
31
0.0
0
LINE
8
0
6
CONTINUOUS
10
-0.040433
20
0.072534
30
0.0
11
-0.043312
21
0.074607
31
0.0
0
LINE
8
0
6
CONTINUOUS
10
-0.049090
20
0.078354
30
0.0
11
-0.065307
21
0.087478
31
0.0
0
LINE
8
0
6
CONTINUOUS
10
-0.074329
20
0.091689
30
0.0
11
-0.083351
21
0.095901
31
0.0
0
LINE
8
0
6
CONTINUOUS
10
-0.092899
20
0.099411
30
0.0
11
-0.102447
21
0.102921
31
0.0
0
LINE
8
0
6
CONTINUOUS
10
-0.109635
20
0.104957
30
0.0
11
-0.116824
21
0.106994
31
0.0
0
LINE
8
0
6
CONTINUOUS
10
-0.054086
20
0.054199
30
0.0
11
-0.058184
21
0.056201
31
0.0
0
LINE
8
0
6
CONTINUOUS
10
-0.116824
20
0.106994
30
0.0
11
-0.125387
21
0.108889
31
0.0
0
LINE
8
0
6
CONTINUOUS
10
-0.130302
20
0.091874
30
0.0
11
-0.132598
21
0.093009
31
0.0
0
LINE
8
0
6
CONTINUOUS
10
-0.044659
20
0.048756
30
0.0
11
-0.048843
21
0.051293
31
0.0
0
LINE
8
0
6
CONTINUOUS
10
-0.063443
20
0.058760
30
0.0
11
-0.071411
21
0.062801
31
0.0
0
LINE
8
0
6
CONTINUOUS
10
-0.055294
20
0.048514
30
0.0
11
-0.052381
21
0.047615
31
0.0
0
LINE
8
0
6
CONTINUOUS
10
-0.040466
20
0.046386
30
0.0
11
-0.044659
21
0.048756
31
0.0
0
LINE
8
0
6
CONTINUOUS
10
-0.103387
20
0.096292
30
0.0
11
-0.110352
21
0.099651
31
0.0
0
LINE
8
0
6
CONTINUOUS
10
-0.127796
20
0.107529
30
0.0
11
-0.131309
21
0.099142
31
0.0
0
LINE
8
0
6
CONTINUOUS
10
-0.132954
20
0.094741
30
0.0
11
-0.133014
21
0.094578
31
0.0
0
LINE
8
0
6
CONTINUOUS
10
0.041316
20
-0.051705
30
0.0
11
0.041622
21
-0.051452
31
0.0
0
LINE
8
0
6
CONTINUOUS
10
0.040870
20
-0.051666
30
0.0
11
0.041316
21
-0.051705
31
0.0
0
LINE
8
0
6
CONTINUOUS
10
0.043942
20
-0.049537
30
0.0
11
0.045800
21
-0.048003
31
0.0
0
LINE
8
0
6
CONTINUOUS
10
0.045800
20
-0.048003
30
0.0
11
0.046897
21
-0.047097
31
0.0
0
LINE
8
0
6
CONTINUOUS
10
0.050612
20
-0.044031
30
0.0
11
0.053935
21
-0.041287
31
0.0
0
LINE
8
0
6
CONTINUOUS
10
0.054395
20
-0.040907
30
0.0
11
0.054663
21
-0.040686
31
0.0
0
LINE
8
0
6
CONTINUOUS
10
0.054621
20
-0.040313
30
0.0
11
0.054286
21
-0.040590
31
0.0
0
LINE
8
0
6
CONTINUOUS
10
0.053935
20
-0.041287
30
0.0
11
0.054395
21
-0.040907
31
0.0
0
LINE
8
0
6
CONTINUOUS
10
0.058052
20
-0.037481
30
0.0
11
0.056589
21
-0.038689
31
0.0
0
LINE
8
0
6
CONTINUOUS
10
0.059245
20
-0.036902
30
0.0
11
0.059283
21
-0.036464
31
0.0
0
LINE
8
0
6
CONTINUOUS
10
0.049289
20
-0.045123
30
0.0
11
0.050612
21
-0.044031
31
0.0
0
LINE
8
0
6
CONTINUOUS
10
0.054286
20
-0.040590
30
0.0
11
0.054195
21
-0.040477
31
0.0
0
LINE
8
0
6
CONTINUOUS
10
0.053743
20
-0.041038
30
0.0
11
0.054286
21
-0.040590
31
0.0
0
LINE
8
0
6
CONTINUOUS
10
0.047725
20
-0.046007
30
0.0
11
0.049025
21
-0.044933
31
0.0
0
LINE
8
0
6
CONTINUOUS
10
0.042101
20
-0.050649
30
0.0
11
0.043563
21
-0.049443
31
0.0
0
LINE
8
0
6
CONTINUOUS
10
0.058052
20
-0.037481
30
0.0
11
0.058971
21
-0.036722
31
0.0
0
LINE
8
0
6
CONTINUOUS
10
0.046597
20
-0.046938
30
0.0
11
0.047725
21
-0.046007
31
0.0
0
LINE
8
0
6
CONTINUOUS
10
0.040870
20
-0.051666
30
0.0
11
0.041183
21
-0.051408
31
0.0
0
LINE
8
0
6
CONTINUOUS
10
0.040777
20
-0.051556
30
0.0
11
0.040870
21
-0.051666
31
0.0
0
LINE
8
0
6
CONTINUOUS
10
0.058971
20
-0.036722
30
0.0
11
0.059283
21
-0.036464
31
0.0
0
LINE
8
0
6
CONTINUOUS
10
0.059283
20
-0.036464
30
0.0
11
0.059189
21
-0.036356
31
0.0
0
LINE
8
0
6
CONTINUOUS
10
0.049025
20
-0.044933
30
0.0
11
0.050375
21
-0.043819
31
0.0
0
LINE
8
0
6
CONTINUOUS
10
0.043563
20
-0.049443
30
0.0
11
0.045471
21
-0.047868
31
0.0
0
LINE
8
0
6
CONTINUOUS
10
0.045471
20
-0.047868
30
0.0
11
0.046597
21
-0.046938
31
0.0
0
LINE
8
0
6
CONTINUOUS
10
0.054621
20
-0.040313
30
0.0
11
0.056589
21
-0.038689
31
0.0
0
LINE
8
0
6
CONTINUOUS
10
0.050375
20
-0.043819
30
0.0
11
0.053743
21
-0.041038
31
0.0
0
LINE
8
0
6
CONTINUOUS
10
0.041183
20
-0.051408
30
0.0
11
0.042101
21
-0.050649
31
0.0
0
LINE
8
0
6
CONTINUOUS
10
0.054195
20
-0.040477
30
0.0
11
0.044161
21
-0.028060
31
0.0
0
LINE
8
0
6
CONTINUOUS
10
0.042518
20
-0.050713
30
0.0
11
0.041622
21
-0.051452
31
0.0
0
LINE
8
0
6
CONTINUOUS
10
0.043942
20
-0.049537
30
0.0
11
0.042518
21
-0.050713
31
0.0
0
LINE
8
0
6
CONTINUOUS
10
0.049289
20
-0.045123
30
0.0
11
0.048008
21
-0.046180
31
0.0
0
LINE
8
0
6
CONTINUOUS
10
0.048008
20
-0.046180
30
0.0
11
0.046897
21
-0.047097
31
0.0
0
LINE
8
0
6
CONTINUOUS
10
-0.024661
20
0.028364
30
0.0
11
-0.024066
21
0.026309
31
0.0
0
LINE
8
0
6
CONTINUOUS
10
-0.024066
20
0.026309
30
0.0
11
-0.023993
21
0.025328
31
0.0
0
LINE
8
0
6
CONTINUOUS
10
-0.023930
20
0.025053
30
0.0
11
-0.022366
21
0.023181
31
0.0
0
LINE
8
0
6
CONTINUOUS
10
-0.023993
20
0.025328
30
0.0
11
-0.023930
21
0.025053
31
0.0
0
LINE
8
0
6
CONTINUOUS
10
-0.030616
20
0.035813
30
0.0
11
-0.024661
21
0.028364
31
0.0
0
LINE
8
0
6
CONTINUOUS
10
-0.030582
20
0.035902
30
0.0
11
-0.037866
21
0.042306
31
0.0
0
LINE
8
0
6
CONTINUOUS
10
-0.037841
20
0.042201
30
0.0
11
-0.030616
21
0.035813
31
0.0
0
LINE
8
0
6
CONTINUOUS
10
-0.046249
20
0.045349
30
0.0
11
-0.045320
21
0.045389
31
0.0
0
LINE
8
0
6
CONTINUOUS
10
-0.041744
20
0.046332
30
0.0
11
-0.041514
21
0.046469
31
0.0
0
LINE
8
0
6
CONTINUOUS
10
-0.123039
20
0.088084
30
0.0
11
-0.127168
21
0.090102
31
0.0
0
LINE
8
0
6
CONTINUOUS
10
-0.127179
20
0.090107
30
0.0
11
-0.130302
21
0.091874
31
0.0
0
LINE
8
0
6
CONTINUOUS
10
-0.133314
20
0.093352
30
0.0
11
-0.132802
21
0.092848
31
0.0
0
LINE
8
0
6
CONTINUOUS
10
-0.132598
20
0.093009
30
0.0
11
-0.133314
21
0.093352
31
0.0
0
LINE
8
0
6
CONTINUOUS
10
-0.088735
20
0.071214
30
0.0
11
-0.096438
21
0.074933
31
0.0
0
LINE
8
0
6
CONTINUOUS
10
-0.117271
20
0.085248
30
0.0
11
-0.123039
21
0.088084
31
0.0
0
LINE
8
0
6
CONTINUOUS
10
-0.041744
20
0.046332
30
0.0
11
-0.044916
21
0.048629
31
0.0
0
LINE
8
0
6
CONTINUOUS
10
-0.041992
20
0.046287
30
0.0
11
-0.041744
21
0.046332
31
0.0
0
LINE
8
0
6
CONTINUOUS
10
-0.110520
20
0.081860
30
0.0
11
-0.117271
21
0.085248
31
0.0
0
LINE
8
0
6
CONTINUOUS
10
-0.071411
20
0.062801
30
0.0
11
-0.080336
21
0.067134
31
0.0
0
LINE
8
0
6
CONTINUOUS
10
-0.116187
20
0.079041
30
0.0
11
-0.113814
21
0.077266
31
0.0
0
LINE
8
0
6
CONTINUOUS
10
-0.132802
20
0.092848
30
0.0
11
-0.127954
21
0.088486
31
0.0
0
LINE
8
0
6
CONTINUOUS
10
-0.100402
20
0.068403
30
0.0
11
-0.098947
21
0.067492
31
0.0
0
LINE
8
0
6
CONTINUOUS
10
-0.077533
20
0.056751
30
0.0
11
-0.075476
21
0.055953
31
0.0
0
LINE
8
0
6
CONTINUOUS
10
-0.072445
20
0.054778
30
0.0
11
-0.069335
21
0.053572
31
0.0
0
LINE
8
0
6
CONTINUOUS
10
-0.052381
20
0.047615
30
0.0
11
-0.051418
21
0.047301
31
0.0
0
LINE
8
0
6
CONTINUOUS
10
-0.046941
20
0.045608
30
0.0
11
-0.046336
21
0.045358
31
0.0
0
LINE
8
0
6
CONTINUOUS
10
-0.046336
20
0.045358
30
0.0
11
-0.046249
21
0.045349
31
0.0
0
LINE
8
0
6
CONTINUOUS
10
-0.045320
20
0.045389
30
0.0
11
-0.040968
21
0.044915
31
0.0
0
LINE
8
0
6
CONTINUOUS
10
-0.040968
20
0.044915
30
0.0
11
-0.037841
21
0.042201
31
0.0
0
LINE
8
0
6
CONTINUOUS
10
-0.049595
20
0.071717
30
0.0
11
-0.045503
21
0.069692
31
0.0
0
LINE
8
0
6
CONTINUOUS
10
-0.049595
20
0.071717
30
0.0
11
-0.054848
21
0.074300
31
0.0
0
LINE
8
0
6
CONTINUOUS
10
-0.043312
20
0.074607
30
0.0
11
-0.046201
21
0.076481
31
0.0
0
LINE
8
0
6
CONTINUOUS
10
-0.058184
20
0.056201
30
0.0
11
-0.063443
21
0.058760
31
0.0
0
LINE
8
0
6
CONTINUOUS
10
-0.051045
20
0.052545
30
0.0
11
-0.048843
21
0.051293
31
0.0
0
LINE
8
0
6
CONTINUOUS
10
-0.039356
20
0.066757
30
0.0
11
-0.042010
21
0.068024
31
0.0
0
LINE
8
0
6
CONTINUOUS
10
-0.037554
20
0.070461
30
0.0
11
-0.040433
21
0.072534
31
0.0
0
LINE
8
0
6
CONTINUOUS
10
-0.051045
20
0.052545
30
0.0
11
-0.054086
21
0.054199
31
0.0
0
LINE
8
0
6
CONTINUOUS
10
-0.039202
20
0.065437
30
0.0
11
-0.041804
21
0.066720
31
0.0
0
LINE
8
0
6
CONTINUOUS
10
-0.059218
20
0.049830
30
0.0
11
-0.058395
21
0.049546
31
0.0
0
LINE
8
0
6
CONTINUOUS
10
-0.072223
20
0.082590
30
0.0
11
-0.080690
21
0.086795
31
0.0
0
LINE
8
0
6
CONTINUOUS
10
-0.065307
20
0.087478
30
0.0
11
-0.074329
21
0.091689
31
0.0
0
LINE
8
0
6
CONTINUOUS
10
-0.072223
20
0.082590
30
0.0
11
-0.063230
21
0.078133
31
0.0
0
LINE
8
0
6
CONTINUOUS
10
-0.080336
20
0.067134
30
0.0
11
-0.088735
21
0.071214
31
0.0
0
LINE
8
0
6
CONTINUOUS
10
-0.096046
20
0.094366
30
0.0
11
-0.102848
21
0.097612
31
0.0
0
LINE
8
0
6
CONTINUOUS
10
-0.102447
20
0.102921
30
0.0
11
-0.109635
21
0.104957
31
0.0
0
LINE
8
0
6
CONTINUOUS
10
-0.096422
20
0.092932
30
0.0
11
-0.103387
21
0.096292
31
0.0
0
LINE
8
0
6
CONTINUOUS
10
-0.103769
20
0.078473
30
0.0
11
-0.110520
21
0.081860
31
0.0
0
LINE
8
0
6
CONTINUOUS
10
-0.123690
20
0.084656
30
0.0
11
-0.121198
21
0.082791
31
0.0
0
LINE
8
0
6
CONTINUOUS
10
-0.118803
20
0.080999
30
0.0
11
-0.118567
21
0.080822
31
0.0
0
LINE
8
0
6
CONTINUOUS
10
-0.088554
20
0.090670
30
0.0
11
-0.096046
21
0.094366
31
0.0
0
LINE
8
0
6
CONTINUOUS
10
-0.088771
20
0.089298
30
0.0
11
-0.096422
21
0.092932
31
0.0
0
LINE
8
0
6
CONTINUOUS
10
-0.083351
20
0.095901
30
0.0
11
-0.092899
21
0.099411
31
0.0
0
LINE
8
0
6
CONTINUOUS
10
-0.088554
20
0.090670
30
0.0
11
-0.080690
21
0.086795
31
0.0
0
LINE
8
0
6
CONTINUOUS
10
-0.096438
20
0.074933
30
0.0
11
-0.103769
21
0.078473
31
0.0
0
LINE
8
0
6
CONTINUOUS
10
-0.103994
20
0.070652
30
0.0
11
-0.103107
21
0.070097
31
0.0
0
LINE
8
0
6
CONTINUOUS
10
-0.024306
20
0.025701
30
0.0
11
-0.024444
21
0.026757
31
0.0
0
LINE
8
0
6
CONTINUOUS
10
-0.044917
20
0.045138
30
0.0
11
-0.045849
21
0.045096
31
0.0
0
LINE
8
0
6
CONTINUOUS
10
-0.045937
20
0.045101
30
0.0
11
-0.036823
21
0.039222
31
0.0
0
LINE
8
0
6
CONTINUOUS
10
-0.045849
20
0.045096
30
0.0
11
-0.045937
21
0.045101
31
0.0
0
LINE
8
0
6
CONTINUOUS
10
-0.030670
20
0.035672
30
0.0
11
-0.037798
21
0.042015
31
0.0
0
LINE
8
0
6
CONTINUOUS
10
-0.037798
20
0.042015
30
0.0
11
-0.040929
21
0.044708
31
0.0
0
LINE
8
0
6
CONTINUOUS
10
-0.040929
20
0.044708
30
0.0
11
-0.044917
21
0.045138
31
0.0
0
LINE
8
0
6
CONTINUOUS
10
-0.024950
20
0.028518
30
0.0
11
-0.030670
21
0.035672
31
0.0
0
LINE
8
0
6
CONTINUOUS
10
-0.024444
20
0.026757
30
0.0
11
-0.024950
21
0.028518
31
0.0
0
LINE
8
0
6
CONTINUOUS
10
-0.036823
20
0.039222
30
0.0
11
-0.031162
21
0.033711
31
0.0
0
LINE
8
0
6
CONTINUOUS
10
-0.031162
20
0.033711
30
0.0
11
-0.024235
21
0.025418
31
0.0
0
LINE
8
0
6
CONTINUOUS
10
-0.024235
20
0.025418
30
0.0
11
-0.024306
21
0.025701
31
0.0
0
LINE
8
0
6
CONTINUOUS
10
-0.040929
20
0.044708
30
0.0
11
-0.037798
21
0.042015
31
0.0
0
LINE
8
0
6
CONTINUOUS
10
-0.024950
20
0.028518
30
0.0
11
-0.024444
21
0.026757
31
0.0
0
LINE
8
0
6
CONTINUOUS
10
-0.024444
20
0.026757
30
0.0
11
-0.024306
21
0.025701
31
0.0
0
LINE
8
0
6
CONTINUOUS
10
-0.024306
20
0.025701
30
0.0
11
-0.024235
21
0.025418
31
0.0
0
LINE
8
0
6
CONTINUOUS
10
-0.030670
20
0.035672
30
0.0
11
-0.024950
21
0.028518
31
0.0
0
LINE
8
0
6
CONTINUOUS
10
-0.037798
20
0.042015
30
0.0
11
-0.030670
21
0.035672
31
0.0
0
LINE
8
0
6
CONTINUOUS
10
-0.045849
20
0.045096
30
0.0
11
-0.044917
21
0.045138
31
0.0
0
LINE
8
0
6
CONTINUOUS
10
-0.045937
20
0.045101
30
0.0
11
-0.045849
21
0.045096
31
0.0
0
LINE
8
0
6
CONTINUOUS
10
-0.044917
20
0.045138
30
0.0
11
-0.040929
21
0.044708
31
0.0
0
LINE
8
0
6
CONTINUOUS
10
-0.117230
20
0.079198
30
0.0
11
-0.116837
21
0.077400
31
0.0
0
LINE
8
0
6
CONTINUOUS
10
-0.116837
20
0.077400
30
0.0
11
-0.116580
21
0.077272
31
0.0
0
LINE
8
0
6
CONTINUOUS
10
-0.116580
20
0.077272
30
0.0
11
-0.115829
21
0.076900
31
0.0
0
LINE
8
0
6
CONTINUOUS
10
-0.114931
20
0.078056
30
0.0
11
-0.116185
21
0.078679
31
0.0
0
LINE
8
0
6
CONTINUOUS
10
-0.115829
20
0.076900
30
0.0
11
-0.114619
21
0.076299
31
0.0
0
LINE
8
0
6
CONTINUOUS
10
-0.113235
20
0.077214
30
0.0
11
-0.114931
21
0.078056
31
0.0
0
LINE
8
0
6
CONTINUOUS
10
-0.114619
20
0.076299
30
0.0
11
-0.112984
21
0.075487
31
0.0
0
LINE
8
0
6
CONTINUOUS
10
-0.111301
20
0.076254
30
0.0
11
-0.113235
21
0.077214
31
0.0
0
LINE
8
0
6
CONTINUOUS
10
-0.112984
20
0.075487
30
0.0
11
-0.110957
21
0.074480
31
0.0
0
LINE
8
0
6
CONTINUOUS
10
-0.110957
20
0.074480
30
0.0
11
-0.108571
21
0.073296
31
0.0
0
LINE
8
0
6
CONTINUOUS
10
-0.105852
20
0.073548
30
0.0
11
-0.108458
21
0.074842
31
0.0
0
LINE
8
0
6
CONTINUOUS
10
-0.108571
20
0.073296
30
0.0
11
-0.105861
21
0.071950
31
0.0
0
LINE
8
0
6
CONTINUOUS
10
-0.102742
20
0.072003
30
0.0
11
-0.105835
21
0.073540
31
0.0
0
LINE
8
0
6
CONTINUOUS
10
-0.105861
20
0.071950
30
0.0
11
-0.102860
21
0.070460
31
0.0
0
LINE
8
0
6
CONTINUOUS
10
-0.099703
20
0.070495
30
0.0
11
-0.102742
21
0.072003
31
0.0
0
LINE
8
0
6
CONTINUOUS
10
-0.102860
20
0.070460
30
0.0
11
-0.099602
21
0.068842
31
0.0
0
LINE
8
0
6
CONTINUOUS
10
-0.095754
20
0.068533
30
0.0
11
-0.096760
21
0.069033
31
0.0
0
LINE
8
0
6
CONTINUOUS
10
-0.099602
20
0.068842
30
0.0
11
-0.096120
21
0.067113
31
0.0
0
LINE
8
0
6
CONTINUOUS
10
-0.091947
20
0.066643
30
0.0
11
-0.095754
21
0.068533
31
0.0
0
LINE
8
0
6
CONTINUOUS
10
-0.096120
20
0.067113
30
0.0
11
-0.092448
21
0.065290
31
0.0
0
LINE
8
0
6
CONTINUOUS
10
-0.087980
20
0.064673
30
0.0
11
-0.091947
21
0.066643
31
0.0
0
LINE
8
0
6
CONTINUOUS
10
-0.092448
20
0.065290
30
0.0
11
-0.088621
21
0.063389
31
0.0
0
LINE
8
0
6
CONTINUOUS
10
-0.085845
20
0.063613
30
0.0
11
-0.087980
21
0.064673
31
0.0
0
LINE
8
0
6
CONTINUOUS
10
-0.088621
20
0.063389
30
0.0
11
-0.084793
21
0.061488
31
0.0
0
LINE
8
0
6
CONTINUOUS
10
-0.080207
20
0.060813
30
0.0
11
-0.082943
21
0.062172
31
0.0
0
LINE
8
0
6
CONTINUOUS
10
-0.084793
20
0.061488
30
0.0
11
-0.081121
21
0.059665
31
0.0
0
LINE
8
0
6
CONTINUOUS
10
-0.076597
20
0.059021
30
0.0
11
-0.080207
21
0.060813
31
0.0
0
LINE
8
0
6
CONTINUOUS
10
-0.081121
20
0.059665
30
0.0
11
-0.077639
21
0.057936
31
0.0
0
LINE
8
0
6
CONTINUOUS
10
-0.073582
20
0.057524
30
0.0
11
-0.076597
21
0.059021
31
0.0
0
LINE
8
0
6
CONTINUOUS
10
-0.077639
20
0.057936
30
0.0
11
-0.074381
21
0.056318
31
0.0
0
LINE
8
0
6
CONTINUOUS
10
-0.070108
20
0.055799
30
0.0
11
-0.070680
21
0.056083
31
0.0
0
LINE
8
0
6
CONTINUOUS
10
-0.074381
20
0.056318
30
0.0
11
-0.071380
21
0.054828
31
0.0
0
LINE
8
0
6
CONTINUOUS
10
-0.067299
20
0.054404
30
0.0
11
-0.070108
21
0.055799
31
0.0
0
LINE
8
0
6
CONTINUOUS
10
-0.071380
20
0.054828
30
0.0
11
-0.068670
21
0.053482
31
0.0
0
LINE
8
0
6
CONTINUOUS
10
-0.064827
20
0.053176
30
0.0
11
-0.067299
21
0.054404
31
0.0
0
LINE
8
0
6
CONTINUOUS
10
-0.068670
20
0.053482
30
0.0
11
-0.066284
21
0.052297
31
0.0
0
LINE
8
0
6
CONTINUOUS
10
-0.063506
20
0.052520
30
0.0
11
-0.064827
21
0.053176
31
0.0
0
LINE
8
0
6
CONTINUOUS
10
-0.066284
20
0.052297
30
0.0
11
-0.064257
21
0.051291
31
0.0
0
LINE
8
0
6
CONTINUOUS
10
-0.064257
20
0.051291
30
0.0
11
-0.062622
21
0.050478
31
0.0
0
LINE
8
0
6
CONTINUOUS
10
-0.062622
20
0.050478
30
0.0
11
-0.061412
21
0.049878
31
0.0
0
LINE
8
0
6
CONTINUOUS
10
-0.061412
20
0.049878
30
0.0
11
-0.060661
21
0.049505
31
0.0
0
LINE
8
0
6
CONTINUOUS
10
-0.060404
20
0.049377
30
0.0
11
-0.059335
21
0.049870
31
0.0
0
LINE
8
0
6
CONTINUOUS
10
-0.060661
20
0.049505
30
0.0
11
-0.060404
21
0.049377
31
0.0
0
LINE
8
0
6
CONTINUOUS
10
-0.081096
20
0.063782
30
0.0
11
-0.079639
21
0.063073
31
0.0
0
LINE
8
0
6
CONTINUOUS
10
-0.057698
20
0.048550
30
0.0
11
-0.056241
21
0.047842
31
0.0
0
LINE
8
0
6
CONTINUOUS
10
-0.078230
20
0.057716
30
0.0
11
-0.077729
21
0.057472
31
0.0
0
LINE
8
0
6
CONTINUOUS
10
-0.077729
20
0.057472
30
0.0
11
-0.076272
21
0.056764
31
0.0
0
LINE
8
0
6
CONTINUOUS
10
-0.075317
20
0.056299
30
0.0
11
-0.075127
21
0.056688
31
0.0
0
LINE
8
0
6
CONTINUOUS
10
-0.076272
20
0.056764
30
0.0
11
-0.075317
21
0.056299
31
0.0
0
LINE
8
0
6
CONTINUOUS
10
-0.067063
20
0.052110
30
0.0
11
-0.066562
21
0.051866
31
0.0
0
LINE
8
0
6
CONTINUOUS
10
-0.082964
20
0.062130
30
0.0
11
-0.082322
21
0.063449
31
0.0
0
LINE
8
0
6
CONTINUOUS
10
-0.083465
20
0.062374
30
0.0
11
-0.082964
21
0.062130
31
0.0
0
LINE
8
0
6
CONTINUOUS
10
-0.083465
20
0.062374
30
0.0
11
-0.082703
21
0.063942
31
0.0
0
LINE
8
0
6
CONTINUOUS
10
-0.084922
20
0.063083
30
0.0
11
-0.083465
21
0.062374
31
0.0
0
LINE
8
0
6
CONTINUOUS
10
-0.089382
20
0.063281
30
0.0
11
-0.087926
21
0.062572
31
0.0
0
LINE
8
0
6
CONTINUOUS
10
-0.116470
20
0.078460
30
0.0
11
-0.115856
21
0.079720
31
0.0
0
LINE
8
0
6
CONTINUOUS
10
-0.117718
20
0.079068
30
0.0
11
-0.116470
21
0.078460
31
0.0
0
LINE
8
0
6
CONTINUOUS
10
-0.103202
20
0.068951
30
0.0
11
-0.101775
21
0.068257
31
0.0
0
LINE
8
0
6
CONTINUOUS
10
-0.093732
20
0.064117
30
0.0
11
-0.093064
21
0.063792
31
0.0
0
LINE
8
0
6
CONTINUOUS
10
-0.093120
20
0.065374
30
0.0
11
-0.093732
21
0.064117
31
0.0
0
LINE
8
0
6
CONTINUOUS
10
-0.095638
20
0.070747
30
0.0
11
-0.094683
21
0.070282
31
0.0
0
LINE
8
0
6
CONTINUOUS
10
-0.095008
20
0.072041
30
0.0
11
-0.095638
21
0.070747
31
0.0
0
LINE
8
0
6
CONTINUOUS
10
-0.125481
20
0.085136
30
0.0
11
-0.124094
21
0.084460
31
0.0
0
LINE
8
0
6
CONTINUOUS
10
-0.125481
20
0.085136
30
0.0
11
-0.124799
21
0.086538
31
0.0
0
LINE
8
0
6
CONTINUOUS
10
-0.126620
20
0.085690
30
0.0
11
-0.125481
21
0.085136
31
0.0
0
LINE
8
0
6
CONTINUOUS
10
-0.125818
20
0.087340
30
0.0
11
-0.126620
21
0.085690
31
0.0
0
LINE
8
0
6
CONTINUOUS
10
-0.117097
20
0.080915
30
0.0
11
-0.116521
21
0.082098
31
0.0
0
LINE
8
0
6
CONTINUOUS
10
-0.118150
20
0.081427
30
0.0
11
-0.117097
21
0.080915
31
0.0
0
LINE
8
0
6
CONTINUOUS
10
-0.127726
20
0.086185
30
0.0
11
-0.126314
21
0.085498
31
0.0
0
LINE
8
0
6
CONTINUOUS
10
-0.114551
20
0.075752
30
0.0
11
-0.114302
21
0.075631
31
0.0
0
LINE
8
0
6
CONTINUOUS
10
-0.049765
20
0.045935
30
0.0
11
-0.048309
21
0.045226
31
0.0
0
LINE
8
0
6
CONTINUOUS
10
-0.049765
20
0.045935
30
0.0
11
-0.049426
21
0.046633
31
0.0
0
LINE
8
0
6
CONTINUOUS
10
-0.050267
20
0.046179
30
0.0
11
-0.049765
21
0.045935
31
0.0
0
LINE
8
0
6
CONTINUOUS
10
-0.049953
20
0.046824
30
0.0
11
-0.050267
21
0.046179
31
0.0
0
LINE
8
0
6
CONTINUOUS
10
-0.081031
20
0.056839
30
0.0
11
-0.080076
21
0.056374
31
0.0
0
LINE
8
0
6
CONTINUOUS
10
-0.107086
20
0.070807
30
0.0
11
-0.105774
21
0.070168
31
0.0
0
LINE
8
0
6
CONTINUOUS
10
-0.101270
20
0.068407
30
0.0
11
-0.101033
21
0.066802
31
0.0
0
LINE
8
0
6
CONTINUOUS
10
-0.101033
20
0.066802
30
0.0
11
-0.100931
21
0.066753
31
0.0
0
LINE
8
0
6
CONTINUOUS
10
-0.100931
20
0.066753
30
0.0
11
-0.100634
21
0.066611
31
0.0
0
LINE
8
0
6
CONTINUOUS
10
-0.100634
20
0.066611
30
0.0
11
-0.100155
21
0.066381
31
0.0
0
LINE
8
0
6
CONTINUOUS
10
-0.099631
20
0.067621
30
0.0
11
-0.100327
21
0.067954
31
0.0
0
LINE
8
0
6
CONTINUOUS
10
-0.100155
20
0.066381
30
0.0
11
-0.099508
21
0.066070
31
0.0
0
LINE
8
0
6
CONTINUOUS
10
-0.098770
20
0.067207
30
0.0
11
-0.099631
21
0.067621
31
0.0
0
LINE
8
0
6
CONTINUOUS
10
-0.099508
20
0.066070
30
0.0
11
-0.098705
21
0.065685
31
0.0
0
LINE
8
0
6
CONTINUOUS
10
-0.097756
20
0.066721
30
0.0
11
-0.098770
21
0.067207
31
0.0
0
LINE
8
0
6
CONTINUOUS
10
-0.098705
20
0.065685
30
0.0
11
-0.097761
21
0.065232
31
0.0
0
LINE
8
0
6
CONTINUOUS
10
-0.096604
20
0.066168
30
0.0
11
-0.097756
21
0.066721
31
0.0
0
LINE
8
0
6
CONTINUOUS
10
-0.097761
20
0.065232
30
0.0
11
-0.096688
21
0.064718
31
0.0
0
LINE
8
0
6
CONTINUOUS
10
-0.095328
20
0.065556
30
0.0
11
-0.096604
21
0.066168
31
0.0
0
LINE
8
0
6
CONTINUOUS
10
-0.096688
20
0.064718
30
0.0
11
-0.095500
21
0.064148
31
0.0
0
LINE
8
0
6
CONTINUOUS
10
-0.093942
20
0.064892
30
0.0
11
-0.095328
21
0.065556
31
0.0
0
LINE
8
0
6
CONTINUOUS
10
-0.095500
20
0.064148
30
0.0
11
-0.094210
21
0.063529
31
0.0
0
LINE
8
0
6
CONTINUOUS
10
-0.094210
20
0.063529
30
0.0
11
-0.092832
21
0.062868
31
0.0
0
LINE
8
0
6
CONTINUOUS
10
-0.092832
20
0.062868
30
0.0
11
-0.091379
21
0.062170
31
0.0
0
LINE
8
0
6
CONTINUOUS
10
-0.089274
20
0.062652
30
0.0
11
-0.090901
21
0.063432
31
0.0
0
LINE
8
0
6
CONTINUOUS
10
-0.091379
20
0.062170
30
0.0
11
-0.089863
21
0.061444
31
0.0
0
LINE
8
0
6
CONTINUOUS
10
-0.087647
20
0.061872
30
0.0
11
-0.089274
21
0.062652
31
0.0
0
LINE
8
0
6
CONTINUOUS
10
-0.089863
20
0.061444
30
0.0
11
-0.088348
21
0.060717
31
0.0
0
LINE
8
0
6
CONTINUOUS
10
-0.086086
20
0.061123
30
0.0
11
-0.087647
21
0.061872
31
0.0
0
LINE
8
0
6
CONTINUOUS
10
-0.088348
20
0.060717
30
0.0
11
-0.086895
21
0.060019
31
0.0
0
LINE
8
0
6
CONTINUOUS
10
-0.084606
20
0.060412
30
0.0
11
-0.086086
21
0.061123
31
0.0
0
LINE
8
0
6
CONTINUOUS
10
-0.086895
20
0.060019
30
0.0
11
-0.085516
21
0.059358
31
0.0
0
LINE
8
0
6
CONTINUOUS
10
-0.083220
20
0.059748
30
0.0
11
-0.084606
21
0.060412
31
0.0
0
LINE
8
0
6
CONTINUOUS
10
-0.085516
20
0.059358
30
0.0
11
-0.084227
21
0.058739
31
0.0
0
LINE
8
0
6
CONTINUOUS
10
-0.081944
20
0.059136
30
0.0
11
-0.083220
21
0.059748
31
0.0
0
LINE
8
0
6
CONTINUOUS
10
-0.084227
20
0.058739
30
0.0
11
-0.083039
21
0.058169
31
0.0
0
LINE
8
0
6
CONTINUOUS
10
-0.083039
20
0.058169
30
0.0
11
-0.081966
21
0.057655
31
0.0
0
LINE
8
0
6
CONTINUOUS
10
-0.081966
20
0.057655
30
0.0
11
-0.081022
21
0.057202
31
0.0
0
LINE
8
0
6
CONTINUOUS
10
-0.081022
20
0.057202
30
0.0
11
-0.080219
21
0.056817
31
0.0
0
LINE
8
0
6
CONTINUOUS
10
-0.080219
20
0.056817
30
0.0
11
-0.079572
21
0.056506
31
0.0
0
LINE
8
0
6
CONTINUOUS
10
-0.079572
20
0.056506
30
0.0
11
-0.079093
21
0.056277
31
0.0
0
LINE
8
0
6
CONTINUOUS
10
-0.079093
20
0.056277
30
0.0
11
-0.078796
21
0.056134
31
0.0
0
LINE
8
0
6
CONTINUOUS
10
-0.078694
20
0.056085
30
0.0
11
-0.077533
21
0.056751
31
0.0
0
LINE
8
0
6
CONTINUOUS
10
-0.078796
20
0.056134
30
0.0
11
-0.078694
21
0.056085
31
0.0
0
LINE
8
0
6
CONTINUOUS
10
-0.099074
20
0.070092
30
0.0
11
-0.099742
21
0.070416
31
0.0
0
LINE
8
0
6
CONTINUOUS
10
-0.097597
20
0.069373
30
0.0
11
-0.099074
21
0.070092
31
0.0
0
LINE
8
0
6
CONTINUOUS
10
-0.096786
20
0.068978
30
0.0
11
-0.097597
21
0.069373
31
0.0
0
LINE
8
0
6
CONTINUOUS
10
-0.081597
20
0.064026
30
0.0
11
-0.081096
21
0.063782
31
0.0
0
LINE
8
0
6
CONTINUOUS
10
-0.081126
20
0.064995
30
0.0
11
-0.081597
21
0.064026
31
0.0
0
LINE
8
0
6
CONTINUOUS
10
-0.079639
20
0.063073
30
0.0
11
-0.078684
21
0.062608
31
0.0
0
LINE
8
0
6
CONTINUOUS
10
-0.078937
20
0.064516
30
0.0
11
-0.079639
21
0.063073
31
0.0
0
LINE
8
0
6
CONTINUOUS
10
-0.072903
20
0.053836
30
0.0
11
-0.072327
21
0.055022
31
0.0
0
LINE
8
0
6
CONTINUOUS
10
-0.073405
20
0.054080
30
0.0
11
-0.072903
21
0.053836
31
0.0
0
LINE
8
0
6
CONTINUOUS
10
-0.073405
20
0.054080
30
0.0
11
-0.072818
21
0.055286
31
0.0
0
LINE
8
0
6
CONTINUOUS
10
-0.074862
20
0.054789
30
0.0
11
-0.073405
21
0.054080
31
0.0
0
LINE
8
0
6
CONTINUOUS
10
-0.074862
20
0.054789
30
0.0
11
-0.074328
21
0.055885
31
0.0
0
LINE
8
0
6
CONTINUOUS
10
-0.075817
20
0.055254
30
0.0
11
-0.074862
21
0.054789
31
0.0
0
LINE
8
0
6
CONTINUOUS
10
-0.075347
20
0.056219
30
0.0
11
-0.075817
21
0.055254
31
0.0
0
LINE
8
0
6
CONTINUOUS
10
-0.055740
20
0.047597
30
0.0
11
-0.055186
21
0.048736
31
0.0
0
LINE
8
0
6
CONTINUOUS
10
-0.056241
20
0.047842
30
0.0
11
-0.055740
21
0.047597
31
0.0
0
LINE
8
0
6
CONTINUOUS
10
-0.055702
20
0.048949
30
0.0
11
-0.056241
21
0.047842
31
0.0
0
LINE
8
0
6
CONTINUOUS
10
-0.057698
20
0.048550
30
0.0
11
-0.057235
21
0.049501
31
0.0
0
LINE
8
0
6
CONTINUOUS
10
-0.058653
20
0.049015
30
0.0
11
-0.057698
21
0.048550
31
0.0
0
LINE
8
0
6
CONTINUOUS
10
-0.058257
20
0.049828
30
0.0
11
-0.058653
21
0.049015
31
0.0
0
LINE
8
0
6
CONTINUOUS
10
-0.068241
20
0.057488
30
0.0
11
-0.067739
21
0.057244
31
0.0
0
LINE
8
0
6
CONTINUOUS
10
-0.067964
20
0.058057
30
0.0
11
-0.068241
21
0.057488
31
0.0
0
LINE
8
0
6
CONTINUOUS
10
-0.067739
20
0.057244
30
0.0
11
-0.066282
21
0.056535
31
0.0
0
LINE
8
0
6
CONTINUOUS
10
-0.067308
20
0.058130
30
0.0
11
-0.067739
21
0.057244
31
0.0
0
LINE
8
0
6
CONTINUOUS
10
-0.066282
20
0.056535
30
0.0
11
-0.065327
21
0.056071
31
0.0
0
LINE
8
0
6
CONTINUOUS
10
-0.065764
20
0.057600
30
0.0
11
-0.066282
21
0.056535
31
0.0
0
LINE
8
0
6
CONTINUOUS
10
-0.057840
20
0.051551
30
0.0
11
-0.057338
21
0.051307
31
0.0
0
LINE
8
0
6
CONTINUOUS
10
-0.057434
20
0.052384
30
0.0
11
-0.057840
21
0.051551
31
0.0
0
LINE
8
0
6
CONTINUOUS
10
-0.057338
20
0.051307
30
0.0
11
-0.055881
21
0.050598
31
0.0
0
LINE
8
0
6
CONTINUOUS
10
-0.056790
20
0.052433
30
0.0
11
-0.057338
21
0.051307
31
0.0
0
LINE
8
0
6
CONTINUOUS
10
-0.055881
20
0.050598
30
0.0
11
-0.054926
21
0.050134
31
0.0
0
LINE
8
0
6
CONTINUOUS
10
-0.055225
20
0.051947
30
0.0
11
-0.055881
21
0.050598
31
0.0
0
LINE
8
0
6
CONTINUOUS
10
-0.063674
20
0.052175
30
0.0
11
-0.063172
21
0.051931
31
0.0
0
LINE
8
0
6
CONTINUOUS
10
-0.063252
20
0.053043
30
0.0
11
-0.063674
21
0.052175
31
0.0
0
LINE
8
0
6
CONTINUOUS
10
-0.063172
20
0.051931
30
0.0
11
-0.061716
21
0.051222
31
0.0
0
LINE
8
0
6
CONTINUOUS
10
-0.062639
20
0.053027
30
0.0
11
-0.063172
21
0.051931
31
0.0
0
LINE
8
0
6
CONTINUOUS
10
-0.061716
20
0.051222
30
0.0
11
-0.060760
21
0.050758
31
0.0
0
LINE
8
0
6
CONTINUOUS
10
-0.061077
20
0.052536
30
0.0
11
-0.061716
21
0.051222
31
0.0
0
LINE
8
0
6
CONTINUOUS
10
-0.073634
20
0.057417
30
0.0
11
-0.073132
21
0.057173
31
0.0
0
LINE
8
0
6
CONTINUOUS
10
-0.073137
20
0.058437
30
0.0
11
-0.073634
21
0.057417
31
0.0
0
LINE
8
0
6
CONTINUOUS
10
-0.073132
20
0.057173
30
0.0
11
-0.071676
21
0.056464
31
0.0
0
LINE
8
0
6
CONTINUOUS
10
-0.072488
20
0.058498
30
0.0
11
-0.073132
21
0.057173
31
0.0
0
LINE
8
0
6
CONTINUOUS
10
-0.070721
20
0.055999
30
0.0
11
-0.070680
21
0.056083
31
0.0
0
LINE
8
0
6
CONTINUOUS
10
-0.071676
20
0.056464
30
0.0
11
-0.070721
21
0.055999
31
0.0
0
LINE
8
0
6
CONTINUOUS
10
-0.070947
20
0.057963
30
0.0
11
-0.071676
21
0.056464
31
0.0
0
LINE
8
0
6
CONTINUOUS
10
-0.068520
20
0.052819
30
0.0
11
-0.067063
21
0.052110
31
0.0
0
LINE
8
0
6
CONTINUOUS
10
-0.069475
20
0.053284
30
0.0
11
-0.068520
21
0.052819
31
0.0
0
LINE
8
0
6
CONTINUOUS
10
-0.069335
20
0.053572
30
0.0
11
-0.069475
21
0.053284
31
0.0
0
LINE
8
0
6
CONTINUOUS
10
-0.048547
20
0.045798
30
0.0
11
-0.047968
21
0.046987
31
0.0
0
LINE
8
0
6
CONTINUOUS
10
-0.049048
20
0.046042
30
0.0
11
-0.048547
21
0.045798
31
0.0
0
LINE
8
0
6
CONTINUOUS
10
-0.049048
20
0.046042
30
0.0
11
-0.048420
21
0.047332
31
0.0
0
LINE
8
0
6
CONTINUOUS
10
-0.050505
20
0.046750
30
0.0
11
-0.049048
21
0.046042
31
0.0
0
LINE
8
0
6
CONTINUOUS
10
-0.050505
20
0.046750
30
0.0
11
-0.049941
21
0.047909
31
0.0
0
LINE
8
0
6
CONTINUOUS
10
-0.051460
20
0.047215
30
0.0
11
-0.050505
21
0.046750
31
0.0
0
LINE
8
0
6
CONTINUOUS
10
-0.051038
20
0.048082
30
0.0
11
-0.051460
21
0.047215
31
0.0
0
LINE
8
0
6
CONTINUOUS
10
-0.084922
20
0.063083
30
0.0
11
-0.084159
21
0.064651
31
0.0
0
LINE
8
0
6
CONTINUOUS
10
-0.085877
20
0.063547
30
0.0
11
-0.084922
21
0.063083
31
0.0
0
LINE
8
0
6
CONTINUOUS
10
-0.085231
20
0.064874
30
0.0
11
-0.085877
21
0.063547
31
0.0
0
LINE
8
0
6
CONTINUOUS
10
-0.087926
20
0.062572
30
0.0
11
-0.087424
21
0.062328
31
0.0
0
LINE
8
0
6
CONTINUOUS
10
-0.090337
20
0.063745
30
0.0
11
-0.089382
21
0.063281
31
0.0
0
LINE
8
0
6
CONTINUOUS
10
-0.079962
20
0.057219
30
0.0
11
-0.079391
21
0.058392
31
0.0
0
LINE
8
0
6
CONTINUOUS
10
-0.080464
20
0.057463
30
0.0
11
-0.079962
21
0.057219
31
0.0
0
LINE
8
0
6
CONTINUOUS
10
-0.080464
20
0.057463
30
0.0
11
-0.079797
21
0.058833
31
0.0
0
LINE
8
0
6
CONTINUOUS
10
-0.081921
20
0.058171
30
0.0
11
-0.080464
21
0.057463
31
0.0
0
LINE
8
0
6
CONTINUOUS
10
-0.081921
20
0.058171
30
0.0
11
-0.081237
21
0.059577
31
0.0
0
LINE
8
0
6
CONTINUOUS
10
-0.082876
20
0.058636
30
0.0
11
-0.081921
21
0.058171
31
0.0
0
LINE
8
0
6
CONTINUOUS
10
-0.082270
20
0.059880
30
0.0
11
-0.082876
21
0.058636
31
0.0
0
LINE
8
0
6
CONTINUOUS
10
-0.117718
20
0.079068
30
0.0
11
-0.116946
21
0.080654
31
0.0
0
LINE
8
0
6
CONTINUOUS
10
-0.119030
20
0.079706
30
0.0
11
-0.117718
21
0.079068
31
0.0
0
LINE
8
0
6
CONTINUOUS
10
-0.119030
20
0.079706
30
0.0
11
-0.118182
21
0.081450
31
0.0
0
LINE
8
0
6
CONTINUOUS
10
-0.119094
20
0.079737
30
0.0
11
-0.119030
21
0.079706
31
0.0
0
LINE
8
0
6
CONTINUOUS
10
-0.118328
20
0.081313
30
0.0
11
-0.119094
21
0.079737
31
0.0
0
LINE
8
0
6
CONTINUOUS
10
-0.108799
20
0.072826
30
0.0
11
-0.108487
21
0.073465
31
0.0
0
LINE
8
0
6
CONTINUOUS
10
-0.110047
20
0.073433
30
0.0
11
-0.108799
21
0.072826
31
0.0
0
LINE
8
0
6
CONTINUOUS
10
-0.110047
20
0.073433
30
0.0
11
-0.109671
21
0.074206
31
0.0
0
LINE
8
0
6
CONTINUOUS
10
-0.111359
20
0.074072
30
0.0
11
-0.110047
21
0.073433
31
0.0
0
LINE
8
0
6
CONTINUOUS
10
-0.111423
20
0.074103
30
0.0
11
-0.111359
21
0.074072
31
0.0
0
LINE
8
0
6
CONTINUOUS
10
-0.108593
20
0.074564
30
0.0
11
-0.107927
21
0.075934
31
0.0
0
LINE
8
0
6
CONTINUOUS
10
-0.109647
20
0.075076
30
0.0
11
-0.108593
21
0.074564
31
0.0
0
LINE
8
0
6
CONTINUOUS
10
-0.109647
20
0.075076
30
0.0
11
-0.108792
21
0.076834
31
0.0
0
LINE
8
0
6
CONTINUOUS
10
-0.111074
20
0.075771
30
0.0
11
-0.109647
21
0.075076
31
0.0
0
LINE
8
0
6
CONTINUOUS
10
-0.111074
20
0.075771
30
0.0
11
-0.110170
21
0.077628
31
0.0
0
LINE
8
0
6
CONTINUOUS
10
-0.111448
20
0.075953
30
0.0
11
-0.111074
21
0.075771
31
0.0
0
LINE
8
0
6
CONTINUOUS
10
-0.110652
20
0.077587
30
0.0
11
-0.111448
21
0.075953
31
0.0
0
LINE
8
0
6
CONTINUOUS
10
-0.100722
20
0.067745
30
0.0
11
-0.100180
21
0.068858
31
0.0
0
LINE
8
0
6
CONTINUOUS
10
-0.101775
20
0.068257
30
0.0
11
-0.100722
21
0.067745
31
0.0
0
LINE
8
0
6
CONTINUOUS
10
-0.101161
20
0.069520
30
0.0
11
-0.101775
21
0.068257
31
0.0
0
LINE
8
0
6
CONTINUOUS
10
-0.103202
20
0.068951
30
0.0
11
-0.102753
21
0.069875
31
0.0
0
LINE
8
0
6
CONTINUOUS
10
-0.103576
20
0.069133
30
0.0
11
-0.103202
21
0.068951
31
0.0
0
LINE
8
0
6
CONTINUOUS
10
-0.102906
20
0.070511
30
0.0
11
-0.103576
21
0.069133
31
0.0
0
LINE
8
0
6
CONTINUOUS
10
-0.096786
20
0.068978
30
0.0
11
-0.096113
21
0.070362
31
0.0
0
LINE
8
0
6
CONTINUOUS
10
-0.097597
20
0.069373
30
0.0
11
-0.096786
21
0.068978
31
0.0
0
LINE
8
0
6
CONTINUOUS
10
-0.097597
20
0.069373
30
0.0
11
-0.096788
21
0.071036
31
0.0
0
LINE
8
0
6
CONTINUOUS
10
-0.099074
20
0.070092
30
0.0
11
-0.097597
21
0.069373
31
0.0
0
LINE
8
0
6
CONTINUOUS
10
-0.099074
20
0.070092
30
0.0
11
-0.098243
21
0.071801
31
0.0
0
LINE
8
0
6
CONTINUOUS
10
-0.099742
20
0.070416
30
0.0
11
-0.099074
21
0.070092
31
0.0
0
LINE
8
0
6
CONTINUOUS
10
-0.099005
20
0.071931
30
0.0
11
-0.099742
21
0.070416
31
0.0
0
LINE
8
0
6
CONTINUOUS
10
-0.100577
20
0.069007
30
0.0
11
-0.099767
21
0.068612
31
0.0
0
LINE
8
0
6
CONTINUOUS
10
-0.102055
20
0.069725
30
0.0
11
-0.100577
21
0.069007
31
0.0
0
LINE
8
0
6
CONTINUOUS
10
-0.102722
20
0.070050
30
0.0
11
-0.102055
21
0.069725
31
0.0
0
LINE
8
0
6
CONTINUOUS
10
-0.090776
20
0.062679
30
0.0
11
-0.090141
21
0.063985
31
0.0
0
LINE
8
0
6
CONTINUOUS
10
-0.091587
20
0.063073
30
0.0
11
-0.090776
21
0.062679
31
0.0
0
LINE
8
0
6
CONTINUOUS
10
-0.091587
20
0.063073
30
0.0
11
-0.090877
21
0.064532
31
0.0
0
LINE
8
0
6
CONTINUOUS
10
-0.093064
20
0.063792
30
0.0
11
-0.091587
21
0.063073
31
0.0
0
LINE
8
0
6
CONTINUOUS
10
-0.092371
20
0.065218
30
0.0
11
-0.093064
21
0.063792
31
0.0
0
LINE
8
0
6
CONTINUOUS
10
-0.092725
20
0.069329
30
0.0
11
-0.092191
21
0.070426
31
0.0
0
LINE
8
0
6
CONTINUOUS
10
-0.093226
20
0.069573
30
0.0
11
-0.092725
21
0.069329
31
0.0
0
LINE
8
0
6
CONTINUOUS
10
-0.093226
20
0.069573
30
0.0
11
-0.092524
21
0.071016
31
0.0
0
LINE
8
0
6
CONTINUOUS
10
-0.094683
20
0.070282
30
0.0
11
-0.093226
21
0.069573
31
0.0
0
LINE
8
0
6
CONTINUOUS
10
-0.093938
20
0.071813
30
0.0
11
-0.094683
21
0.070282
31
0.0
0
LINE
8
0
6
CONTINUOUS
10
-0.123845
20
0.084339
30
0.0
11
-0.123420
21
0.085211
31
0.0
0
LINE
8
0
6
CONTINUOUS
10
-0.124094
20
0.084460
30
0.0
11
-0.123845
21
0.084339
31
0.0
0
LINE
8
0
6
CONTINUOUS
10
-0.123582
20
0.085512
30
0.0
11
-0.124094
21
0.084460
31
0.0
0
LINE
8
0
6
CONTINUOUS
10
-0.118150
20
0.081427
30
0.0
11
-0.117435
21
0.082896
31
0.0
0
LINE
8
0
6
CONTINUOUS
10
-0.119577
20
0.082121
30
0.0
11
-0.118150
21
0.081427
31
0.0
0
LINE
8
0
6
CONTINUOUS
10
-0.119577
20
0.082121
30
0.0
11
-0.118799
21
0.083721
31
0.0
0
LINE
8
0
6
CONTINUOUS
10
-0.119951
20
0.082303
30
0.0
11
-0.119577
21
0.082121
31
0.0
0
LINE
8
0
6
CONTINUOUS
10
-0.119248
20
0.083748
30
0.0
11
-0.119951
21
0.082303
31
0.0
0
LINE
8
0
6
CONTINUOUS
10
-0.106263
20
0.075732
30
0.0
11
-0.105694
21
0.076900
31
0.0
0
LINE
8
0
6
CONTINUOUS
10
-0.107073
20
0.076126
30
0.0
11
-0.106263
21
0.075732
31
0.0
0
LINE
8
0
6
CONTINUOUS
10
-0.107073
20
0.076126
30
0.0
11
-0.106371
21
0.077570
31
0.0
0
LINE
8
0
6
CONTINUOUS
10
-0.108551
20
0.076845
30
0.0
11
-0.107073
21
0.076126
31
0.0
0
LINE
8
0
6
CONTINUOUS
10
-0.108551
20
0.076845
30
0.0
11
-0.107786
21
0.078417
31
0.0
0
LINE
8
0
6
CONTINUOUS
10
-0.109218
20
0.077170
30
0.0
11
-0.108551
21
0.076845
31
0.0
0
LINE
8
0
6
CONTINUOUS
10
-0.108525
20
0.078594
30
0.0
11
-0.109218
21
0.077170
31
0.0
0
LINE
8
0
6
CONTINUOUS
10
-0.126314
20
0.085498
30
0.0
11
-0.125991
21
0.085341
31
0.0
0
LINE
8
0
6
CONTINUOUS
10
-0.127726
20
0.086185
30
0.0
11
-0.127017
21
0.087643
31
0.0
0
LINE
8
0
6
CONTINUOUS
10
-0.128816
20
0.086715
30
0.0
11
-0.127726
21
0.086185
31
0.0
0
LINE
8
0
6
CONTINUOUS
10
-0.127951
20
0.088493
30
0.0
11
-0.128816
21
0.086715
31
0.0
0
LINE
8
0
6
CONTINUOUS
10
-0.097917
20
0.066932
30
0.0
11
-0.097949
21
0.066867
31
0.0
0
LINE
8
0
6
CONTINUOUS
10
-0.111775
20
0.074402
30
0.0
11
-0.111585
21
0.074792
31
0.0
0
LINE
8
0
6
CONTINUOUS
10
-0.112914
20
0.074956
30
0.0
11
-0.111775
21
0.074402
31
0.0
0
LINE
8
0
6
CONTINUOUS
10
-0.112914
20
0.074956
30
0.0
11
-0.112720
21
0.075356
31
0.0
0
LINE
8
0
6
CONTINUOUS
10
-0.114302
20
0.075631
30
0.0
11
-0.112914
21
0.074956
31
0.0
0
LINE
8
0
6
CONTINUOUS
10
-0.119333
20
0.079911
30
0.0
11
-0.118803
21
0.080999
31
0.0
0
LINE
8
0
6
CONTINUOUS
10
-0.120472
20
0.080465
30
0.0
11
-0.119333
21
0.079911
31
0.0
0
LINE
8
0
6
CONTINUOUS
10
-0.120472
20
0.080465
30
0.0
11
-0.119836
21
0.081772
31
0.0
0
LINE
8
0
6
CONTINUOUS
10
-0.121860
20
0.081141
30
0.0
11
-0.120472
21
0.080465
31
0.0
0
LINE
8
0
6
CONTINUOUS
10
-0.121860
20
0.081141
30
0.0
11
-0.121094
21
0.082714
31
0.0
0
LINE
8
0
6
CONTINUOUS
10
-0.122108
20
0.081262
30
0.0
11
-0.121860
21
0.081141
31
0.0
0
LINE
8
0
6
CONTINUOUS
10
-0.121320
20
0.082882
30
0.0
11
-0.122108
21
0.081262
31
0.0
0
LINE
8
0
6
CONTINUOUS
10
-0.047354
20
0.044761
30
0.0
11
-0.046941
21
0.045608
31
0.0
0
LINE
8
0
6
CONTINUOUS
10
-0.048309
20
0.045226
30
0.0
11
-0.047354
21
0.044761
31
0.0
0
LINE
8
0
6
CONTINUOUS
10
-0.047904
20
0.046057
30
0.0
11
-0.048309
21
0.045226
31
0.0
0
LINE
8
0
6
CONTINUOUS
10
-0.065755
20
0.051119
30
0.0
11
-0.064298
21
0.050410
31
0.0
0
LINE
8
0
6
CONTINUOUS
10
-0.063343
20
0.049945
30
0.0
11
-0.062789
21
0.051084
31
0.0
0
LINE
8
0
6
CONTINUOUS
10
-0.064298
20
0.050410
30
0.0
11
-0.063343
21
0.049945
31
0.0
0
LINE
8
0
6
CONTINUOUS
10
-0.063760
20
0.051517
30
0.0
11
-0.064298
21
0.050410
31
0.0
0
LINE
8
0
6
CONTINUOUS
10
-0.065755
20
0.051119
30
0.0
11
-0.065396
21
0.051856
31
0.0
0
LINE
8
0
6
CONTINUOUS
10
-0.066257
20
0.051363
30
0.0
11
-0.065755
21
0.051119
31
0.0
0
LINE
8
0
6
CONTINUOUS
10
-0.065896
20
0.052104
30
0.0
11
-0.066257
21
0.051363
31
0.0
0
LINE
8
0
6
CONTINUOUS
10
-0.082488
20
0.057547
30
0.0
11
-0.081031
21
0.056839
31
0.0
0
LINE
8
0
6
CONTINUOUS
10
-0.082990
20
0.057792
30
0.0
11
-0.082488
21
0.057547
31
0.0
0
LINE
8
0
6
CONTINUOUS
10
-0.104525
20
0.069560
30
0.0
11
-0.103994
21
0.070652
31
0.0
0
LINE
8
0
6
CONTINUOUS
10
-0.105774
20
0.070168
30
0.0
11
-0.104525
21
0.069560
31
0.0
0
LINE
8
0
6
CONTINUOUS
10
-0.105150
20
0.071450
30
0.0
11
-0.105774
21
0.070168
31
0.0
0
LINE
8
0
6
CONTINUOUS
10
-0.107086
20
0.070807
30
0.0
11
-0.106422
21
0.072172
31
0.0
0
LINE
8
0
6
CONTINUOUS
10
-0.107150
20
0.070838
30
0.0
11
-0.107086
21
0.070807
31
0.0
0
LINE
8
0
6
CONTINUOUS
10
-0.106482
20
0.072210
30
0.0
11
-0.107150
21
0.070838
31
0.0
0
LINE
8
0
6
CONTINUOUS
10
-0.081096
20
0.063782
30
0.0
11
-0.081597
21
0.064026
31
0.0
0
LINE
8
0
6
CONTINUOUS
10
-0.079639
20
0.063073
30
0.0
11
-0.081096
21
0.063782
31
0.0
0
LINE
8
0
6
CONTINUOUS
10
-0.078684
20
0.062608
30
0.0
11
-0.079639
21
0.063073
31
0.0
0
LINE
8
0
6
CONTINUOUS
10
-0.067739
20
0.057244
30
0.0
11
-0.068241
21
0.057488
31
0.0
0
LINE
8
0
6
CONTINUOUS
10
-0.066282
20
0.056535
30
0.0
11
-0.067739
21
0.057244
31
0.0
0
LINE
8
0
6
CONTINUOUS
10
-0.065327
20
0.056071
30
0.0
11
-0.066282
21
0.056535
31
0.0
0
LINE
8
0
6
CONTINUOUS
10
-0.063172
20
0.051931
30
0.0
11
-0.063674
21
0.052175
31
0.0
0
LINE
8
0
6
CONTINUOUS
10
-0.061716
20
0.051222
30
0.0
11
-0.063172
21
0.051931
31
0.0
0
LINE
8
0
6
CONTINUOUS
10
-0.060760
20
0.050758
30
0.0
11
-0.061716
21
0.051222
31
0.0
0
LINE
8
0
6
CONTINUOUS
10
-0.068520
20
0.052819
30
0.0
11
-0.069475
21
0.053284
31
0.0
0
LINE
8
0
6
CONTINUOUS
10
-0.067063
20
0.052110
30
0.0
11
-0.068520
21
0.052819
31
0.0
0
LINE
8
0
6
CONTINUOUS
10
-0.066562
20
0.051866
30
0.0
11
-0.067063
21
0.052110
31
0.0
0
LINE
8
0
6
CONTINUOUS
10
-0.119030
20
0.079706
30
0.0
11
-0.119094
21
0.079737
31
0.0
0
LINE
8
0
6
CONTINUOUS
10
-0.117718
20
0.079068
30
0.0
11
-0.119030
21
0.079706
31
0.0
0
LINE
8
0
6
CONTINUOUS
10
-0.116470
20
0.078460
30
0.0
11
-0.117718
21
0.079068
31
0.0
0
LINE
8
0
6
CONTINUOUS
10
-0.111359
20
0.074072
30
0.0
11
-0.111423
21
0.074103
31
0.0
0
LINE
8
0
6
CONTINUOUS
10
-0.110047
20
0.073433
30
0.0
11
-0.111359
21
0.074072
31
0.0
0
LINE
8
0
6
CONTINUOUS
10
-0.108799
20
0.072826
30
0.0
11
-0.110047
21
0.073433
31
0.0
0
LINE
8
0
6
CONTINUOUS
10
-0.111074
20
0.075771
30
0.0
11
-0.111448
21
0.075953
31
0.0
0
LINE
8
0
6
CONTINUOUS
10
-0.109647
20
0.075076
30
0.0
11
-0.111074
21
0.075771
31
0.0
0
LINE
8
0
6
CONTINUOUS
10
-0.108593
20
0.074564
30
0.0
11
-0.109647
21
0.075076
31
0.0
0
LINE
8
0
6
CONTINUOUS
10
-0.102055
20
0.069725
30
0.0
11
-0.102722
21
0.070050
31
0.0
0
LINE
8
0
6
CONTINUOUS
10
-0.100577
20
0.069007
30
0.0
11
-0.102055
21
0.069725
31
0.0
0
LINE
8
0
6
CONTINUOUS
10
-0.099767
20
0.068612
30
0.0
11
-0.100577
21
0.069007
31
0.0
0
LINE
8
0
6
CONTINUOUS
10
-0.094683
20
0.070282
30
0.0
11
-0.095638
21
0.070747
31
0.0
0
LINE
8
0
6
CONTINUOUS
10
-0.093226
20
0.069573
30
0.0
11
-0.094683
21
0.070282
31
0.0
0
LINE
8
0
6
CONTINUOUS
10
-0.092725
20
0.069329
30
0.0
11
-0.093226
21
0.069573
31
0.0
0
LINE
8
0
6
CONTINUOUS
10
-0.127726
20
0.086185
30
0.0
11
-0.128816
21
0.086715
31
0.0
0
LINE
8
0
6
CONTINUOUS
10
-0.126314
20
0.085498
30
0.0
11
-0.127726
21
0.086185
31
0.0
0
LINE
8
0
6
CONTINUOUS
10
-0.125991
20
0.085341
30
0.0
11
-0.126314
21
0.085498
31
0.0
0
LINE
8
0
6
CONTINUOUS
10
-0.114302
20
0.075631
30
0.0
11
-0.114551
21
0.075752
31
0.0
0
LINE
8
0
6
CONTINUOUS
10
-0.112914
20
0.074956
30
0.0
11
-0.114302
21
0.075631
31
0.0
0
LINE
8
0
6
CONTINUOUS
10
-0.111775
20
0.074402
30
0.0
11
-0.112914
21
0.074956
31
0.0
0
LINE
8
0
6
CONTINUOUS
10
-0.121860
20
0.081141
30
0.0
11
-0.122108
21
0.081262
31
0.0
0
LINE
8
0
6
CONTINUOUS
10
-0.120472
20
0.080465
30
0.0
11
-0.121860
21
0.081141
31
0.0
0
LINE
8
0
6
CONTINUOUS
10
-0.119333
20
0.079911
30
0.0
11
-0.120472
21
0.080465
31
0.0
0
LINE
8
0
6
CONTINUOUS
10
-0.047354
20
0.044761
30
0.0
11
-0.048309
21
0.045226
31
0.0
0
LINE
8
0
6
CONTINUOUS
10
-0.049765
20
0.045935
30
0.0
11
-0.050267
21
0.046179
31
0.0
0
LINE
8
0
6
CONTINUOUS
10
-0.048309
20
0.045226
30
0.0
11
-0.049765
21
0.045935
31
0.0
0
LINE
8
0
6
CONTINUOUS
10
-0.080076
20
0.056374
30
0.0
11
-0.081031
21
0.056839
31
0.0
0
LINE
8
0
6
CONTINUOUS
10
-0.082488
20
0.057547
30
0.0
11
-0.082990
21
0.057792
31
0.0
0
LINE
8
0
6
CONTINUOUS
10
-0.081031
20
0.056839
30
0.0
11
-0.082488
21
0.057547
31
0.0
0
LINE
8
0
6
CONTINUOUS
10
-0.107086
20
0.070807
30
0.0
11
-0.107150
21
0.070838
31
0.0
0
LINE
8
0
6
CONTINUOUS
10
-0.105774
20
0.070168
30
0.0
11
-0.107086
21
0.070807
31
0.0
0
LINE
8
0
6
CONTINUOUS
10
-0.104525
20
0.069560
30
0.0
11
-0.105774
21
0.070168
31
0.0
0
LINE
8
0
6
CONTINUOUS
10
0.073785
20
-0.055383
30
0.0
11
0.071805
21
-0.057014
31
0.0
0
LINE
8
0
6
CONTINUOUS
10
0.073442
20
-0.055705
30
0.0
11
0.071581
21
-0.057311
31
0.0
0
LINE
8
0
6
CONTINUOUS
10
0.074121
20
-0.055807
30
0.0
11
0.072141
21
-0.057438
31
0.0
0
LINE
8
0
6
CONTINUOUS
10
0.075278
20
-0.054156
30
0.0
11
0.076207
21
-0.053393
31
0.0
0
LINE
8
0
6
CONTINUOUS
10
0.076544
20
-0.053816
30
0.0
11
0.075614
21
-0.054579
31
0.0
0
LINE
8
0
6
CONTINUOUS
10
0.054204
20
-0.071494
30
0.0
11
0.052691
21
-0.072726
31
0.0
0
LINE
8
0
6
CONTINUOUS
10
0.054884
20
-0.071603
30
0.0
11
0.053019
21
-0.073155
31
0.0
0
LINE
8
0
6
CONTINUOUS
10
0.054533
20
-0.071922
30
0.0
11
0.053019
21
-0.073155
31
0.0
0
LINE
8
0
6
CONTINUOUS
10
0.071805
20
-0.057014
30
0.0
11
0.069437
21
-0.058966
31
0.0
0
LINE
8
0
6
CONTINUOUS
10
0.071581
20
-0.057311
30
0.0
11
0.069341
21
-0.059236
31
0.0
0
LINE
8
0
6
CONTINUOUS
10
0.072141
20
-0.057438
30
0.0
11
0.069772
21
-0.059391
31
0.0
0
LINE
8
0
6
CONTINUOUS
10
0.051257
20
-0.073537
30
0.0
11
0.051420
21
-0.073752
31
0.0
0
LINE
8
0
6
CONTINUOUS
10
0.051420
20
-0.073752
30
0.0
11
0.052291
21
-0.073822
31
0.0
0
LINE
8
0
6
CONTINUOUS
10
0.051744
20
-0.073492
30
0.0
11
0.051420
21
-0.073752
31
0.0
0
LINE
8
0
6
CONTINUOUS
10
0.051747
20
-0.074182
30
0.0
11
0.051911
21
-0.074397
31
0.0
0
LINE
8
0
6
CONTINUOUS
10
0.052071
20
-0.073921
30
0.0
11
0.051747
21
-0.074182
31
0.0
0
LINE
8
0
6
CONTINUOUS
10
0.061234
20
-0.065726
30
0.0
11
0.058585
21
-0.067904
31
0.0
0
LINE
8
0
6
CONTINUOUS
10
0.061537
20
-0.065913
30
0.0
11
0.059019
21
-0.068064
31
0.0
0
LINE
8
0
6
CONTINUOUS
10
0.061566
20
-0.066152
30
0.0
11
0.058916
21
-0.068331
31
0.0
0
LINE
8
0
6
CONTINUOUS
10
0.066798
20
-0.061143
30
0.0
11
0.064018
21
-0.063434
31
0.0
0
LINE
8
0
6
CONTINUOUS
10
0.066834
20
-0.061385
30
0.0
11
0.064187
21
-0.063648
31
0.0
0
LINE
8
0
6
CONTINUOUS
10
0.067132
20
-0.061568
30
0.0
11
0.064351
21
-0.063860
31
0.0
0
LINE
8
0
6
CONTINUOUS
10
0.052691
20
-0.072726
30
0.0
11
0.051744
21
-0.073492
31
0.0
0
LINE
8
0
6
CONTINUOUS
10
0.053019
20
-0.073155
30
0.0
11
0.052071
21
-0.073921
31
0.0
0
LINE
8
0
6
CONTINUOUS
10
0.058585
20
-0.067904
30
0.0
11
0.056202
21
-0.069859
31
0.0
0
LINE
8
0
6
CONTINUOUS
10
0.059019
20
-0.068064
30
0.0
11
0.056764
21
-0.069993
31
0.0
0
LINE
8
0
6
CONTINUOUS
10
0.058916
20
-0.068331
30
0.0
11
0.056532
21
-0.070287
31
0.0
0
LINE
8
0
6
CONTINUOUS
10
0.064018
20
-0.063434
30
0.0
11
0.061234
21
-0.065726
31
0.0
0
LINE
8
0
6
CONTINUOUS
10
0.064187
20
-0.063648
30
0.0
11
0.061537
21
-0.065913
31
0.0
0
LINE
8
0
6
CONTINUOUS
10
0.064351
20
-0.063860
30
0.0
11
0.061566
21
-0.066152
31
0.0
0
LINE
8
0
6
CONTINUOUS
10
0.056202
20
-0.069859
30
0.0
11
0.054204
21
-0.071494
31
0.0
0
LINE
8
0
6
CONTINUOUS
10
0.056764
20
-0.069993
30
0.0
11
0.054884
21
-0.071603
31
0.0
0
LINE
8
0
6
CONTINUOUS
10
0.056532
20
-0.070287
30
0.0
11
0.054533
21
-0.071922
31
0.0
0
LINE
8
0
6
CONTINUOUS
10
0.069437
20
-0.058966
30
0.0
11
0.066798
21
-0.061143
31
0.0
0
LINE
8
0
6
CONTINUOUS
10
0.069341
20
-0.059236
30
0.0
11
0.066834
21
-0.061385
31
0.0
0
LINE
8
0
6
CONTINUOUS
10
0.069772
20
-0.059391
30
0.0
11
0.067132
21
-0.061568
31
0.0
0
LINE
8
0
6
CONTINUOUS
10
0.073442
20
-0.055705
30
0.0
11
0.075278
21
-0.054156
31
0.0
0
LINE
8
0
6
CONTINUOUS
10
0.075278
20
-0.054156
30
0.0
11
0.073785
21
-0.055383
31
0.0
0
LINE
8
0
6
CONTINUOUS
10
0.075614
20
-0.054579
30
0.0
11
0.074121
21
-0.055807
31
0.0
0
LINE
8
0
6
CONTINUOUS
10
0.076523
20
-0.053134
30
0.0
11
0.076354
21
-0.052923
31
0.0
0
LINE
8
0
6
CONTINUOUS
10
0.076207
20
-0.053393
30
0.0
11
0.076523
21
-0.053134
31
0.0
0
LINE
8
0
6
CONTINUOUS
10
0.076860
20
-0.053557
30
0.0
11
0.075988
21
-0.053496
31
0.0
0
LINE
8
0
6
CONTINUOUS
10
0.076860
20
-0.053557
30
0.0
11
0.076544
21
-0.053816
31
0.0
0
LINE
8
0
6
CONTINUOUS
10
0.077029
20
-0.053768
30
0.0
11
0.076860
21
-0.053557
31
0.0
0
LINE
8
0
6
CONTINUOUS
10
0.114910
20
-0.101275
30
0.0
11
0.077029
21
-0.053768
31
0.0
0
LINE
8
0
6
CONTINUOUS
10
0.051911
20
-0.074397
30
0.0
11
0.072367
21
-0.101275
31
0.0
0
LINE
8
0
6
CONTINUOUS
10
0.061658
20
-0.109000
30
0.0
11
0.064098
21
-0.109000
31
0.0
0
LINE
8
0
6
CONTINUOUS
10
0.064098
20
-0.103000
30
0.0
11
0.061658
21
-0.103000
31
0.0
0
LINE
8
0
6
CONTINUOUS
10
0.130686
20
-0.109000
30
0.0
11
0.130686
21
-0.108211
31
0.0
0
LINE
8
0
6
CONTINUOUS
10
0.129714
20
-0.109000
30
0.0
11
0.130686
21
-0.109000
31
0.0
0
LINE
8
0
6
CONTINUOUS
10
0.130686
20
-0.108211
30
0.0
11
0.130686
21
-0.103789
31
0.0
0
LINE
8
0
6
CONTINUOUS
10
0.130686
20
-0.103789
30
0.0
11
0.130686
21
-0.103000
31
0.0
0
LINE
8
0
6
CONTINUOUS
10
0.130686
20
-0.103000
30
0.0
11
0.129714
21
-0.103000
31
0.0
0
LINE
8
0
6
CONTINUOUS
10
0.072367
20
-0.101275
30
0.0
11
0.072384
21
-0.102214
31
0.0
0
LINE
8
0
6
CONTINUOUS
10
0.072918
20
-0.101275
30
0.0
11
0.072367
21
-0.101275
31
0.0
0
LINE
8
0
6
CONTINUOUS
10
0.072384
20
-0.102214
30
0.0
11
0.072320
21
-0.102618
31
0.0
0
LINE
8
0
6
CONTINUOUS
10
0.072046
20
-0.103000
30
0.0
11
0.072688
21
-0.103000
31
0.0
0
LINE
8
0
6
CONTINUOUS
10
0.072320
20
-0.102618
30
0.0
11
0.072046
21
-0.103000
31
0.0
0
LINE
8
0
6
CONTINUOUS
10
0.072912
20
-0.102618
30
0.0
11
0.072320
21
-0.102618
31
0.0
0
LINE
8
0
6
CONTINUOUS
10
0.115585
20
-0.102214
30
0.0
11
0.114910
21
-0.101275
31
0.0
0
LINE
8
0
6
CONTINUOUS
10
0.116084
20
-0.102618
30
0.0
11
0.115585
21
-0.102214
31
0.0
0
LINE
8
0
6
CONTINUOUS
10
0.116712
20
-0.103000
30
0.0
11
0.117340
21
-0.103000
31
0.0
0
LINE
8
0
6
CONTINUOUS
10
0.117340
20
-0.103000
30
0.0
11
0.116084
21
-0.102618
31
0.0
0
LINE
8
0
6
CONTINUOUS
10
0.084459
20
-0.101275
30
0.0
11
0.080444
21
-0.101275
31
0.0
0
LINE
8
0
6
CONTINUOUS
10
0.080862
20
-0.103000
30
0.0
11
0.085076
21
-0.103000
31
0.0
0
LINE
8
0
6
CONTINUOUS
10
0.084828
20
-0.102618
30
0.0
11
0.080726
21
-0.102618
31
0.0
0
LINE
8
0
6
CONTINUOUS
10
0.074523
20
-0.101275
30
0.0
11
0.072918
21
-0.101275
31
0.0
0
LINE
8
0
6
CONTINUOUS
10
0.072688
20
-0.103000
30
0.0
11
0.074498
21
-0.103000
31
0.0
0
LINE
8
0
6
CONTINUOUS
10
0.074608
20
-0.102618
30
0.0
11
0.072912
21
-0.102618
31
0.0
0
LINE
8
0
6
CONTINUOUS
10
0.114906
20
-0.103000
30
0.0
11
0.116712
21
-0.103000
31
0.0
0
LINE
8
0
6
CONTINUOUS
10
0.112094
20
-0.103000
30
0.0
11
0.114906
21
-0.103000
31
0.0
0
LINE
8
0
6
CONTINUOUS
10
0.113807
20
-0.102618
30
0.0
11
0.111134
21
-0.102618
31
0.0
0
LINE
8
0
6
CONTINUOUS
10
0.108463
20
-0.103000
30
0.0
11
0.112094
21
-0.103000
31
0.0
0
LINE
8
0
6
CONTINUOUS
10
0.111134
20
-0.102618
30
0.0
11
0.107644
21
-0.102618
31
0.0
0
LINE
8
0
6
CONTINUOUS
10
0.077077
20
-0.101275
30
0.0
11
0.074523
21
-0.101275
31
0.0
0
LINE
8
0
6
CONTINUOUS
10
0.074498
20
-0.103000
30
0.0
11
0.077280
21
-0.103000
31
0.0
0
LINE
8
0
6
CONTINUOUS
10
0.077263
20
-0.102618
30
0.0
11
0.074608
21
-0.102618
31
0.0
0
LINE
8
0
6
CONTINUOUS
10
0.104205
20
-0.103000
30
0.0
11
0.108463
21
-0.103000
31
0.0
0
LINE
8
0
6
CONTINUOUS
10
0.107644
20
-0.102618
30
0.0
11
0.103516
21
-0.102618
31
0.0
0
LINE
8
0
6
CONTINUOUS
10
0.093621
20
-0.101275
30
0.0
11
0.088924
21
-0.101275
31
0.0
0
LINE
8
0
6
CONTINUOUS
10
0.089732
20
-0.103000
30
0.0
11
0.094621
21
-0.103000
31
0.0
0
LINE
8
0
6
CONTINUOUS
10
0.094161
20
-0.102618
30
0.0
11
0.089378
21
-0.102618
31
0.0
0
LINE
8
0
6
CONTINUOUS
10
0.099519
20
-0.103000
30
0.0
11
0.104205
21
-0.103000
31
0.0
0
LINE
8
0
6
CONTINUOUS
10
0.103516
20
-0.102618
30
0.0
11
0.098949
21
-0.102618
31
0.0
0
LINE
8
0
6
CONTINUOUS
10
0.080444
20
-0.101275
30
0.0
11
0.077077
21
-0.101275
31
0.0
0
LINE
8
0
6
CONTINUOUS
10
0.077280
20
-0.103000
30
0.0
11
0.080862
21
-0.103000
31
0.0
0
LINE
8
0
6
CONTINUOUS
10
0.080726
20
-0.102618
30
0.0
11
0.077263
21
-0.102618
31
0.0
0
LINE
8
0
6
CONTINUOUS
10
0.094621
20
-0.103000
30
0.0
11
0.099519
21
-0.103000
31
0.0
0
LINE
8
0
6
CONTINUOUS
10
0.098949
20
-0.102618
30
0.0
11
0.094161
21
-0.102618
31
0.0
0
LINE
8
0
6
CONTINUOUS
10
0.088924
20
-0.101275
30
0.0
11
0.084459
21
-0.101275
31
0.0
0
LINE
8
0
6
CONTINUOUS
10
0.085076
20
-0.103000
30
0.0
11
0.089732
21
-0.103000
31
0.0
0
LINE
8
0
6
CONTINUOUS
10
0.089378
20
-0.102618
30
0.0
11
0.084828
21
-0.102618
31
0.0
0
LINE
8
0
6
CONTINUOUS
10
0.076354
20
-0.052923
30
0.0
11
0.062924
21
-0.036080
31
0.0
0
LINE
8
0
6
CONTINUOUS
10
0.059754
20
-0.036436
30
0.0
11
0.059497
21
-0.036650
31
0.0
0
LINE
8
0
6
CONTINUOUS
10
0.060098
20
-0.036848
30
0.0
11
0.059754
21
-0.036436
31
0.0
0
LINE
8
0
6
CONTINUOUS
10
0.047235
20
-0.046887
30
0.0
11
0.045070
21
-0.048693
31
0.0
0
LINE
8
0
6
CONTINUOUS
10
0.040287
20
-0.052686
30
0.0
11
0.039530
21
-0.053319
31
0.0
0
LINE
8
0
6
CONTINUOUS
10
0.057520
20
-0.038301
30
0.0
11
0.055898
21
-0.039654
31
0.0
0
LINE
8
0
6
CONTINUOUS
10
0.049514
20
-0.044984
30
0.0
11
0.047235
21
-0.046887
31
0.0
0
LINE
8
0
6
CONTINUOUS
10
0.041507
20
-0.051668
30
0.0
11
0.040287
21
-0.052686
31
0.0
0
LINE
8
0
6
CONTINUOUS
10
0.058740
20
-0.037282
30
0.0
11
0.057520
21
-0.038301
31
0.0
0
LINE
8
0
6
CONTINUOUS
10
0.051792
20
-0.043082
30
0.0
11
0.049514
21
-0.044984
31
0.0
0
LINE
8
0
6
CONTINUOUS
10
0.043129
20
-0.050314
30
0.0
11
0.041507
21
-0.051668
31
0.0
0
LINE
8
0
6
CONTINUOUS
10
0.059497
20
-0.036650
30
0.0
11
0.058740
21
-0.037282
31
0.0
0
LINE
8
0
6
CONTINUOUS
10
0.053957
20
-0.041275
30
0.0
11
0.051792
21
-0.043082
31
0.0
0
LINE
8
0
6
CONTINUOUS
10
0.045070
20
-0.048693
30
0.0
11
0.043129
21
-0.050314
31
0.0
0
LINE
8
0
6
CONTINUOUS
10
0.037574
20
-0.055651
30
0.0
11
0.038357
21
-0.056588
31
0.0
0
LINE
8
0
6
CONTINUOUS
10
0.037882
20
-0.055394
30
0.0
11
0.037574
21
-0.055651
31
0.0
0
LINE
8
0
6
CONTINUOUS
10
0.038791
20
-0.054635
30
0.0
11
0.037882
21
-0.055394
31
0.0
0
LINE
8
0
6
CONTINUOUS
10
0.040254
20
-0.053414
30
0.0
11
0.038791
21
-0.054635
31
0.0
0
LINE
8
0
6
CONTINUOUS
10
0.042199
20
-0.051790
30
0.0
11
0.040254
21
-0.053414
31
0.0
0
LINE
8
0
6
CONTINUOUS
10
0.044528
20
-0.049846
30
0.0
11
0.042199
21
-0.051790
31
0.0
0
LINE
8
0
6
CONTINUOUS
10
0.047124
20
-0.047678
30
0.0
11
0.044528
21
-0.049846
31
0.0
0
LINE
8
0
6
CONTINUOUS
10
0.049858
20
-0.045397
30
0.0
11
0.047124
21
-0.047678
31
0.0
0
LINE
8
0
6
CONTINUOUS
10
0.052591
20
-0.043115
30
0.0
11
0.049858
21
-0.045397
31
0.0
0
LINE
8
0
6
CONTINUOUS
10
0.055187
20
-0.040948
30
0.0
11
0.052591
21
-0.043115
31
0.0
0
LINE
8
0
6
CONTINUOUS
10
0.057517
20
-0.039003
30
0.0
11
0.055187
21
-0.040948
31
0.0
0
LINE
8
0
6
CONTINUOUS
10
0.059462
20
-0.037380
30
0.0
11
0.057517
21
-0.039003
31
0.0
0
LINE
8
0
6
CONTINUOUS
10
0.060925
20
-0.036158
30
0.0
11
0.059462
21
-0.037380
31
0.0
0
LINE
8
0
6
CONTINUOUS
10
0.061834
20
-0.035400
30
0.0
11
0.060925
21
-0.036158
31
0.0
0
LINE
8
0
6
CONTINUOUS
10
0.062141
20
-0.035143
30
0.0
11
0.061834
21
-0.035400
31
0.0
0
LINE
8
0
6
CONTINUOUS
10
0.062924
20
-0.036080
30
0.0
11
0.062141
21
-0.035143
31
0.0
0
LINE
8
0
6
CONTINUOUS
10
0.039273
20
-0.053533
30
0.0
11
0.039617
21
-0.053945
31
0.0
0
LINE
8
0
6
CONTINUOUS
10
0.039530
20
-0.053319
30
0.0
11
0.039273
21
-0.053533
31
0.0
0
LINE
8
0
6
CONTINUOUS
10
0.038357
20
-0.056588
30
0.0
11
0.051257
21
-0.073537
31
0.0
0
LINE
8
0
6
CONTINUOUS
10
0.129714
20
-0.103000
30
0.0
11
0.127274
21
-0.103000
31
0.0
0
LINE
8
0
6
CONTINUOUS
10
0.127274
20
-0.103000
30
0.0
11
0.123029
21
-0.103000
31
0.0
0
LINE
8
0
6
CONTINUOUS
10
0.123029
20
-0.103000
30
0.0
11
0.117515
21
-0.103000
31
0.0
0
LINE
8
0
6
CONTINUOUS
10
0.117515
20
-0.103000
30
0.0
11
0.110870
21
-0.103000
31
0.0
0
LINE
8
0
6
CONTINUOUS
10
0.110870
20
-0.103000
30
0.0
11
0.103475
21
-0.103000
31
0.0
0
LINE
8
0
6
CONTINUOUS
10
0.103475
20
-0.103000
30
0.0
11
0.095686
21
-0.103000
31
0.0
0
LINE
8
0
6
CONTINUOUS
10
0.095686
20
-0.103000
30
0.0
11
0.087897
21
-0.103000
31
0.0
0
LINE
8
0
6
CONTINUOUS
10
0.087897
20
-0.103000
30
0.0
11
0.080502
21
-0.103000
31
0.0
0
LINE
8
0
6
CONTINUOUS
10
0.080502
20
-0.103000
30
0.0
11
0.073857
21
-0.103000
31
0.0
0
LINE
8
0
6
CONTINUOUS
10
0.073857
20
-0.103000
30
0.0
11
0.068344
21
-0.103000
31
0.0
0
LINE
8
0
6
CONTINUOUS
10
0.068344
20
-0.103000
30
0.0
11
0.064098
21
-0.103000
31
0.0
0
LINE
8
0
6
CONTINUOUS
10
0.060686
20
-0.103000
30
0.0
11
0.060686
21
-0.103789
31
0.0
0
LINE
8
0
6
CONTINUOUS
10
0.061658
20
-0.103000
30
0.0
11
0.060686
21
-0.103000
31
0.0
0
LINE
8
0
6
CONTINUOUS
10
0.060686
20
-0.103789
30
0.0
11
0.060686
21
-0.108211
31
0.0
0
LINE
8
0
6
CONTINUOUS
10
0.127907
20
-0.109000
30
0.0
11
0.129714
21
-0.109000
31
0.0
0
LINE
8
0
6
CONTINUOUS
10
0.127907
20
-0.109000
30
0.0
11
0.127274
21
-0.108211
31
0.0
0
LINE
8
0
6
CONTINUOUS
10
0.123029
20
-0.109000
30
0.0
11
0.127907
21
-0.109000
31
0.0
0
LINE
8
0
6
CONTINUOUS
10
0.123029
20
-0.109000
30
0.0
11
0.127274
21
-0.108211
31
0.0
0
LINE
8
0
6
CONTINUOUS
10
0.117515
20
-0.109000
30
0.0
11
0.123029
21
-0.109000
31
0.0
0
LINE
8
0
6
CONTINUOUS
10
0.110870
20
-0.109000
30
0.0
11
0.117515
21
-0.109000
31
0.0
0
LINE
8
0
6
CONTINUOUS
10
0.103475
20
-0.109000
30
0.0
11
0.110870
21
-0.109000
31
0.0
0
LINE
8
0
6
CONTINUOUS
10
0.095686
20
-0.109000
30
0.0
11
0.103475
21
-0.109000
31
0.0
0
LINE
8
0
6
CONTINUOUS
10
0.087897
20
-0.109000
30
0.0
11
0.095686
21
-0.109000
31
0.0
0
LINE
8
0
6
CONTINUOUS
10
0.080502
20
-0.109000
30
0.0
11
0.087897
21
-0.109000
31
0.0
0
LINE
8
0
6
CONTINUOUS
10
0.073857
20
-0.109000
30
0.0
11
0.080502
21
-0.109000
31
0.0
0
LINE
8
0
6
CONTINUOUS
10
0.068344
20
-0.109000
30
0.0
11
0.073857
21
-0.109000
31
0.0
0
LINE
8
0
6
CONTINUOUS
10
0.064098
20
-0.109000
30
0.0
11
0.068344
21
-0.109000
31
0.0
0
LINE
8
0
6
CONTINUOUS
10
0.060686
20
-0.109000
30
0.0
11
0.061658
21
-0.109000
31
0.0
0
LINE
8
0
6
CONTINUOUS
10
0.060686
20
-0.108211
30
0.0
11
0.060686
21
-0.109000
31
0.0
0
LINE
8
0
6
CONTINUOUS
10
-0.048276
20
0.047166
30
0.0
11
-0.048420
21
0.047332
31
0.0
0
LINE
8
0
6
CONTINUOUS
10
-0.049283
20
0.047683
30
0.0
11
-0.048420
21
0.047332
31
0.0
0
LINE
8
0
6
CONTINUOUS
10
-0.057235
20
0.049501
30
0.0
11
-0.056119
21
0.049085
31
0.0
0
LINE
8
0
6
CONTINUOUS
10
-0.106450
20
0.072190
30
0.0
11
-0.106407
21
0.072201
31
0.0
0
LINE
8
0
6
CONTINUOUS
10
-0.074328
20
0.055885
30
0.0
11
-0.072818
21
0.055286
31
0.0
0
LINE
8
0
6
CONTINUOUS
10
-0.107927
20
0.075934
30
0.0
11
-0.108792
21
0.076834
31
0.0
0
LINE
8
0
6
CONTINUOUS
10
-0.110652
20
0.077587
30
0.0
11
-0.110403
21
0.077624
31
0.0
0
LINE
8
0
6
CONTINUOUS
10
-0.092191
20
0.070426
30
0.0
11
-0.092524
21
0.071016
31
0.0
0
LINE
8
0
6
CONTINUOUS
10
-0.078986
20
0.057637
30
0.0
11
-0.079855
21
0.058041
31
0.0
0
LINE
8
0
6
CONTINUOUS
10
-0.077823
20
0.057034
30
0.0
11
-0.078303
21
0.057299
31
0.0
0
LINE
8
0
6
CONTINUOUS
10
-0.078303
20
0.057299
30
0.0
11
-0.078986
21
0.057637
31
0.0
0
LINE
8
0
6
CONTINUOUS
10
-0.090141
20
0.063985
30
0.0
11
-0.090615
21
0.064346
31
0.0
0
LINE
8
0
6
CONTINUOUS
10
-0.118799
20
0.083721
30
0.0
11
-0.117435
21
0.082896
31
0.0
0
LINE
8
0
6
CONTINUOUS
10
-0.099005
20
0.071931
30
0.0
11
-0.098243
21
0.071801
31
0.0
0
LINE
8
0
6
CONTINUOUS
10
-0.124353
20
0.086142
30
0.0
11
-0.123582
21
0.085512
31
0.0
0
LINE
8
0
6
CONTINUOUS
10
-0.096420
20
0.070699
30
0.0
11
-0.096788
21
0.071036
31
0.0
0
LINE
8
0
6
CONTINUOUS
10
-0.047968
20
0.046987
30
0.0
11
-0.048276
21
0.047166
31
0.0
0
LINE
8
0
6
CONTINUOUS
10
-0.118328
20
0.081313
30
0.0
11
-0.118182
21
0.081450
31
0.0
0
LINE
8
0
6
CONTINUOUS
10
-0.073137
20
0.058437
30
0.0
11
-0.072488
21
0.058498
31
0.0
0
LINE
8
0
6
CONTINUOUS
10
-0.056223
20
0.052254
30
0.0
11
-0.055225
21
0.051947
31
0.0
0
LINE
8
0
6
CONTINUOUS
10
-0.124799
20
0.086538
30
0.0
11
-0.124353
21
0.086142
31
0.0
0
LINE
8
0
6
CONTINUOUS
10
-0.056119
20
0.049085
30
0.0
11
-0.055911
21
0.049019
31
0.0
0
LINE
8
0
6
CONTINUOUS
10
-0.082440
20
0.063609
30
0.0
11
-0.082703
21
0.063942
31
0.0
0
LINE
8
0
6
CONTINUOUS
10
-0.105150
20
0.071450
30
0.0
11
-0.103982
21
0.070677
31
0.0
0
LINE
8
0
6
CONTINUOUS
10
0.120077
20
-0.032373
30
0.0
11
0.119838
21
-0.033195
31
0.0
0
LINE
8
0
6
CONTINUOUS
10
-0.086599
20
-0.000842
30
0.0
11
-0.086854
21
-0.000367
31
0.0
0
LINE
8
0
6
CONTINUOUS
10
-0.086854
20
-0.000367
30
0.0
11
-0.087953
21
0.000184
31
0.0
0
LINE
8
0
6
CONTINUOUS
10
-0.086546
20
-0.000944
30
0.0
11
-0.086599
21
-0.000842
31
0.0
0
LINE
8
0
6
CONTINUOUS
10
-0.093107
20
0.003280
30
0.0
11
-0.092552
21
0.002971
31
0.0
0
LINE
8
0
6
CONTINUOUS
10
-0.095421
20
0.004509
30
0.0
11
-0.093107
21
0.003280
31
0.0
0
LINE
8
0
6
CONTINUOUS
10
-0.092552
20
0.002971
30
0.0
11
-0.091779
21
0.002541
31
0.0
0
ENDSEC
0
EOF
