999
unknown String-ID: 20550
0
SECTION
2
HEADER
9
$ACADVER
1
AC1009
9
$DWGCODEPAGE
3
unknown String-ID: 20561
0
ENDSEC
0
SECTION
2
TABLES
0
TABLE
2
LAYER
70
1
0
LAYER
2
0
70
0
62
7
6
CONTINUOUS
0
ENDTAB
0
ENDSEC
0
SECTION
2
ENTITIES
0
LINE
8
0
6
CONTINUOUS
10
-4.061394
20
-4.049626
30
0.0
11
-4.132659
21
-4.049627
31
0.0
0
LINE
8
0
6
CONTINUOUS
10
-4.132660
20
-0.293642
30
0.0
11
-4.061394
21
-0.274963
31
0.0
0
LINE
8
0
6
CONTINUOUS
10
-4.061394
20
-4.049626
30
0.0
11
-2.035321
21
-4.049627
31
0.0
0
LINE
8
0
6
CONTINUOUS
10
-2.035321
20
-0.274964
30
0.0
11
-4.061394
21
-0.274963
31
0.0
0
LINE
8
0
6
CONTINUOUS
10
-2.035321
20
-4.049627
30
0.0
11
-2.006258
21
-4.049627
31
0.0
0
LINE
8
0
6
CONTINUOUS
10
-2.006258
20
-0.274964
30
0.0
11
-2.035321
21
-0.274964
31
0.0
0
LINE
8
0
6
CONTINUOUS
10
-4.132659
20
-4.049627
30
0.0
11
-4.132659
21
-3.985316
31
0.0
0
LINE
8
0
6
CONTINUOUS
10
-4.132659
20
-3.985316
30
0.0
11
-4.132658
21
-3.796771
31
0.0
0
LINE
8
0
6
CONTINUOUS
10
-4.132658
20
-3.796771
30
0.0
11
-4.132658
21
-3.496840
31
0.0
0
LINE
8
0
6
CONTINUOUS
10
-4.132658
20
-3.496840
30
0.0
11
-4.132658
21
-3.105961
31
0.0
0
LINE
8
0
6
CONTINUOUS
10
-4.132658
20
-3.105961
30
0.0
11
-4.132658
21
-2.650772
31
0.0
0
LINE
8
0
6
CONTINUOUS
10
-4.132658
20
-2.650772
30
0.0
11
-4.132658
21
-2.162295
31
0.0
0
LINE
8
0
6
CONTINUOUS
10
-4.132658
20
-2.162295
30
0.0
11
-4.132658
21
-1.673818
31
0.0
0
LINE
8
0
6
CONTINUOUS
10
-4.132658
20
-1.673818
30
0.0
11
-4.132658
21
-1.218631
31
0.0
0
LINE
8
0
6
CONTINUOUS
10
-4.132658
20
-1.218631
30
0.0
11
-4.132659
21
-0.827751
31
0.0
0
LINE
8
0
6
CONTINUOUS
10
-4.132659
20
-0.827751
30
0.0
11
-4.132659
21
-0.527818
31
0.0
0
LINE
8
0
6
CONTINUOUS
10
-4.132659
20
-0.527818
30
0.0
11
-4.132660
21
-0.339272
31
0.0
0
LINE
8
0
6
CONTINUOUS
10
-4.132660
20
-0.339272
30
0.0
11
-4.132660
21
-0.293642
31
0.0
0
LINE
8
0
6
CONTINUOUS
10
-4.051693
20
-3.374496
30
0.0
11
-4.063013
21
-3.374802
31
0.0
0
LINE
8
0
6
CONTINUOUS
10
-4.051693
20
-3.374496
30
0.0
11
-2.497237
21
-3.377199
31
0.0
0
LINE
8
0
6
CONTINUOUS
10
-2.497237
20
-3.377199
30
0.0
11
-2.485995
21
-3.376867
31
0.0
0
LINE
8
0
6
CONTINUOUS
10
-4.067703
20
-3.358732
30
0.0
11
-4.063013
21
-3.374802
31
0.0
0
LINE
8
0
6
CONTINUOUS
10
-4.063013
20
-3.374802
30
0.0
11
-4.058787
21
-3.370468
31
0.0
0
LINE
8
0
6
CONTINUOUS
10
-4.058787
20
-3.370468
30
0.0
11
-4.055313
21
-3.346027
31
0.0
0
LINE
8
0
6
CONTINUOUS
10
-4.055313
20
-3.346027
30
0.0
11
-4.052826
21
-3.303141
31
0.0
0
LINE
8
0
6
CONTINUOUS
10
-4.052826
20
-3.303141
30
0.0
11
-4.051497
21
-3.244737
31
0.0
0
LINE
8
0
6
CONTINUOUS
10
-4.051497
20
-3.244737
30
0.0
11
-4.051416
21
-3.174792
31
0.0
0
LINE
8
0
6
CONTINUOUS
10
-4.051416
20
-3.174792
30
0.0
11
-4.052587
21
-3.098072
31
0.0
0
LINE
8
0
6
CONTINUOUS
10
-4.052587
20
-3.098072
30
0.0
11
-4.054934
21
-3.019806
31
0.0
0
LINE
8
0
6
CONTINUOUS
10
-4.054934
20
-3.019806
30
0.0
11
-4.058292
21
-2.945330
31
0.0
0
LINE
8
0
6
CONTINUOUS
10
-4.058292
20
-2.945330
30
0.0
11
-4.062438
21
-2.879719
31
0.0
0
LINE
8
0
6
CONTINUOUS
10
-4.062438
20
-2.879719
30
0.0
11
-4.067083
21
-2.827443
31
0.0
0
LINE
8
0
6
CONTINUOUS
10
-4.067083
20
-2.827443
30
0.0
11
-4.071916
21
-2.792063
31
0.0
0
LINE
8
0
6
CONTINUOUS
10
-4.126610
20
-2.515501
30
0.0
11
-4.071916
21
-2.792063
31
0.0
0
LINE
8
0
6
CONTINUOUS
10
-2.485995
20
-2.516245
30
0.0
11
-2.485995
21
-2.794373
31
0.0
0
LINE
8
0
6
CONTINUOUS
10
-2.485995
20
-3.372690
30
0.0
11
-2.485995
21
-3.376867
31
0.0
0
LINE
8
0
6
CONTINUOUS
10
-2.485995
20
-3.348397
30
0.0
11
-2.485995
21
-3.372690
31
0.0
0
LINE
8
0
6
CONTINUOUS
10
-2.485995
20
-3.305640
30
0.0
11
-2.485995
21
-3.348397
31
0.0
0
LINE
8
0
6
CONTINUOUS
10
-2.485995
20
-3.247340
30
0.0
11
-2.485995
21
-3.305640
31
0.0
0
LINE
8
0
6
CONTINUOUS
10
-2.485995
20
-3.177465
30
0.0
11
-2.485995
21
-3.247340
31
0.0
0
LINE
8
0
6
CONTINUOUS
10
-2.485995
20
-3.100778
30
0.0
11
-2.485995
21
-3.177465
31
0.0
0
LINE
8
0
6
CONTINUOUS
10
-2.485995
20
-3.022507
30
0.0
11
-2.485995
21
-3.100778
31
0.0
0
LINE
8
0
6
CONTINUOUS
10
-2.485995
20
-2.947982
30
0.0
11
-2.485995
21
-3.022507
31
0.0
0
LINE
8
0
6
CONTINUOUS
10
-2.485995
20
-2.882284
30
0.0
11
-2.485995
21
-2.947982
31
0.0
0
LINE
8
0
6
CONTINUOUS
10
-2.485995
20
-2.829892
30
0.0
11
-2.485995
21
-2.882284
31
0.0
0
LINE
8
0
6
CONTINUOUS
10
-2.485995
20
-2.794373
30
0.0
11
-2.485995
21
-2.829892
31
0.0
0
LINE
8
0
6
CONTINUOUS
10
-4.122398
20
-3.082169
30
0.0
11
-4.067703
21
-3.358732
31
0.0
0
LINE
8
0
6
CONTINUOUS
10
-2.006258
20
-3.985316
30
0.0
11
-2.006258
21
-4.049627
31
0.0
0
LINE
8
0
6
CONTINUOUS
10
-2.006257
20
-3.796771
30
0.0
11
-2.006258
21
-3.985316
31
0.0
0
LINE
8
0
6
CONTINUOUS
10
-2.006256
20
-3.496840
30
0.0
11
-2.006257
21
-3.796771
31
0.0
0
LINE
8
0
6
CONTINUOUS
10
-2.006256
20
-3.105961
30
0.0
11
-2.006256
21
-3.496840
31
0.0
0
LINE
8
0
6
CONTINUOUS
10
-2.006256
20
-2.650772
30
0.0
11
-2.006256
21
-3.105961
31
0.0
0
LINE
8
0
6
CONTINUOUS
10
-2.006256
20
-2.162295
30
0.0
11
-2.006256
21
-2.650772
31
0.0
0
LINE
8
0
6
CONTINUOUS
10
-2.006256
20
-1.673819
30
0.0
11
-2.006256
21
-2.162295
31
0.0
0
LINE
8
0
6
CONTINUOUS
10
-2.006256
20
-1.218631
30
0.0
11
-2.006256
21
-1.673819
31
0.0
0
LINE
8
0
6
CONTINUOUS
10
-2.006256
20
-0.827751
30
0.0
11
-2.006256
21
-1.218631
31
0.0
0
LINE
8
0
6
CONTINUOUS
10
-2.006257
20
-0.527819
30
0.0
11
-2.006256
21
-0.827751
31
0.0
0
LINE
8
0
6
CONTINUOUS
10
-2.006258
20
-0.274964
30
0.0
11
-2.006258
21
-0.339272
31
0.0
0
LINE
8
0
6
CONTINUOUS
10
-2.006258
20
-0.339272
30
0.0
11
-2.006257
21
-0.527819
31
0.0
0
LINE
8
0
6
CONTINUOUS
10
-1.948132
20
-4.056883
30
0.0
11
-1.916157
21
-4.056883
31
0.0
0
LINE
8
0
6
CONTINUOUS
10
4.132661
20
-3.786575
30
0.0
11
4.132660
21
-3.736528
31
0.0
0
LINE
8
0
6
CONTINUOUS
10
3.314742
20
-4.056883
30
0.0
11
3.776456
21
-4.056883
31
0.0
0
LINE
8
0
6
CONTINUOUS
10
2.823986
20
-4.056883
30
0.0
11
3.314742
21
-4.056883
31
0.0
0
LINE
8
0
6
CONTINUOUS
10
2.467836
20
-4.056883
30
0.0
11
2.823986
21
-4.056883
31
0.0
0
LINE
8
0
6
CONTINUOUS
10
3.776456
20
-4.056883
30
0.0
11
4.092604
21
-4.056883
31
0.0
0
LINE
8
0
6
CONTINUOUS
10
3.300044
20
-3.876896
30
0.0
11
3.745677
21
-3.807990
31
0.0
0
LINE
8
0
6
CONTINUOUS
10
4.132661
20
-3.562527
30
0.0
11
4.132661
21
-3.407575
31
0.0
0
LINE
8
0
6
CONTINUOUS
10
4.132661
20
-3.230790
30
0.0
11
4.132661
21
-3.038968
31
0.0
0
LINE
8
0
6
CONTINUOUS
10
3.745677
20
-3.807990
30
0.0
11
3.913370
21
-3.737024
31
0.0
0
LINE
8
0
6
CONTINUOUS
10
2.827261
20
-3.838052
30
0.0
11
3.300044
21
-3.876896
31
0.0
0
LINE
8
0
6
CONTINUOUS
10
3.913370
20
-3.737024
30
0.0
11
4.132660
21
-3.736528
31
0.0
0
LINE
8
0
6
CONTINUOUS
10
3.913370
20
-3.716566
30
0.0
11
3.913370
21
-3.737024
31
0.0
0
LINE
8
0
6
CONTINUOUS
10
4.132661
20
-3.407575
30
0.0
11
4.132661
21
-3.230790
31
0.0
0
LINE
8
0
6
CONTINUOUS
10
4.132661
20
-3.038968
30
0.0
11
4.132661
21
-2.831887
31
0.0
0
LINE
8
0
6
CONTINUOUS
10
4.132660
20
-3.736528
30
0.0
11
4.132660
21
-3.689699
31
0.0
0
LINE
8
0
6
CONTINUOUS
10
4.132660
20
-3.689699
30
0.0
11
4.132661
21
-3.562527
31
0.0
0
LINE
8
0
6
CONTINUOUS
10
4.132661
20
-4.056883
30
0.0
11
4.132660
21
-4.015217
31
0.0
0
LINE
8
0
6
CONTINUOUS
10
4.132661
20
-4.056883
30
0.0
11
4.092604
21
-4.056883
31
0.0
0
LINE
8
0
6
CONTINUOUS
10
3.314741
20
-3.926489
30
0.0
11
2.823985
21
-3.885436
31
0.0
0
LINE
8
0
6
CONTINUOUS
10
2.209718
20
-3.482895
30
0.0
11
2.101675
21
-3.192438
31
0.0
0
LINE
8
0
6
CONTINUOUS
10
2.467836
20
-3.722599
30
0.0
11
2.209718
21
-3.482895
31
0.0
0
LINE
8
0
6
CONTINUOUS
10
3.940126
20
-3.785727
30
0.0
11
3.776456
21
-3.855951
31
0.0
0
LINE
8
0
6
CONTINUOUS
10
3.776456
20
-3.855951
30
0.0
11
3.314741
21
-3.926489
31
0.0
0
LINE
8
0
6
CONTINUOUS
10
4.132660
20
-4.015217
30
0.0
11
4.132660
21
-3.902343
31
0.0
0
LINE
8
0
6
CONTINUOUS
10
4.132660
20
-3.902343
30
0.0
11
4.132661
21
-3.786575
31
0.0
0
LINE
8
0
6
CONTINUOUS
10
2.823985
20
-3.885436
30
0.0
11
2.467836
21
-3.722599
31
0.0
0
LINE
8
0
6
CONTINUOUS
10
4.132661
20
-3.786575
30
0.0
11
3.940126
21
-3.785727
31
0.0
0
LINE
8
0
6
CONTINUOUS
10
-1.916157
20
-4.056883
30
0.0
11
2.467836
21
-4.056883
31
0.0
0
LINE
8
0
6
CONTINUOUS
10
2.467836
20
-2.505449
30
0.0
11
2.827144
21
-2.231170
31
0.0
0
LINE
8
0
6
CONTINUOUS
10
3.945769
20
-2.349632
30
0.0
11
3.919014
21
-2.372019
31
0.0
0
LINE
8
0
6
CONTINUOUS
10
4.132660
20
-2.395799
30
0.0
11
4.132660
21
-2.373704
31
0.0
0
LINE
8
0
6
CONTINUOUS
10
3.751321
20
-2.225891
30
0.0
11
3.310406
21
-2.154190
31
0.0
0
LINE
8
0
6
CONTINUOUS
10
2.238424
20
-2.836933
30
0.0
11
2.130380
21
-3.166974
31
0.0
0
LINE
8
0
6
CONTINUOUS
10
3.919014
20
-2.372019
30
0.0
11
3.751321
21
-2.225891
31
0.0
0
LINE
8
0
6
CONTINUOUS
10
3.310406
20
-2.154190
30
0.0
11
2.827144
21
-2.231170
31
0.0
0
LINE
8
0
6
CONTINUOUS
10
2.496541
20
-2.479985
30
0.0
11
2.238424
21
-2.836933
31
0.0
0
LINE
8
0
6
CONTINUOUS
10
4.132660
20
-2.395799
30
0.0
11
3.919014
21
-2.372019
31
0.0
0
LINE
8
0
6
CONTINUOUS
10
4.132660
20
-1.766217
30
0.0
11
4.132660
21
-1.412339
31
0.0
0
LINE
8
0
6
CONTINUOUS
10
4.132660
20
-1.412339
30
0.0
11
4.132660
21
-1.087280
31
0.0
0
LINE
8
0
6
CONTINUOUS
10
2.823869
20
-2.211494
30
0.0
11
3.325103
21
-2.129969
31
0.0
0
LINE
8
0
6
CONTINUOUS
10
2.101675
20
-3.192438
30
0.0
11
2.209718
21
-2.862396
31
0.0
0
LINE
8
0
6
CONTINUOUS
10
2.209718
20
-2.862396
30
0.0
11
2.467836
21
-2.505449
31
0.0
0
LINE
8
0
6
CONTINUOUS
10
4.132660
20
-0.803538
30
0.0
11
4.132660
21
-0.572008
31
0.0
0
LINE
8
0
6
CONTINUOUS
10
4.132660
20
-1.087280
30
0.0
11
4.132660
21
-0.803538
31
0.0
0
LINE
8
0
6
CONTINUOUS
10
3.782099
20
-2.205024
30
0.0
11
3.945769
21
-2.349632
31
0.0
0
LINE
8
0
6
CONTINUOUS
10
3.325103
20
-2.129969
30
0.0
11
3.782099
21
-2.205024
31
0.0
0
LINE
8
0
6
CONTINUOUS
10
4.132660
20
-2.135315
30
0.0
11
4.132660
21
-1.766217
31
0.0
0
LINE
8
0
6
CONTINUOUS
10
4.132660
20
-2.373704
30
0.0
11
4.132660
21
-2.135315
31
0.0
0
LINE
8
0
6
CONTINUOUS
10
2.467836
20
-2.505449
30
0.0
11
2.823869
21
-2.211494
31
0.0
0
LINE
8
0
6
CONTINUOUS
10
4.132660
20
-2.373704
30
0.0
11
4.092604
21
-2.343924
31
0.0
0
LINE
8
0
6
CONTINUOUS
10
4.132660
20
-2.373704
30
0.0
11
3.954744
21
-2.319808
31
0.0
0
LINE
8
0
6
CONTINUOUS
10
3.945769
20
-2.349632
30
0.0
11
4.132660
21
-2.373704
31
0.0
0
LINE
8
0
6
CONTINUOUS
10
4.132661
20
-2.624804
30
0.0
11
4.132661
21
-2.432982
31
0.0
0
LINE
8
0
6
CONTINUOUS
10
4.132661
20
-2.831887
30
0.0
11
4.132661
21
-2.624804
31
0.0
0
LINE
8
0
6
CONTINUOUS
10
-1.948132
20
-0.267702
30
0.0
11
-1.916157
21
-0.267702
31
0.0
0
LINE
8
0
6
CONTINUOUS
10
3.325103
20
-0.267702
30
0.0
11
3.782099
21
-0.267702
31
0.0
0
LINE
8
0
6
CONTINUOUS
10
2.823869
20
-0.267702
30
0.0
11
3.325103
21
-0.267702
31
0.0
0
LINE
8
0
6
CONTINUOUS
10
2.467836
20
-0.267702
30
0.0
11
2.823869
21
-0.267702
31
0.0
0
LINE
8
0
6
CONTINUOUS
10
3.782099
20
-0.267702
30
0.0
11
4.092604
21
-0.267702
31
0.0
0
LINE
8
0
6
CONTINUOUS
10
4.132661
20
-0.267702
30
0.0
11
4.092604
21
-0.267702
31
0.0
0
LINE
8
0
6
CONTINUOUS
10
4.132660
20
-0.298840
30
0.0
11
4.132661
21
-0.267702
31
0.0
0
LINE
8
0
6
CONTINUOUS
10
4.132660
20
-0.572008
30
0.0
11
4.132661
21
-0.401593
31
0.0
0
LINE
8
0
6
CONTINUOUS
10
4.132661
20
-0.401593
30
0.0
11
4.132660
21
-0.298840
31
0.0
0
LINE
8
0
6
CONTINUOUS
10
-1.916157
20
-0.267702
30
0.0
11
-1.010319
21
-0.267702
31
0.0
0
LINE
8
0
6
CONTINUOUS
10
1.189681
20
-0.267702
30
0.0
11
2.467836
21
-0.267702
31
0.0
0
LINE
8
0
6
CONTINUOUS
10
3.793403
20
-2.177261
30
0.0
11
3.954744
21
-2.319808
31
0.0
0
LINE
8
0
6
CONTINUOUS
10
3.913370
20
-2.831887
30
0.0
11
3.913370
21
-3.716566
31
0.0
0
LINE
8
0
6
CONTINUOUS
10
3.913370
20
-2.367100
30
0.0
11
3.913370
21
-2.831887
31
0.0
0
LINE
8
0
6
CONTINUOUS
10
-1.948132
20
-4.056883
30
0.0
11
-1.948132
21
-4.015217
31
0.0
0
LINE
8
0
6
CONTINUOUS
10
-1.948132
20
-4.015217
30
0.0
11
-1.948132
21
-3.902343
31
0.0
0
LINE
8
0
6
CONTINUOUS
10
-1.948132
20
-1.087283
30
0.0
11
-1.948132
21
-0.803538
31
0.0
0
LINE
8
0
6
CONTINUOUS
10
-1.948132
20
-3.482897
30
0.0
11
-1.948132
21
-3.192438
31
0.0
0
LINE
8
0
6
CONTINUOUS
10
-1.948132
20
-2.135315
30
0.0
11
-1.948132
21
-1.766217
31
0.0
0
LINE
8
0
6
CONTINUOUS
10
-1.948132
20
-0.401593
30
0.0
11
-1.948132
21
-0.298843
31
0.0
0
LINE
8
0
6
CONTINUOUS
10
-1.948132
20
-0.803538
30
0.0
11
-1.948132
21
-0.572008
31
0.0
0
LINE
8
0
6
CONTINUOUS
10
-1.948132
20
-3.902343
30
0.0
11
-1.948132
21
-3.722599
31
0.0
0
LINE
8
0
6
CONTINUOUS
10
-1.948132
20
-1.412339
30
0.0
11
-1.948132
21
-1.087283
31
0.0
0
LINE
8
0
6
CONTINUOUS
10
-1.948132
20
-0.572008
30
0.0
11
-1.948132
21
-0.401593
31
0.0
0
LINE
8
0
6
CONTINUOUS
10
-1.948132
20
-3.192438
30
0.0
11
-1.948132
21
-2.862397
31
0.0
0
LINE
8
0
6
CONTINUOUS
10
-1.948132
20
-0.298843
30
0.0
11
-1.948132
21
-0.267702
31
0.0
0
LINE
8
0
6
CONTINUOUS
10
-1.948132
20
-2.505449
30
0.0
11
-1.948132
21
-2.135315
31
0.0
0
LINE
8
0
6
CONTINUOUS
10
-1.948132
20
-3.722599
30
0.0
11
-1.948132
21
-3.482897
31
0.0
0
LINE
8
0
6
CONTINUOUS
10
-1.948132
20
-1.766217
30
0.0
11
-1.948132
21
-1.412339
31
0.0
0
LINE
8
0
6
CONTINUOUS
10
-1.948132
20
-2.862397
30
0.0
11
-1.948132
21
-2.505449
31
0.0
0
LINE
8
0
6
CONTINUOUS
10
1.149681
20
-2.425660
30
0.0
11
1.189681
21
-2.145645
31
0.0
0
LINE
8
0
6
CONTINUOUS
10
1.039681
20
-2.695672
30
0.0
11
1.149681
21
-2.425660
31
0.0
0
LINE
8
0
6
CONTINUOUS
10
0.869681
20
-2.925685
30
0.0
11
1.039681
21
-2.695672
31
0.0
0
LINE
8
0
6
CONTINUOUS
10
0.639681
20
-3.095692
30
0.0
11
0.869681
21
-2.925685
31
0.0
0
LINE
8
0
6
CONTINUOUS
10
0.369681
20
-3.205698
30
0.0
11
0.639681
21
-3.095692
31
0.0
0
LINE
8
0
6
CONTINUOUS
10
0.089681
20
-3.245700
30
0.0
11
0.369681
21
-3.205698
31
0.0
0
LINE
8
0
6
CONTINUOUS
10
-1.010319
20
-2.145645
30
0.0
11
-0.970319
21
-2.425660
31
0.0
0
LINE
8
0
6
CONTINUOUS
10
-0.970319
20
-2.425660
30
0.0
11
-0.860319
21
-2.695672
31
0.0
0
LINE
8
0
6
CONTINUOUS
10
-0.860319
20
-2.695672
30
0.0
11
-0.690319
21
-2.925685
31
0.0
0
LINE
8
0
6
CONTINUOUS
10
-0.690319
20
-2.925685
30
0.0
11
-0.460319
21
-3.095692
31
0.0
0
LINE
8
0
6
CONTINUOUS
10
-0.460319
20
-3.095692
30
0.0
11
-0.190319
21
-3.205698
31
0.0
0
LINE
8
0
6
CONTINUOUS
10
-0.190319
20
-3.205698
30
0.0
11
0.089681
21
-3.245700
31
0.0
0
LINE
8
0
6
CONTINUOUS
10
1.189681
20
4.006882
30
0.0
11
1.189681
21
4.056883
31
0.0
0
LINE
8
0
6
CONTINUOUS
10
1.189681
20
-2.145645
30
0.0
11
1.189681
21
4.006882
31
0.0
0
LINE
8
0
6
CONTINUOUS
10
1.139681
20
4.056883
30
0.0
11
1.189681
21
4.056883
31
0.0
0
LINE
8
0
6
CONTINUOUS
10
-0.960319
20
4.056883
30
0.0
11
1.139681
21
4.056883
31
0.0
0
LINE
8
0
6
CONTINUOUS
10
-1.010319
20
4.006882
30
0.0
11
-1.010319
21
-2.145645
31
0.0
0
LINE
8
0
6
CONTINUOUS
10
-1.010319
20
4.056883
30
0.0
11
-1.010319
21
4.006882
31
0.0
0
LINE
8
0
6
CONTINUOUS
10
-0.960319
20
4.056883
30
0.0
11
-1.010319
21
4.056883
31
0.0
0
ENDSEC
0
EOF
