999
unknown String-ID: 20550
0
SECTION
2
HEADER
9
$ACADVER
1
AC1009
9
$DWGCODEPAGE
3
unknown String-ID: 20561
0
ENDSEC
0
SECTION
2
TABLES
0
TABLE
2
LAYER
70
1
0
LAYER
2
0
70
0
62
7
6
CONTINUOUS
0
ENDTAB
0
ENDSEC
0
SECTION
2
ENTITIES
0
LINE
8
0
6
CONTINUOUS
10
0.274963
20
22.421383
30
0.0
11
0.339272
21
22.909839
31
0.0
0
LINE
8
0
6
CONTINUOUS
10
0.339272
20
21.932926
30
0.0
11
0.274963
21
22.421383
31
0.0
0
LINE
8
0
6
CONTINUOUS
10
0.293642
20
22.420604
30
0.0
11
0.339272
21
21.932926
31
0.0
0
LINE
8
0
6
CONTINUOUS
10
0.339272
20
21.932926
30
0.0
11
0.527818
21
21.477764
31
0.0
0
LINE
8
0
6
CONTINUOUS
10
0.527818
20
21.477764
30
0.0
11
0.827750
21
21.086910
31
0.0
0
LINE
8
0
6
CONTINUOUS
10
0.827750
20
21.086910
30
0.0
11
1.218629
21
20.786991
31
0.0
0
LINE
8
0
6
CONTINUOUS
10
1.218629
20
20.786991
30
0.0
11
1.673817
21
20.598453
31
0.0
0
LINE
8
0
6
CONTINUOUS
10
1.673817
20
20.598453
30
0.0
11
2.162294
21
20.534145
31
0.0
0
LINE
8
0
6
CONTINUOUS
10
2.162294
20
20.534145
30
0.0
11
2.650771
21
20.598453
31
0.0
0
LINE
8
0
6
CONTINUOUS
10
2.650771
20
20.598453
30
0.0
11
3.105960
21
20.786991
31
0.0
0
LINE
8
0
6
CONTINUOUS
10
3.105960
20
20.786991
30
0.0
11
3.496837
21
21.086910
31
0.0
0
LINE
8
0
6
CONTINUOUS
10
3.496837
20
21.086910
30
0.0
11
3.796771
21
21.477764
31
0.0
0
LINE
8
0
6
CONTINUOUS
10
3.796771
20
21.477764
30
0.0
11
3.985316
21
21.932926
31
0.0
0
LINE
8
0
6
CONTINUOUS
10
3.985316
20
21.932926
30
0.0
11
4.049627
21
22.421383
31
0.0
0
LINE
8
0
6
CONTINUOUS
10
4.049627
20
22.421383
30
0.0
11
3.985316
21
22.909832
31
0.0
0
LINE
8
0
6
CONTINUOUS
10
3.985316
20
22.909832
30
0.0
11
3.796771
21
23.365001
31
0.0
0
LINE
8
0
6
CONTINUOUS
10
3.796771
20
23.365001
30
0.0
11
3.496840
21
23.755855
31
0.0
0
LINE
8
0
6
CONTINUOUS
10
3.496840
20
23.755855
30
0.0
11
3.105961
21
24.055774
31
0.0
0
LINE
8
0
6
CONTINUOUS
10
3.105961
20
24.055774
30
0.0
11
2.650772
21
24.244312
31
0.0
0
LINE
8
0
6
CONTINUOUS
10
2.650772
20
24.244312
30
0.0
11
2.162295
21
24.308620
31
0.0
0
LINE
8
0
6
CONTINUOUS
10
2.162295
20
24.308620
30
0.0
11
1.673818
21
24.244312
31
0.0
0
LINE
8
0
6
CONTINUOUS
10
1.673818
20
24.244312
30
0.0
11
1.218631
21
24.055774
31
0.0
0
LINE
8
0
6
CONTINUOUS
10
1.218631
20
24.055774
30
0.0
11
0.827751
21
23.755863
31
0.0
0
LINE
8
0
6
CONTINUOUS
10
0.827751
20
23.755863
30
0.0
11
0.527818
21
23.365001
31
0.0
0
LINE
8
0
6
CONTINUOUS
10
0.527818
20
23.365001
30
0.0
11
0.339272
21
22.909839
31
0.0
0
LINE
8
0
6
CONTINUOUS
10
0.339272
20
22.909839
30
0.0
11
0.293642
21
22.420604
31
0.0
0
LINE
8
0
6
CONTINUOUS
10
3.377199
20
24.816807
30
0.0
11
3.360974
21
24.740101
31
0.0
0
LINE
8
0
6
CONTINUOUS
10
3.373018
20
24.895107
30
0.0
11
3.377199
21
24.816807
31
0.0
0
LINE
8
0
6
CONTINUOUS
10
3.348727
20
24.969654
30
0.0
11
3.373018
21
24.895107
31
0.0
0
LINE
8
0
6
CONTINUOUS
10
3.305969
20
25.035366
30
0.0
11
3.348727
21
24.969654
31
0.0
0
LINE
8
0
6
CONTINUOUS
10
3.247669
20
25.087780
30
0.0
11
3.305969
21
25.035366
31
0.0
0
LINE
8
0
6
CONTINUOUS
10
3.177792
20
25.123295
30
0.0
11
3.245700
21
25.088780
31
0.0
0
LINE
8
0
6
CONTINUOUS
10
3.101107
20
25.139515
30
0.0
11
3.177792
21
25.123295
31
0.0
0
LINE
8
0
6
CONTINUOUS
10
3.358732
20
24.740062
30
0.0
11
3.374802
21
24.816662
31
0.0
0
LINE
8
0
6
CONTINUOUS
10
3.374802
20
24.816662
30
0.0
11
3.370468
21
24.894840
31
0.0
0
LINE
8
0
6
CONTINUOUS
10
3.370468
20
24.894840
30
0.0
11
3.346027
21
24.969257
31
0.0
0
LINE
8
0
6
CONTINUOUS
10
3.346027
20
24.969257
30
0.0
11
3.303141
21
25.034862
31
0.0
0
LINE
8
0
6
CONTINUOUS
10
3.303141
20
25.034862
30
0.0
11
3.245700
21
25.086306
31
0.0
0
LINE
8
0
6
CONTINUOUS
10
3.244737
20
25.087169
30
0.0
11
3.174792
21
25.122600
31
0.0
0
LINE
8
0
6
CONTINUOUS
10
3.174792
20
25.122600
30
0.0
11
3.098072
21
25.138767
31
0.0
0
LINE
8
0
6
CONTINUOUS
10
3.098072
20
25.138767
30
0.0
11
3.019806
21
25.134548
31
0.0
0
LINE
8
0
6
CONTINUOUS
10
3.019806
20
25.134548
30
0.0
11
2.945330
21
25.110256
31
0.0
0
LINE
8
0
6
CONTINUOUS
10
2.945330
20
25.110256
30
0.0
11
2.879719
21
25.067516
31
0.0
0
LINE
8
0
6
CONTINUOUS
10
2.879719
20
25.067516
30
0.0
11
2.827443
21
25.009266
31
0.0
0
LINE
8
0
6
CONTINUOUS
10
2.827443
20
25.009266
30
0.0
11
2.792063
21
24.939464
31
0.0
0
LINE
8
0
6
CONTINUOUS
10
2.552343
20
24.257270
30
0.0
11
2.792063
21
24.939464
31
0.0
0
LINE
8
0
6
CONTINUOUS
10
3.116653
20
24.047571
30
0.0
11
3.360974
21
24.740101
31
0.0
0
LINE
8
0
6
CONTINUOUS
10
3.022507
20
25.135341
30
0.0
11
3.100778
21
25.139538
31
0.0
0
LINE
8
0
6
CONTINUOUS
10
3.115661
20
24.048332
30
0.0
11
3.358732
21
24.740062
31
0.0
0
LINE
8
0
6
CONTINUOUS
10
4.015217
20
22.817501
30
0.0
11
3.956013
21
23.035885
31
0.0
0
LINE
8
0
6
CONTINUOUS
10
3.956013
20
23.035885
30
0.0
11
3.941263
21
23.088489
31
0.0
0
LINE
8
0
6
CONTINUOUS
10
3.932354
20
23.104763
30
0.0
11
3.941263
21
23.088489
31
0.0
0
LINE
8
0
6
CONTINUOUS
10
4.015217
20
22.817501
30
0.0
11
3.932354
21
23.104763
31
0.0
0
LINE
8
0
6
CONTINUOUS
10
3.902343
20
23.171360
30
0.0
11
3.932354
21
23.104763
31
0.0
0
LINE
8
0
6
CONTINUOUS
10
0.309367
20
22.025265
30
0.0
11
0.391407
21
21.740490
31
0.0
0
LINE
8
0
6
CONTINUOUS
10
0.391407
20
21.740490
30
0.0
11
0.395466
21
21.727329
31
0.0
0
LINE
8
0
6
CONTINUOUS
10
0.309367
20
22.025265
30
0.0
11
0.401801
21
21.716762
31
0.0
0
LINE
8
0
6
CONTINUOUS
10
0.422243
20
21.671398
30
0.0
11
0.401801
21
21.716762
31
0.0
0
LINE
8
0
6
CONTINUOUS
10
0.410237
20
21.700619
30
0.0
11
0.395466
21
21.727329
31
0.0
0
LINE
8
0
6
CONTINUOUS
10
4.056883
20
22.448421
30
0.0
11
4.015217
21
22.817501
31
0.0
0
LINE
8
0
6
CONTINUOUS
10
4.015217
20
22.817501
30
0.0
11
3.902343
21
23.171360
31
0.0
0
LINE
8
0
6
CONTINUOUS
10
1.087283
20
23.981594
30
0.0
11
0.803538
21
23.741886
31
0.0
0
LINE
8
0
6
CONTINUOUS
10
3.752576
20
21.391330
30
0.0
11
3.922991
21
21.721363
31
0.0
0
LINE
8
0
6
CONTINUOUS
10
4.025742
20
22.078296
30
0.0
11
4.056883
21
22.448421
31
0.0
0
LINE
8
0
6
CONTINUOUS
10
1.819137
20
20.557987
30
0.0
11
2.189271
21
20.526859
31
0.0
0
LINE
8
0
6
CONTINUOUS
10
3.482897
20
23.780124
30
0.0
11
3.192438
21
24.011638
31
0.0
0
LINE
8
0
6
CONTINUOUS
10
2.135315
20
24.315899
30
0.0
11
1.766217
21
24.274219
31
0.0
0
LINE
8
0
6
CONTINUOUS
10
2.558369
20
20.568546
30
0.0
11
2.912247
21
20.681423
31
0.0
0
LINE
8
0
6
CONTINUOUS
10
0.401593
20
23.121403
30
0.0
11
0.298843
21
22.764469
31
0.0
0
LINE
8
0
6
CONTINUOUS
10
0.803538
20
23.741886
30
0.0
11
0.572008
21
23.451435
31
0.0
0
LINE
8
0
6
CONTINUOUS
10
3.902343
20
23.171360
30
0.0
11
3.722599
21
23.496403
31
0.0
0
LINE
8
0
6
CONTINUOUS
10
1.462190
20
20.660724
30
0.0
11
1.819137
21
20.557987
31
0.0
0
LINE
8
0
6
CONTINUOUS
10
3.922991
20
21.721363
30
0.0
11
4.025742
21
22.078296
31
0.0
0
LINE
8
0
6
CONTINUOUS
10
1.132146
20
20.831127
30
0.0
11
1.462190
21
20.660724
31
0.0
0
LINE
8
0
6
CONTINUOUS
10
3.521046
20
21.100879
30
0.0
11
3.752576
21
21.391330
31
0.0
0
LINE
8
0
6
CONTINUOUS
10
1.412339
20
24.161335
30
0.0
11
1.087283
21
23.981594
31
0.0
0
LINE
8
0
6
CONTINUOUS
10
0.841689
20
21.062641
30
0.0
11
1.132146
21
20.831127
31
0.0
0
LINE
8
0
6
CONTINUOUS
10
0.267702
20
22.394344
30
0.0
11
0.309369
21
22.025265
31
0.0
0
LINE
8
0
6
CONTINUOUS
10
0.601986
20
21.346363
30
0.0
11
0.841689
21
21.062641
31
0.0
0
LINE
8
0
6
CONTINUOUS
10
0.572008
20
23.451435
30
0.0
11
0.401593
21
23.121403
31
0.0
0
LINE
8
0
6
CONTINUOUS
10
3.192438
20
24.011638
30
0.0
11
3.117606
21
24.050273
31
0.0
0
LINE
8
0
6
CONTINUOUS
10
0.309369
20
22.025265
30
0.0
11
0.422243
21
21.671398
31
0.0
0
LINE
8
0
6
CONTINUOUS
10
0.298843
20
22.764469
30
0.0
11
0.267702
21
22.394344
31
0.0
0
LINE
8
0
6
CONTINUOUS
10
2.505449
20
24.284771
30
0.0
11
2.135315
21
24.315899
31
0.0
0
LINE
8
0
6
CONTINUOUS
10
3.722599
20
23.496403
30
0.0
11
3.482897
21
23.780124
31
0.0
0
LINE
8
0
6
CONTINUOUS
10
1.766217
20
24.274219
30
0.0
11
1.412339
21
24.161335
31
0.0
0
LINE
8
0
6
CONTINUOUS
10
2.189271
20
20.526859
30
0.0
11
2.558369
21
20.568546
31
0.0
0
LINE
8
0
6
CONTINUOUS
10
0.422243
20
21.671398
30
0.0
11
0.601986
21
21.346363
31
0.0
0
LINE
8
0
6
CONTINUOUS
10
3.237305
20
20.861171
30
0.0
11
3.521046
21
21.100879
31
0.0
0
LINE
8
0
6
CONTINUOUS
10
2.912247
20
20.681423
30
0.0
11
3.237305
21
20.861171
31
0.0
0
LINE
8
0
6
CONTINUOUS
10
2.558177
20
24.269595
30
0.0
11
2.505449
21
24.284771
31
0.0
0
LINE
8
0
6
CONTINUOUS
10
3.205698
20
-42.749996
30
0.0
11
3.245700
21
-42.749996
31
0.0
0
LINE
8
0
6
CONTINUOUS
10
2.145645
20
-47.950001
30
0.0
11
-4.006882
21
-47.950001
31
0.0
0
LINE
8
0
6
CONTINUOUS
10
2.425660
20
-47.950001
30
0.0
11
2.145645
21
-47.950001
31
0.0
0
LINE
8
0
6
CONTINUOUS
10
2.695672
20
-47.950001
30
0.0
11
2.425660
21
-47.950001
31
0.0
0
LINE
8
0
6
CONTINUOUS
10
2.925685
20
-47.950001
30
0.0
11
2.695672
21
-47.950001
31
0.0
0
LINE
8
0
6
CONTINUOUS
10
3.095692
20
-47.950001
30
0.0
11
2.925685
21
-47.950001
31
0.0
0
LINE
8
0
6
CONTINUOUS
10
3.205698
20
-47.950001
30
0.0
11
3.095692
21
-47.950001
31
0.0
0
LINE
8
0
6
CONTINUOUS
10
3.245700
20
-47.950001
30
0.0
11
3.205698
21
-47.950001
31
0.0
0
LINE
8
0
6
CONTINUOUS
10
3.205698
20
-42.749996
30
0.0
11
3.095692
21
-42.749996
31
0.0
0
LINE
8
0
6
CONTINUOUS
10
3.095692
20
-42.749996
30
0.0
11
2.925685
21
-42.749996
31
0.0
0
LINE
8
0
6
CONTINUOUS
10
2.695672
20
-42.749996
30
0.0
11
2.425660
21
-42.749996
31
0.0
0
LINE
8
0
6
CONTINUOUS
10
3.245700
20
-47.894585
30
0.0
11
3.245700
21
-47.950001
31
0.0
0
LINE
8
0
6
CONTINUOUS
10
2.425660
20
-42.749996
30
0.0
11
2.145645
21
-42.749996
31
0.0
0
LINE
8
0
6
CONTINUOUS
10
2.925685
20
-42.749996
30
0.0
11
2.695672
21
-42.749996
31
0.0
0
LINE
8
0
6
CONTINUOUS
10
2.425660
20
47.950001
30
0.0
11
2.145645
21
47.950001
31
0.0
0
LINE
8
0
6
CONTINUOUS
10
2.695672
20
47.950001
30
0.0
11
2.425660
21
47.950001
31
0.0
0
LINE
8
0
6
CONTINUOUS
10
2.925685
20
47.950001
30
0.0
11
2.695672
21
47.950001
31
0.0
0
LINE
8
0
6
CONTINUOUS
10
3.095692
20
47.950001
30
0.0
11
2.925685
21
47.950001
31
0.0
0
LINE
8
0
6
CONTINUOUS
10
3.205698
20
47.950001
30
0.0
11
3.095692
21
47.950001
31
0.0
0
LINE
8
0
6
CONTINUOUS
10
3.245700
20
47.950001
30
0.0
11
3.205698
21
47.950001
31
0.0
0
LINE
8
0
6
CONTINUOUS
10
3.245700
20
47.879169
30
0.0
11
3.245700
21
47.950001
31
0.0
0
LINE
8
0
6
CONTINUOUS
10
2.145645
20
47.950001
30
0.0
11
2.425660
21
47.950001
31
0.0
0
LINE
8
0
6
CONTINUOUS
10
2.425660
20
47.950001
30
0.0
11
2.695672
21
47.950001
31
0.0
0
LINE
8
0
6
CONTINUOUS
10
2.695672
20
47.950001
30
0.0
11
2.925685
21
47.950001
31
0.0
0
LINE
8
0
6
CONTINUOUS
10
2.925685
20
47.950001
30
0.0
11
3.095692
21
47.950001
31
0.0
0
LINE
8
0
6
CONTINUOUS
10
3.095692
20
47.950001
30
0.0
11
3.205698
21
47.950001
31
0.0
0
LINE
8
0
6
CONTINUOUS
10
3.205698
20
47.950001
30
0.0
11
3.245700
21
47.950001
31
0.0
0
LINE
8
0
6
CONTINUOUS
10
2.145645
20
42.699993
30
0.0
11
2.425660
21
42.699993
31
0.0
0
LINE
8
0
6
CONTINUOUS
10
2.425660
20
42.699993
30
0.0
11
2.695672
21
42.699993
31
0.0
0
LINE
8
0
6
CONTINUOUS
10
2.695672
20
42.699993
30
0.0
11
2.925685
21
42.699993
31
0.0
0
LINE
8
0
6
CONTINUOUS
10
2.925685
20
42.699993
30
0.0
11
3.095692
21
42.699993
31
0.0
0
LINE
8
0
6
CONTINUOUS
10
3.095692
20
42.699993
30
0.0
11
3.205698
21
42.699993
31
0.0
0
LINE
8
0
6
CONTINUOUS
10
3.205698
20
42.699993
30
0.0
11
3.245700
21
42.699993
31
0.0
0
LINE
8
0
6
CONTINUOUS
10
3.245700
20
-42.700001
30
0.0
11
3.195697
21
-42.749996
31
0.0
0
LINE
8
0
6
CONTINUOUS
10
3.245700
20
42.699993
30
0.0
11
3.245700
21
42.668682
31
0.0
0
LINE
8
0
6
CONTINUOUS
10
3.195697
20
42.749996
30
0.0
11
3.245700
21
42.699993
31
0.0
0
LINE
8
0
6
CONTINUOUS
10
3.245700
20
42.699993
30
0.0
11
3.205698
21
42.699993
31
0.0
0
LINE
8
0
6
CONTINUOUS
10
1.195596
20
42.699993
30
0.0
11
1.085590
21
42.699993
31
0.0
0
LINE
8
0
6
CONTINUOUS
10
1.045588
20
42.699993
30
0.0
11
1.095592
21
42.749996
31
0.0
0
LINE
8
0
6
CONTINUOUS
10
1.045588
20
-42.700001
30
0.0
11
1.095592
21
-42.749996
31
0.0
0
LINE
8
0
6
CONTINUOUS
10
1.865630
20
42.699993
30
0.0
11
1.595617
21
42.699993
31
0.0
0
LINE
8
0
6
CONTINUOUS
10
1.595617
20
42.699993
30
0.0
11
1.365604
21
42.699993
31
0.0
0
LINE
8
0
6
CONTINUOUS
10
1.365604
20
42.699993
30
0.0
11
1.195596
21
42.699993
31
0.0
0
LINE
8
0
6
CONTINUOUS
10
1.195596
20
42.699993
30
0.0
11
1.085590
21
42.699993
31
0.0
0
LINE
8
0
6
CONTINUOUS
10
1.045588
20
42.699993
30
0.0
11
1.045588
21
42.668682
31
0.0
0
LINE
8
0
6
CONTINUOUS
10
1.085590
20
42.699993
30
0.0
11
1.045588
21
42.699993
31
0.0
0
LINE
8
0
6
CONTINUOUS
10
1.865630
20
42.699993
30
0.0
11
2.145645
21
42.699993
31
0.0
0
LINE
8
0
6
CONTINUOUS
10
2.145645
20
42.749996
30
0.0
11
2.425660
21
42.749996
31
0.0
0
LINE
8
0
6
CONTINUOUS
10
2.425660
20
42.749996
30
0.0
11
2.695672
21
42.749996
31
0.0
0
LINE
8
0
6
CONTINUOUS
10
2.695672
20
42.749996
30
0.0
11
2.925685
21
42.749996
31
0.0
0
LINE
8
0
6
CONTINUOUS
10
2.925685
20
42.749996
30
0.0
11
3.095692
21
42.749996
31
0.0
0
LINE
8
0
6
CONTINUOUS
10
3.095692
20
42.749996
30
0.0
11
3.205698
21
42.749996
31
0.0
0
LINE
8
0
6
CONTINUOUS
10
3.245700
20
42.749996
30
0.0
11
3.245700
21
42.820766
31
0.0
0
LINE
8
0
6
CONTINUOUS
10
3.205698
20
42.749996
30
0.0
11
3.245700
21
42.749996
31
0.0
0
LINE
8
0
6
CONTINUOUS
10
3.245700
20
42.820766
30
0.0
11
3.245700
21
47.879169
31
0.0
0
LINE
8
0
6
CONTINUOUS
10
-4.056883
20
47.950001
30
0.0
11
-4.056883
21
47.879169
31
0.0
0
LINE
8
0
6
CONTINUOUS
10
2.145645
20
42.749996
30
0.0
11
-4.006882
21
42.749996
31
0.0
0
LINE
8
0
6
CONTINUOUS
10
-4.056883
20
42.820766
30
0.0
11
-4.056883
21
42.749996
31
0.0
0
LINE
8
0
6
CONTINUOUS
10
-4.056883
20
47.879169
30
0.0
11
-4.056883
21
42.820766
31
0.0
0
LINE
8
0
6
CONTINUOUS
10
-4.006882
20
47.950001
30
0.0
11
-4.056883
21
47.950001
31
0.0
0
LINE
8
0
6
CONTINUOUS
10
3.245700
20
42.668682
30
0.0
11
3.245700
21
42.614498
31
0.0
0
LINE
8
0
6
CONTINUOUS
10
1.045588
20
42.668682
30
0.0
11
1.045588
21
42.614498
31
0.0
0
LINE
8
0
6
CONTINUOUS
10
3.245700
20
-42.749996
30
0.0
11
3.245700
21
-42.805413
31
0.0
0
LINE
8
0
6
CONTINUOUS
10
3.245700
20
-42.805413
30
0.0
11
3.245700
21
-47.894585
31
0.0
0
LINE
8
0
6
CONTINUOUS
10
-4.056883
20
-42.749996
30
0.0
11
-4.056883
21
-42.805413
31
0.0
0
LINE
8
0
6
CONTINUOUS
10
-4.056883
20
-42.805413
30
0.0
11
-4.056883
21
-47.894585
31
0.0
0
LINE
8
0
6
CONTINUOUS
10
-4.056883
20
-47.950001
30
0.0
11
-4.006882
21
-47.950001
31
0.0
0
LINE
8
0
6
CONTINUOUS
10
-4.056883
20
-47.894585
30
0.0
11
-4.056883
21
-47.950001
31
0.0
0
LINE
8
0
6
CONTINUOUS
10
-4.006882
20
-42.749996
30
0.0
11
2.145645
21
-42.749996
31
0.0
0
LINE
8
0
6
CONTINUOUS
10
-4.056883
20
-42.749996
30
0.0
11
-4.006882
21
-42.749996
31
0.0
0
LINE
8
0
6
CONTINUOUS
10
3.095692
20
-42.700001
30
0.0
11
3.205698
21
-42.700001
31
0.0
0
LINE
8
0
6
CONTINUOUS
10
1.865630
20
-42.700001
30
0.0
11
2.145645
21
-42.700001
31
0.0
0
LINE
8
0
6
CONTINUOUS
10
1.085590
20
-42.700001
30
0.0
11
1.195596
21
-42.700001
31
0.0
0
LINE
8
0
6
CONTINUOUS
10
1.595617
20
-42.700001
30
0.0
11
1.865630
21
-42.700001
31
0.0
0
LINE
8
0
6
CONTINUOUS
10
1.195596
20
-42.700001
30
0.0
11
1.365604
21
-42.700001
31
0.0
0
LINE
8
0
6
CONTINUOUS
10
2.145645
20
-42.700001
30
0.0
11
2.425660
21
-42.700001
31
0.0
0
LINE
8
0
6
CONTINUOUS
10
1.365604
20
-42.700001
30
0.0
11
1.595617
21
-42.700001
31
0.0
0
LINE
8
0
6
CONTINUOUS
10
3.245700
20
-42.700001
30
0.0
11
3.245700
21
-42.678570
31
0.0
0
LINE
8
0
6
CONTINUOUS
10
3.205698
20
-42.700001
30
0.0
11
3.245700
21
-42.700001
31
0.0
0
LINE
8
0
6
CONTINUOUS
10
2.925685
20
-42.700001
30
0.0
11
3.095692
21
-42.700001
31
0.0
0
LINE
8
0
6
CONTINUOUS
10
2.425660
20
-42.700001
30
0.0
11
2.695672
21
-42.700001
31
0.0
0
LINE
8
0
6
CONTINUOUS
10
1.045588
20
-42.700001
30
0.0
11
1.085590
21
-42.700001
31
0.0
0
LINE
8
0
6
CONTINUOUS
10
2.695672
20
-42.700001
30
0.0
11
2.925685
21
-42.700001
31
0.0
0
LINE
8
0
6
CONTINUOUS
10
1.045588
20
-42.700001
30
0.0
11
1.045588
21
-42.678570
31
0.0
0
LINE
8
0
6
CONTINUOUS
10
3.245700
20
42.614498
30
0.0
11
3.245700
21
25.088780
31
0.0
0
LINE
8
0
6
CONTINUOUS
10
3.245700
20
24.413356
30
0.0
11
3.245700
21
23.969185
31
0.0
0
LINE
8
0
6
CONTINUOUS
10
3.245700
20
20.868264
30
0.0
11
3.245700
21
-42.620575
31
0.0
0
LINE
8
0
6
CONTINUOUS
10
1.045588
20
42.614498
30
0.0
11
1.045588
21
23.946371
31
0.0
0
LINE
8
0
6
CONTINUOUS
10
1.045588
20
20.900120
30
0.0
11
1.045588
21
-42.620575
31
0.0
0
LINE
8
0
6
CONTINUOUS
10
3.245700
20
-42.620575
30
0.0
11
3.245700
21
-42.678570
31
0.0
0
LINE
8
0
6
CONTINUOUS
10
1.045588
20
-42.620575
30
0.0
11
1.045588
21
-42.678570
31
0.0
0
LINE
8
0
6
CONTINUOUS
10
-4.006882
20
42.749996
30
0.0
11
-4.056883
21
42.749996
31
0.0
0
LINE
8
0
6
CONTINUOUS
10
2.145645
20
47.950001
30
0.0
11
-4.006882
21
47.950001
31
0.0
0
LINE
8
0
6
CONTINUOUS
10
-4.006882
20
47.950001
30
0.0
11
2.145645
21
47.950001
31
0.0
0
LINE
8
0
6
CONTINUOUS
10
-4.056883
20
47.950001
30
0.0
11
-4.006882
21
47.950001
31
0.0
0
ENDSEC
0
EOF
