999
unknown String-ID: 20550
0
SECTION
2
HEADER
9
$ACADVER
1
AC1009
9
$DWGCODEPAGE
3
unknown String-ID: 20561
0
ENDSEC
0
SECTION
2
TABLES
0
TABLE
2
LAYER
70
1
0
LAYER
2
0
70
0
62
7
6
CONTINUOUS
0
ENDTAB
0
ENDSEC
0
SECTION
2
ENTITIES
0
LINE
8
0
6
CONTINUOUS
10
4.015217
20
19.529808
30
0.0
11
3.956013
21
19.748184
31
0.0
0
LINE
8
0
6
CONTINUOUS
10
3.956013
20
19.748184
30
0.0
11
3.941263
21
19.800789
31
0.0
0
LINE
8
0
6
CONTINUOUS
10
3.932354
20
19.817070
30
0.0
11
3.941263
21
19.800789
31
0.0
0
LINE
8
0
6
CONTINUOUS
10
4.015217
20
19.529808
30
0.0
11
3.932354
21
19.817070
31
0.0
0
LINE
8
0
6
CONTINUOUS
10
3.902343
20
19.883663
30
0.0
11
3.932354
21
19.817070
31
0.0
0
LINE
8
0
6
CONTINUOUS
10
0.309367
20
18.737564
30
0.0
11
0.391407
21
18.452793
31
0.0
0
LINE
8
0
6
CONTINUOUS
10
0.391407
20
18.452793
30
0.0
11
0.395466
21
18.439636
31
0.0
0
LINE
8
0
6
CONTINUOUS
10
0.309367
20
18.737564
30
0.0
11
0.401801
21
18.429062
31
0.0
0
LINE
8
0
6
CONTINUOUS
10
0.422243
20
18.383705
30
0.0
11
0.401801
21
18.429062
31
0.0
0
LINE
8
0
6
CONTINUOUS
10
0.410237
20
18.412918
30
0.0
11
0.395466
21
18.439636
31
0.0
0
LINE
8
0
6
CONTINUOUS
10
4.056883
20
19.160721
30
0.0
11
4.015217
21
19.529808
31
0.0
0
LINE
8
0
6
CONTINUOUS
10
4.015217
20
19.529808
30
0.0
11
3.902343
21
19.883663
31
0.0
0
LINE
8
0
6
CONTINUOUS
10
1.087283
20
20.693893
30
0.0
11
0.803538
21
20.454193
31
0.0
0
LINE
8
0
6
CONTINUOUS
10
3.752576
20
18.103630
30
0.0
11
3.922991
21
18.433666
31
0.0
0
LINE
8
0
6
CONTINUOUS
10
4.025742
20
18.790603
30
0.0
11
4.056883
21
19.160721
31
0.0
0
LINE
8
0
6
CONTINUOUS
10
1.819137
20
17.270294
30
0.0
11
2.189271
21
17.239166
31
0.0
0
LINE
8
0
6
CONTINUOUS
10
3.482897
20
20.492431
30
0.0
11
3.192438
21
20.723938
31
0.0
0
LINE
8
0
6
CONTINUOUS
10
2.135315
20
21.028198
30
0.0
11
1.766217
21
20.986522
31
0.0
0
LINE
8
0
6
CONTINUOUS
10
2.558369
20
17.280849
30
0.0
11
2.912247
21
17.393726
31
0.0
0
LINE
8
0
6
CONTINUOUS
10
0.401593
20
19.833706
30
0.0
11
0.298843
21
19.476768
31
0.0
0
LINE
8
0
6
CONTINUOUS
10
0.803538
20
20.454193
30
0.0
11
0.572008
21
20.163742
31
0.0
0
LINE
8
0
6
CONTINUOUS
10
3.902343
20
19.883663
30
0.0
11
3.722599
21
20.208702
31
0.0
0
LINE
8
0
6
CONTINUOUS
10
1.462190
20
17.373031
30
0.0
11
1.819137
21
17.270294
31
0.0
0
LINE
8
0
6
CONTINUOUS
10
3.922991
20
18.433666
30
0.0
11
4.025742
21
18.790603
31
0.0
0
LINE
8
0
6
CONTINUOUS
10
1.132146
20
17.543430
30
0.0
11
1.462190
21
17.373031
31
0.0
0
LINE
8
0
6
CONTINUOUS
10
3.521046
20
17.813179
30
0.0
11
3.752576
21
18.103630
31
0.0
0
LINE
8
0
6
CONTINUOUS
10
1.412339
20
20.873642
30
0.0
11
1.087283
21
20.693893
31
0.0
0
LINE
8
0
6
CONTINUOUS
10
0.841689
20
17.774940
30
0.0
11
1.132146
21
17.543430
31
0.0
0
LINE
8
0
6
CONTINUOUS
10
0.267702
20
19.106647
30
0.0
11
0.309369
21
18.737564
31
0.0
0
LINE
8
0
6
CONTINUOUS
10
0.601986
20
18.058666
30
0.0
11
0.841689
21
17.774940
31
0.0
0
LINE
8
0
6
CONTINUOUS
10
0.572008
20
20.163742
30
0.0
11
0.401593
21
19.833706
31
0.0
0
LINE
8
0
6
CONTINUOUS
10
3.192438
20
20.723938
30
0.0
11
3.117607
21
20.762574
31
0.0
0
LINE
8
0
6
CONTINUOUS
10
0.309369
20
18.737564
30
0.0
11
0.422243
21
18.383705
31
0.0
0
LINE
8
0
6
CONTINUOUS
10
0.298843
20
19.476768
30
0.0
11
0.267702
21
19.106647
31
0.0
0
LINE
8
0
6
CONTINUOUS
10
2.505449
20
20.997070
30
0.0
11
2.135315
21
21.028198
31
0.0
0
LINE
8
0
6
CONTINUOUS
10
3.722599
20
20.208702
30
0.0
11
3.482897
21
20.492431
31
0.0
0
LINE
8
0
6
CONTINUOUS
10
1.766217
20
20.986522
30
0.0
11
1.412339
21
20.873642
31
0.0
0
LINE
8
0
6
CONTINUOUS
10
2.189271
20
17.239166
30
0.0
11
2.558369
21
17.280849
31
0.0
0
LINE
8
0
6
CONTINUOUS
10
0.422243
20
18.383705
30
0.0
11
0.601986
21
18.058666
31
0.0
0
LINE
8
0
6
CONTINUOUS
10
3.237305
20
17.573475
30
0.0
11
3.521046
21
17.813179
31
0.0
0
LINE
8
0
6
CONTINUOUS
10
2.912247
20
17.393726
30
0.0
11
3.237305
21
17.573475
31
0.0
0
LINE
8
0
6
CONTINUOUS
10
2.558175
20
20.981895
30
0.0
11
2.505449
21
20.997070
31
0.0
0
LINE
8
0
6
CONTINUOUS
10
0.274965
20
19.133693
30
0.0
11
0.339274
21
19.622146
31
0.0
0
LINE
8
0
6
CONTINUOUS
10
0.339274
20
18.645237
30
0.0
11
0.274965
21
19.133693
31
0.0
0
LINE
8
0
6
CONTINUOUS
10
0.293642
20
19.132915
30
0.0
11
0.339274
21
18.645237
31
0.0
0
LINE
8
0
6
CONTINUOUS
10
0.339274
20
18.645237
30
0.0
11
0.527819
21
18.190071
31
0.0
0
LINE
8
0
6
CONTINUOUS
10
0.527819
20
18.190071
30
0.0
11
0.827751
21
17.799217
31
0.0
0
LINE
8
0
6
CONTINUOUS
10
0.827751
20
17.799217
30
0.0
11
1.218630
21
17.499298
31
0.0
0
LINE
8
0
6
CONTINUOUS
10
1.218630
20
17.499298
30
0.0
11
1.673818
21
17.310764
31
0.0
0
LINE
8
0
6
CONTINUOUS
10
1.673818
20
17.310764
30
0.0
11
2.162295
21
17.246456
31
0.0
0
LINE
8
0
6
CONTINUOUS
10
2.162295
20
17.246456
30
0.0
11
2.650772
21
17.310764
31
0.0
0
LINE
8
0
6
CONTINUOUS
10
2.650772
20
17.310764
30
0.0
11
3.105961
21
17.499298
31
0.0
0
LINE
8
0
6
CONTINUOUS
10
3.105961
20
17.499298
30
0.0
11
3.496839
21
17.799217
31
0.0
0
LINE
8
0
6
CONTINUOUS
10
3.496839
20
17.799217
30
0.0
11
3.796773
21
18.190071
31
0.0
0
LINE
8
0
6
CONTINUOUS
10
3.796773
20
18.190071
30
0.0
11
3.985318
21
18.645237
31
0.0
0
LINE
8
0
6
CONTINUOUS
10
3.985318
20
18.645237
30
0.0
11
4.049627
21
19.133693
31
0.0
0
LINE
8
0
6
CONTINUOUS
10
4.049627
20
19.133693
30
0.0
11
3.985318
21
19.622143
31
0.0
0
LINE
8
0
6
CONTINUOUS
10
3.985318
20
19.622143
30
0.0
11
3.796771
21
20.077308
31
0.0
0
LINE
8
0
6
CONTINUOUS
10
3.796771
20
20.077308
30
0.0
11
3.496841
21
20.468166
31
0.0
0
LINE
8
0
6
CONTINUOUS
10
3.496841
20
20.468166
30
0.0
11
3.105963
21
20.768085
31
0.0
0
LINE
8
0
6
CONTINUOUS
10
3.105963
20
20.768085
30
0.0
11
2.650774
21
20.956623
31
0.0
0
LINE
8
0
6
CONTINUOUS
10
2.650774
20
20.956623
30
0.0
11
2.162297
21
21.020931
31
0.0
0
LINE
8
0
6
CONTINUOUS
10
2.162297
20
21.020931
30
0.0
11
1.673820
21
20.956623
31
0.0
0
LINE
8
0
6
CONTINUOUS
10
1.673820
20
20.956623
30
0.0
11
1.218632
21
20.768085
31
0.0
0
LINE
8
0
6
CONTINUOUS
10
1.218632
20
20.768085
30
0.0
11
0.827751
21
20.468170
31
0.0
0
LINE
8
0
6
CONTINUOUS
10
0.827751
20
20.468170
30
0.0
11
0.527819
21
20.077308
31
0.0
0
LINE
8
0
6
CONTINUOUS
10
0.527819
20
20.077308
30
0.0
11
0.339274
21
19.622146
31
0.0
0
LINE
8
0
6
CONTINUOUS
10
0.339274
20
19.622146
30
0.0
11
0.293642
21
19.132915
31
0.0
0
LINE
8
0
6
CONTINUOUS
10
3.377199
20
21.529114
30
0.0
11
3.360976
21
21.452404
31
0.0
0
LINE
8
0
6
CONTINUOUS
10
3.373020
20
21.607410
30
0.0
11
3.377199
21
21.529114
31
0.0
0
LINE
8
0
6
CONTINUOUS
10
3.348727
20
21.681957
30
0.0
11
3.373020
21
21.607410
31
0.0
0
LINE
8
0
6
CONTINUOUS
10
3.305971
20
21.747673
30
0.0
11
3.348727
21
21.681957
31
0.0
0
LINE
8
0
6
CONTINUOUS
10
3.247669
20
21.800083
30
0.0
11
3.305971
21
21.747673
31
0.0
0
LINE
8
0
6
CONTINUOUS
10
3.177792
20
21.835598
30
0.0
11
3.245700
21
21.801084
31
0.0
0
LINE
8
0
6
CONTINUOUS
10
3.101107
20
21.851822
30
0.0
11
3.177792
21
21.835598
31
0.0
0
LINE
8
0
6
CONTINUOUS
10
3.358733
20
21.452369
30
0.0
11
3.374802
21
21.528972
31
0.0
0
LINE
8
0
6
CONTINUOUS
10
3.374802
20
21.528972
30
0.0
11
3.370470
21
21.607151
31
0.0
0
LINE
8
0
6
CONTINUOUS
10
3.370470
20
21.607151
30
0.0
11
3.346027
21
21.681568
31
0.0
0
LINE
8
0
6
CONTINUOUS
10
3.346027
20
21.681568
30
0.0
11
3.303143
21
21.747169
31
0.0
0
LINE
8
0
6
CONTINUOUS
10
3.303143
20
21.747169
30
0.0
11
3.245700
21
21.798614
31
0.0
0
LINE
8
0
6
CONTINUOUS
10
3.244738
20
21.799476
30
0.0
11
3.174792
21
21.834911
31
0.0
0
LINE
8
0
6
CONTINUOUS
10
3.174792
20
21.834911
30
0.0
11
3.098073
21
21.851074
31
0.0
0
LINE
8
0
6
CONTINUOUS
10
3.098073
20
21.851074
30
0.0
11
3.019808
21
21.846859
31
0.0
0
LINE
8
0
6
CONTINUOUS
10
3.019808
20
21.846859
30
0.0
11
2.945332
21
21.822567
31
0.0
0
LINE
8
0
6
CONTINUOUS
10
2.945332
20
21.822567
30
0.0
11
2.879721
21
21.779823
31
0.0
0
LINE
8
0
6
CONTINUOUS
10
2.879721
20
21.779823
30
0.0
11
2.827443
21
21.721573
31
0.0
0
LINE
8
0
6
CONTINUOUS
10
2.827443
20
21.721573
30
0.0
11
2.792063
21
21.651771
31
0.0
0
LINE
8
0
6
CONTINUOUS
10
2.552346
20
20.969581
30
0.0
11
2.792063
21
21.651771
31
0.0
0
LINE
8
0
6
CONTINUOUS
10
3.116656
20
20.759880
30
0.0
11
3.360976
21
21.452404
31
0.0
0
LINE
8
0
6
CONTINUOUS
10
3.022508
20
21.847648
30
0.0
11
3.100778
21
21.851841
31
0.0
0
LINE
8
0
6
CONTINUOUS
10
3.115662
20
20.760643
30
0.0
11
3.358733
21
21.452369
31
0.0
0
LINE
8
0
6
CONTINUOUS
10
3.205698
20
-28.249996
30
0.0
11
3.245700
21
-28.249996
31
0.0
0
LINE
8
0
6
CONTINUOUS
10
1.235598
20
-28.249996
30
0.0
11
1.135593
21
-28.249996
31
0.0
0
LINE
8
0
6
CONTINUOUS
10
1.625618
20
-28.249996
30
0.0
11
1.875629
21
-28.249996
31
0.0
0
LINE
8
0
6
CONTINUOUS
10
1.405607
20
-28.249996
30
0.0
11
1.625618
21
-28.249996
31
0.0
0
LINE
8
0
6
CONTINUOUS
10
1.235598
20
-28.249996
30
0.0
11
1.405607
21
-28.249996
31
0.0
0
LINE
8
0
6
CONTINUOUS
10
1.135593
20
-28.249996
30
0.0
11
1.235598
21
-28.249996
31
0.0
0
LINE
8
0
6
CONTINUOUS
10
2.145645
20
-33.450001
30
0.0
11
-4.006882
21
-33.450001
31
0.0
0
LINE
8
0
6
CONTINUOUS
10
2.425660
20
-33.450001
30
0.0
11
2.145645
21
-33.450001
31
0.0
0
LINE
8
0
6
CONTINUOUS
10
2.695672
20
-33.450001
30
0.0
11
2.425660
21
-33.450001
31
0.0
0
LINE
8
0
6
CONTINUOUS
10
2.925685
20
-33.450001
30
0.0
11
2.695672
21
-33.450001
31
0.0
0
LINE
8
0
6
CONTINUOUS
10
3.095692
20
-33.450001
30
0.0
11
2.925685
21
-33.450001
31
0.0
0
LINE
8
0
6
CONTINUOUS
10
3.205698
20
-33.450001
30
0.0
11
3.095692
21
-33.450001
31
0.0
0
LINE
8
0
6
CONTINUOUS
10
3.245700
20
-33.450001
30
0.0
11
3.205698
21
-33.450001
31
0.0
0
LINE
8
0
6
CONTINUOUS
10
3.205698
20
-28.249996
30
0.0
11
3.095692
21
-28.249996
31
0.0
0
LINE
8
0
6
CONTINUOUS
10
3.095692
20
-28.249996
30
0.0
11
2.925685
21
-28.249996
31
0.0
0
LINE
8
0
6
CONTINUOUS
10
2.695672
20
-28.249996
30
0.0
11
2.425660
21
-28.249996
31
0.0
0
LINE
8
0
6
CONTINUOUS
10
3.245700
20
-33.394585
30
0.0
11
3.245700
21
-33.450001
31
0.0
0
LINE
8
0
6
CONTINUOUS
10
2.425660
20
-28.249996
30
0.0
11
2.145645
21
-28.249996
31
0.0
0
LINE
8
0
6
CONTINUOUS
10
2.925685
20
-28.249996
30
0.0
11
2.695672
21
-28.249996
31
0.0
0
LINE
8
0
6
CONTINUOUS
10
3.245700
20
33.379169
30
0.0
11
3.245700
21
33.450001
31
0.0
0
LINE
8
0
6
CONTINUOUS
10
2.145645
20
33.450001
30
0.0
11
2.425660
21
33.450001
31
0.0
0
LINE
8
0
6
CONTINUOUS
10
2.425660
20
33.450001
30
0.0
11
2.695672
21
33.450001
31
0.0
0
LINE
8
0
6
CONTINUOUS
10
2.695672
20
33.450001
30
0.0
11
2.925685
21
33.450001
31
0.0
0
LINE
8
0
6
CONTINUOUS
10
2.925685
20
33.450001
30
0.0
11
3.095692
21
33.450001
31
0.0
0
LINE
8
0
6
CONTINUOUS
10
3.095692
20
33.450001
30
0.0
11
3.205698
21
33.450001
31
0.0
0
LINE
8
0
6
CONTINUOUS
10
3.205698
20
33.450001
30
0.0
11
3.245700
21
33.450001
31
0.0
0
LINE
8
0
6
CONTINUOUS
10
2.145645
20
-28.249996
30
0.0
11
2.415659
21
-28.249996
31
0.0
0
LINE
8
0
6
CONTINUOUS
10
2.415659
20
-28.249996
30
0.0
11
2.665671
21
-28.249996
31
0.0
0
LINE
8
0
6
CONTINUOUS
10
2.665671
20
-28.249996
30
0.0
11
2.885682
21
-28.249996
31
0.0
0
LINE
8
0
6
CONTINUOUS
10
2.885682
20
-28.249996
30
0.0
11
3.055691
21
-28.249996
31
0.0
0
LINE
8
0
6
CONTINUOUS
10
3.055691
20
-28.249996
30
0.0
11
3.155695
21
-28.249996
31
0.0
0
LINE
8
0
6
CONTINUOUS
10
3.155695
20
-28.249996
30
0.0
11
3.195697
21
-28.249996
31
0.0
0
LINE
8
0
6
CONTINUOUS
10
2.145645
20
28.200001
30
0.0
11
2.425660
21
28.200001
31
0.0
0
LINE
8
0
6
CONTINUOUS
10
2.425660
20
28.200001
30
0.0
11
2.695672
21
28.200001
31
0.0
0
LINE
8
0
6
CONTINUOUS
10
2.695672
20
28.200001
30
0.0
11
2.925685
21
28.200001
31
0.0
0
LINE
8
0
6
CONTINUOUS
10
2.925685
20
28.200001
30
0.0
11
3.095692
21
28.200001
31
0.0
0
LINE
8
0
6
CONTINUOUS
10
3.095692
20
28.200001
30
0.0
11
3.205698
21
28.200001
31
0.0
0
LINE
8
0
6
CONTINUOUS
10
3.205698
20
28.200001
30
0.0
11
3.245700
21
28.200001
31
0.0
0
LINE
8
0
6
CONTINUOUS
10
3.245700
20
-28.200001
30
0.0
11
3.195697
21
-28.249996
31
0.0
0
LINE
8
0
6
CONTINUOUS
10
3.195697
20
-28.249996
30
0.0
11
3.155695
21
-28.249996
31
0.0
0
LINE
8
0
6
CONTINUOUS
10
3.245700
20
28.200001
30
0.0
11
3.245700
21
28.168689
31
0.0
0
LINE
8
0
6
CONTINUOUS
10
3.195697
20
28.250004
30
0.0
11
3.245700
21
28.200001
31
0.0
0
LINE
8
0
6
CONTINUOUS
10
3.245700
20
28.200001
30
0.0
11
3.205698
21
28.200001
31
0.0
0
LINE
8
0
6
CONTINUOUS
10
1.195596
20
28.200001
30
0.0
11
1.085590
21
28.200001
31
0.0
0
LINE
8
0
6
CONTINUOUS
10
1.045588
20
28.200001
30
0.0
11
1.095592
21
28.250004
31
0.0
0
LINE
8
0
6
CONTINUOUS
10
1.875629
20
-28.249996
30
0.0
11
2.145645
21
-28.249996
31
0.0
0
LINE
8
0
6
CONTINUOUS
10
1.045588
20
-28.200001
30
0.0
11
1.095592
21
-28.249996
31
0.0
0
LINE
8
0
6
CONTINUOUS
10
1.095592
20
-28.249996
30
0.0
11
1.135593
21
-28.249996
31
0.0
0
LINE
8
0
6
CONTINUOUS
10
1.865630
20
28.200001
30
0.0
11
1.595617
21
28.200001
31
0.0
0
LINE
8
0
6
CONTINUOUS
10
1.595617
20
28.200001
30
0.0
11
1.365604
21
28.200001
31
0.0
0
LINE
8
0
6
CONTINUOUS
10
1.365604
20
28.200001
30
0.0
11
1.195596
21
28.200001
31
0.0
0
LINE
8
0
6
CONTINUOUS
10
1.195596
20
28.200001
30
0.0
11
1.085590
21
28.200001
31
0.0
0
LINE
8
0
6
CONTINUOUS
10
1.045588
20
28.200001
30
0.0
11
1.045588
21
28.168689
31
0.0
0
LINE
8
0
6
CONTINUOUS
10
1.085590
20
28.200001
30
0.0
11
1.045588
21
28.200001
31
0.0
0
LINE
8
0
6
CONTINUOUS
10
1.865630
20
28.200001
30
0.0
11
2.145645
21
28.200001
31
0.0
0
LINE
8
0
6
CONTINUOUS
10
2.145645
20
28.250004
30
0.0
11
2.425660
21
28.250004
31
0.0
0
LINE
8
0
6
CONTINUOUS
10
2.425660
20
28.250004
30
0.0
11
2.695672
21
28.250004
31
0.0
0
LINE
8
0
6
CONTINUOUS
10
2.695672
20
28.250004
30
0.0
11
2.925685
21
28.250004
31
0.0
0
LINE
8
0
6
CONTINUOUS
10
2.925685
20
28.250004
30
0.0
11
3.095692
21
28.250004
31
0.0
0
LINE
8
0
6
CONTINUOUS
10
3.095692
20
28.250004
30
0.0
11
3.205698
21
28.250004
31
0.0
0
LINE
8
0
6
CONTINUOUS
10
3.245700
20
28.250004
30
0.0
11
3.245700
21
28.320774
31
0.0
0
LINE
8
0
6
CONTINUOUS
10
3.205698
20
28.250004
30
0.0
11
3.245700
21
28.250004
31
0.0
0
LINE
8
0
6
CONTINUOUS
10
3.245700
20
28.320774
30
0.0
11
3.245700
21
33.379169
31
0.0
0
LINE
8
0
6
CONTINUOUS
10
-4.056883
20
33.450001
30
0.0
11
-4.056883
21
33.379169
31
0.0
0
LINE
8
0
6
CONTINUOUS
10
2.145645
20
28.250004
30
0.0
11
-4.006882
21
28.250004
31
0.0
0
LINE
8
0
6
CONTINUOUS
10
-4.056883
20
28.320774
30
0.0
11
-4.056883
21
28.250004
31
0.0
0
LINE
8
0
6
CONTINUOUS
10
-4.056883
20
33.379169
30
0.0
11
-4.056883
21
28.320774
31
0.0
0
LINE
8
0
6
CONTINUOUS
10
3.245700
20
28.168689
30
0.0
11
3.245700
21
28.114506
31
0.0
0
LINE
8
0
6
CONTINUOUS
10
1.045588
20
28.168689
30
0.0
11
1.045588
21
28.114506
31
0.0
0
LINE
8
0
6
CONTINUOUS
10
3.195697
20
-28.249996
30
0.0
11
3.155695
21
-28.249996
31
0.0
0
LINE
8
0
6
CONTINUOUS
10
3.155695
20
-28.249996
30
0.0
11
3.195697
21
-28.249996
31
0.0
0
LINE
8
0
6
CONTINUOUS
10
2.885682
20
-28.249996
30
0.0
11
3.055691
21
-28.249996
31
0.0
0
LINE
8
0
6
CONTINUOUS
10
2.665671
20
-28.249996
30
0.0
11
2.885682
21
-28.249996
31
0.0
0
LINE
8
0
6
CONTINUOUS
10
2.415659
20
-28.249996
30
0.0
11
2.665671
21
-28.249996
31
0.0
0
LINE
8
0
6
CONTINUOUS
10
2.145645
20
-28.249996
30
0.0
11
2.415659
21
-28.249996
31
0.0
0
LINE
8
0
6
CONTINUOUS
10
-4.056883
20
-28.249996
30
0.0
11
-4.006882
21
-28.249996
31
0.0
0
LINE
8
0
6
CONTINUOUS
10
3.205698
20
-28.249996
30
0.0
11
3.245700
21
-28.249996
31
0.0
0
LINE
8
0
6
CONTINUOUS
10
3.245700
20
-28.249996
30
0.0
11
3.245700
21
-28.305413
31
0.0
0
LINE
8
0
6
CONTINUOUS
10
3.245700
20
-28.305413
30
0.0
11
3.245700
21
-33.394585
31
0.0
0
LINE
8
0
6
CONTINUOUS
10
1.095592
20
-28.249996
30
0.0
11
-4.006882
21
-28.249996
31
0.0
0
LINE
8
0
6
CONTINUOUS
10
-4.056883
20
-28.249996
30
0.0
11
-4.056883
21
-28.305413
31
0.0
0
LINE
8
0
6
CONTINUOUS
10
-4.056883
20
-28.305413
30
0.0
11
-4.056883
21
-33.394585
31
0.0
0
LINE
8
0
6
CONTINUOUS
10
-4.056883
20
-33.450001
30
0.0
11
-4.006882
21
-33.450001
31
0.0
0
LINE
8
0
6
CONTINUOUS
10
-4.056883
20
-33.394585
30
0.0
11
-4.056883
21
-33.450001
31
0.0
0
LINE
8
0
6
CONTINUOUS
10
-4.006882
20
-28.249996
30
0.0
11
2.145645
21
-28.249996
31
0.0
0
LINE
8
0
6
CONTINUOUS
10
-4.056883
20
-28.249996
30
0.0
11
-4.006882
21
-28.249996
31
0.0
0
LINE
8
0
6
CONTINUOUS
10
3.095692
20
-28.200001
30
0.0
11
3.205698
21
-28.200001
31
0.0
0
LINE
8
0
6
CONTINUOUS
10
1.865630
20
-28.200001
30
0.0
11
2.145645
21
-28.200001
31
0.0
0
LINE
8
0
6
CONTINUOUS
10
1.085590
20
-28.200001
30
0.0
11
1.195596
21
-28.200001
31
0.0
0
LINE
8
0
6
CONTINUOUS
10
1.595617
20
-28.200001
30
0.0
11
1.865630
21
-28.200001
31
0.0
0
LINE
8
0
6
CONTINUOUS
10
1.195596
20
-28.200001
30
0.0
11
1.365604
21
-28.200001
31
0.0
0
LINE
8
0
6
CONTINUOUS
10
2.145645
20
-28.200001
30
0.0
11
2.425660
21
-28.200001
31
0.0
0
LINE
8
0
6
CONTINUOUS
10
1.365604
20
-28.200001
30
0.0
11
1.595617
21
-28.200001
31
0.0
0
LINE
8
0
6
CONTINUOUS
10
3.245700
20
-28.200001
30
0.0
11
3.245700
21
-28.178570
31
0.0
0
LINE
8
0
6
CONTINUOUS
10
3.205698
20
-28.200001
30
0.0
11
3.245700
21
-28.200001
31
0.0
0
LINE
8
0
6
CONTINUOUS
10
2.925685
20
-28.200001
30
0.0
11
3.095692
21
-28.200001
31
0.0
0
LINE
8
0
6
CONTINUOUS
10
2.425660
20
-28.200001
30
0.0
11
2.695672
21
-28.200001
31
0.0
0
LINE
8
0
6
CONTINUOUS
10
1.045588
20
-28.200001
30
0.0
11
1.085590
21
-28.200001
31
0.0
0
LINE
8
0
6
CONTINUOUS
10
2.695672
20
-28.200001
30
0.0
11
2.925685
21
-28.200001
31
0.0
0
LINE
8
0
6
CONTINUOUS
10
1.045588
20
-28.200001
30
0.0
11
1.045588
21
-28.178570
31
0.0
0
LINE
8
0
6
CONTINUOUS
10
3.245700
20
28.114506
30
0.0
11
3.245700
21
21.801084
31
0.0
0
LINE
8
0
6
CONTINUOUS
10
3.245700
20
21.125657
30
0.0
11
3.245700
21
20.681486
31
0.0
0
LINE
8
0
6
CONTINUOUS
10
3.245700
20
17.580568
30
0.0
11
3.245700
21
-28.120575
31
0.0
0
LINE
8
0
6
CONTINUOUS
10
1.045588
20
28.114506
30
0.0
11
1.045588
21
20.658672
31
0.0
0
LINE
8
0
6
CONTINUOUS
10
1.045588
20
17.612421
30
0.0
11
1.045588
21
-28.120575
31
0.0
0
LINE
8
0
6
CONTINUOUS
10
3.245700
20
-28.120575
30
0.0
11
3.245700
21
-28.178570
31
0.0
0
LINE
8
0
6
CONTINUOUS
10
1.045588
20
-28.120575
30
0.0
11
1.045588
21
-28.178570
31
0.0
0
LINE
8
0
6
CONTINUOUS
10
-4.006882
20
28.250004
30
0.0
11
-4.056883
21
28.250004
31
0.0
0
LINE
8
0
6
CONTINUOUS
10
-4.006882
20
33.450001
30
0.0
11
2.145645
21
33.450001
31
0.0
0
LINE
8
0
6
CONTINUOUS
10
-4.056883
20
33.450001
30
0.0
11
-4.006882
21
33.450001
31
0.0
0
ENDSEC
0
EOF
