999
unknown String-ID: 20550
0
SECTION
2
HEADER
9
$ACADVER
1
AC1009
9
$DWGCODEPAGE
3
unknown String-ID: 20561
0
ENDSEC
0
SECTION
2
TABLES
0
TABLE
2
LAYER
70
1
0
LAYER
2
0
70
0
62
7
6
CONTINUOUS
0
ENDTAB
0
ENDSEC
0
SECTION
2
ENTITIES
0
LINE
8
0
6
CONTINUOUS
10
-0.002129
20
-0.012948
30
0.0
11
-0.002603
21
-0.012948
31
0.0
0
LINE
8
0
6
CONTINUOUS
10
-0.002603
20
-0.055920
30
0.0
11
-0.002129
21
-0.055920
31
0.0
0
LINE
8
0
6
CONTINUOUS
10
0.021538
20
-0.012948
30
0.0
11
-0.002129
21
-0.012948
31
0.0
0
LINE
8
0
6
CONTINUOUS
10
-0.002129
20
-0.055920
30
0.0
11
0.021538
21
-0.055920
31
0.0
0
LINE
8
0
6
CONTINUOUS
10
0.022104
20
-0.015893
30
0.0
11
0.022104
21
-0.014651
31
0.0
0
LINE
8
0
6
CONTINUOUS
10
0.022104
20
-0.018838
30
0.0
11
0.022104
21
-0.017319
31
0.0
0
LINE
8
0
6
CONTINUOUS
10
0.022104
20
-0.034434
30
0.0
11
0.022104
21
-0.018838
31
0.0
0
LINE
8
0
6
CONTINUOUS
10
0.022104
20
-0.013710
30
0.0
11
0.022104
21
-0.013121
31
0.0
0
LINE
8
0
6
CONTINUOUS
10
0.022104
20
-0.012948
30
0.0
11
0.021538
21
-0.012948
31
0.0
0
LINE
8
0
6
CONTINUOUS
10
0.022104
20
-0.013121
30
0.0
11
0.022104
21
-0.012948
31
0.0
0
LINE
8
0
6
CONTINUOUS
10
0.022104
20
-0.014651
30
0.0
11
0.022104
21
-0.013710
31
0.0
0
LINE
8
0
6
CONTINUOUS
10
0.022104
20
-0.017319
30
0.0
11
0.022104
21
-0.015893
31
0.0
0
LINE
8
0
6
CONTINUOUS
10
0.022104
20
-0.054217
30
0.0
11
0.022104
21
-0.052975
31
0.0
0
LINE
8
0
6
CONTINUOUS
10
0.022104
20
-0.051548
30
0.0
11
0.022104
21
-0.050030
31
0.0
0
LINE
8
0
6
CONTINUOUS
10
0.022104
20
-0.050030
30
0.0
11
0.022104
21
-0.034434
31
0.0
0
LINE
8
0
6
CONTINUOUS
10
0.022104
20
-0.055746
30
0.0
11
0.022104
21
-0.055158
31
0.0
0
LINE
8
0
6
CONTINUOUS
10
0.022104
20
-0.055920
30
0.0
11
0.022104
21
-0.055746
31
0.0
0
LINE
8
0
6
CONTINUOUS
10
0.021538
20
-0.055920
30
0.0
11
0.022104
21
-0.055920
31
0.0
0
LINE
8
0
6
CONTINUOUS
10
0.022104
20
-0.055158
30
0.0
11
0.022104
21
-0.054217
31
0.0
0
LINE
8
0
6
CONTINUOUS
10
0.022104
20
-0.052975
30
0.0
11
0.022104
21
-0.051548
31
0.0
0
LINE
8
0
6
CONTINUOUS
10
-0.003888
20
0.077995
30
0.0
11
-0.021334
21
0.077995
31
0.0
0
LINE
8
0
6
CONTINUOUS
10
-0.021334
20
0.077995
30
0.0
11
-0.003888
21
0.077995
31
0.0
0
LINE
8
0
6
CONTINUOUS
10
-0.003888
20
0.077995
30
0.0
11
-0.021334
21
0.077995
31
0.0
0
LINE
8
0
6
CONTINUOUS
10
-0.021334
20
0.077995
30
0.0
11
-0.003888
21
0.077995
31
0.0
0
LINE
8
0
6
CONTINUOUS
10
-0.021334
20
0.077995
30
0.0
11
-0.003888
21
0.077995
31
0.0
0
LINE
8
0
6
CONTINUOUS
10
-0.003888
20
0.077995
30
0.0
11
-0.021334
21
0.077995
31
0.0
0
LINE
8
0
6
CONTINUOUS
10
-0.021334
20
0.077995
30
0.0
11
-0.022104
21
0.077995
31
0.0
0
LINE
8
0
6
CONTINUOUS
10
-0.022104
20
0.077995
30
0.0
11
-0.022104
21
0.077225
31
0.0
0
LINE
8
0
6
CONTINUOUS
10
-0.002603
20
-0.016549
30
0.0
11
-0.002603
21
0.005156
31
0.0
0
LINE
8
0
6
CONTINUOUS
10
-0.002603
20
0.053385
30
0.0
11
-0.002603
21
0.077225
31
0.0
0
LINE
8
0
6
CONTINUOUS
10
-0.003888
20
0.077995
30
0.0
11
-0.021334
21
0.077995
31
0.0
0
LINE
8
0
6
CONTINUOUS
10
-0.022104
20
0.077995
30
0.0
11
-0.021334
21
0.077995
31
0.0
0
LINE
8
0
6
CONTINUOUS
10
-0.021334
20
0.077995
30
0.0
11
-0.022104
21
0.077995
31
0.0
0
LINE
8
0
6
CONTINUOUS
10
-0.002603
20
0.077995
30
0.0
11
-0.003888
21
0.077995
31
0.0
0
LINE
8
0
6
CONTINUOUS
10
-0.003888
20
0.077995
30
0.0
11
-0.002603
21
0.077995
31
0.0
0
LINE
8
0
6
CONTINUOUS
10
-0.002603
20
0.077995
30
0.0
11
-0.003888
21
0.077995
31
0.0
0
LINE
8
0
6
CONTINUOUS
10
-0.003888
20
0.077995
30
0.0
11
-0.002603
21
0.077995
31
0.0
0
LINE
8
0
6
CONTINUOUS
10
-0.022104
20
0.077995
30
0.0
11
-0.021334
21
0.077995
31
0.0
0
LINE
8
0
6
CONTINUOUS
10
-0.021334
20
0.077995
30
0.0
11
-0.022104
21
0.077995
31
0.0
0
LINE
8
0
6
CONTINUOUS
10
-0.022104
20
0.077995
30
0.0
11
-0.021334
21
0.077995
31
0.0
0
LINE
8
0
6
CONTINUOUS
10
-0.021334
20
0.077995
30
0.0
11
-0.022104
21
0.077995
31
0.0
0
LINE
8
0
6
CONTINUOUS
10
-0.002603
20
0.005156
30
0.0
11
-0.002603
21
0.029271
31
0.0
0
LINE
8
0
6
CONTINUOUS
10
-0.022104
20
-0.031003
30
0.0
11
-0.022104
21
-0.077225
31
0.0
0
LINE
8
0
6
CONTINUOUS
10
-0.022104
20
0.005156
30
0.0
11
-0.022104
21
-0.016549
31
0.0
0
LINE
8
0
6
CONTINUOUS
10
-0.002603
20
-0.031003
30
0.0
11
-0.002603
21
-0.016549
31
0.0
0
LINE
8
0
6
CONTINUOUS
10
-0.002603
20
0.029271
30
0.0
11
-0.002603
21
0.053385
31
0.0
0
LINE
8
0
6
CONTINUOUS
10
-0.022104
20
0.029271
30
0.0
11
-0.022104
21
0.005156
31
0.0
0
LINE
8
0
6
CONTINUOUS
10
-0.022104
20
0.077225
30
0.0
11
-0.022104
21
0.053385
31
0.0
0
LINE
8
0
6
CONTINUOUS
10
-0.022104
20
-0.016549
30
0.0
11
-0.022104
21
-0.031003
31
0.0
0
LINE
8
0
6
CONTINUOUS
10
-0.022104
20
-0.077995
30
0.0
11
-0.021334
21
-0.077995
31
0.0
0
LINE
8
0
6
CONTINUOUS
10
-0.022104
20
-0.077225
30
0.0
11
-0.022104
21
-0.077995
31
0.0
0
LINE
8
0
6
CONTINUOUS
10
-0.022104
20
0.053385
30
0.0
11
-0.022104
21
0.029271
31
0.0
0
LINE
8
0
6
CONTINUOUS
10
-0.002603
20
0.077995
30
0.0
11
-0.003888
21
0.077995
31
0.0
0
LINE
8
0
6
CONTINUOUS
10
-0.002603
20
0.077225
30
0.0
11
-0.002603
21
0.077995
31
0.0
0
LINE
8
0
6
CONTINUOUS
10
-0.002603
20
0.077995
30
0.0
11
-0.003888
21
0.077995
31
0.0
0
LINE
8
0
6
CONTINUOUS
10
-0.003888
20
0.077995
30
0.0
11
-0.002603
21
0.077995
31
0.0
0
LINE
8
0
6
CONTINUOUS
10
-0.002603
20
-0.077225
30
0.0
11
-0.002603
21
-0.031003
31
0.0
0
LINE
8
0
6
CONTINUOUS
10
-0.021334
20
-0.077995
30
0.0
11
-0.003888
21
-0.077995
31
0.0
0
LINE
8
0
6
CONTINUOUS
10
-0.003888
20
-0.077995
30
0.0
11
-0.002603
21
-0.077995
31
0.0
0
LINE
8
0
6
CONTINUOUS
10
-0.002603
20
-0.077995
30
0.0
11
-0.002603
21
-0.077225
31
0.0
0
ENDSEC
0
EOF
