999
unknown String-ID: 20550
0
SECTION
2
HEADER
9
$ACADVER
1
AC1009
9
$DWGCODEPAGE
3
unknown String-ID: 20561
0
ENDSEC
0
SECTION
2
TABLES
0
TABLE
2
LAYER
70
1
0
LAYER
2
0
70
0
62
7
6
CONTINUOUS
0
ENDTAB
0
ENDSEC
0
SECTION
2
ENTITIES
0
LINE
8
0
6
CONTINUOUS
10
0.088177
20
-0.012005
30
0.0
11
0.083966
21
-0.012005
31
0.0
0
LINE
8
0
6
CONTINUOUS
10
0.083966
20
-0.012005
30
0.0
11
0.080879
21
-0.012005
31
0.0
0
LINE
8
0
6
CONTINUOUS
10
0.080879
20
-0.012005
30
0.0
11
0.076738
21
-0.012005
31
0.0
0
LINE
8
0
6
CONTINUOUS
10
0.076738
20
-0.012005
30
0.0
11
0.072597
21
-0.012005
31
0.0
0
LINE
8
0
6
CONTINUOUS
10
0.072597
20
-0.012005
30
0.0
11
0.068738
21
-0.012005
31
0.0
0
LINE
8
0
6
CONTINUOUS
10
0.068738
20
-0.012005
30
0.0
11
0.065424
21
-0.012005
31
0.0
0
LINE
8
0
6
CONTINUOUS
10
0.065424
20
-0.012005
30
0.0
11
0.062882
21
-0.012005
31
0.0
0
LINE
8
0
6
CONTINUOUS
10
0.062882
20
-0.012005
30
0.0
11
0.061283
21
-0.012005
31
0.0
0
LINE
8
0
6
CONTINUOUS
10
0.061283
20
-0.012005
30
0.0
11
0.060738
21
-0.012005
31
0.0
0
LINE
8
0
6
CONTINUOUS
10
0.094157
20
-0.012106
30
0.0
11
0.094157
21
-0.010793
31
0.0
0
LINE
8
0
6
CONTINUOUS
10
0.060516
20
-0.011702
30
0.0
11
0.060293
21
-0.011399
31
0.0
0
LINE
8
0
6
CONTINUOUS
10
0.093519
20
-0.010793
30
0.0
11
0.085580
21
-0.010793
31
0.0
0
LINE
8
0
6
CONTINUOUS
10
0.060738
20
-0.012005
30
0.0
11
0.061157
21
-0.012005
31
0.0
0
LINE
8
0
6
CONTINUOUS
10
0.060516
20
-0.011702
30
0.0
11
0.060738
21
-0.012005
31
0.0
0
LINE
8
0
6
CONTINUOUS
10
0.090202
20
-0.012005
30
0.0
11
0.088177
21
-0.012005
31
0.0
0
LINE
8
0
6
CONTINUOUS
10
0.060293
20
-0.011399
30
0.0
11
0.060070
21
-0.011096
31
0.0
0
LINE
8
0
6
CONTINUOUS
10
0.059848
20
-0.010793
30
0.0
11
0.059848
21
-0.012106
31
0.0
0
LINE
8
0
6
CONTINUOUS
10
0.094157
20
-0.070975
30
0.0
11
0.094157
21
-0.012106
31
0.0
0
LINE
8
0
6
CONTINUOUS
10
0.059848
20
-0.012106
30
0.0
11
0.059848
21
-0.070598
31
0.0
0
LINE
8
0
6
CONTINUOUS
10
0.083966
20
-0.072005
30
0.0
11
0.088177
21
-0.072005
31
0.0
0
LINE
8
0
6
CONTINUOUS
10
0.080879
20
-0.072005
30
0.0
11
0.083966
21
-0.072005
31
0.0
0
LINE
8
0
6
CONTINUOUS
10
0.076738
20
-0.072005
30
0.0
11
0.080879
21
-0.072005
31
0.0
0
LINE
8
0
6
CONTINUOUS
10
0.072597
20
-0.072005
30
0.0
11
0.076738
21
-0.072005
31
0.0
0
LINE
8
0
6
CONTINUOUS
10
0.068738
20
-0.072005
30
0.0
11
0.072597
21
-0.072005
31
0.0
0
LINE
8
0
6
CONTINUOUS
10
0.065424
20
-0.072005
30
0.0
11
0.068738
21
-0.072005
31
0.0
0
LINE
8
0
6
CONTINUOUS
10
0.062882
20
-0.072005
30
0.0
11
0.065424
21
-0.072005
31
0.0
0
LINE
8
0
6
CONTINUOUS
10
0.061283
20
-0.072005
30
0.0
11
0.062882
21
-0.072005
31
0.0
0
LINE
8
0
6
CONTINUOUS
10
0.060738
20
-0.072005
30
0.0
11
0.061283
21
-0.072005
31
0.0
0
LINE
8
0
6
CONTINUOUS
10
0.094157
20
-0.071745
30
0.0
11
0.094157
21
-0.070975
31
0.0
0
LINE
8
0
6
CONTINUOUS
10
0.092830
20
-0.071989
30
0.0
11
0.094157
21
-0.071745
31
0.0
0
LINE
8
0
6
CONTINUOUS
10
0.060516
20
-0.071940
30
0.0
11
0.060738
21
-0.072005
31
0.0
0
LINE
8
0
6
CONTINUOUS
10
0.060293
20
-0.071875
30
0.0
11
0.060516
21
-0.071940
31
0.0
0
LINE
8
0
6
CONTINUOUS
10
0.088177
20
-0.072005
30
0.0
11
0.090202
21
-0.072005
31
0.0
0
LINE
8
0
6
CONTINUOUS
10
0.060071
20
-0.071810
30
0.0
11
0.060293
21
-0.071875
31
0.0
0
LINE
8
0
6
CONTINUOUS
10
0.059848
20
-0.070598
30
0.0
11
0.059848
21
-0.071745
31
0.0
0
LINE
8
0
6
CONTINUOUS
10
0.059848
20
-0.071745
30
0.0
11
0.060071
21
-0.071810
31
0.0
0
LINE
8
0
6
CONTINUOUS
10
0.070734
20
-0.012005
30
0.0
11
0.073630
21
-0.012005
31
0.0
0
LINE
8
0
6
CONTINUOUS
10
0.076738
20
-0.012005
30
0.0
11
0.079846
21
-0.012005
31
0.0
0
LINE
8
0
6
CONTINUOUS
10
0.084046
20
-0.012005
30
0.0
11
0.084438
21
-0.012005
31
0.0
0
LINE
8
0
6
CONTINUOUS
10
0.073630
20
-0.012005
30
0.0
11
0.076738
21
-0.012005
31
0.0
0
LINE
8
0
6
CONTINUOUS
10
0.070539
20
-0.012005
30
0.0
11
0.070734
21
-0.012005
31
0.0
0
LINE
8
0
6
CONTINUOUS
10
0.068247
20
-0.012005
30
0.0
11
0.067971
21
-0.012005
31
0.0
0
LINE
8
0
6
CONTINUOUS
10
0.070734
20
-0.012005
30
0.0
11
0.068247
21
-0.012005
31
0.0
0
LINE
8
0
6
CONTINUOUS
10
0.065140
20
-0.012005
30
0.0
11
0.066339
21
-0.012005
31
0.0
0
LINE
8
0
6
CONTINUOUS
10
0.066339
20
-0.012005
30
0.0
11
0.068247
21
-0.012005
31
0.0
0
LINE
8
0
6
CONTINUOUS
10
0.079846
20
-0.012005
30
0.0
11
0.081920
21
-0.012005
31
0.0
0
LINE
8
0
6
CONTINUOUS
10
0.064339
20
-0.012005
30
0.0
11
0.064731
21
-0.012005
31
0.0
0
LINE
8
0
6
CONTINUOUS
10
0.064731
20
-0.012005
30
0.0
11
0.065140
21
-0.012005
31
0.0
0
LINE
8
0
6
CONTINUOUS
10
0.068247
20
-0.012005
30
0.0
11
0.070734
21
-0.012005
31
0.0
0
LINE
8
0
6
CONTINUOUS
10
0.068425
20
-0.010793
30
0.0
11
0.060590
21
-0.010793
31
0.0
0
LINE
8
0
6
CONTINUOUS
10
0.085580
20
-0.010793
30
0.0
11
0.077003
21
-0.010793
31
0.0
0
LINE
8
0
6
CONTINUOUS
10
0.077003
20
-0.010793
30
0.0
11
0.068425
21
-0.010793
31
0.0
0
LINE
8
0
6
CONTINUOUS
10
0.087698
20
-0.012005
30
0.0
11
0.084056
21
-0.012005
31
0.0
0
LINE
8
0
6
CONTINUOUS
10
0.084056
20
-0.012005
30
0.0
11
0.082340
21
-0.012005
31
0.0
0
LINE
8
0
6
CONTINUOUS
10
0.072705
20
-0.012005
30
0.0
11
0.076738
21
-0.012005
31
0.0
0
LINE
8
0
6
CONTINUOUS
10
0.073529
20
-0.012005
30
0.0
11
0.072705
21
-0.012005
31
0.0
0
LINE
8
0
6
CONTINUOUS
10
0.076738
20
-0.012005
30
0.0
11
0.073529
21
-0.012005
31
0.0
0
LINE
8
0
6
CONTINUOUS
10
0.068947
20
-0.012005
30
0.0
11
0.070539
21
-0.012005
31
0.0
0
LINE
8
0
6
CONTINUOUS
10
0.065720
20
-0.012005
30
0.0
11
0.068947
21
-0.012005
31
0.0
0
LINE
8
0
6
CONTINUOUS
10
0.067971
20
-0.012005
30
0.0
11
0.065720
21
-0.012005
31
0.0
0
LINE
8
0
6
CONTINUOUS
10
0.084438
20
-0.012005
30
0.0
11
0.091774
21
-0.012005
31
0.0
0
LINE
8
0
6
CONTINUOUS
10
0.061157
20
-0.012005
30
0.0
11
0.064339
21
-0.012005
31
0.0
0
LINE
8
0
6
CONTINUOUS
10
0.091470
20
-0.072005
30
0.0
11
0.092738
21
-0.072005
31
0.0
0
LINE
8
0
6
CONTINUOUS
10
0.091774
20
-0.012005
30
0.0
11
0.092738
21
-0.012005
31
0.0
0
LINE
8
0
6
CONTINUOUS
10
0.059848
20
-0.010793
30
0.0
11
0.060070
21
-0.011096
31
0.0
0
LINE
8
0
6
CONTINUOUS
10
0.060590
20
-0.010793
30
0.0
11
0.059848
21
-0.010793
31
0.0
0
LINE
8
0
6
CONTINUOUS
10
0.090845
20
-0.012005
30
0.0
11
0.090202
21
-0.012005
31
0.0
0
LINE
8
0
6
CONTINUOUS
10
0.090845
20
-0.013271
30
0.0
11
0.090845
21
-0.012005
31
0.0
0
LINE
8
0
6
CONTINUOUS
10
0.090845
20
-0.070904
30
0.0
11
0.090845
21
-0.013271
31
0.0
0
LINE
8
0
6
CONTINUOUS
10
0.090202
20
-0.072005
30
0.0
11
0.090845
21
-0.072005
31
0.0
0
LINE
8
0
6
CONTINUOUS
10
0.090845
20
-0.072005
30
0.0
11
0.090845
21
-0.070904
31
0.0
0
LINE
8
0
6
CONTINUOUS
10
0.085613
20
-0.012005
30
0.0
11
0.085238
21
-0.012005
31
0.0
0
LINE
8
0
6
CONTINUOUS
10
0.092738
20
-0.012005
30
0.0
11
0.092738
21
-0.013271
31
0.0
0
LINE
8
0
6
CONTINUOUS
10
0.092829
20
-0.011927
30
0.0
11
0.092738
21
-0.012005
31
0.0
0
LINE
8
0
6
CONTINUOUS
10
0.084046
20
-0.012005
30
0.0
11
0.083399
21
-0.012005
31
0.0
0
LINE
8
0
6
CONTINUOUS
10
0.092738
20
-0.013271
30
0.0
11
0.092738
21
-0.070904
31
0.0
0
LINE
8
0
6
CONTINUOUS
10
0.092738
20
-0.070904
30
0.0
11
0.092738
21
-0.072005
31
0.0
0
LINE
8
0
6
CONTINUOUS
10
0.092738
20
-0.072005
30
0.0
11
0.092830
21
-0.071989
31
0.0
0
LINE
8
0
6
CONTINUOUS
10
0.081920
20
-0.012005
30
0.0
11
0.083399
21
-0.012005
31
0.0
0
LINE
8
0
6
CONTINUOUS
10
0.094157
20
-0.010793
30
0.0
11
0.093519
21
-0.010793
31
0.0
0
LINE
8
0
6
CONTINUOUS
10
0.092829
20
-0.011927
30
0.0
11
0.094157
21
-0.010793
31
0.0
0
LINE
8
0
6
CONTINUOUS
10
-0.044797
20
-0.041372
30
0.0
11
-0.039722
21
-0.048141
31
0.0
0
LINE
8
0
6
CONTINUOUS
10
-0.039722
20
-0.048141
30
0.0
11
-0.032953
21
-0.053215
31
0.0
0
LINE
8
0
6
CONTINUOUS
10
-0.039722
20
-0.002354
30
0.0
11
-0.044797
21
-0.009122
31
0.0
0
LINE
8
0
6
CONTINUOUS
10
-0.019910
20
0.006659
30
0.0
11
-0.025189
21
0.005905
31
0.0
0
LINE
8
0
6
CONTINUOUS
10
-0.032953
20
0.002722
30
0.0
11
-0.039722
21
-0.002354
31
0.0
0
LINE
8
0
6
CONTINUOUS
10
-0.025189
20
-0.056400
30
0.0
11
-0.016829
21
-0.057595
31
0.0
0
LINE
8
0
6
CONTINUOUS
10
-0.025189
20
0.005905
30
0.0
11
-0.032953
21
0.002722
31
0.0
0
LINE
8
0
6
CONTINUOUS
10
-0.032953
20
-0.053215
30
0.0
11
-0.025189
21
-0.056400
31
0.0
0
LINE
8
0
6
CONTINUOUS
10
-0.047982
20
-0.016886
30
0.0
11
-0.049177
21
-0.025247
31
0.0
0
LINE
8
0
6
CONTINUOUS
10
-0.044797
20
-0.009122
30
0.0
11
-0.047982
21
-0.016886
31
0.0
0
LINE
8
0
6
CONTINUOUS
10
-0.047982
20
-0.033608
30
0.0
11
-0.044797
21
-0.041372
31
0.0
0
LINE
8
0
6
CONTINUOUS
10
-0.049177
20
-0.025247
30
0.0
11
-0.047982
21
-0.033608
31
0.0
0
LINE
8
0
6
CONTINUOUS
10
0.006064
20
-0.048141
30
0.0
11
0.011139
21
-0.041372
31
0.0
0
LINE
8
0
6
CONTINUOUS
10
-0.000705
20
-0.053215
30
0.0
11
0.006064
21
-0.048141
31
0.0
0
LINE
8
0
6
CONTINUOUS
10
0.011139
20
-0.009122
30
0.0
11
0.006064
21
-0.002354
31
0.0
0
LINE
8
0
6
CONTINUOUS
10
-0.008468
20
0.005905
30
0.0
11
-0.013405
21
0.006610
31
0.0
0
LINE
8
0
6
CONTINUOUS
10
0.006064
20
-0.002354
30
0.0
11
-0.000705
21
0.002722
31
0.0
0
LINE
8
0
6
CONTINUOUS
10
-0.016829
20
-0.057595
30
0.0
11
-0.008468
21
-0.056400
31
0.0
0
LINE
8
0
6
CONTINUOUS
10
-0.000705
20
0.002722
30
0.0
11
-0.008468
21
0.005905
31
0.0
0
LINE
8
0
6
CONTINUOUS
10
-0.008468
20
-0.056400
30
0.0
11
-0.000705
21
-0.053215
31
0.0
0
LINE
8
0
6
CONTINUOUS
10
0.015519
20
-0.025247
30
0.0
11
0.014324
21
-0.016886
31
0.0
0
LINE
8
0
6
CONTINUOUS
10
0.014324
20
-0.016886
30
0.0
11
0.011139
21
-0.009122
31
0.0
0
LINE
8
0
6
CONTINUOUS
10
0.011139
20
-0.041372
30
0.0
11
0.014324
21
-0.033608
31
0.0
0
LINE
8
0
6
CONTINUOUS
10
0.014324
20
-0.033608
30
0.0
11
0.015519
21
-0.025247
31
0.0
0
LINE
8
0
6
CONTINUOUS
10
-0.078692
20
0.083255
30
0.0
11
-0.093456
21
0.083255
31
0.0
0
LINE
8
0
6
CONTINUOUS
10
-0.045094
20
-0.008951
30
0.0
11
-0.039964
21
-0.002111
31
0.0
0
LINE
8
0
6
CONTINUOUS
10
-0.025278
20
0.006236
30
0.0
11
-0.016829
21
0.007443
31
0.0
0
LINE
8
0
6
CONTINUOUS
10
-0.039964
20
-0.002111
30
0.0
11
-0.033124
21
0.003018
31
0.0
0
LINE
8
0
6
CONTINUOUS
10
-0.039964
20
-0.048384
30
0.0
11
-0.045094
21
-0.041543
31
0.0
0
LINE
8
0
6
CONTINUOUS
10
-0.016829
20
-0.057938
30
0.0
11
-0.025278
21
-0.056731
31
0.0
0
LINE
8
0
6
CONTINUOUS
10
-0.033124
20
0.003018
30
0.0
11
-0.025278
21
0.006236
31
0.0
0
LINE
8
0
6
CONTINUOUS
10
-0.025278
20
-0.056731
30
0.0
11
-0.033124
21
-0.053512
31
0.0
0
LINE
8
0
6
CONTINUOUS
10
-0.049520
20
-0.025247
30
0.0
11
-0.048312
21
-0.016798
31
0.0
0
LINE
8
0
6
CONTINUOUS
10
-0.033124
20
-0.053512
30
0.0
11
-0.039964
21
-0.048384
31
0.0
0
LINE
8
0
6
CONTINUOUS
10
-0.048312
20
-0.016798
30
0.0
11
-0.046703
21
-0.012874
31
0.0
0
LINE
8
0
6
CONTINUOUS
10
-0.045094
20
-0.041543
30
0.0
11
-0.048312
21
-0.033697
31
0.0
0
LINE
8
0
6
CONTINUOUS
10
-0.048312
20
-0.033697
30
0.0
11
-0.049520
21
-0.025247
31
0.0
0
LINE
8
0
6
CONTINUOUS
10
-0.046436
20
0.019977
30
0.0
11
-0.048603
21
0.022868
31
0.0
0
LINE
8
0
6
CONTINUOUS
10
-0.040228
20
0.043061
30
0.0
11
-0.036658
21
0.043571
31
0.0
0
LINE
8
0
6
CONTINUOUS
10
-0.048603
20
0.036642
30
0.0
11
-0.046436
21
0.039534
31
0.0
0
LINE
8
0
6
CONTINUOUS
10
-0.043544
20
0.041701
30
0.0
11
-0.040228
21
0.043061
31
0.0
0
LINE
8
0
6
CONTINUOUS
10
-0.040228
20
0.016450
30
0.0
11
-0.043544
21
0.017810
31
0.0
0
LINE
8
0
6
CONTINUOUS
10
-0.049963
20
0.033326
30
0.0
11
-0.048603
21
0.036642
31
0.0
0
LINE
8
0
6
CONTINUOUS
10
-0.048603
20
0.022868
30
0.0
11
-0.049963
21
0.026184
31
0.0
0
LINE
8
0
6
CONTINUOUS
10
-0.050474
20
0.029755
30
0.0
11
-0.049963
21
0.033326
31
0.0
0
LINE
8
0
6
CONTINUOUS
10
-0.036658
20
0.015939
30
0.0
11
-0.040228
21
0.016450
31
0.0
0
LINE
8
0
6
CONTINUOUS
10
-0.043544
20
0.017810
30
0.0
11
-0.046436
21
0.019977
31
0.0
0
LINE
8
0
6
CONTINUOUS
10
-0.046436
20
0.039534
30
0.0
11
-0.043544
21
0.041701
31
0.0
0
LINE
8
0
6
CONTINUOUS
10
-0.024712
20
0.022868
30
0.0
11
-0.026879
21
0.019977
31
0.0
0
LINE
8
0
6
CONTINUOUS
10
-0.036658
20
0.043571
30
0.0
11
-0.033087
21
0.043061
31
0.0
0
LINE
8
0
6
CONTINUOUS
10
-0.026879
20
0.039534
30
0.0
11
-0.024712
21
0.036642
31
0.0
0
LINE
8
0
6
CONTINUOUS
10
-0.033087
20
0.043061
30
0.0
11
-0.029771
21
0.041701
31
0.0
0
LINE
8
0
6
CONTINUOUS
10
-0.029771
20
0.017810
30
0.0
11
-0.033087
21
0.016450
31
0.0
0
LINE
8
0
6
CONTINUOUS
10
-0.024712
20
0.036642
30
0.0
11
-0.023352
21
0.033326
31
0.0
0
LINE
8
0
6
CONTINUOUS
10
-0.023352
20
0.026184
30
0.0
11
-0.024712
21
0.022868
31
0.0
0
LINE
8
0
6
CONTINUOUS
10
-0.023352
20
0.033326
30
0.0
11
-0.022841
21
0.029755
31
0.0
0
LINE
8
0
6
CONTINUOUS
10
-0.033087
20
0.016450
30
0.0
11
-0.036658
21
0.015939
31
0.0
0
LINE
8
0
6
CONTINUOUS
10
-0.026879
20
0.019977
30
0.0
11
-0.029771
21
0.017810
31
0.0
0
LINE
8
0
6
CONTINUOUS
10
-0.022841
20
0.029755
30
0.0
11
-0.023352
21
0.026184
31
0.0
0
LINE
8
0
6
CONTINUOUS
10
-0.029771
20
0.041701
30
0.0
11
-0.026879
21
0.039534
31
0.0
0
LINE
8
0
6
CONTINUOUS
10
-0.049963
20
0.026184
30
0.0
11
-0.050474
21
0.029755
31
0.0
0
LINE
8
0
6
CONTINUOUS
10
0.006307
20
-0.002111
30
0.0
11
0.011436
21
-0.008951
31
0.0
0
LINE
8
0
6
CONTINUOUS
10
-0.016829
20
0.007443
30
0.0
11
-0.008380
21
0.006236
31
0.0
0
LINE
8
0
6
CONTINUOUS
10
-0.000534
20
0.003018
30
0.0
11
0.006307
21
-0.002111
31
0.0
0
LINE
8
0
6
CONTINUOUS
10
0.011436
20
-0.041543
30
0.0
11
0.006307
21
-0.048384
31
0.0
0
LINE
8
0
6
CONTINUOUS
10
-0.008380
20
-0.056731
30
0.0
11
-0.016829
21
-0.057938
31
0.0
0
LINE
8
0
6
CONTINUOUS
10
-0.008380
20
0.006236
30
0.0
11
-0.000534
21
0.003018
31
0.0
0
LINE
8
0
6
CONTINUOUS
10
-0.000534
20
-0.053512
30
0.0
11
-0.008380
21
-0.056731
31
0.0
0
LINE
8
0
6
CONTINUOUS
10
0.014654
20
-0.016798
30
0.0
11
0.015862
21
-0.025247
31
0.0
0
LINE
8
0
6
CONTINUOUS
10
0.006307
20
-0.048384
30
0.0
11
-0.000534
21
-0.053512
31
0.0
0
LINE
8
0
6
CONTINUOUS
10
0.011436
20
-0.008951
30
0.0
11
0.013045
21
-0.012874
31
0.0
0
LINE
8
0
6
CONTINUOUS
10
0.014654
20
-0.033697
30
0.0
11
0.011436
21
-0.041543
31
0.0
0
LINE
8
0
6
CONTINUOUS
10
0.015862
20
-0.025247
30
0.0
11
0.014654
21
-0.033697
31
0.0
0
LINE
8
0
6
CONTINUOUS
10
0.014945
20
0.022868
30
0.0
11
0.012778
21
0.019977
31
0.0
0
LINE
8
0
6
CONTINUOUS
10
0.003000
20
0.043571
30
0.0
11
0.006570
21
0.043061
31
0.0
0
LINE
8
0
6
CONTINUOUS
10
0.012778
20
0.039534
30
0.0
11
0.014945
21
0.036642
31
0.0
0
LINE
8
0
6
CONTINUOUS
10
0.006570
20
0.043061
30
0.0
11
0.009886
21
0.041701
31
0.0
0
LINE
8
0
6
CONTINUOUS
10
0.009886
20
0.017810
30
0.0
11
0.006570
21
0.016450
31
0.0
0
LINE
8
0
6
CONTINUOUS
10
0.014945
20
0.036642
30
0.0
11
0.016305
21
0.033326
31
0.0
0
LINE
8
0
6
CONTINUOUS
10
0.016305
20
0.026184
30
0.0
11
0.014945
21
0.022868
31
0.0
0
LINE
8
0
6
CONTINUOUS
10
0.016305
20
0.033326
30
0.0
11
0.016816
21
0.029755
31
0.0
0
LINE
8
0
6
CONTINUOUS
10
0.006570
20
0.016450
30
0.0
11
0.003000
21
0.015939
31
0.0
0
LINE
8
0
6
CONTINUOUS
10
0.012778
20
0.019977
30
0.0
11
0.009886
21
0.017810
31
0.0
0
LINE
8
0
6
CONTINUOUS
10
0.009886
20
0.041701
30
0.0
11
0.012778
21
0.039534
31
0.0
0
LINE
8
0
6
CONTINUOUS
10
-0.006778
20
0.019977
30
0.0
11
-0.008946
21
0.022868
31
0.0
0
LINE
8
0
6
CONTINUOUS
10
-0.000571
20
0.043061
30
0.0
11
0.003000
21
0.043571
31
0.0
0
LINE
8
0
6
CONTINUOUS
10
-0.008946
20
0.036642
30
0.0
11
-0.006778
21
0.039534
31
0.0
0
LINE
8
0
6
CONTINUOUS
10
-0.003887
20
0.041701
30
0.0
11
-0.000571
21
0.043061
31
0.0
0
LINE
8
0
6
CONTINUOUS
10
-0.000571
20
0.016450
30
0.0
11
-0.003887
21
0.017810
31
0.0
0
LINE
8
0
6
CONTINUOUS
10
-0.010306
20
0.033326
30
0.0
11
-0.008946
21
0.036642
31
0.0
0
LINE
8
0
6
CONTINUOUS
10
-0.008946
20
0.022868
30
0.0
11
-0.010306
21
0.026184
31
0.0
0
LINE
8
0
6
CONTINUOUS
10
-0.010817
20
0.029755
30
0.0
11
-0.010306
21
0.033326
31
0.0
0
LINE
8
0
6
CONTINUOUS
10
0.003000
20
0.015939
30
0.0
11
-0.000571
21
0.016450
31
0.0
0
LINE
8
0
6
CONTINUOUS
10
-0.003887
20
0.017810
30
0.0
11
-0.006778
21
0.019977
31
0.0
0
LINE
8
0
6
CONTINUOUS
10
-0.010306
20
0.026184
30
0.0
11
-0.010817
21
0.029755
31
0.0
0
LINE
8
0
6
CONTINUOUS
10
-0.006778
20
0.039534
30
0.0
11
-0.003887
21
0.041701
31
0.0
0
LINE
8
0
6
CONTINUOUS
10
0.016816
20
0.029755
30
0.0
11
0.016305
21
0.026184
31
0.0
0
LINE
8
0
6
CONTINUOUS
10
-0.094157
20
-0.012106
30
0.0
11
-0.094157
21
-0.071043
31
0.0
0
LINE
8
0
6
CONTINUOUS
10
-0.094157
20
0.010912
30
0.0
11
-0.094157
21
-0.009621
31
0.0
0
LINE
8
0
6
CONTINUOUS
10
-0.094157
20
-0.010793
30
0.0
11
-0.094157
21
-0.012106
31
0.0
0
LINE
8
0
6
CONTINUOUS
10
-0.032294
20
-0.071745
30
0.0
11
-0.016829
21
-0.071745
31
0.0
0
LINE
8
0
6
CONTINUOUS
10
-0.094157
20
0.022969
30
0.0
11
-0.094157
21
0.010912
31
0.0
0
LINE
8
0
6
CONTINUOUS
10
-0.094157
20
0.035026
30
0.0
11
-0.094157
21
0.022969
31
0.0
0
LINE
8
0
6
CONTINUOUS
10
-0.094157
20
0.047083
30
0.0
11
-0.094157
21
0.035026
31
0.0
0
LINE
8
0
6
CONTINUOUS
10
-0.094157
20
0.059141
30
0.0
11
-0.094157
21
0.047083
31
0.0
0
LINE
8
0
6
CONTINUOUS
10
-0.094157
20
0.071198
30
0.0
11
-0.094157
21
0.059141
31
0.0
0
LINE
8
0
6
CONTINUOUS
10
-0.016829
20
0.083255
30
0.0
11
-0.032295
21
0.083255
31
0.0
0
LINE
8
0
6
CONTINUOUS
10
-0.032295
20
0.083255
30
0.0
11
-0.047760
21
0.083255
31
0.0
0
LINE
8
0
6
CONTINUOUS
10
-0.047760
20
0.083255
30
0.0
11
-0.063226
21
0.083255
31
0.0
0
LINE
8
0
6
CONTINUOUS
10
-0.063226
20
0.083255
30
0.0
11
-0.078692
21
0.083255
31
0.0
0
LINE
8
0
6
CONTINUOUS
10
0.029177
20
0.083255
30
0.0
11
0.013842
21
0.083255
31
0.0
0
LINE
8
0
6
CONTINUOUS
10
0.044512
20
0.083255
30
0.0
11
0.029177
21
0.083255
31
0.0
0
LINE
8
0
6
CONTINUOUS
10
0.094157
20
0.010912
30
0.0
11
0.094157
21
0.022969
31
0.0
0
LINE
8
0
6
CONTINUOUS
10
-0.078692
20
-0.071745
30
0.0
11
-0.063226
21
-0.071745
31
0.0
0
LINE
8
0
6
CONTINUOUS
10
0.029177
20
-0.071745
30
0.0
11
0.044513
21
-0.071745
31
0.0
0
LINE
8
0
6
CONTINUOUS
10
0.094157
20
0.071198
30
0.0
11
0.094157
21
0.082554
31
0.0
0
LINE
8
0
6
CONTINUOUS
10
0.094157
20
0.059141
30
0.0
11
0.094157
21
0.071198
31
0.0
0
LINE
8
0
6
CONTINUOUS
10
0.094157
20
0.047084
30
0.0
11
0.094157
21
0.059141
31
0.0
0
LINE
8
0
6
CONTINUOUS
10
0.094157
20
0.035026
30
0.0
11
0.094157
21
0.047084
31
0.0
0
LINE
8
0
6
CONTINUOUS
10
0.094157
20
0.022969
30
0.0
11
0.094157
21
0.035026
31
0.0
0
LINE
8
0
6
CONTINUOUS
10
-0.093456
20
-0.071745
30
0.0
11
-0.078692
21
-0.071745
31
0.0
0
LINE
8
0
6
CONTINUOUS
10
-0.016829
20
0.083255
30
0.0
11
-0.001494
21
0.083255
31
0.0
0
LINE
8
0
6
CONTINUOUS
10
-0.001494
20
0.083255
30
0.0
11
-0.016829
21
0.083255
31
0.0
0
LINE
8
0
6
CONTINUOUS
10
-0.001494
20
0.083255
30
0.0
11
0.013842
21
0.083255
31
0.0
0
LINE
8
0
6
CONTINUOUS
10
0.059261
20
0.083255
30
0.0
11
0.044512
21
0.083255
31
0.0
0
LINE
8
0
6
CONTINUOUS
10
-0.032294
20
-0.071745
30
0.0
11
-0.047760
21
-0.071745
31
0.0
0
LINE
8
0
6
CONTINUOUS
10
-0.001493
20
-0.071745
30
0.0
11
-0.016829
21
-0.071745
31
0.0
0
LINE
8
0
6
CONTINUOUS
10
0.013842
20
-0.071745
30
0.0
11
-0.001493
21
-0.071745
31
0.0
0
LINE
8
0
6
CONTINUOUS
10
-0.047760
20
-0.071745
30
0.0
11
-0.063226
21
-0.071745
31
0.0
0
LINE
8
0
6
CONTINUOUS
10
0.029177
20
-0.071745
30
0.0
11
0.013842
21
-0.071745
31
0.0
0
LINE
8
0
6
CONTINUOUS
10
-0.093456
20
0.083255
30
0.0
11
-0.094157
21
0.083255
31
0.0
0
LINE
8
0
6
CONTINUOUS
10
-0.094157
20
0.083255
30
0.0
11
-0.094157
21
0.082554
31
0.0
0
LINE
8
0
6
CONTINUOUS
10
0.093455
20
0.083255
30
0.0
11
0.085645
21
0.083255
31
0.0
0
LINE
8
0
6
CONTINUOUS
10
0.094157
20
0.082554
30
0.0
11
0.094157
21
0.083255
31
0.0
0
LINE
8
0
6
CONTINUOUS
10
0.094157
20
0.083255
30
0.0
11
0.093455
21
0.083255
31
0.0
0
LINE
8
0
6
CONTINUOUS
10
-0.094157
20
0.082554
30
0.0
11
-0.094157
21
0.071198
31
0.0
0
LINE
8
0
6
CONTINUOUS
10
-0.094157
20
-0.071745
30
0.0
11
-0.093456
21
-0.071745
31
0.0
0
LINE
8
0
6
CONTINUOUS
10
-0.094157
20
-0.071043
30
0.0
11
-0.094157
21
-0.071745
31
0.0
0
LINE
8
0
6
CONTINUOUS
10
0.068484
20
0.083255
30
0.0
11
0.061292
21
0.083255
31
0.0
0
LINE
8
0
6
CONTINUOUS
10
0.077064
20
0.083255
30
0.0
11
0.068484
21
0.083255
31
0.0
0
LINE
8
0
6
CONTINUOUS
10
0.085645
20
0.083255
30
0.0
11
0.077064
21
0.083255
31
0.0
0
LINE
8
0
6
CONTINUOUS
10
0.061292
20
0.083255
30
0.0
11
0.059878
21
0.083255
31
0.0
0
LINE
8
0
6
CONTINUOUS
10
0.059272
20
0.083255
30
0.0
11
0.059878
21
0.083255
31
0.0
0
LINE
8
0
6
CONTINUOUS
10
0.059272
20
0.083255
30
0.0
11
0.044512
21
0.083255
31
0.0
0
LINE
8
0
6
CONTINUOUS
10
0.013045
20
-0.012874
30
0.0
11
0.014654
21
-0.016798
31
0.0
0
LINE
8
0
6
CONTINUOUS
10
0.061257
20
-0.010793
30
0.0
11
0.068425
21
-0.010793
31
0.0
0
LINE
8
0
6
CONTINUOUS
10
-0.046703
20
-0.012874
30
0.0
11
-0.045094
21
-0.008951
31
0.0
0
LINE
8
0
6
CONTINUOUS
10
-0.094157
20
-0.009621
30
0.0
11
-0.094157
21
-0.010793
31
0.0
0
LINE
8
0
6
CONTINUOUS
10
0.094157
20
-0.010793
30
0.0
11
0.094157
21
-0.009621
31
0.0
0
LINE
8
0
6
CONTINUOUS
10
0.094157
20
-0.009621
30
0.0
11
0.094157
21
0.010912
31
0.0
0
LINE
8
0
6
CONTINUOUS
10
0.044513
20
-0.071745
30
0.0
11
0.059241
21
-0.071745
31
0.0
0
LINE
8
0
6
CONTINUOUS
10
0.059816
20
-0.071745
30
0.0
11
0.059848
21
-0.071107
31
0.0
0
LINE
8
0
6
CONTINUOUS
10
0.059241
20
-0.071745
30
0.0
11
0.059816
21
-0.071745
31
0.0
0
LINE
8
0
6
CONTINUOUS
10
-0.043441
20
0.017989
30
0.0
11
-0.040175
21
0.016649
31
0.0
0
LINE
8
0
6
CONTINUOUS
10
-0.046289
20
0.039387
30
0.0
11
-0.048424
21
0.036539
31
0.0
0
LINE
8
0
6
CONTINUOUS
10
-0.048424
20
0.022972
30
0.0
11
-0.046289
21
0.020124
31
0.0
0
LINE
8
0
6
CONTINUOUS
10
-0.043441
20
0.041522
30
0.0
11
-0.046289
21
0.039387
31
0.0
0
LINE
8
0
6
CONTINUOUS
10
-0.050267
20
0.029755
30
0.0
11
-0.049764
21
0.026238
31
0.0
0
LINE
8
0
6
CONTINUOUS
10
-0.049764
20
0.026238
30
0.0
11
-0.048424
21
0.022972
31
0.0
0
LINE
8
0
6
CONTINUOUS
10
-0.049764
20
0.033273
30
0.0
11
-0.050267
21
0.029755
31
0.0
0
LINE
8
0
6
CONTINUOUS
10
-0.040175
20
0.016649
30
0.0
11
-0.036658
21
0.016146
31
0.0
0
LINE
8
0
6
CONTINUOUS
10
-0.046289
20
0.020124
30
0.0
11
-0.043441
21
0.017989
31
0.0
0
LINE
8
0
6
CONTINUOUS
10
-0.048424
20
0.036539
30
0.0
11
-0.049764
21
0.033273
31
0.0
0
LINE
8
0
6
CONTINUOUS
10
-0.040175
20
0.042861
30
0.0
11
-0.043441
21
0.041522
31
0.0
0
LINE
8
0
6
CONTINUOUS
10
-0.036658
20
0.043364
30
0.0
11
-0.040175
21
0.042861
31
0.0
0
LINE
8
0
6
CONTINUOUS
10
-0.033140
20
0.016649
30
0.0
11
-0.029874
21
0.017989
31
0.0
0
LINE
8
0
6
CONTINUOUS
10
-0.024891
20
0.036539
30
0.0
11
-0.027026
21
0.039387
31
0.0
0
LINE
8
0
6
CONTINUOUS
10
-0.027026
20
0.020124
30
0.0
11
-0.024891
21
0.022972
31
0.0
0
LINE
8
0
6
CONTINUOUS
10
-0.027026
20
0.039387
30
0.0
11
-0.029874
21
0.041522
31
0.0
0
LINE
8
0
6
CONTINUOUS
10
-0.023551
20
0.026238
30
0.0
11
-0.023048
21
0.029755
31
0.0
0
LINE
8
0
6
CONTINUOUS
10
-0.024891
20
0.022972
30
0.0
11
-0.023551
21
0.026238
31
0.0
0
LINE
8
0
6
CONTINUOUS
10
-0.023048
20
0.029755
30
0.0
11
-0.023551
21
0.033273
31
0.0
0
LINE
8
0
6
CONTINUOUS
10
-0.036658
20
0.016146
30
0.0
11
-0.033140
21
0.016649
31
0.0
0
LINE
8
0
6
CONTINUOUS
10
-0.029874
20
0.017989
30
0.0
11
-0.027026
21
0.020124
31
0.0
0
LINE
8
0
6
CONTINUOUS
10
-0.023551
20
0.033273
30
0.0
11
-0.024891
21
0.036539
31
0.0
0
LINE
8
0
6
CONTINUOUS
10
-0.029874
20
0.041522
30
0.0
11
-0.033140
21
0.042861
31
0.0
0
LINE
8
0
6
CONTINUOUS
10
-0.033140
20
0.042861
30
0.0
11
-0.036658
21
0.043364
31
0.0
0
LINE
8
0
6
CONTINUOUS
10
0.006517
20
0.016649
30
0.0
11
0.009783
21
0.017989
31
0.0
0
LINE
8
0
6
CONTINUOUS
10
0.014766
20
0.036539
30
0.0
11
0.012631
21
0.039387
31
0.0
0
LINE
8
0
6
CONTINUOUS
10
0.012631
20
0.020124
30
0.0
11
0.014766
21
0.022972
31
0.0
0
LINE
8
0
6
CONTINUOUS
10
0.012631
20
0.039387
30
0.0
11
0.009783
21
0.041522
31
0.0
0
LINE
8
0
6
CONTINUOUS
10
0.016106
20
0.026238
30
0.0
11
0.016609
21
0.029755
31
0.0
0
LINE
8
0
6
CONTINUOUS
10
0.014766
20
0.022972
30
0.0
11
0.016106
21
0.026238
31
0.0
0
LINE
8
0
6
CONTINUOUS
10
0.016609
20
0.029755
30
0.0
11
0.016106
21
0.033273
31
0.0
0
LINE
8
0
6
CONTINUOUS
10
0.003000
20
0.016146
30
0.0
11
0.006517
21
0.016649
31
0.0
0
LINE
8
0
6
CONTINUOUS
10
0.009783
20
0.017989
30
0.0
11
0.012631
21
0.020124
31
0.0
0
LINE
8
0
6
CONTINUOUS
10
0.016106
20
0.033273
30
0.0
11
0.014766
21
0.036539
31
0.0
0
LINE
8
0
6
CONTINUOUS
10
0.009783
20
0.041522
30
0.0
11
0.006517
21
0.042861
31
0.0
0
LINE
8
0
6
CONTINUOUS
10
0.006517
20
0.042861
30
0.0
11
0.003000
21
0.043364
31
0.0
0
LINE
8
0
6
CONTINUOUS
10
-0.003784
20
0.017989
30
0.0
11
-0.000518
21
0.016649
31
0.0
0
LINE
8
0
6
CONTINUOUS
10
-0.006632
20
0.039387
30
0.0
11
-0.008766
21
0.036539
31
0.0
0
LINE
8
0
6
CONTINUOUS
10
-0.008766
20
0.022972
30
0.0
11
-0.006632
21
0.020124
31
0.0
0
LINE
8
0
6
CONTINUOUS
10
-0.003784
20
0.041522
30
0.0
11
-0.006632
21
0.039387
31
0.0
0
LINE
8
0
6
CONTINUOUS
10
-0.010609
20
0.029755
30
0.0
11
-0.010106
21
0.026238
31
0.0
0
LINE
8
0
6
CONTINUOUS
10
-0.010106
20
0.026238
30
0.0
11
-0.008766
21
0.022972
31
0.0
0
LINE
8
0
6
CONTINUOUS
10
-0.010106
20
0.033273
30
0.0
11
-0.010609
21
0.029755
31
0.0
0
LINE
8
0
6
CONTINUOUS
10
-0.000518
20
0.016649
30
0.0
11
0.003000
21
0.016146
31
0.0
0
LINE
8
0
6
CONTINUOUS
10
-0.006632
20
0.020124
30
0.0
11
-0.003784
21
0.017989
31
0.0
0
LINE
8
0
6
CONTINUOUS
10
-0.008766
20
0.036539
30
0.0
11
-0.010106
21
0.033273
31
0.0
0
LINE
8
0
6
CONTINUOUS
10
-0.000518
20
0.042861
30
0.0
11
-0.003784
21
0.041522
31
0.0
0
LINE
8
0
6
CONTINUOUS
10
0.003000
20
0.043364
30
0.0
11
-0.000518
21
0.042861
31
0.0
0
LINE
8
0
6
CONTINUOUS
10
0.086080
20
-0.072319
30
0.0
11
0.086080
21
-0.072195
31
0.0
0
LINE
8
0
6
CONTINUOUS
10
0.086091
20
-0.083255
30
0.0
11
0.086517
21
-0.083177
31
0.0
0
LINE
8
0
6
CONTINUOUS
10
0.085638
20
-0.083255
30
0.0
11
0.086091
21
-0.083255
31
0.0
0
LINE
8
0
6
CONTINUOUS
10
0.082279
20
-0.083255
30
0.0
11
0.084325
21
-0.083255
31
0.0
0
LINE
8
0
6
CONTINUOUS
10
0.079701
20
-0.083255
30
0.0
11
0.082279
21
-0.083255
31
0.0
0
LINE
8
0
6
CONTINUOUS
10
0.076843
20
-0.083255
30
0.0
11
0.079701
21
-0.083255
31
0.0
0
LINE
8
0
6
CONTINUOUS
10
0.073985
20
-0.083255
30
0.0
11
0.076843
21
-0.083255
31
0.0
0
LINE
8
0
6
CONTINUOUS
10
0.071407
20
-0.083255
30
0.0
11
0.073985
21
-0.083255
31
0.0
0
LINE
8
0
6
CONTINUOUS
10
0.069361
20
-0.083255
30
0.0
11
0.071407
21
-0.083255
31
0.0
0
LINE
8
0
6
CONTINUOUS
10
0.068047
20
-0.083255
30
0.0
11
0.069361
21
-0.083255
31
0.0
0
LINE
8
0
6
CONTINUOUS
10
0.069016
20
-0.083177
30
0.0
11
0.067642
21
-0.083177
31
0.0
0
LINE
8
0
6
CONTINUOUS
10
0.067594
20
-0.083255
30
0.0
11
0.068047
21
-0.083255
31
0.0
0
LINE
8
0
6
CONTINUOUS
10
0.067169
20
-0.083177
30
0.0
11
0.067594
21
-0.083255
31
0.0
0
LINE
8
0
6
CONTINUOUS
10
0.067169
20
-0.083177
30
0.0
11
0.067642
21
-0.083177
31
0.0
0
LINE
8
0
6
CONTINUOUS
10
0.067106
20
-0.083046
30
0.0
11
0.067169
21
-0.083177
31
0.0
0
LINE
8
0
6
CONTINUOUS
10
0.069016
20
-0.083177
30
0.0
11
0.071156
21
-0.083177
31
0.0
0
LINE
8
0
6
CONTINUOUS
10
0.071156
20
-0.083177
30
0.0
11
0.073853
21
-0.083177
31
0.0
0
LINE
8
0
6
CONTINUOUS
10
0.073853
20
-0.083177
30
0.0
11
0.076843
21
-0.083177
31
0.0
0
LINE
8
0
6
CONTINUOUS
10
0.076843
20
-0.083177
30
0.0
11
0.079832
21
-0.083177
31
0.0
0
LINE
8
0
6
CONTINUOUS
10
0.079832
20
-0.083177
30
0.0
11
0.082529
21
-0.083177
31
0.0
0
LINE
8
0
6
CONTINUOUS
10
0.082529
20
-0.083177
30
0.0
11
0.084669
21
-0.083177
31
0.0
0
LINE
8
0
6
CONTINUOUS
10
0.084669
20
-0.083177
30
0.0
11
0.086043
21
-0.083177
31
0.0
0
LINE
8
0
6
CONTINUOUS
10
0.086517
20
-0.083177
30
0.0
11
0.086580
21
-0.083046
31
0.0
0
LINE
8
0
6
CONTINUOUS
10
0.086043
20
-0.083177
30
0.0
11
0.086517
21
-0.083177
31
0.0
0
LINE
8
0
6
CONTINUOUS
10
0.067605
20
-0.072195
30
0.0
11
0.067605
21
-0.072319
31
0.0
0
LINE
8
0
6
CONTINUOUS
10
0.066495
20
-0.082197
30
0.0
11
0.067106
21
-0.083046
31
0.0
0
LINE
8
0
6
CONTINUOUS
10
0.086580
20
-0.083046
30
0.0
11
0.087191
21
-0.082197
31
0.0
0
LINE
8
0
6
CONTINUOUS
10
0.086170
20
-0.074282
30
0.0
11
0.086080
21
-0.074195
31
0.0
0
LINE
8
0
6
CONTINUOUS
10
0.087358
20
-0.075615
30
0.0
11
0.087358
21
-0.075420
31
0.0
0
LINE
8
0
6
CONTINUOUS
10
0.067605
20
-0.074195
30
0.0
11
0.067515
21
-0.074282
31
0.0
0
LINE
8
0
6
CONTINUOUS
10
0.066368
20
-0.081806
30
0.0
11
0.066368
21
-0.082020
31
0.0
0
LINE
8
0
6
CONTINUOUS
10
0.087318
20
-0.082020
30
0.0
11
0.087318
21
-0.081806
31
0.0
0
LINE
8
0
6
CONTINUOUS
10
0.087318
20
-0.081806
30
0.0
11
0.087358
21
-0.075615
31
0.0
0
LINE
8
0
6
CONTINUOUS
10
0.066327
20
-0.075615
30
0.0
11
0.066368
21
-0.081806
31
0.0
0
LINE
8
0
6
CONTINUOUS
10
0.066327
20
-0.075420
30
0.0
11
0.066327
21
-0.075615
31
0.0
0
LINE
8
0
6
CONTINUOUS
10
0.086349
20
-0.072195
30
0.0
11
0.088018
21
-0.072195
31
0.0
0
LINE
8
0
6
CONTINUOUS
10
0.065093
20
-0.072030
30
0.0
11
0.065093
21
-0.072195
31
0.0
0
LINE
8
0
6
CONTINUOUS
10
0.065093
20
-0.072195
30
0.0
11
0.065668
21
-0.072195
31
0.0
0
LINE
8
0
6
CONTINUOUS
10
0.073212
20
-0.072195
30
0.0
11
0.076843
21
-0.072195
31
0.0
0
LINE
8
0
6
CONTINUOUS
10
0.069936
20
-0.072195
30
0.0
11
0.073212
21
-0.072195
31
0.0
0
LINE
8
0
6
CONTINUOUS
10
0.080474
20
-0.072195
30
0.0
11
0.083749
21
-0.072195
31
0.0
0
LINE
8
0
6
CONTINUOUS
10
0.076843
20
-0.072195
30
0.0
11
0.080474
21
-0.072195
31
0.0
0
LINE
8
0
6
CONTINUOUS
10
0.065668
20
-0.072195
30
0.0
11
0.067337
21
-0.072195
31
0.0
0
LINE
8
0
6
CONTINUOUS
10
0.088593
20
-0.072195
30
0.0
11
0.088593
21
-0.072030
31
0.0
0
LINE
8
0
6
CONTINUOUS
10
0.088018
20
-0.072195
30
0.0
11
0.088593
21
-0.072195
31
0.0
0
LINE
8
0
6
CONTINUOUS
10
0.083749
20
-0.072195
30
0.0
11
0.086349
21
-0.072195
31
0.0
0
LINE
8
0
6
CONTINUOUS
10
0.067337
20
-0.072195
30
0.0
11
0.069936
21
-0.072195
31
0.0
0
LINE
8
0
6
CONTINUOUS
10
0.079697
20
-0.074195
30
0.0
11
0.082272
21
-0.074195
31
0.0
0
LINE
8
0
6
CONTINUOUS
10
0.086080
20
-0.074195
30
0.0
11
0.086080
21
-0.074072
31
0.0
0
LINE
8
0
6
CONTINUOUS
10
0.085628
20
-0.074195
30
0.0
11
0.086080
21
-0.074195
31
0.0
0
LINE
8
0
6
CONTINUOUS
10
0.086080
20
-0.074072
30
0.0
11
0.086080
21
-0.072319
31
0.0
0
LINE
8
0
6
CONTINUOUS
10
0.076843
20
-0.074195
30
0.0
11
0.079697
21
-0.074195
31
0.0
0
LINE
8
0
6
CONTINUOUS
10
0.069369
20
-0.074195
30
0.0
11
0.071413
21
-0.074195
31
0.0
0
LINE
8
0
6
CONTINUOUS
10
0.082272
20
-0.074195
30
0.0
11
0.084316
21
-0.074195
31
0.0
0
LINE
8
0
6
CONTINUOUS
10
0.073988
20
-0.074195
30
0.0
11
0.076843
21
-0.074195
31
0.0
0
LINE
8
0
6
CONTINUOUS
10
0.071413
20
-0.074195
30
0.0
11
0.073988
21
-0.074195
31
0.0
0
LINE
8
0
6
CONTINUOUS
10
0.084316
20
-0.074195
30
0.0
11
0.085628
21
-0.074195
31
0.0
0
LINE
8
0
6
CONTINUOUS
10
0.068057
20
-0.074195
30
0.0
11
0.069369
21
-0.074195
31
0.0
0
LINE
8
0
6
CONTINUOUS
10
0.067605
20
-0.074072
30
0.0
11
0.067605
21
-0.074195
31
0.0
0
LINE
8
0
6
CONTINUOUS
10
0.067605
20
-0.074195
30
0.0
11
0.068057
21
-0.074195
31
0.0
0
LINE
8
0
6
CONTINUOUS
10
0.067605
20
-0.072319
30
0.0
11
0.067605
21
-0.074072
31
0.0
0
LINE
8
0
6
CONTINUOUS
10
0.068336
20
-0.075420
30
0.0
11
0.070662
21
-0.075420
31
0.0
0
LINE
8
0
6
CONTINUOUS
10
0.066842
20
-0.075420
30
0.0
11
0.068336
21
-0.075420
31
0.0
0
LINE
8
0
6
CONTINUOUS
10
0.087358
20
-0.075420
30
0.0
11
0.087203
21
-0.075272
31
0.0
0
LINE
8
0
6
CONTINUOUS
10
0.086843
20
-0.075420
30
0.0
11
0.087358
21
-0.075420
31
0.0
0
LINE
8
0
6
CONTINUOUS
10
0.085350
20
-0.075420
30
0.0
11
0.086843
21
-0.075420
31
0.0
0
LINE
8
0
6
CONTINUOUS
10
0.083024
20
-0.075420
30
0.0
11
0.085350
21
-0.075420
31
0.0
0
LINE
8
0
6
CONTINUOUS
10
0.080092
20
-0.075420
30
0.0
11
0.083024
21
-0.075420
31
0.0
0
LINE
8
0
6
CONTINUOUS
10
0.076843
20
-0.075420
30
0.0
11
0.080092
21
-0.075420
31
0.0
0
LINE
8
0
6
CONTINUOUS
10
0.073593
20
-0.075420
30
0.0
11
0.076843
21
-0.075420
31
0.0
0
LINE
8
0
6
CONTINUOUS
10
0.070662
20
-0.075420
30
0.0
11
0.073593
21
-0.075420
31
0.0
0
LINE
8
0
6
CONTINUOUS
10
0.066482
20
-0.075272
30
0.0
11
0.066327
21
-0.075420
31
0.0
0
LINE
8
0
6
CONTINUOUS
10
0.066327
20
-0.075420
30
0.0
11
0.066842
21
-0.075420
31
0.0
0
LINE
8
0
6
CONTINUOUS
10
0.087203
20
-0.075272
30
0.0
11
0.086170
21
-0.074282
31
0.0
0
LINE
8
0
6
CONTINUOUS
10
0.067515
20
-0.074282
30
0.0
11
0.066482
21
-0.075272
31
0.0
0
LINE
8
0
6
CONTINUOUS
10
0.068368
20
-0.082020
30
0.0
11
0.066880
21
-0.082020
31
0.0
0
LINE
8
0
6
CONTINUOUS
10
0.066368
20
-0.082020
30
0.0
11
0.066495
21
-0.082197
31
0.0
0
LINE
8
0
6
CONTINUOUS
10
0.066880
20
-0.082020
30
0.0
11
0.066368
21
-0.082020
31
0.0
0
LINE
8
0
6
CONTINUOUS
10
0.070686
20
-0.082020
30
0.0
11
0.068368
21
-0.082020
31
0.0
0
LINE
8
0
6
CONTINUOUS
10
0.073606
20
-0.082020
30
0.0
11
0.070686
21
-0.082020
31
0.0
0
LINE
8
0
6
CONTINUOUS
10
0.076843
20
-0.082020
30
0.0
11
0.073606
21
-0.082020
31
0.0
0
LINE
8
0
6
CONTINUOUS
10
0.080080
20
-0.082020
30
0.0
11
0.076843
21
-0.082020
31
0.0
0
LINE
8
0
6
CONTINUOUS
10
0.083000
20
-0.082020
30
0.0
11
0.080080
21
-0.082020
31
0.0
0
LINE
8
0
6
CONTINUOUS
10
0.085317
20
-0.082020
30
0.0
11
0.083000
21
-0.082020
31
0.0
0
LINE
8
0
6
CONTINUOUS
10
0.086805
20
-0.082020
30
0.0
11
0.085317
21
-0.082020
31
0.0
0
LINE
8
0
6
CONTINUOUS
10
0.087191
20
-0.082197
30
0.0
11
0.087318
21
-0.082020
31
0.0
0
LINE
8
0
6
CONTINUOUS
10
0.087318
20
-0.082020
30
0.0
11
0.086805
21
-0.082020
31
0.0
0
LINE
8
0
6
CONTINUOUS
10
-0.021596
20
-0.046624
30
0.0
11
-0.021596
21
-0.051196
31
0.0
0
LINE
8
0
6
CONTINUOUS
10
-0.011719
20
-0.051196
30
0.0
11
-0.011719
21
-0.046625
31
0.0
0
LINE
8
0
6
CONTINUOUS
10
-0.017807
20
-0.051749
30
0.0
11
-0.016658
21
-0.051749
31
0.0
0
LINE
8
0
6
CONTINUOUS
10
-0.018878
20
-0.051749
30
0.0
11
-0.017807
21
-0.051749
31
0.0
0
LINE
8
0
6
CONTINUOUS
10
-0.019798
20
-0.051749
30
0.0
11
-0.018878
21
-0.051749
31
0.0
0
LINE
8
0
6
CONTINUOUS
10
-0.020503
20
-0.051749
30
0.0
11
-0.019798
21
-0.051749
31
0.0
0
LINE
8
0
6
CONTINUOUS
10
-0.020947
20
-0.051749
30
0.0
11
-0.020503
21
-0.051749
31
0.0
0
LINE
8
0
6
CONTINUOUS
10
-0.021098
20
-0.051749
30
0.0
11
-0.020947
21
-0.051749
31
0.0
0
LINE
8
0
6
CONTINUOUS
10
-0.021347
20
-0.051683
30
0.0
11
-0.021098
21
-0.051749
31
0.0
0
LINE
8
0
6
CONTINUOUS
10
-0.021530
20
-0.051502
30
0.0
11
-0.021347
21
-0.051683
31
0.0
0
LINE
8
0
6
CONTINUOUS
10
-0.021596
20
-0.051255
30
0.0
11
-0.021530
21
-0.051502
31
0.0
0
LINE
8
0
6
CONTINUOUS
10
-0.012217
20
-0.051749
30
0.0
11
-0.011968
21
-0.051683
31
0.0
0
LINE
8
0
6
CONTINUOUS
10
-0.012368
20
-0.051749
30
0.0
11
-0.012217
21
-0.051749
31
0.0
0
LINE
8
0
6
CONTINUOUS
10
-0.011968
20
-0.051683
30
0.0
11
-0.011786
21
-0.051502
31
0.0
0
LINE
8
0
6
CONTINUOUS
10
-0.011786
20
-0.051502
30
0.0
11
-0.011719
21
-0.051255
31
0.0
0
LINE
8
0
6
CONTINUOUS
10
-0.012812
20
-0.051749
30
0.0
11
-0.012368
21
-0.051749
31
0.0
0
LINE
8
0
6
CONTINUOUS
10
-0.013518
20
-0.051749
30
0.0
11
-0.012812
21
-0.051749
31
0.0
0
LINE
8
0
6
CONTINUOUS
10
-0.014437
20
-0.051749
30
0.0
11
-0.013518
21
-0.051749
31
0.0
0
LINE
8
0
6
CONTINUOUS
10
-0.015508
20
-0.051749
30
0.0
11
-0.014437
21
-0.051749
31
0.0
0
LINE
8
0
6
CONTINUOUS
10
-0.016658
20
-0.051749
30
0.0
11
-0.015508
21
-0.051749
31
0.0
0
LINE
8
0
6
CONTINUOUS
10
-0.021596
20
-0.051196
30
0.0
11
-0.021596
21
-0.051255
31
0.0
0
LINE
8
0
6
CONTINUOUS
10
-0.011719
20
-0.051255
30
0.0
11
-0.011719
21
-0.051196
31
0.0
0
LINE
8
0
6
CONTINUOUS
10
-0.019394
20
0.008599
30
0.0
11
-0.019778
21
0.007757
31
0.0
0
LINE
8
0
6
CONTINUOUS
10
-0.019778
20
0.007757
30
0.0
11
-0.019910
21
0.006841
31
0.0
0
LINE
8
0
6
CONTINUOUS
10
-0.018788
20
0.009299
30
0.0
11
-0.019394
21
0.008599
31
0.0
0
LINE
8
0
6
CONTINUOUS
10
-0.013405
20
0.006841
30
0.0
11
-0.013537
21
0.007757
31
0.0
0
LINE
8
0
6
CONTINUOUS
10
-0.013537
20
0.007757
30
0.0
11
-0.013921
21
0.008599
31
0.0
0
LINE
8
0
6
CONTINUOUS
10
-0.013921
20
0.008599
30
0.0
11
-0.014528
21
0.009299
31
0.0
0
LINE
8
0
6
CONTINUOUS
10
-0.017120
20
0.010061
30
0.0
11
-0.018009
21
0.009800
31
0.0
0
LINE
8
0
6
CONTINUOUS
10
-0.016195
20
0.010061
30
0.0
11
-0.016658
21
0.010061
31
0.0
0
LINE
8
0
6
CONTINUOUS
10
-0.018009
20
0.009800
30
0.0
11
-0.018788
21
0.009299
31
0.0
0
LINE
8
0
6
CONTINUOUS
10
-0.014528
20
0.009299
30
0.0
11
-0.015306
21
0.009800
31
0.0
0
LINE
8
0
6
CONTINUOUS
10
-0.015306
20
0.009800
30
0.0
11
-0.016195
21
0.010061
31
0.0
0
LINE
8
0
6
CONTINUOUS
10
-0.019910
20
0.006841
30
0.0
11
-0.019910
21
-0.003827
31
0.0
0
LINE
8
0
6
CONTINUOUS
10
-0.013405
20
-0.003829
30
0.0
11
-0.013405
21
0.006841
31
0.0
0
LINE
8
0
6
CONTINUOUS
10
-0.014398
20
-0.004509
30
0.0
11
-0.014299
21
-0.004519
31
0.0
0
LINE
8
0
6
CONTINUOUS
10
-0.019016
20
-0.004521
30
0.0
11
-0.018917
21
-0.004508
31
0.0
0
LINE
8
0
6
CONTINUOUS
10
-0.016658
20
-0.004255
30
0.0
11
-0.014398
21
-0.004509
31
0.0
0
LINE
8
0
6
CONTINUOUS
10
-0.011792
20
-0.004011
30
0.0
11
-0.013405
21
-0.003829
31
0.0
0
LINE
8
0
6
CONTINUOUS
10
-0.007170
20
-0.005628
30
0.0
11
-0.011792
21
-0.004011
31
0.0
0
LINE
8
0
6
CONTINUOUS
10
-0.003024
20
-0.008233
30
0.0
11
-0.007170
21
-0.005628
31
0.0
0
LINE
8
0
6
CONTINUOUS
10
0.000439
20
-0.011696
30
0.0
11
-0.003024
21
-0.008233
31
0.0
0
LINE
8
0
6
CONTINUOUS
10
0.003044
20
-0.015842
30
0.0
11
0.000439
21
-0.011696
31
0.0
0
LINE
8
0
6
CONTINUOUS
10
0.004662
20
-0.020464
30
0.0
11
0.003044
21
-0.015842
31
0.0
0
LINE
8
0
6
CONTINUOUS
10
0.005210
20
-0.025330
30
0.0
11
0.004662
21
-0.020464
31
0.0
0
LINE
8
0
6
CONTINUOUS
10
0.004662
20
-0.030196
30
0.0
11
0.005210
21
-0.025330
31
0.0
0
LINE
8
0
6
CONTINUOUS
10
0.003044
20
-0.034818
30
0.0
11
0.004662
21
-0.030196
31
0.0
0
LINE
8
0
6
CONTINUOUS
10
0.000439
20
-0.038964
30
0.0
11
0.003044
21
-0.034818
31
0.0
0
LINE
8
0
6
CONTINUOUS
10
-0.003023
20
-0.042427
30
0.0
11
0.000439
21
-0.038964
31
0.0
0
LINE
8
0
6
CONTINUOUS
10
-0.007170
20
-0.045032
30
0.0
11
-0.003023
21
-0.042427
31
0.0
0
LINE
8
0
6
CONTINUOUS
10
-0.011792
20
-0.046649
30
0.0
11
-0.007170
21
-0.045032
31
0.0
0
LINE
8
0
6
CONTINUOUS
10
-0.016658
20
-0.047198
30
0.0
11
-0.011792
21
-0.046649
31
0.0
0
LINE
8
0
6
CONTINUOUS
10
-0.021524
20
-0.046649
30
0.0
11
-0.016658
21
-0.047198
31
0.0
0
LINE
8
0
6
CONTINUOUS
10
-0.026146
20
-0.045032
30
0.0
11
-0.021524
21
-0.046649
31
0.0
0
LINE
8
0
6
CONTINUOUS
10
-0.030292
20
-0.042427
30
0.0
11
-0.026146
21
-0.045032
31
0.0
0
LINE
8
0
6
CONTINUOUS
10
-0.033754
20
-0.038964
30
0.0
11
-0.030292
21
-0.042427
31
0.0
0
LINE
8
0
6
CONTINUOUS
10
-0.036359
20
-0.034818
30
0.0
11
-0.033754
21
-0.038964
31
0.0
0
LINE
8
0
6
CONTINUOUS
10
-0.037977
20
-0.030196
30
0.0
11
-0.036359
21
-0.034818
31
0.0
0
LINE
8
0
6
CONTINUOUS
10
-0.038525
20
-0.025330
30
0.0
11
-0.037977
21
-0.030196
31
0.0
0
LINE
8
0
6
CONTINUOUS
10
-0.037977
20
-0.020464
30
0.0
11
-0.038525
21
-0.025330
31
0.0
0
LINE
8
0
6
CONTINUOUS
10
-0.036359
20
-0.015842
30
0.0
11
-0.037977
21
-0.020464
31
0.0
0
LINE
8
0
6
CONTINUOUS
10
-0.033754
20
-0.011696
30
0.0
11
-0.036359
21
-0.015842
31
0.0
0
LINE
8
0
6
CONTINUOUS
10
-0.030292
20
-0.008233
30
0.0
11
-0.033754
21
-0.011696
31
0.0
0
LINE
8
0
6
CONTINUOUS
10
-0.026146
20
-0.005628
30
0.0
11
-0.030292
21
-0.008233
31
0.0
0
LINE
8
0
6
CONTINUOUS
10
-0.021524
20
-0.004011
30
0.0
11
-0.026146
21
-0.005628
31
0.0
0
LINE
8
0
6
CONTINUOUS
10
-0.019910
20
-0.003829
30
0.0
11
-0.021524
21
-0.004011
31
0.0
0
LINE
8
0
6
CONTINUOUS
10
-0.016658
20
0.010061
30
0.0
11
-0.017120
21
0.010061
31
0.0
0
LINE
8
0
6
CONTINUOUS
10
-0.018917
20
-0.004508
30
0.0
11
-0.016658
21
-0.004255
31
0.0
0
ENDSEC
0
EOF
