  0
SECTION
  2
HEADER
  9
$ACADVER
  1
AC1015
  9
$ACADMAINTVER
 70
     6
  9
$DWGCODEPAGE
  3
ANSI_1252
  9
$INSBASE
 10
0.0
 20
0.0
 30
0.0
  9
$EXTMIN
 10
-0.066
 20
0.14355
 30
0.0
  9
$EXTMAX
 10
566.228701835862
 20
475.85645
 30
0.0
  9
$LIMMIN
 10
0.0
 20
0.0
  9
$LIMMAX
 10
12.0
 20
9.0
  9
$ORTHOMODE
 70
     0
  9
$REGENMODE
 70
     1
  9
$FILLMODE
 70
     1
  9
$QTEXTMODE
 70
     0
  9
$MIRRTEXT
 70
     1
  9
$LTSCALE
 40
1.0
  9
$ATTMODE
 70
     1
  9
$TEXTSIZE
 40
0.2
  9
$TRACEWID
 40
0.05
  9
$TEXTSTYLE
  7
Standard
  9
$CLAYER
  8
0
  9
$CELTYPE
  6
ByBlock
  9
$CECOLOR
 62
   256
  9
$CELTSCALE
 40
1.0
  9
$DISPSILH
 70
     0
  9
$DIMSCALE
 40
1.0
  9
$DIMASZ
 40
0.18
  9
$DIMEXO
 40
0.0625
  9
$DIMDLI
 40
0.38
  9
$DIMRND
 40
0.0
  9
$DIMDLE
 40
0.0
  9
$DIMEXE
 40
0.18
  9
$DIMTP
 40
0.0
  9
$DIMTM
 40
0.0
  9
$DIMTXT
 40
0.18
  9
$DIMCEN
 40
0.09
  9
$DIMTSZ
 40
0.0
  9
$DIMTOL
 70
     0
  9
$DIMLIM
 70
     0
  9
$DIMTIH
 70
     1
  9
$DIMTOH
 70
     1
  9
$DIMSE1
 70
     0
  9
$DIMSE2
 70
     0
  9
$DIMTAD
 70
     0
  9
$DIMZIN
 70
     0
  9
$DIMBLK
  1

  9
$DIMASO
 70
     1
  9
$DIMSHO
 70
     1
  9
$DIMPOST
  1

  9
$DIMAPOST
  1

  9
$DIMALT
 70
     0
  9
$DIMALTD
 70
     2
  9
$DIMALTF
 40
25.4
  9
$DIMLFAC
 40
1.0
  9
$DIMTOFL
 70
     0
  9
$DIMTVP
 40
0.0
  9
$DIMTIX
 70
     0
  9
$DIMSOXD
 70
     0
  9
$DIMSAH
 70
     0
  9
$DIMBLK1
  1

  9
$DIMBLK2
  1

  9
$DIMSTYLE
  2
Standard
  9
$DIMCLRD
 70
     0
  9
$DIMCLRE
 70
     0
  9
$DIMCLRT
 70
     0
  9
$DIMTFAC
 40
1.0
  9
$DIMGAP
 40
0.09
  9
$DIMJUST
 70
     0
  9
$DIMSD1
 70
     0
  9
$DIMSD2
 70
     0
  9
$DIMTOLJ
 70
     1
  9
$DIMTZIN
 70
     0
  9
$DIMALTZ
 70
     0
  9
$DIMALTTZ
 70
     0
  9
$DIMUPT
 70
     0
  9
$DIMDEC
 70
     4
  9
$DIMTDEC
 70
     4
  9
$DIMALTU
 70
     2
  9
$DIMALTTD
 70
     2
  9
$DIMTXSTY
  7
Standard
  9
$DIMAUNIT
 70
     0
  9
$DIMADEC
 70
     0
  9
$DIMALTRND
 40
0.0
  9
$DIMAZIN
 70
     0
  9
$DIMDSEP
 70
    46
  9
$DIMATFIT
 70
     3
  9
$DIMFRAC
 70
     0
  9
$DIMLDRBLK
  1

  9
$DIMLUNIT
 70
     2
  9
$DIMLWD
 70
    -2
  9
$DIMLWE
 70
    -2
  9
$DIMTMOVE
 70
     2
  9
$LUNITS
 70
     2
  9
$LUPREC
 70
     4
  9
$SKETCHINC
 40
0.1
  9
$FILLETRAD
 40
0.5
  9
$AUNITS
 70
     0
  9
$AUPREC
 70
     0
  9
$MENU
  1
.
  9
$ELEVATION
 40
0.0
  9
$PELEVATION
 40
0.0
  9
$THICKNESS
 40
0.0
  9
$LIMCHECK
 70
     0
  9
$CHAMFERA
 40
0.5
  9
$CHAMFERB
 40
0.5
  9
$CHAMFERC
 40
1.0
  9
$CHAMFERD
 40
0.0
  9
$SKPOLY
 70
     0
  9
$TDCREATE
 40
2456647.359612627
  9
$TDUCREATE
 40
2456647.31794596
  9
$TDUPDATE
 40
2456647.36432147
  9
$TDUUPDATE
 40
2456647.322654803
  9
$TDINDWG
 40
0.0047086806
  9
$TDUSRTIMER
 40
0.0047086806
  9
$USRTIMER
 70
     1
  9
$ANGBASE
 50
0.0
  9
$ANGDIR
 70
     0
  9
$PDMODE
 70
     0
  9
$PDSIZE
 40
0.0
  9
$PLINEWID
 40
0.0
  9
$SPLFRAME
 70
     0
  9
$SPLINETYPE
 70
     6
  9
$SPLINESEGS
 70
     8
  9
$HANDSEED
  5
97B
  9
$SURFTAB1
 70
     6
  9
$SURFTAB2
 70
     6
  9
$SURFTYPE
 70
     6
  9
$SURFU
 70
     6
  9
$SURFV
 70
     6
  9
$UCSBASE
  2

  9
$UCSNAME
  2

  9
$UCSORG
 10
0.0
 20
0.0
 30
0.0
  9
$UCSXDIR
 10
1.0
 20
0.0
 30
0.0
  9
$UCSYDIR
 10
0.0
 20
1.0
 30
0.0
  9
$UCSORTHOREF
  2

  9
$UCSORTHOVIEW
 70
     0
  9
$UCSORGTOP
 10
0.0
 20
0.0
 30
0.0
  9
$UCSORGBOTTOM
 10
0.0
 20
0.0
 30
0.0
  9
$UCSORGLEFT
 10
0.0
 20
0.0
 30
0.0
  9
$UCSORGRIGHT
 10
0.0
 20
0.0
 30
0.0
  9
$UCSORGFRONT
 10
0.0
 20
0.0
 30
0.0
  9
$UCSORGBACK
 10
0.0
 20
0.0
 30
0.0
  9
$PUCSBASE
  2

  9
$PUCSNAME
  2

  9
$PUCSORG
 10
0.0
 20
0.0
 30
0.0
  9
$PUCSXDIR
 10
1.0
 20
0.0
 30
0.0
  9
$PUCSYDIR
 10
0.0
 20
1.0
 30
0.0
  9
$PUCSORTHOREF
  2

  9
$PUCSORTHOVIEW
 70
     0
  9
$PUCSORGTOP
 10
0.0
 20
0.0
 30
0.0
  9
$PUCSORGBOTTOM
 10
0.0
 20
0.0
 30
0.0
  9
$PUCSORGLEFT
 10
0.0
 20
0.0
 30
0.0
  9
$PUCSORGRIGHT
 10
0.0
 20
0.0
 30
0.0
  9
$PUCSORGFRONT
 10
0.0
 20
0.0
 30
0.0
  9
$PUCSORGBACK
 10
0.0
 20
0.0
 30
0.0
  9
$USERI1
 70
     0
  9
$USERI2
 70
     0
  9
$USERI3
 70
     0
  9
$USERI4
 70
     0
  9
$USERI5
 70
     0
  9
$USERR1
 40
0.0
  9
$USERR2
 40
0.0
  9
$USERR3
 40
0.0
  9
$USERR4
 40
0.0
  9
$USERR5
 40
0.0
  9
$WORLDVIEW
 70
     1
  9
$SHADEDGE
 70
     3
  9
$SHADEDIF
 70
    70
  9
$TILEMODE
 70
     1
  9
$MAXACTVP
 70
    64
  9
$PINSBASE
 10
0.0
 20
0.0
 30
0.0
  9
$PLIMCHECK
 70
     0
  9
$PEXTMIN
 10
1.000000000000E+20
 20
1.000000000000E+20
 30
1.000000000000E+20
  9
$PEXTMAX
 10
-1.000000000000E+20
 20
-1.000000000000E+20
 30
-1.000000000000E+20
  9
$PLIMMIN
 10
0.0
 20
0.0
  9
$PLIMMAX
 10
12.0
 20
9.0
  9
$UNITMODE
 70
     0
  9
$VISRETAIN
 70
     1
  9
$PLINEGEN
 70
     0
  9
$PSLTSCALE
 70
     1
  9
$TREEDEPTH
 70
  3020
  9
$CMLSTYLE
  2
Standard
  9
$CMLJUST
 70
     0
  9
$CMLSCALE
 40
1.0
  9
$PROXYGRAPHICS
 70
     1
  9
$MEASUREMENT
 70
     0
  9
$CELWEIGHT
370
    -1
  9
$ENDCAPS
280
     0
  9
$JOINSTYLE
280
     0
  9
$LWDISPLAY
290
     0
  9
$INSUNITS
 70
     0
  9
$HYPERLINKBASE
  1

  9
$STYLESHEET
  1

  9
$XEDIT
290
     1
  9
$CEPSNTYPE
380
     0
  9
$PSTYLEMODE
290
     1
  9
$FINGERPRINTGUID
  2
{905F7DBF-2C9B-49E1-9E07-F57885F88719}
  9
$VERSIONGUID
  2
{FAEB1C32-E019-11D5-929B-00C0DF256EC4}
  9
$EXTNAMES
290
     1
  9
$PSVPSCALE
 40
0.0
  9
$OLESTARTUP
290
     0
  0
ENDSEC
  0
SECTION
  2
CLASSES
  0
CLASS
  1
ACDBDICTIONARYWDFLT
  2
AcDbDictionaryWithDefault
  3
ObjectDBX Classes
 90
        0
280
     0
281
     0
  0
CLASS
  1
SCALE
  2
AcDbScale
  3
ObjectDBX Classes
 90
     1153
280
     0
281
     0
  0
CLASS
  1
DICTIONARYVAR
  2
AcDbDictionaryVar
  3
ObjectDBX Classes
 90
        0
280
     0
281
     0
  0
CLASS
  1
ACDBPLACEHOLDER
  2
AcDbPlaceHolder
  3
ObjectDBX Classes
 90
        0
280
     0
281
     0
  0
CLASS
  1
LAYOUT
  2
AcDbLayout
  3
ObjectDBX Classes
 90
        0
280
     0
281
     0
  0
ENDSEC
  0
SECTION
  2
TABLES
  0
TABLE
  2
VPORT
  5
8
330
0
100
AcDbSymbolTable
 70
     1
  0
VPORT
  5
51B
330
8
100
AcDbSymbolTableRecord
100
AcDbViewportTableRecord
  2
*Active
 70
     0
 10
0.0
 20
0.0
 11
1.0
 21
1.0
 12
283.081350917931
 22
237.928225
 13
0.0
 23
0.0
 14
0.5
 24
0.5
 15
0.5
 25
0.5
 16
0.0
 26
0.0
 36
1.0
 17
0.0
 27
0.0
 37
0.0
 40
485.373579
 41
1.729542302358
 42
50.0
 43
0.0
 44
0.0
 50
0.0
 51
0.0
 71
    16
 72
   100
 73
     1
 74
     3
 75
     0
 76
     0
 77
     0
 78
     0
281
     0
 65
     1
110
0.0
120
0.0
130
0.0
111
1.0
121
0.0
131
0.0
112
0.0
122
1.0
132
0.0
 79
     0
146
0.0
  0
ENDTAB
  0
TABLE
  2
LTYPE
  5
5
330
0
100
AcDbSymbolTable
 70
     1
  0
LTYPE
  5
14
330
5
100
AcDbSymbolTableRecord
100
AcDbLinetypeTableRecord
  2
ByBlock
 70
     0
  3

 72
    65
 73
     0
 40
0.0
  0
LTYPE
  5
15
330
5
100
AcDbSymbolTableRecord
100
AcDbLinetypeTableRecord
  2
ByLayer
 70
     0
  3

 72
    65
 73
     0
 40
0.0
  0
LTYPE
  5
16
330
5
100
AcDbSymbolTableRecord
100
AcDbLinetypeTableRecord
  2
Continuous
 70
     0
  3
Solid line
 72
    65
 73
     0
 40
0.0
  0
ENDTAB
  0
TABLE
  2
LAYER
  5
2
330
0
100
AcDbSymbolTable
 70
     1
  0
LAYER
  5
10
330
2
100
AcDbSymbolTableRecord
100
AcDbLayerTableRecord
  2
0
 70
     0
 62
     7
  6
Continuous
370
    -3
390
F
  0
ENDTAB
  0
TABLE
  2
STYLE
  5
3
330
0
100
AcDbSymbolTable
 70
     1
  0
STYLE
  5
11
330
3
100
AcDbSymbolTableRecord
100
AcDbTextStyleTableRecord
  2
Standard
 70
     0
 40
0.0
 41
1.0
 50
0.0
 71
     0
 42
0.2
  3
txt
  4

  0
ENDTAB
  0
TABLE
  2
VIEW
  5
6
330
0
100
AcDbSymbolTable
 70
     0
  0
ENDTAB
  0
TABLE
  2
UCS
  5
7
330
0
100
AcDbSymbolTable
 70
     0
  0
ENDTAB
  0
TABLE
  2
APPID
  5
9
330
0
100
AcDbSymbolTable
 70
     1
  0
APPID
  5
12
330
9
100
AcDbSymbolTableRecord
100
AcDbRegAppTableRecord
  2
ACAD
 70
     0
  0
ENDTAB
  0
TABLE
  2
DIMSTYLE
  5
A
330
0
100
AcDbSymbolTable
 70
     1
100
AcDbDimStyleTable
  0
DIMSTYLE
105
20
330
A
100
AcDbSymbolTableRecord
100
AcDbDimStyleTableRecord
  2
Standard
 70
     0
340
11
  0
ENDTAB
  0
TABLE
  2
BLOCK_RECORD
  5
1
330
0
100
AcDbSymbolTable
 70
     1
  0
BLOCK_RECORD
  5
1D
330
1
100
AcDbSymbolTableRecord
100
AcDbBlockTableRecord
  2
*Model_Space
340
1E
  0
BLOCK_RECORD
  5
1B
330
1
100
AcDbSymbolTableRecord
100
AcDbBlockTableRecord
  2
*Paper_Space
340
1C
  0
ENDTAB
  0
ENDSEC
  0
SECTION
  2
BLOCKS
  0
BLOCK
  5
51E
330
1D
100
AcDbEntity
  8
0
100
AcDbBlockBegin
  2
*Model_Space
 70
     0
 10
0.0
 20
0.0
 30
0.0
  3
*Model_Space
  1
*Model_Space
  0
ENDBLK
  5
51F
330
1D
100
AcDbEntity
  8
0
100
AcDbBlockEnd
  0
BLOCK
  5
51C
330
1B
100
AcDbEntity
 67
     1
  8
0
100
AcDbBlockBegin
  2
*Paper_Space
 70
     0
 10
0.0
 20
0.0
 30
0.0
  3
*Paper_Space
  1
*Paper_Space
  0
ENDBLK
  5
51D
330
1B
100
AcDbEntity
 67
     1
  8
0
100
AcDbBlockEnd
  0
ENDSEC
  0
SECTION
  2
ENTITIES
  0
LINE
  5
45
330
1D
100
AcDbEntity
  8
0
100
AcDbLine
 10
4.934
 20
389.12145
 30
0.0
 11
4.934
 21
389.33345
 31
0.0
  0
LINE
  5
46
330
1D
100
AcDbEntity
  8
0
100
AcDbLine
 10
4.934
 20
389.12145
 30
0.0
 11
5.1263
 21
388.94445
 31
0.0
  0
LINE
  5
47
330
1D
100
AcDbEntity
  8
0
100
AcDbLine
 10
4.934
 20
396.33845
 30
0.0
 11
4.934
 21
394.85645
 31
0.0
  0
LINE
  5
48
330
1D
100
AcDbEntity
  8
0
100
AcDbLine
 10
4.934
 20
396.33845
 30
0.0
 11
4.934
 21
397.71545
 31
0.0
  0
LINE
  5
49
330
1D
100
AcDbEntity
  8
0
100
AcDbLine
 10
4.934
 20
397.71545
 30
0.0
 11
4.934
 21
396.33845
 31
0.0
  0
LINE
  5
4A
330
1D
100
AcDbEntity
  8
0
100
AcDbLine
 10
4.934
 20
397.71545
 30
0.0
 11
4.934
 21
398.91545
 31
0.0
  0
LINE
  5
4B
330
1D
100
AcDbEntity
  8
0
100
AcDbLine
 10
4.934
 20
398.91545
 30
0.0
 11
4.934
 21
399.81545
 31
0.0
  0
LINE
  5
4C
330
1D
100
AcDbEntity
  8
0
100
AcDbLine
 10
4.934
 20
398.91545
 30
0.0
 11
4.934
 21
397.71545
 31
0.0
  0
LINE
  5
4D
330
1D
100
AcDbEntity
  8
0
100
AcDbLine
 10
4.934
 20
400.37945
 30
0.0
 11
4.934
 21
399.81545
 31
0.0
  0
LINE
  5
4E
330
1D
100
AcDbEntity
  8
0
100
AcDbLine
 10
4.934
 20
400.37945
 30
0.0
 11
4.934
 21
400.59145
 31
0.0
  0
LINE
  5
4F
330
1D
100
AcDbEntity
  8
0
100
AcDbLine
 10
4.934
 20
399.81545
 30
0.0
 11
4.934
 21
398.91545
 31
0.0
  0
LINE
  5
50
330
1D
100
AcDbEntity
  8
0
100
AcDbLine
 10
4.934
 20
399.81545
 30
0.0
 11
4.934
 21
400.37945
 31
0.0
  0
LINE
  5
51
330
1D
100
AcDbEntity
  8
0
100
AcDbLine
 10
4.934
 20
400.59145
 30
0.0
 11
5.1263
 21
400.76845
 31
0.0
  0
LINE
  5
52
330
1D
100
AcDbEntity
  8
0
100
AcDbLine
 10
4.934
 20
400.59145
 30
0.0
 11
4.934
 21
400.37945
 31
0.0
  0
LINE
  5
53
330
1D
100
AcDbEntity
  8
0
100
AcDbLine
 10
4.934
 20
394.85645
 30
0.0
 11
4.934
 21
393.37445
 31
0.0
  0
LINE
  5
54
330
1D
100
AcDbEntity
  8
0
100
AcDbLine
 10
4.934
 20
394.85645
 30
0.0
 11
4.934
 21
396.33845
 31
0.0
  0
LINE
  5
55
330
1D
100
AcDbEntity
  8
0
100
AcDbLine
 10
4.934
 20
393.37445
 30
0.0
 11
4.934
 21
394.85645
 31
0.0
  0
LINE
  5
56
330
1D
100
AcDbEntity
  8
0
100
AcDbLine
 10
4.934
 20
393.37445
 30
0.0
 11
4.934
 21
391.99745
 31
0.0
  0
LINE
  5
57
330
1D
100
AcDbEntity
  8
0
100
AcDbLine
 10
4.934
 20
391.99745
 30
0.0
 11
4.934
 21
393.37445
 31
0.0
  0
LINE
  5
58
330
1D
100
AcDbEntity
  8
0
100
AcDbLine
 10
4.934
 20
391.99745
 30
0.0
 11
4.934
 21
390.79745
 31
0.0
  0
LINE
  5
59
330
1D
100
AcDbEntity
  8
0
100
AcDbLine
 10
4.934
 20
390.79745
 30
0.0
 11
4.934
 21
389.89745
 31
0.0
  0
LINE
  5
5A
330
1D
100
AcDbEntity
  8
0
100
AcDbLine
 10
4.934
 20
390.79745
 30
0.0
 11
4.934
 21
391.99745
 31
0.0
  0
LINE
  5
5B
330
1D
100
AcDbEntity
  8
0
100
AcDbLine
 10
4.934
 20
389.33345
 30
0.0
 11
4.934
 21
389.89745
 31
0.0
  0
LINE
  5
5C
330
1D
100
AcDbEntity
  8
0
100
AcDbLine
 10
4.934
 20
389.33345
 30
0.0
 11
4.934
 21
389.12145
 31
0.0
  0
LINE
  5
BE
330
1D
100
AcDbEntity
  8
0
100
AcDbLine
 10
5.1263
 20
400.76845
 30
0.0
 11
5.5109
 21
400.85645
 31
0.0
  0
LINE
  5
CC
330
1D
100
AcDbEntity
  8
0
100
AcDbLine
 10
4.934
 20
389.89745
 30
0.0
 11
4.934
 21
390.79745
 31
0.0
  0
LINE
  5
CD
330
1D
100
AcDbEntity
  8
0
100
AcDbLine
 10
4.934
 20
389.89745
 30
0.0
 11
4.934
 21
389.33345
 31
0.0
  0
LINE
  5
75D
330
1D
100
AcDbEntity
  8
0
100
AcDbLine
 10
-0.066
 20
10.78575
 30
0.0
 11
0.192167
 21
8.87745
 31
0.0
  0
LINE
  5
75E
330
1D
100
AcDbEntity
  8
0
100
AcDbLine
 10
-0.066
 20
10.78575
 30
0.0
 11
-0.066
 21
95.66835
 31
0.0
  0
LINE
  5
75F
330
1D
100
AcDbEntity
  8
0
100
AcDbLine
 10
-0.066
 20
10.78575
 30
0.0
 11
-0.066
 21
8.81775
 31
0.0
  0
LINE
  5
760
330
1D
100
AcDbEntity
  8
0
100
AcDbLine
 10
0.192167
 20
6.90935
 30
0.0
 11
0.93798
 21
5.10025
 31
0.0
  0
LINE
  5
761
330
1D
100
AcDbEntity
  8
0
100
AcDbLine
 10
9.9738
 20
0.14355
 30
0.0
 11
179.934
 21
0.14355
 31
0.0
  0
LINE
  5
762
330
1D
100
AcDbEntity
  8
0
100
AcDbLine
 10
5.67105
 20
2.97895
 30
0.0
 11
7.76508
 21
2.33465
 31
0.0
  0
LINE
  5
763
330
1D
100
AcDbEntity
  8
0
100
AcDbLine
 10
3.66308
 20
2.00235
 30
0.0
 11
5.67105
 21
1.01095
 31
0.0
  0
LINE
  5
764
330
1D
100
AcDbEntity
  8
0
100
AcDbLine
 10
9.9738
 20
2.11155
 30
0.0
 11
179.934
 21
2.11155
 31
0.0
  0
LINE
  5
765
330
1D
100
AcDbEntity
  8
0
100
AcDbLine
 10
7.76508
 20
2.33465
 30
0.0
 11
9.9738
 21
2.11155
 31
0.0
  0
LINE
  5
766
330
1D
100
AcDbEntity
  8
0
100
AcDbLine
 10
9.9738
 20
2.11155
 30
0.0
 11
179.934
 21
2.11155
 31
0.0
  0
LINE
  5
767
330
1D
100
AcDbEntity
  8
0
100
AcDbLine
 10
5.67105
 20
1.01095
 30
0.0
 11
7.76508
 21
0.36665
 31
0.0
  0
LINE
  5
768
330
1D
100
AcDbEntity
  8
0
100
AcDbLine
 10
7.76508
 20
0.36665
 30
0.0
 11
9.9738
 21
0.14355
 31
0.0
  0
LINE
  5
769
330
1D
100
AcDbEntity
  8
0
100
AcDbLine
 10
179.934
 20
2.11155
 30
0.0
 11
349.894
 21
2.11155
 31
0.0
  0
LINE
  5
76A
330
1D
100
AcDbEntity
  8
0
100
AcDbLine
 10
179.934
 20
0.14355
 30
0.0
 11
349.894
 21
0.14355
 31
0.0
  0
LINE
  5
76B
330
1D
100
AcDbEntity
  8
0
100
AcDbLine
 10
9.9738
 20
0.14355
 30
0.0
 11
179.934
 21
0.14355
 31
0.0
  0
LINE
  5
76C
330
1D
100
AcDbEntity
  8
0
100
AcDbLine
 10
3.66308
 20
3.97035
 30
0.0
 11
5.67105
 21
2.97895
 31
0.0
  0
LINE
  5
76D
330
1D
100
AcDbEntity
  8
0
100
AcDbLine
 10
2.08539
 20
5.33345
 30
0.0
 11
3.66308
 21
3.97035
 31
0.0
  0
LINE
  5
76E
330
1D
100
AcDbEntity
  8
0
100
AcDbLine
 10
2.08539
 20
3.36535
 30
0.0
 11
3.66308
 21
2.00235
 31
0.0
  0
LINE
  5
76F
330
1D
100
AcDbEntity
  8
0
100
AcDbLine
 10
0.93798
 20
5.10025
 30
0.0
 11
2.08539
 21
3.36535
 31
0.0
  0
LINE
  5
770
330
1D
100
AcDbEntity
  8
0
100
AcDbLine
 10
0.192167
 20
8.87745
 30
0.0
 11
0.93798
 21
7.06825
 31
0.0
  0
LINE
  5
771
330
1D
100
AcDbEntity
  8
0
100
AcDbLine
 10
0.93798
 20
7.06825
 30
0.0
 11
2.08539
 21
5.33345
 31
0.0
  0
LINE
  5
772
330
1D
100
AcDbEntity
  8
0
100
AcDbLine
 10
0.192167
 20
8.87745
 30
0.0
 11
0.93798
 21
7.06825
 31
0.0
  0
LINE
  5
773
330
1D
100
AcDbEntity
  8
0
100
AcDbLine
 10
0.192167
 20
6.90935
 30
0.0
 11
0.93798
 21
5.10025
 31
0.0
  0
LINE
  5
774
330
1D
100
AcDbEntity
  8
0
100
AcDbLine
 10
-0.066
 20
8.81775
 30
0.0
 11
-0.066
 21
93.70035
 31
0.0
  0
LINE
  5
775
330
1D
100
AcDbEntity
  8
0
100
AcDbLine
 10
-0.066
 20
8.81775
 30
0.0
 11
0.192167
 21
6.90935
 31
0.0
  0
LINE
  5
776
330
1D
100
AcDbEntity
  8
0
100
AcDbLine
 10
-0.066
 20
8.81775
 30
0.0
 11
-0.066
 21
10.78575
 31
0.0
  0
LINE
  5
777
330
1D
100
AcDbEntity
  8
0
100
AcDbLine
 10
157.985
 20
84.77347
 30
0.0
 11
158.469
 21
83.37735
 31
0.0
  0
LINE
  5
778
330
1D
100
AcDbEntity
  8
0
100
AcDbLine
 10
158.025
 20
84.72842
 30
0.0
 11
158.469
 21
83.37735
 31
0.0
  0
LINE
  5
779
330
1D
100
AcDbEntity
  8
0
100
AcDbLine
 10
159.979
 20
82.85645
 30
0.0
 11
199.891
 21
82.85645
 31
0.0
  0
LINE
  5
77A
330
1D
100
AcDbEntity
  8
0
100
AcDbLine
 10
158.469
 20
83.37735
 30
0.0
 11
159.979
 21
82.85645
 31
0.0
  0
LINE
  5
77B
330
1D
100
AcDbEntity
  8
0
100
AcDbLine
 10
-0.066
 20
93.70035
 30
0.0
 11
-0.066
 21
8.81775
 31
0.0
  0
LINE
  5
77C
330
1D
100
AcDbEntity
  8
0
100
AcDbLine
 10
-0.066
 20
93.70035
 30
0.0
 11
-0.066
 21
178.58285
 31
0.0
  0
LINE
  5
77D
330
1D
100
AcDbEntity
  8
0
100
AcDbLine
 10
-0.066
 20
180.55085
 30
0.0
 11
0.192167
 21
182.45945
 31
0.0
  0
LINE
  5
77E
330
1D
100
AcDbEntity
  8
0
100
AcDbLine
 10
-0.066
 20
180.55085
 30
0.0
 11
-0.066
 21
95.66835
 31
0.0
  0
LINE
  5
77F
330
1D
100
AcDbEntity
  8
0
100
AcDbLine
 10
0.192167
 20
182.45945
 30
0.0
 11
0.93798
 21
184.26845
 31
0.0
  0
LINE
  5
780
330
1D
100
AcDbEntity
  8
0
100
AcDbLine
 10
3.66308
 20
187.36645
 30
0.0
 11
5.67105
 21
188.35745
 31
0.0
  0
LINE
  5
781
330
1D
100
AcDbEntity
  8
0
100
AcDbLine
 10
5.67105
 20
188.35745
 30
0.0
 11
7.76508
 21
189.00245
 31
0.0
  0
LINE
  5
782
330
1D
100
AcDbEntity
  8
0
100
AcDbLine
 10
7.76508
 20
189.00245
 30
0.0
 11
9.9738
 21
189.22545
 31
0.0
  0
LINE
  5
783
330
1D
100
AcDbEntity
  8
0
100
AcDbLine
 10
40.3922
 20
346.85645
 30
0.0
 11
157.946497863671
 21
346.85645
 31
0.0
  0
LINE
  5
784
330
1D
100
AcDbEntity
  8
0
100
AcDbLine
 10
157.98
 20
413.62645
 30
0.0
 11
158.256
 21
471.87245
 31
0.0
  0
LINE
  5
785
330
1D
100
AcDbEntity
  8
0
100
AcDbLine
 10
157.936
 20
412.22345
 30
0.0
 11
157.98
 21
84.86535277027
 31
0.0
  0
LINE
  5
786
330
1D
100
AcDbEntity
  8
0
100
AcDbLine
 10
157.936
 20
412.22345
 30
0.0
 11
157.98
 21
413.62645
 31
0.0
  0
LINE
  5
787
330
1D
100
AcDbEntity
  8
0
100
AcDbLine
 10
157.936
 20
412.22345
 30
0.0
 11
157.98
 21
84.86535277027
 31
0.0
  0
LINE
  5
788
330
1D
100
AcDbEntity
  8
0
100
AcDbLine
 10
158.964
 20
472.59945
 30
0.0
 11
159.937
 21
472.88445
 31
0.0
  0
LINE
  5
789
330
1D
100
AcDbEntity
  8
0
100
AcDbLine
 10
158.256
 20
471.87245
 30
0.0
 11
158.964
 21
472.59945
 31
0.0
  0
LINE
  5
78A
330
1D
100
AcDbEntity
  8
0
100
AcDbLine
 10
159.937
 20
472.88445
 30
0.0
 11
165.978
 21
473.02045
 31
0.0
  0
LINE
  5
78B
330
1D
100
AcDbEntity
  8
0
100
AcDbLine
 10
159.937
 20
472.88445
 30
0.0
 11
160.994
 21
472.90845
 31
0.0
  0
LINE
  5
78C
330
1D
100
AcDbEntity
  8
0
100
AcDbLine
 10
160.994
 20
472.90845
 30
0.0
 11
161.136370280168
 21
472.911451218027
 31
0.0
  0
LINE
  5
78D
330
1D
100
AcDbEntity
  8
0
100
AcDbLine
 10
160.994
 20
472.90845
 30
0.0
 11
161.136370280168
 21
472.911451218027
 31
0.0
  0
LINE
  5
78E
330
1D
100
AcDbEntity
  8
0
100
AcDbLine
 10
161.592
 20
475.45345
 30
0.0
 11
161.592
 21
475.64045
 31
0.0
  0
LINE
  5
78F
330
1D
100
AcDbEntity
  8
0
100
AcDbLine
 10
161.592
 20
475.45345
 30
0.0
 11
161.592
 21
475.08345
 31
0.0
  0
LINE
  5
790
330
1D
100
AcDbEntity
  8
0
100
AcDbLine
 10
161.592
 20
475.08345
 30
0.0
 11
161.592
 21
475.45345
 31
0.0
  0
LINE
  5
791
330
1D
100
AcDbEntity
  8
0
100
AcDbLine
 10
161.592
 20
475.08345
 30
0.0
 11
161.592
 21
474.83245
 31
0.0
  0
LINE
  5
792
330
1D
100
AcDbEntity
  8
0
100
AcDbLine
 10
161.592
 20
474.83245
 30
0.0
 11
161.592
 21
475.08345
 31
0.0
  0
LINE
  5
793
330
1D
100
AcDbEntity
  8
0
100
AcDbLine
 10
161.592
 20
474.83245
 30
0.0
 11
161.592
 21
472.921708731998
 31
0.0
  0
LINE
  5
794
330
1D
100
AcDbEntity
  8
0
100
AcDbLine
 10
161.592
 20
475.64045
 30
0.0
 11
161.592
 21
475.45345
 31
0.0
  0
LINE
  5
795
330
1D
100
AcDbEntity
  8
0
100
AcDbLine
 10
161.592
 20
475.64045
 30
0.0
 11
161.592
 21
475.69845
 31
0.0
  0
LINE
  5
796
330
1D
100
AcDbEntity
  8
0
100
AcDbLine
 10
161.592
 20
472.921708731998
 30
0.0
 11
161.592
 21
474.83245
 31
0.0
  0
LINE
  5
797
330
1D
100
AcDbEntity
  8
0
100
AcDbLine
 10
161.592
 20
472.921708731998
 30
0.0
 11
161.592
 21
475.69845
 31
0.0
  0
LINE
  5
798
330
1D
100
AcDbEntity
  8
0
100
AcDbLine
 10
165.978
 20
473.02045
 30
0.0
 11
197.105
 21
473.04245
 31
0.0
  0
LINE
  5
799
330
1D
100
AcDbEntity
  8
0
100
AcDbLine
 10
161.592
 20
475.69845
 30
0.0
 11
161.592
 21
472.921708731998
 31
0.0
  0
LINE
  5
79A
330
1D
100
AcDbEntity
  8
0
100
AcDbLine
 10
161.592
 20
475.69845
 30
0.0
 11
161.592
 21
475.64045
 31
0.0
  0
LINE
  5
79B
330
1D
100
AcDbEntity
  8
0
100
AcDbLine
 10
40.847
 20
346.85645
 30
0.0
 11
157.946497863671
 21
346.85645
 31
0.0
  0
LINE
  5
79C
330
1D
100
AcDbEntity
  8
0
100
AcDbLine
 10
9.9738
 20
189.22545
 30
0.0
 11
157.971813217722
 21
189.22545
 31
0.0
  0
LINE
  5
79D
330
1D
100
AcDbEntity
  8
0
100
AcDbLine
 10
9.9738
 20
189.22545
 30
0.0
 11
157.971813217722
 21
189.22545
 31
0.0
  0
LINE
  5
79E
330
1D
100
AcDbEntity
  8
0
100
AcDbLine
 10
2.08539
 20
186.00245
 30
0.0
 11
3.66308
 21
187.36645
 31
0.0
  0
LINE
  5
79F
330
1D
100
AcDbEntity
  8
0
100
AcDbLine
 10
0.93798
 20
184.26845
 30
0.0
 11
2.08539
 21
186.00245
 31
0.0
  0
LINE
  5
7A0
330
1D
100
AcDbEntity
  8
0
100
AcDbLine
 10
0.192167
 20
182.45945
 30
0.0
 11
0.93798
 21
184.26845
 31
0.0
  0
LINE
  5
7A1
330
1D
100
AcDbEntity
  8
0
100
AcDbLine
 10
-0.066
 20
178.58285
 30
0.0
 11
-0.066
 21
93.70035
 31
0.0
  0
LINE
  5
7A2
330
1D
100
AcDbEntity
  8
0
100
AcDbLine
 10
-0.066
 20
95.66835
 30
0.0
 11
-0.066
 21
10.78575
 31
0.0
  0
LINE
  5
7A3
330
1D
100
AcDbEntity
  8
0
100
AcDbLine
 10
-0.066
 20
95.66835
 30
0.0
 11
-0.066
 21
180.55085
 31
0.0
  0
LINE
  5
7A4
330
1D
100
AcDbEntity
  8
0
100
AcDbLine
 10
175.994318377691
 20
82.85645
 30
0.0
 11
176.094
 21
82.817183
 31
0.0
  0
LINE
  5
7A5
330
1D
100
AcDbEntity
  8
0
100
AcDbLine
 10
354.197
 20
1.01095
 30
0.0
 11
356.205
 21
2.00235
 31
0.0
  0
LINE
  5
7A6
330
1D
100
AcDbEntity
  8
0
100
AcDbLine
 10
352.103
 20
0.36665
 30
0.0
 11
354.197
 21
1.01095
 31
0.0
  0
LINE
  5
7A7
330
1D
100
AcDbEntity
  8
0
100
AcDbLine
 10
349.894
 20
0.14355
 30
0.0
 11
352.103
 21
0.36665
 31
0.0
  0
LINE
  5
7A8
330
1D
100
AcDbEntity
  8
0
100
AcDbLine
 10
354.197
 20
2.97895
 30
0.0
 11
356.205
 21
3.97035
 31
0.0
  0
LINE
  5
7A9
330
1D
100
AcDbEntity
  8
0
100
AcDbLine
 10
352.103
 20
2.33465
 30
0.0
 11
354.197
 21
2.97895
 31
0.0
  0
LINE
  5
7AA
330
1D
100
AcDbEntity
  8
0
100
AcDbLine
 10
349.894
 20
2.11155
 30
0.0
 11
352.103
 21
2.33465
 31
0.0
  0
LINE
  5
7AB
330
1D
100
AcDbEntity
  8
0
100
AcDbLine
 10
356.205
 20
3.97035
 30
0.0
 11
357.783
 21
5.33345
 31
0.0
  0
LINE
  5
7AC
330
1D
100
AcDbEntity
  8
0
100
AcDbLine
 10
356.205
 20
2.00235
 30
0.0
 11
357.783
 21
3.36535
 31
0.0
  0
LINE
  5
7AD
330
1D
100
AcDbEntity
  8
0
100
AcDbLine
 10
357.783
 20
3.36535
 30
0.0
 11
358.93
 21
5.10025
 31
0.0
  0
LINE
  5
7AE
330
1D
100
AcDbEntity
  8
0
100
AcDbLine
 10
357.783
 20
5.33345
 30
0.0
 11
358.93
 21
7.06825
 31
0.0
  0
LINE
  5
7AF
330
1D
100
AcDbEntity
  8
0
100
AcDbLine
 10
358.93
 20
7.06825
 30
0.0
 11
359.676
 21
8.87745
 31
0.0
  0
LINE
  5
7B0
330
1D
100
AcDbEntity
  8
0
100
AcDbLine
 10
359.676
 20
8.87745
 30
0.0
 11
359.934
 21
10.78575
 31
0.0
  0
LINE
  5
7B1
330
1D
100
AcDbEntity
  8
0
100
AcDbLine
 10
358.93
 20
5.10025
 30
0.0
 11
359.676
 21
6.90935
 31
0.0
  0
LINE
  5
7B2
330
1D
100
AcDbEntity
  8
0
100
AcDbLine
 10
359.934
 20
10.78575
 30
0.0
 11
359.934
 21
95.66835
 31
0.0
  0
LINE
  5
7B3
330
1D
100
AcDbEntity
  8
0
100
AcDbLine
 10
359.676
 20
6.90935
 30
0.0
 11
359.934
 21
8.81775
 31
0.0
  0
LINE
  5
7B4
330
1D
100
AcDbEntity
  8
0
100
AcDbLine
 10
199.891
 20
82.85645
 30
0.0
 11
201.506
 21
83.460252
 31
0.0
  0
LINE
  5
7B5
330
1D
100
AcDbEntity
  8
0
100
AcDbLine
 10
201.845
 20
84.72842
 30
0.0
 11
201.914
 21
88.85178
 31
0.0
  0
LINE
  5
7B6
330
1D
100
AcDbEntity
  8
0
100
AcDbLine
 10
201.506
 20
83.460252
 30
0.0
 11
201.845
 21
84.72842
 31
0.0
  0
LINE
  5
7B7
330
1D
100
AcDbEntity
  8
0
100
AcDbLine
 10
201.914
 20
88.85178
 30
0.0
 11
201.934
 21
412.22245
 31
0.0
  0
LINE
  5
7B8
330
1D
100
AcDbEntity
  8
0
100
AcDbLine
 10
201.914
 20
88.85178
 30
0.0
 11
201.934
 21
412.22245
 31
0.0
  0
LINE
  5
7B9
330
1D
100
AcDbEntity
  8
0
100
AcDbLine
 10
359.934
 20
180.55085
 30
0.0
 11
359.934
 21
95.66835
 31
0.0
  0
LINE
  5
7BA
330
1D
100
AcDbEntity
  8
0
100
AcDbLine
 10
354.197
 20
188.35745
 30
0.0
 11
356.205
 21
187.36645
 31
0.0
  0
LINE
  5
7BB
330
1D
100
AcDbEntity
  8
0
100
AcDbLine
 10
352.103
 20
189.00245
 30
0.0
 11
354.197
 21
188.35745
 31
0.0
  0
LINE
  5
7BC
330
1D
100
AcDbEntity
  8
0
100
AcDbLine
 10
349.894
 20
189.22545
 30
0.0
 11
352.103
 21
189.00245
 31
0.0
  0
LINE
  5
7BD
330
1D
100
AcDbEntity
  8
0
100
AcDbLine
 10
197.105
 20
473.04245
 30
0.0
 11
199.933
 21
472.88445
 31
0.0
  0
LINE
  5
7BE
330
1D
100
AcDbEntity
  8
0
100
AcDbLine
 10
201.89
 20
413.62645
 30
0.0
 11
201.934
 21
412.22245
 31
0.0
  0
LINE
  5
7BF
330
1D
100
AcDbEntity
  8
0
100
AcDbLine
 10
201.878634790472
 20
450.059252744766
 30
0.0
 11
201.934
 21
461.81845
 31
0.0
  0
LINE
  5
7C0
330
1D
100
AcDbEntity
  8
0
100
AcDbLine
 10
201.876
 20
458.50545
 30
0.0
 11
201.89
 21
413.62645
 31
0.0
  0
LINE
  5
7C1
330
1D
100
AcDbEntity
  8
0
100
AcDbLine
 10
201.876
 20
458.50545
 30
0.0
 11
201.895
 21
469.02745
 31
0.0
  0
LINE
  5
7C2
330
1D
100
AcDbEntity
  8
0
100
AcDbLine
 10
199.933
 20
472.88445
 30
0.0
 11
200.906
 21
472.59945
 31
0.0
  0
LINE
  5
7C3
330
1D
100
AcDbEntity
  8
0
100
AcDbLine
 10
200.906
 20
472.59945
 30
0.0
 11
201.614
 21
471.87245
 31
0.0
  0
LINE
  5
7C4
330
1D
100
AcDbEntity
  8
0
100
AcDbLine
 10
201.889
 20
470.87645
 30
0.0
 11
201.934
 21
461.81845
 31
0.0
  0
LINE
  5
7C5
330
1D
100
AcDbEntity
  8
0
100
AcDbLine
 10
201.889
 20
470.87645
 30
0.0
 11
201.895
 21
469.02745
 31
0.0
  0
LINE
  5
7C6
330
1D
100
AcDbEntity
  8
0
100
AcDbLine
 10
201.878112619636
 20
451.733145953656
 30
0.0
 11
201.934
 21
461.81845
 31
0.0
  0
LINE
  5
7C7
330
1D
100
AcDbEntity
  8
0
100
AcDbLine
 10
198.278
 20
472.976914639321
 30
0.0
 11
198.278
 21
475.69845
 31
0.0
  0
LINE
  5
7C8
330
1D
100
AcDbEntity
  8
0
100
AcDbLine
 10
198.278
 20
475.69845
 30
0.0
 11
198.278
 21
472.976914639321
 31
0.0
  0
LINE
  5
7C9
330
1D
100
AcDbEntity
  8
0
100
AcDbLine
 10
201.89818681216
 20
189.22545
 30
0.0
 11
349.894
 21
189.22545
 31
0.0
  0
LINE
  5
7CA
330
1D
100
AcDbEntity
  8
0
100
AcDbLine
 10
356.205
 20
187.36645
 30
0.0
 11
357.783
 21
186.00245
 31
0.0
  0
LINE
  5
7CB
330
1D
100
AcDbEntity
  8
0
100
AcDbLine
 10
357.783
 20
186.00245
 30
0.0
 11
358.93
 21
184.26845
 31
0.0
  0
LINE
  5
7CC
330
1D
100
AcDbEntity
  8
0
100
AcDbLine
 10
358.93
 20
184.26845
 30
0.0
 11
359.676
 21
182.45945
 31
0.0
  0
LINE
  5
7CD
330
1D
100
AcDbEntity
  8
0
100
AcDbLine
 10
359.676
 20
182.45945
 30
0.0
 11
359.934
 21
180.55085
 31
0.0
  0
LINE
  5
7CE
330
1D
100
AcDbEntity
  8
0
100
AcDbLine
 10
359.934
 20
95.66835
 30
0.0
 11
359.934
 21
180.55085
 31
0.0
  0
LINE
  5
7CF
330
1D
100
AcDbEntity
  8
0
100
AcDbLine
 10
359.934
 20
95.66835
 30
0.0
 11
359.934
 21
10.78575
 31
0.0
  0
LINE
  5
7D0
330
1D
100
AcDbEntity
  8
0
100
AcDbLine
 10
183.774
 20
82.817183
 30
0.0
 11
183.873681622309
 21
82.85645
 31
0.0
  0
LINE
  5
7D1
330
1D
100
AcDbEntity
  8
0
100
AcDbLine
 10
201.614
 20
471.87245
 30
0.0
 11
201.889
 21
470.87645
 31
0.0
  0
LINE
  5
7D2
330
1D
100
AcDbEntity
  8
0
100
AcDbLine
 10
29.934
 20
357.34445
 30
0.0
 11
29.934
 21
473.85845
 31
0.0
  0
LINE
  5
7D3
330
1D
100
AcDbEntity
  8
0
100
AcDbLine
 10
29.934
 20
357.34445
 30
0.0
 11
30.445952
 21
354.10345
 31
0.0
  0
LINE
  5
7D4
330
1D
100
AcDbEntity
  8
0
100
AcDbLine
 10
28.934
 20
373.85645
 30
0.0
 11
28.934
 21
374.07745
 31
0.0
  0
LINE
  5
7D5
330
1D
100
AcDbEntity
  8
0
100
AcDbLine
 10
28.934
 20
373.85645
 30
0.0
 11
29.934
 21
373.85645
 31
0.0
  0
LINE
  5
7D6
330
1D
100
AcDbEntity
  8
0
100
AcDbLine
 10
29.934
 20
357.48315
 30
0.0
 11
29.934
 21
474.89945
 31
0.0
  0
LINE
  5
7D7
330
1D
100
AcDbEntity
  8
0
100
AcDbLine
 10
29.934
 20
373.30545
 30
0.0
 11
29.934
 21
373.84945
 31
0.0
  0
LINE
  5
7D8
330
1D
100
AcDbEntity
  8
0
100
AcDbLine
 10
28.934
 20
378.23345
 30
0.0
 11
28.934
 21
380.02345
 31
0.0
  0
LINE
  5
7D9
330
1D
100
AcDbEntity
  8
0
100
AcDbLine
 10
28.934
 20
378.23345
 30
0.0
 11
28.934
 21
376.66345
 31
0.0
  0
LINE
  5
7DA
330
1D
100
AcDbEntity
  8
0
100
AcDbLine
 10
28.934
 20
376.66345
 30
0.0
 11
28.934
 21
378.23345
 31
0.0
  0
LINE
  5
7DB
330
1D
100
AcDbEntity
  8
0
100
AcDbLine
 10
28.934
 20
376.66345
 30
0.0
 11
28.934
 21
375.49245
 31
0.0
  0
LINE
  5
7DC
330
1D
100
AcDbEntity
  8
0
100
AcDbLine
 10
28.934
 20
375.49245
 30
0.0
 11
28.934
 21
376.66345
 31
0.0
  0
LINE
  5
7DD
330
1D
100
AcDbEntity
  8
0
100
AcDbLine
 10
28.934
 20
375.49245
 30
0.0
 11
28.934
 21
374.60845
 31
0.0
  0
LINE
  5
7DE
330
1D
100
AcDbEntity
  8
0
100
AcDbLine
 10
28.934
 20
374.60845
 30
0.0
 11
28.934
 21
375.49245
 31
0.0
  0
LINE
  5
7DF
330
1D
100
AcDbEntity
  8
0
100
AcDbLine
 10
28.934
 20
374.60845
 30
0.0
 11
28.934
 21
374.07745
 31
0.0
  0
LINE
  5
7E0
330
1D
100
AcDbEntity
  8
0
100
AcDbLine
 10
28.934
 20
374.07745
 30
0.0
 11
28.934
 21
374.60845
 31
0.0
  0
LINE
  5
7E1
330
1D
100
AcDbEntity
  8
0
100
AcDbLine
 10
28.934
 20
374.07745
 30
0.0
 11
28.934
 21
373.85645
 31
0.0
  0
LINE
  5
7E2
330
1D
100
AcDbEntity
  8
0
100
AcDbLine
 10
28.934
 20
380.02345
 30
0.0
 11
28.934
 21
382.07945
 31
0.0
  0
LINE
  5
7E3
330
1D
100
AcDbEntity
  8
0
100
AcDbLine
 10
28.934
 20
380.02345
 30
0.0
 11
28.934
 21
378.23345
 31
0.0
  0
LINE
  5
7E4
330
1D
100
AcDbEntity
  8
0
100
AcDbLine
 10
28.934
 20
382.07945
 30
0.0
 11
28.934
 21
384.40045
 31
0.0
  0
LINE
  5
7E5
330
1D
100
AcDbEntity
  8
0
100
AcDbLine
 10
28.934
 20
382.07945
 30
0.0
 11
28.934
 21
380.02345
 31
0.0
  0
LINE
  5
7E6
330
1D
100
AcDbEntity
  8
0
100
AcDbLine
 10
4.934
 20
389.89745
 30
0.0
 11
4.934
 21
390.79745
 31
0.0
  0
LINE
  5
7E7
330
1D
100
AcDbEntity
  8
0
100
AcDbLine
 10
4.934
 20
389.89745
 30
0.0
 11
4.934
 21
389.33345
 31
0.0
  0
LINE
  5
7E8
330
1D
100
AcDbEntity
  8
0
100
AcDbLine
 10
4.934
 20
389.33345
 30
0.0
 11
4.934
 21
389.89745
 31
0.0
  0
LINE
  5
7E9
330
1D
100
AcDbEntity
  8
0
100
AcDbLine
 10
4.934
 20
389.33345
 30
0.0
 11
4.934
 21
389.12145
 31
0.0
  0
LINE
  5
7EA
330
1D
100
AcDbEntity
  8
0
100
AcDbLine
 10
4.934
 20
390.79745
 30
0.0
 11
4.934
 21
391.99745
 31
0.0
  0
LINE
  5
7EB
330
1D
100
AcDbEntity
  8
0
100
AcDbLine
 10
4.934
 20
390.79745
 30
0.0
 11
4.934
 21
389.89745
 31
0.0
  0
LINE
  5
7EC
330
1D
100
AcDbEntity
  8
0
100
AcDbLine
 10
4.934
 20
391.99745
 30
0.0
 11
4.934
 21
393.37445
 31
0.0
  0
LINE
  5
7ED
330
1D
100
AcDbEntity
  8
0
100
AcDbLine
 10
4.934
 20
391.99745
 30
0.0
 11
4.934
 21
390.79745
 31
0.0
  0
LINE
  5
7EE
330
1D
100
AcDbEntity
  8
0
100
AcDbLine
 10
4.934
 20
393.37445
 30
0.0
 11
4.934
 21
394.85645
 31
0.0
  0
LINE
  5
7EF
330
1D
100
AcDbEntity
  8
0
100
AcDbLine
 10
4.934
 20
393.37445
 30
0.0
 11
4.934
 21
391.99745
 31
0.0
  0
LINE
  5
7F0
330
1D
100
AcDbEntity
  8
0
100
AcDbLine
 10
4.934
 20
389.12145
 30
0.0
 11
5.1263
 21
388.94445
 31
0.0
  0
LINE
  5
7F1
330
1D
100
AcDbEntity
  8
0
100
AcDbLine
 10
4.934
 20
389.12145
 30
0.0
 11
4.934
 21
389.33345
 31
0.0
  0
LINE
  5
7F2
330
1D
100
AcDbEntity
  8
0
100
AcDbLine
 10
28.934
 20
384.40045
 30
0.0
 11
28.934
 21
386.83245
 31
0.0
  0
LINE
  5
7F3
330
1D
100
AcDbEntity
  8
0
100
AcDbLine
 10
28.934
 20
384.40045
 30
0.0
 11
28.934
 21
382.07945
 31
0.0
  0
LINE
  5
7F4
330
1D
100
AcDbEntity
  8
0
100
AcDbLine
 10
28.934
 20
389.66845
 30
0.0
 11
28.934
 21
389.06845
 31
0.0
  0
LINE
  5
7F5
330
1D
100
AcDbEntity
  8
0
100
AcDbLine
 10
28.934
 20
389.66845
 30
0.0
 11
28.934
 21
390.62145
 31
0.0
  0
LINE
  5
7F6
330
1D
100
AcDbEntity
  8
0
100
AcDbLine
 10
28.934
 20
389.06845
 30
0.0
 11
28.934
 21
388.85645
 31
0.0
  0
LINE
  5
7F7
330
1D
100
AcDbEntity
  8
0
100
AcDbLine
 10
28.934
 20
389.06845
 30
0.0
 11
28.934
 21
389.66845
 31
0.0
  0
LINE
  5
7F8
330
1D
100
AcDbEntity
  8
0
100
AcDbLine
 10
28.934
 20
390.62145
 30
0.0
 11
28.934
 21
391.87445
 31
0.0
  0
LINE
  5
7F9
330
1D
100
AcDbEntity
  8
0
100
AcDbLine
 10
28.934
 20
390.62145
 30
0.0
 11
28.934
 21
389.66845
 31
0.0
  0
LINE
  5
7FA
330
1D
100
AcDbEntity
  8
0
100
AcDbLine
 10
28.934
 20
391.87445
 30
0.0
 11
28.934
 21
390.62145
 31
0.0
  0
LINE
  5
7FB
330
1D
100
AcDbEntity
  8
0
100
AcDbLine
 10
28.934
 20
391.87445
 30
0.0
 11
28.934
 21
393.32145
 31
0.0
  0
LINE
  5
7FC
330
1D
100
AcDbEntity
  8
0
100
AcDbLine
 10
5.1263
 20
388.94445
 30
0.0
 11
5.5109
 21
388.85645
 31
0.0
  0
LINE
  5
7FD
330
1D
100
AcDbEntity
  8
0
100
AcDbLine
 10
5.5109
 20
388.85645
 30
0.0
 11
28.934
 21
388.85645
 31
0.0
  0
LINE
  5
7FE
330
1D
100
AcDbEntity
  8
0
100
AcDbLine
 10
28.934
 20
389.44045
 30
0.0
 11
28.934
 21
386.83245
 31
0.0
  0
LINE
  5
7FF
330
1D
100
AcDbEntity
  8
0
100
AcDbLine
 10
28.934
 20
389.44045
 30
0.0
 11
28.934
 21
392.11545
 31
0.0
  0
LINE
  5
800
330
1D
100
AcDbEntity
  8
0
100
AcDbLine
 10
28.934
 20
393.32145
 30
0.0
 11
28.934
 21
391.87445
 31
0.0
  0
LINE
  5
801
330
1D
100
AcDbEntity
  8
0
100
AcDbLine
 10
28.934
 20
393.32145
 30
0.0
 11
28.934
 21
394.85645
 31
0.0
  0
LINE
  5
802
330
1D
100
AcDbEntity
  8
0
100
AcDbLine
 10
28.934
 20
392.11545
 30
0.0
 11
28.934
 21
389.44045
 31
0.0
  0
LINE
  5
803
330
1D
100
AcDbEntity
  8
0
100
AcDbLine
 10
28.934
 20
392.11545
 30
0.0
 11
28.934
 21
394.85645
 31
0.0
  0
LINE
  5
804
330
1D
100
AcDbEntity
  8
0
100
AcDbLine
 10
28.934
 20
388.85645
 30
0.0
 11
28.934
 21
386.83245
 31
0.0
  0
LINE
  5
805
330
1D
100
AcDbEntity
  8
0
100
AcDbLine
 10
28.934
 20
388.85645
 30
0.0
 11
28.934
 21
389.06845
 31
0.0
  0
LINE
  5
806
330
1D
100
AcDbEntity
  8
0
100
AcDbLine
 10
28.934
 20
386.83245
 30
0.0
 11
28.934
 21
388.85645
 31
0.0
  0
LINE
  5
807
330
1D
100
AcDbEntity
  8
0
100
AcDbLine
 10
28.934
 20
386.83245
 30
0.0
 11
28.934
 21
384.40045
 31
0.0
  0
LINE
  5
808
330
1D
100
AcDbEntity
  8
0
100
AcDbLine
 10
28.934
 20
386.83245
 30
0.0
 11
28.934
 21
389.44045
 31
0.0
  0
LINE
  5
809
330
1D
100
AcDbEntity
  8
0
100
AcDbLine
 10
4.934
 20
394.85645
 30
0.0
 11
4.934
 21
396.33845
 31
0.0
  0
LINE
  5
80A
330
1D
100
AcDbEntity
  8
0
100
AcDbLine
 10
4.934
 20
394.85645
 30
0.0
 11
4.934
 21
393.37445
 31
0.0
  0
LINE
  5
80B
330
1D
100
AcDbEntity
  8
0
100
AcDbLine
 10
4.934
 20
396.33845
 30
0.0
 11
4.934
 21
394.85645
 31
0.0
  0
LINE
  5
80C
330
1D
100
AcDbEntity
  8
0
100
AcDbLine
 10
4.934
 20
396.33845
 30
0.0
 11
4.934
 21
397.71545
 31
0.0
  0
LINE
  5
80D
330
1D
100
AcDbEntity
  8
0
100
AcDbLine
 10
28.934
 20
394.85645
 30
0.0
 11
28.934
 21
396.39145
 31
0.0
  0
LINE
  5
80E
330
1D
100
AcDbEntity
  8
0
100
AcDbLine
 10
28.934
 20
394.85645
 30
0.0
 11
28.934
 21
397.59745
 31
0.0
  0
LINE
  5
80F
330
1D
100
AcDbEntity
  8
0
100
AcDbLine
 10
28.934
 20
394.85645
 30
0.0
 11
28.934
 21
392.11545
 31
0.0
  0
LINE
  5
810
330
1D
100
AcDbEntity
  8
0
100
AcDbLine
 10
28.934
 20
394.85645
 30
0.0
 11
28.934
 21
393.32145
 31
0.0
  0
LINE
  5
811
330
1D
100
AcDbEntity
  8
0
100
AcDbLine
 10
4.934
 20
398.91545
 30
0.0
 11
4.934
 21
397.71545
 31
0.0
  0
LINE
  5
812
330
1D
100
AcDbEntity
  8
0
100
AcDbLine
 10
4.934
 20
398.91545
 30
0.0
 11
4.934
 21
399.81545
 31
0.0
  0
LINE
  5
813
330
1D
100
AcDbEntity
  8
0
100
AcDbLine
 10
28.934
 20
397.59745
 30
0.0
 11
28.934
 21
394.85645
 31
0.0
  0
LINE
  5
814
330
1D
100
AcDbEntity
  8
0
100
AcDbLine
 10
28.934
 20
397.59745
 30
0.0
 11
28.934
 21
400.27245
 31
0.0
  0
LINE
  5
815
330
1D
100
AcDbEntity
  8
0
100
AcDbLine
 10
4.934
 20
397.71545
 30
0.0
 11
4.934
 21
396.33845
 31
0.0
  0
LINE
  5
816
330
1D
100
AcDbEntity
  8
0
100
AcDbLine
 10
4.934
 20
397.71545
 30
0.0
 11
4.934
 21
398.91545
 31
0.0
  0
LINE
  5
817
330
1D
100
AcDbEntity
  8
0
100
AcDbLine
 10
4.934
 20
399.81545
 30
0.0
 11
4.934
 21
398.91545
 31
0.0
  0
LINE
  5
818
330
1D
100
AcDbEntity
  8
0
100
AcDbLine
 10
4.934
 20
399.81545
 30
0.0
 11
4.934
 21
400.37945
 31
0.0
  0
LINE
  5
819
330
1D
100
AcDbEntity
  8
0
100
AcDbLine
 10
28.934
 20
400.27245
 30
0.0
 11
28.934
 21
397.59745
 31
0.0
  0
LINE
  5
81A
330
1D
100
AcDbEntity
  8
0
100
AcDbLine
 10
28.934
 20
400.27245
 30
0.0
 11
28.934
 21
402.88045
 31
0.0
  0
LINE
  5
81B
330
1D
100
AcDbEntity
  8
0
100
AcDbLine
 10
4.934
 20
400.37945
 30
0.0
 11
4.934
 21
399.81545
 31
0.0
  0
LINE
  5
81C
330
1D
100
AcDbEntity
  8
0
100
AcDbLine
 10
4.934
 20
400.37945
 30
0.0
 11
4.934
 21
400.59145
 31
0.0
  0
LINE
  5
81D
330
1D
100
AcDbEntity
  8
0
100
AcDbLine
 10
4.934
 20
400.59145
 30
0.0
 11
4.934
 21
400.37945
 31
0.0
  0
LINE
  5
81E
330
1D
100
AcDbEntity
  8
0
100
AcDbLine
 10
4.934
 20
400.59145
 30
0.0
 11
5.1263
 21
400.76845
 31
0.0
  0
LINE
  5
81F
330
1D
100
AcDbEntity
  8
0
100
AcDbLine
 10
28.934
 20
400.04445
 30
0.0
 11
28.934
 21
399.09145
 31
0.0
  0
LINE
  5
820
330
1D
100
AcDbEntity
  8
0
100
AcDbLine
 10
28.934
 20
400.04445
 30
0.0
 11
28.934
 21
400.64445
 31
0.0
  0
LINE
  5
821
330
1D
100
AcDbEntity
  8
0
100
AcDbLine
 10
5.1263
 20
400.76845
 30
0.0
 11
5.5109
 21
400.85645
 31
0.0
  0
LINE
  5
822
330
1D
100
AcDbEntity
  8
0
100
AcDbLine
 10
28.934
 20
411.47945
 30
0.0
 11
28.934
 21
409.68945
 31
0.0
  0
LINE
  5
823
330
1D
100
AcDbEntity
  8
0
100
AcDbLine
 10
28.934
 20
411.47945
 30
0.0
 11
28.934
 21
413.04945
 31
0.0
  0
LINE
  5
824
330
1D
100
AcDbEntity
  8
0
100
AcDbLine
 10
28.934
 20
413.04945
 30
0.0
 11
28.934
 21
411.47945
 31
0.0
  0
LINE
  5
825
330
1D
100
AcDbEntity
  8
0
100
AcDbLine
 10
28.934
 20
413.04945
 30
0.0
 11
28.934
 21
414.22045
 31
0.0
  0
LINE
  5
826
330
1D
100
AcDbEntity
  8
0
100
AcDbLine
 10
28.934
 20
414.22045
 30
0.0
 11
28.934
 21
413.04945
 31
0.0
  0
LINE
  5
827
330
1D
100
AcDbEntity
  8
0
100
AcDbLine
 10
28.934
 20
414.22045
 30
0.0
 11
28.934
 21
415.10445
 31
0.0
  0
LINE
  5
828
330
1D
100
AcDbEntity
  8
0
100
AcDbLine
 10
28.934
 20
415.10445
 30
0.0
 11
28.934
 21
414.22045
 31
0.0
  0
LINE
  5
829
330
1D
100
AcDbEntity
  8
0
100
AcDbLine
 10
28.934
 20
415.10445
 30
0.0
 11
28.934
 21
415.63545
 31
0.0
  0
LINE
  5
82A
330
1D
100
AcDbEntity
  8
0
100
AcDbLine
 10
28.934
 20
415.63545
 30
0.0
 11
28.934
 21
415.10445
 31
0.0
  0
LINE
  5
82B
330
1D
100
AcDbEntity
  8
0
100
AcDbLine
 10
28.934
 20
415.63545
 30
0.0
 11
28.934
 21
415.85645
 31
0.0
  0
LINE
  5
82C
330
1D
100
AcDbEntity
  8
0
100
AcDbLine
 10
28.934
 20
415.85645
 30
0.0
 11
28.934
 21
415.63545
 31
0.0
  0
LINE
  5
82D
330
1D
100
AcDbEntity
  8
0
100
AcDbLine
 10
28.934
 20
415.85645
 30
0.0
 11
29.934
 21
415.85645
 31
0.0
  0
LINE
  5
82E
330
1D
100
AcDbEntity
  8
0
100
AcDbLine
 10
28.934
 20
409.68945
 30
0.0
 11
28.934
 21
407.63345
 31
0.0
  0
LINE
  5
82F
330
1D
100
AcDbEntity
  8
0
100
AcDbLine
 10
28.934
 20
409.68945
 30
0.0
 11
28.934
 21
411.47945
 31
0.0
  0
LINE
  5
830
330
1D
100
AcDbEntity
  8
0
100
AcDbLine
 10
28.934
 20
407.63345
 30
0.0
 11
28.934
 21
405.31245
 31
0.0
  0
LINE
  5
831
330
1D
100
AcDbEntity
  8
0
100
AcDbLine
 10
28.934
 20
407.63345
 30
0.0
 11
28.934
 21
409.68945
 31
0.0
  0
LINE
  5
832
330
1D
100
AcDbEntity
  8
0
100
AcDbLine
 10
28.934
 20
405.31245
 30
0.0
 11
28.934
 21
402.88045
 31
0.0
  0
LINE
  5
833
330
1D
100
AcDbEntity
  8
0
100
AcDbLine
 10
28.934
 20
405.31245
 30
0.0
 11
28.934
 21
407.63345
 31
0.0
  0
LINE
  5
834
330
1D
100
AcDbEntity
  8
0
100
AcDbLine
 10
28.934
 20
402.88045
 30
0.0
 11
28.934
 21
400.27245
 31
0.0
  0
LINE
  5
835
330
1D
100
AcDbEntity
  8
0
100
AcDbLine
 10
28.934
 20
402.88045
 30
0.0
 11
28.934
 21
405.31245
 31
0.0
  0
LINE
  5
836
330
1D
100
AcDbEntity
  8
0
100
AcDbLine
 10
28.934
 20
402.88045
 30
0.0
 11
28.934
 21
400.85645
 31
0.0
  0
LINE
  5
837
330
1D
100
AcDbEntity
  8
0
100
AcDbLine
 10
5.5109
 20
400.85645
 30
0.0
 11
28.934
 21
400.85645
 31
0.0
  0
LINE
  5
838
330
1D
100
AcDbEntity
  8
0
100
AcDbLine
 10
28.934
 20
400.64445
 30
0.0
 11
28.934
 21
400.04445
 31
0.0
  0
LINE
  5
839
330
1D
100
AcDbEntity
  8
0
100
AcDbLine
 10
28.934
 20
400.64445
 30
0.0
 11
28.934
 21
400.85645
 31
0.0
  0
LINE
  5
83A
330
1D
100
AcDbEntity
  8
0
100
AcDbLine
 10
28.934
 20
400.85645
 30
0.0
 11
28.934
 21
400.64445
 31
0.0
  0
LINE
  5
83B
330
1D
100
AcDbEntity
  8
0
100
AcDbLine
 10
28.934
 20
400.85645
 30
0.0
 11
28.934
 21
402.88045
 31
0.0
  0
LINE
  5
83C
330
1D
100
AcDbEntity
  8
0
100
AcDbLine
 10
28.934
 20
399.09145
 30
0.0
 11
28.934
 21
397.83845
 31
0.0
  0
LINE
  5
83D
330
1D
100
AcDbEntity
  8
0
100
AcDbLine
 10
28.934
 20
399.09145
 30
0.0
 11
28.934
 21
400.04445
 31
0.0
  0
LINE
  5
83E
330
1D
100
AcDbEntity
  8
0
100
AcDbLine
 10
28.934
 20
397.83845
 30
0.0
 11
28.934
 21
396.39145
 31
0.0
  0
LINE
  5
83F
330
1D
100
AcDbEntity
  8
0
100
AcDbLine
 10
28.934
 20
397.83845
 30
0.0
 11
28.934
 21
399.09145
 31
0.0
  0
LINE
  5
840
330
1D
100
AcDbEntity
  8
0
100
AcDbLine
 10
28.934
 20
396.39145
 30
0.0
 11
28.934
 21
394.85645
 31
0.0
  0
LINE
  5
841
330
1D
100
AcDbEntity
  8
0
100
AcDbLine
 10
28.934
 20
396.39145
 30
0.0
 11
28.934
 21
397.83845
 31
0.0
  0
LINE
  5
842
330
1D
100
AcDbEntity
  8
0
100
AcDbLine
 10
29.934
 20
415.85645
 30
0.0
 11
29.934
 21
416.17945
 31
0.0
  0
LINE
  5
843
330
1D
100
AcDbEntity
  8
0
100
AcDbLine
 10
29.934
 20
473.85845
 30
0.0
 11
29.934
 21
357.34445
 31
0.0
  0
LINE
  5
844
330
1D
100
AcDbEntity
  8
0
100
AcDbLine
 10
29.934
 20
416.72345
 30
0.0
 11
29.934
 21
416.17945
 31
0.0
  0
LINE
  5
845
330
1D
100
AcDbEntity
  8
0
100
AcDbLine
 10
29.934
 20
416.17945
 30
0.0
 11
29.934
 21
415.85645
 31
0.0
  0
LINE
  5
846
330
1D
100
AcDbEntity
  8
0
100
AcDbLine
 10
29.934
 20
416.17945
 30
0.0
 11
29.934
 21
416.72345
 31
0.0
  0
LINE
  5
847
330
1D
100
AcDbEntity
  8
0
100
AcDbLine
 10
30.445952
 20
354.10345
 30
0.0
 11
31.93101
 21
351.17945
 31
0.0
  0
LINE
  5
848
330
1D
100
AcDbEntity
  8
0
100
AcDbLine
 10
29.934
 20
373.84945
 30
0.0
 11
29.934
 21
373.30545
 31
0.0
  0
LINE
  5
849
330
1D
100
AcDbEntity
  8
0
100
AcDbLine
 10
30.637
 20
475.85445
 30
0.0
 11
31.918660868812
 21
475.854467169278
 31
0.0
  0
LINE
  5
84A
330
1D
100
AcDbEntity
  8
0
100
AcDbLine
 10
30.555
 20
475.82545
 30
0.0
 11
30.637
 21
475.85445
 31
0.0
  0
LINE
  5
84B
330
1D
100
AcDbEntity
  8
0
100
AcDbLine
 10
30.104
 20
475.45745
 30
0.0
 11
30.555
 21
475.82545
 31
0.0
  0
LINE
  5
84C
330
1D
100
AcDbEntity
  8
0
100
AcDbLine
 10
29.934
 20
474.89945
 30
0.0
 11
30.104
 21
475.45745
 31
0.0
  0
LINE
  5
84D
330
1D
100
AcDbEntity
  8
0
100
AcDbLine
 10
37.1601
 20
347.36945
 30
0.0
 11
40.3922
 21
346.85645
 31
0.0
  0
LINE
  5
84E
330
1D
100
AcDbEntity
  8
0
100
AcDbLine
 10
40.3922
 20
346.85645
 30
0.0
 11
157.946497863671
 21
346.85645
 31
0.0
  0
LINE
  5
84F
330
1D
100
AcDbEntity
  8
0
100
AcDbLine
 10
31.93101
 20
351.17945
 30
0.0
 11
34.24476
 21
348.85945
 31
0.0
  0
LINE
  5
850
330
1D
100
AcDbEntity
  8
0
100
AcDbLine
 10
34.24476
 20
348.85945
 30
0.0
 11
37.1601
 21
347.36945
 31
0.0
  0
LINE
  5
851
330
1D
100
AcDbEntity
  8
0
100
AcDbLine
 10
40.847
 20
346.85645
 30
0.0
 11
157.946497863671
 21
346.85645
 31
0.0
  0
LINE
  5
852
330
1D
100
AcDbEntity
  8
0
100
AcDbLine
 10
31.92603
 20
475.85645
 30
0.0
 11
179.934
 21
475.85645
 31
0.0
  0
LINE
  5
853
330
1D
100
AcDbEntity
  8
0
100
AcDbLine
 10
31.92603
 20
475.85645
 30
0.0
 11
179.934
 21
475.85645
 31
0.0
  0
LINE
  5
854
330
1D
100
AcDbEntity
  8
0
100
AcDbLine
 10
319.021
 20
346.85645
 30
0.0
 11
201.923502258612
 21
346.85645
 31
0.0
  0
LINE
  5
855
330
1D
100
AcDbEntity
  8
0
100
AcDbLine
 10
327.94197
 20
475.85645
 30
0.0
 11
179.934
 21
475.85645
 31
0.0
  0
LINE
  5
856
330
1D
100
AcDbEntity
  8
0
100
AcDbLine
 10
327.94197
 20
475.85645
 30
0.0
 11
179.934
 21
475.85645
 31
0.0
  0
LINE
  5
857
330
1D
100
AcDbEntity
  8
0
100
AcDbLine
 10
329.934
 20
357.34445
 30
0.0
 11
329.934
 21
473.85845
 31
0.0
  0
LINE
  5
858
330
1D
100
AcDbEntity
  8
0
100
AcDbLine
 10
329.934
 20
357.48315
 30
0.0
 11
329.934
 21
474.89945
 31
0.0
  0
LINE
  5
859
330
1D
100
AcDbEntity
  8
0
100
AcDbLine
 10
329.934
 20
473.85845
 30
0.0
 11
329.934
 21
357.34445
 31
0.0
  0
LINE
  5
85A
330
1D
100
AcDbEntity
  8
0
100
AcDbLine
 10
322.7079
 20
347.36945
 30
0.0
 11
319.4758
 21
346.85645
 31
0.0
  0
LINE
  5
85B
330
1D
100
AcDbEntity
  8
0
100
AcDbLine
 10
354.934
 20
390.79745
 30
0.0
 11
354.934
 21
391.99745
 31
0.0
  0
LINE
  5
85C
330
1D
100
AcDbEntity
  8
0
100
AcDbLine
 10
354.934
 20
391.99745
 30
0.0
 11
354.934
 21
390.79745
 31
0.0
  0
LINE
  5
85D
330
1D
100
AcDbEntity
  8
0
100
AcDbLine
 10
330.934
 20
390.62145
 30
0.0
 11
330.934
 21
391.87445
 31
0.0
  0
LINE
  5
85E
330
1D
100
AcDbEntity
  8
0
100
AcDbLine
 10
330.934
 20
391.87445
 30
0.0
 11
330.934
 21
390.62145
 31
0.0
  0
LINE
  5
85F
330
1D
100
AcDbEntity
  8
0
100
AcDbLine
 10
330.934
 20
389.44045
 30
0.0
 11
330.934
 21
392.11545
 31
0.0
  0
LINE
  5
860
330
1D
100
AcDbEntity
  8
0
100
AcDbLine
 10
330.934
 20
392.11545
 30
0.0
 11
330.934
 21
389.44045
 31
0.0
  0
LINE
  5
861
330
1D
100
AcDbEntity
  8
0
100
AcDbLine
 10
354.3571
 20
388.85645
 30
0.0
 11
330.934
 21
388.85645
 31
0.0
  0
LINE
  5
862
330
1D
100
AcDbEntity
  8
0
100
AcDbLine
 10
354.934
 20
389.89745
 30
0.0
 11
354.934
 21
390.79745
 31
0.0
  0
LINE
  5
863
330
1D
100
AcDbEntity
  8
0
100
AcDbLine
 10
354.934
 20
389.89745
 30
0.0
 11
354.934
 21
389.33345
 31
0.0
  0
LINE
  5
864
330
1D
100
AcDbEntity
  8
0
100
AcDbLine
 10
354.934
 20
389.33345
 30
0.0
 11
354.934
 21
389.89745
 31
0.0
  0
LINE
  5
865
330
1D
100
AcDbEntity
  8
0
100
AcDbLine
 10
354.934
 20
389.33345
 30
0.0
 11
354.934
 21
389.12145
 31
0.0
  0
LINE
  5
866
330
1D
100
AcDbEntity
  8
0
100
AcDbLine
 10
354.934
 20
390.79745
 30
0.0
 11
354.934
 21
389.89745
 31
0.0
  0
LINE
  5
867
330
1D
100
AcDbEntity
  8
0
100
AcDbLine
 10
354.934
 20
389.12145
 30
0.0
 11
354.7417
 21
388.94445
 31
0.0
  0
LINE
  5
868
330
1D
100
AcDbEntity
  8
0
100
AcDbLine
 10
354.934
 20
389.12145
 30
0.0
 11
354.934
 21
389.33345
 31
0.0
  0
LINE
  5
869
330
1D
100
AcDbEntity
  8
0
100
AcDbLine
 10
354.7417
 20
388.94445
 30
0.0
 11
354.3571
 21
388.85645
 31
0.0
  0
LINE
  5
86A
330
1D
100
AcDbEntity
  8
0
100
AcDbLine
 10
329.934
 20
357.34445
 30
0.0
 11
329.422048
 21
354.10345
 31
0.0
  0
LINE
  5
86B
330
1D
100
AcDbEntity
  8
0
100
AcDbLine
 10
329.422048
 20
354.10345
 30
0.0
 11
327.93699
 21
351.17945
 31
0.0
  0
LINE
  5
86C
330
1D
100
AcDbEntity
  8
0
100
AcDbLine
 10
327.93699
 20
351.17945
 30
0.0
 11
325.62324
 21
348.85945
 31
0.0
  0
LINE
  5
86D
330
1D
100
AcDbEntity
  8
0
100
AcDbLine
 10
325.62324
 20
348.85945
 30
0.0
 11
322.7079
 21
347.36945
 31
0.0
  0
LINE
  5
86E
330
1D
100
AcDbEntity
  8
0
100
AcDbLine
 10
330.934
 20
380.02345
 30
0.0
 11
330.934
 21
382.07945
 31
0.0
  0
LINE
  5
86F
330
1D
100
AcDbEntity
  8
0
100
AcDbLine
 10
330.934
 20
382.07945
 30
0.0
 11
330.934
 21
380.02345
 31
0.0
  0
LINE
  5
870
330
1D
100
AcDbEntity
  8
0
100
AcDbLine
 10
330.934
 20
373.85645
 30
0.0
 11
330.934
 21
374.07745
 31
0.0
  0
LINE
  5
871
330
1D
100
AcDbEntity
  8
0
100
AcDbLine
 10
330.934
 20
373.85645
 30
0.0
 11
329.934
 21
373.85645
 31
0.0
  0
LINE
  5
872
330
1D
100
AcDbEntity
  8
0
100
AcDbLine
 10
329.934
 20
373.30545
 30
0.0
 11
329.934
 21
373.84945
 31
0.0
  0
LINE
  5
873
330
1D
100
AcDbEntity
  8
0
100
AcDbLine
 10
330.934
 20
378.23345
 30
0.0
 11
330.934
 21
380.02345
 31
0.0
  0
LINE
  5
874
330
1D
100
AcDbEntity
  8
0
100
AcDbLine
 10
330.934
 20
378.23345
 30
0.0
 11
330.934
 21
376.66345
 31
0.0
  0
LINE
  5
875
330
1D
100
AcDbEntity
  8
0
100
AcDbLine
 10
330.934
 20
376.66345
 30
0.0
 11
330.934
 21
378.23345
 31
0.0
  0
LINE
  5
876
330
1D
100
AcDbEntity
  8
0
100
AcDbLine
 10
330.934
 20
376.66345
 30
0.0
 11
330.934
 21
375.49245
 31
0.0
  0
LINE
  5
877
330
1D
100
AcDbEntity
  8
0
100
AcDbLine
 10
330.934
 20
375.49245
 30
0.0
 11
330.934
 21
376.66345
 31
0.0
  0
LINE
  5
878
330
1D
100
AcDbEntity
  8
0
100
AcDbLine
 10
330.934
 20
375.49245
 30
0.0
 11
330.934
 21
374.60845
 31
0.0
  0
LINE
  5
879
330
1D
100
AcDbEntity
  8
0
100
AcDbLine
 10
330.934
 20
374.60845
 30
0.0
 11
330.934
 21
375.49245
 31
0.0
  0
LINE
  5
87A
330
1D
100
AcDbEntity
  8
0
100
AcDbLine
 10
330.934
 20
374.60845
 30
0.0
 11
330.934
 21
374.07745
 31
0.0
  0
LINE
  5
87B
330
1D
100
AcDbEntity
  8
0
100
AcDbLine
 10
330.934
 20
374.07745
 30
0.0
 11
330.934
 21
374.60845
 31
0.0
  0
LINE
  5
87C
330
1D
100
AcDbEntity
  8
0
100
AcDbLine
 10
330.934
 20
374.07745
 30
0.0
 11
330.934
 21
373.85645
 31
0.0
  0
LINE
  5
87D
330
1D
100
AcDbEntity
  8
0
100
AcDbLine
 10
330.934
 20
380.02345
 30
0.0
 11
330.934
 21
378.23345
 31
0.0
  0
LINE
  5
87E
330
1D
100
AcDbEntity
  8
0
100
AcDbLine
 10
329.934
 20
373.84945
 30
0.0
 11
329.934
 21
373.30545
 31
0.0
  0
LINE
  5
87F
330
1D
100
AcDbEntity
  8
0
100
AcDbLine
 10
330.934
 20
382.07945
 30
0.0
 11
330.934
 21
384.40045
 31
0.0
  0
LINE
  5
880
330
1D
100
AcDbEntity
  8
0
100
AcDbLine
 10
330.934
 20
384.40045
 30
0.0
 11
330.934
 21
386.83245
 31
0.0
  0
LINE
  5
881
330
1D
100
AcDbEntity
  8
0
100
AcDbLine
 10
330.934
 20
384.40045
 30
0.0
 11
330.934
 21
382.07945
 31
0.0
  0
LINE
  5
882
330
1D
100
AcDbEntity
  8
0
100
AcDbLine
 10
330.934
 20
389.66845
 30
0.0
 11
330.934
 21
389.06845
 31
0.0
  0
LINE
  5
883
330
1D
100
AcDbEntity
  8
0
100
AcDbLine
 10
330.934
 20
389.66845
 30
0.0
 11
330.934
 21
390.62145
 31
0.0
  0
LINE
  5
884
330
1D
100
AcDbEntity
  8
0
100
AcDbLine
 10
330.934
 20
389.06845
 30
0.0
 11
330.934
 21
388.85645
 31
0.0
  0
LINE
  5
885
330
1D
100
AcDbEntity
  8
0
100
AcDbLine
 10
330.934
 20
389.06845
 30
0.0
 11
330.934
 21
389.66845
 31
0.0
  0
LINE
  5
886
330
1D
100
AcDbEntity
  8
0
100
AcDbLine
 10
330.934
 20
390.62145
 30
0.0
 11
330.934
 21
389.66845
 31
0.0
  0
LINE
  5
887
330
1D
100
AcDbEntity
  8
0
100
AcDbLine
 10
330.934
 20
389.44045
 30
0.0
 11
330.934
 21
386.83245
 31
0.0
  0
LINE
  5
888
330
1D
100
AcDbEntity
  8
0
100
AcDbLine
 10
330.934
 20
388.85645
 30
0.0
 11
330.934
 21
386.83245
 31
0.0
  0
LINE
  5
889
330
1D
100
AcDbEntity
  8
0
100
AcDbLine
 10
330.934
 20
388.85645
 30
0.0
 11
330.934
 21
389.06845
 31
0.0
  0
LINE
  5
88A
330
1D
100
AcDbEntity
  8
0
100
AcDbLine
 10
330.934
 20
386.83245
 30
0.0
 11
330.934
 21
388.85645
 31
0.0
  0
LINE
  5
88B
330
1D
100
AcDbEntity
  8
0
100
AcDbLine
 10
330.934
 20
386.83245
 30
0.0
 11
330.934
 21
384.40045
 31
0.0
  0
LINE
  5
88C
330
1D
100
AcDbEntity
  8
0
100
AcDbLine
 10
330.934
 20
386.83245
 30
0.0
 11
330.934
 21
389.44045
 31
0.0
  0
LINE
  5
88D
330
1D
100
AcDbEntity
  8
0
100
AcDbLine
 10
354.3571
 20
400.85645
 30
0.0
 11
330.934
 21
400.85645
 31
0.0
  0
LINE
  5
88E
330
1D
100
AcDbEntity
  8
0
100
AcDbLine
 10
354.934
 20
391.99745
 30
0.0
 11
354.934
 21
393.37445
 31
0.0
  0
LINE
  5
88F
330
1D
100
AcDbEntity
  8
0
100
AcDbLine
 10
354.934
 20
393.37445
 30
0.0
 11
354.934
 21
394.85645
 31
0.0
  0
LINE
  5
890
330
1D
100
AcDbEntity
  8
0
100
AcDbLine
 10
354.934
 20
393.37445
 30
0.0
 11
354.934
 21
391.99745
 31
0.0
  0
LINE
  5
891
330
1D
100
AcDbEntity
  8
0
100
AcDbLine
 10
354.934
 20
394.85645
 30
0.0
 11
354.934
 21
396.33845
 31
0.0
  0
LINE
  5
892
330
1D
100
AcDbEntity
  8
0
100
AcDbLine
 10
354.934
 20
394.85645
 30
0.0
 11
354.934
 21
393.37445
 31
0.0
  0
LINE
  5
893
330
1D
100
AcDbEntity
  8
0
100
AcDbLine
 10
354.934
 20
396.33845
 30
0.0
 11
354.934
 21
394.85645
 31
0.0
  0
LINE
  5
894
330
1D
100
AcDbEntity
  8
0
100
AcDbLine
 10
354.934
 20
396.33845
 30
0.0
 11
354.934
 21
397.71545
 31
0.0
  0
LINE
  5
895
330
1D
100
AcDbEntity
  8
0
100
AcDbLine
 10
354.934
 20
398.91545
 30
0.0
 11
354.934
 21
397.71545
 31
0.0
  0
LINE
  5
896
330
1D
100
AcDbEntity
  8
0
100
AcDbLine
 10
354.934
 20
398.91545
 30
0.0
 11
354.934
 21
399.81545
 31
0.0
  0
LINE
  5
897
330
1D
100
AcDbEntity
  8
0
100
AcDbLine
 10
354.934
 20
397.71545
 30
0.0
 11
354.934
 21
396.33845
 31
0.0
  0
LINE
  5
898
330
1D
100
AcDbEntity
  8
0
100
AcDbLine
 10
354.934
 20
397.71545
 30
0.0
 11
354.934
 21
398.91545
 31
0.0
  0
LINE
  5
899
330
1D
100
AcDbEntity
  8
0
100
AcDbLine
 10
354.934
 20
399.81545
 30
0.0
 11
354.934
 21
398.91545
 31
0.0
  0
LINE
  5
89A
330
1D
100
AcDbEntity
  8
0
100
AcDbLine
 10
354.934
 20
399.81545
 30
0.0
 11
354.934
 21
400.37945
 31
0.0
  0
LINE
  5
89B
330
1D
100
AcDbEntity
  8
0
100
AcDbLine
 10
354.934
 20
400.37945
 30
0.0
 11
354.934
 21
399.81545
 31
0.0
  0
LINE
  5
89C
330
1D
100
AcDbEntity
  8
0
100
AcDbLine
 10
354.934
 20
400.37945
 30
0.0
 11
354.934
 21
400.59145
 31
0.0
  0
LINE
  5
89D
330
1D
100
AcDbEntity
  8
0
100
AcDbLine
 10
354.934
 20
400.59145
 30
0.0
 11
354.934
 21
400.37945
 31
0.0
  0
LINE
  5
89E
330
1D
100
AcDbEntity
  8
0
100
AcDbLine
 10
354.934
 20
400.59145
 30
0.0
 11
354.7417
 21
400.76845
 31
0.0
  0
LINE
  5
89F
330
1D
100
AcDbEntity
  8
0
100
AcDbLine
 10
354.7417
 20
400.76845
 30
0.0
 11
354.3571
 21
400.85645
 31
0.0
  0
LINE
  5
8A0
330
1D
100
AcDbEntity
  8
0
100
AcDbLine
 10
330.934
 20
411.47945
 30
0.0
 11
330.934
 21
413.04945
 31
0.0
  0
LINE
  5
8A1
330
1D
100
AcDbEntity
  8
0
100
AcDbLine
 10
330.934
 20
413.04945
 30
0.0
 11
330.934
 21
411.47945
 31
0.0
  0
LINE
  5
8A2
330
1D
100
AcDbEntity
  8
0
100
AcDbLine
 10
330.934
 20
400.27245
 30
0.0
 11
330.934
 21
402.88045
 31
0.0
  0
LINE
  5
8A3
330
1D
100
AcDbEntity
  8
0
100
AcDbLine
 10
330.934
 20
402.88045
 30
0.0
 11
330.934
 21
400.27245
 31
0.0
  0
LINE
  5
8A4
330
1D
100
AcDbEntity
  8
0
100
AcDbLine
 10
330.934
 20
402.88045
 30
0.0
 11
330.934
 21
400.85645
 31
0.0
  0
LINE
  5
8A5
330
1D
100
AcDbEntity
  8
0
100
AcDbLine
 10
330.934
 20
400.85645
 30
0.0
 11
330.934
 21
402.88045
 31
0.0
  0
LINE
  5
8A6
330
1D
100
AcDbEntity
  8
0
100
AcDbLine
 10
330.934
 20
394.85645
 30
0.0
 11
330.934
 21
397.59745
 31
0.0
  0
LINE
  5
8A7
330
1D
100
AcDbEntity
  8
0
100
AcDbLine
 10
330.934
 20
397.59745
 30
0.0
 11
330.934
 21
394.85645
 31
0.0
  0
LINE
  5
8A8
330
1D
100
AcDbEntity
  8
0
100
AcDbLine
 10
330.934
 20
397.83845
 30
0.0
 11
330.934
 21
396.39145
 31
0.0
  0
LINE
  5
8A9
330
1D
100
AcDbEntity
  8
0
100
AcDbLine
 10
330.934
 20
396.39145
 30
0.0
 11
330.934
 21
397.83845
 31
0.0
  0
LINE
  5
8AA
330
1D
100
AcDbEntity
  8
0
100
AcDbLine
 10
330.934
 20
391.87445
 30
0.0
 11
330.934
 21
393.32145
 31
0.0
  0
LINE
  5
8AB
330
1D
100
AcDbEntity
  8
0
100
AcDbLine
 10
330.934
 20
393.32145
 30
0.0
 11
330.934
 21
391.87445
 31
0.0
  0
LINE
  5
8AC
330
1D
100
AcDbEntity
  8
0
100
AcDbLine
 10
330.934
 20
393.32145
 30
0.0
 11
330.934
 21
394.85645
 31
0.0
  0
LINE
  5
8AD
330
1D
100
AcDbEntity
  8
0
100
AcDbLine
 10
330.934
 20
392.11545
 30
0.0
 11
330.934
 21
394.85645
 31
0.0
  0
LINE
  5
8AE
330
1D
100
AcDbEntity
  8
0
100
AcDbLine
 10
330.934
 20
394.85645
 30
0.0
 11
330.934
 21
396.39145
 31
0.0
  0
LINE
  5
8AF
330
1D
100
AcDbEntity
  8
0
100
AcDbLine
 10
330.934
 20
394.85645
 30
0.0
 11
330.934
 21
392.11545
 31
0.0
  0
LINE
  5
8B0
330
1D
100
AcDbEntity
  8
0
100
AcDbLine
 10
330.934
 20
394.85645
 30
0.0
 11
330.934
 21
393.32145
 31
0.0
  0
LINE
  5
8B1
330
1D
100
AcDbEntity
  8
0
100
AcDbLine
 10
330.934
 20
396.39145
 30
0.0
 11
330.934
 21
394.85645
 31
0.0
  0
LINE
  5
8B2
330
1D
100
AcDbEntity
  8
0
100
AcDbLine
 10
330.934
 20
397.59745
 30
0.0
 11
330.934
 21
400.27245
 31
0.0
  0
LINE
  5
8B3
330
1D
100
AcDbEntity
  8
0
100
AcDbLine
 10
330.934
 20
400.27245
 30
0.0
 11
330.934
 21
397.59745
 31
0.0
  0
LINE
  5
8B4
330
1D
100
AcDbEntity
  8
0
100
AcDbLine
 10
330.934
 20
400.04445
 30
0.0
 11
330.934
 21
399.09145
 31
0.0
  0
LINE
  5
8B5
330
1D
100
AcDbEntity
  8
0
100
AcDbLine
 10
330.934
 20
400.04445
 30
0.0
 11
330.934
 21
400.64445
 31
0.0
  0
LINE
  5
8B6
330
1D
100
AcDbEntity
  8
0
100
AcDbLine
 10
330.934
 20
400.64445
 30
0.0
 11
330.934
 21
400.04445
 31
0.0
  0
LINE
  5
8B7
330
1D
100
AcDbEntity
  8
0
100
AcDbLine
 10
330.934
 20
400.64445
 30
0.0
 11
330.934
 21
400.85645
 31
0.0
  0
LINE
  5
8B8
330
1D
100
AcDbEntity
  8
0
100
AcDbLine
 10
330.934
 20
400.85645
 30
0.0
 11
330.934
 21
400.64445
 31
0.0
  0
LINE
  5
8B9
330
1D
100
AcDbEntity
  8
0
100
AcDbLine
 10
330.934
 20
399.09145
 30
0.0
 11
330.934
 21
397.83845
 31
0.0
  0
LINE
  5
8BA
330
1D
100
AcDbEntity
  8
0
100
AcDbLine
 10
330.934
 20
399.09145
 30
0.0
 11
330.934
 21
400.04445
 31
0.0
  0
LINE
  5
8BB
330
1D
100
AcDbEntity
  8
0
100
AcDbLine
 10
330.934
 20
397.83845
 30
0.0
 11
330.934
 21
399.09145
 31
0.0
  0
LINE
  5
8BC
330
1D
100
AcDbEntity
  8
0
100
AcDbLine
 10
330.934
 20
411.47945
 30
0.0
 11
330.934
 21
409.68945
 31
0.0
  0
LINE
  5
8BD
330
1D
100
AcDbEntity
  8
0
100
AcDbLine
 10
330.934
 20
409.68945
 30
0.0
 11
330.934
 21
407.63345
 31
0.0
  0
LINE
  5
8BE
330
1D
100
AcDbEntity
  8
0
100
AcDbLine
 10
330.934
 20
409.68945
 30
0.0
 11
330.934
 21
411.47945
 31
0.0
  0
LINE
  5
8BF
330
1D
100
AcDbEntity
  8
0
100
AcDbLine
 10
330.934
 20
407.63345
 30
0.0
 11
330.934
 21
405.31245
 31
0.0
  0
LINE
  5
8C0
330
1D
100
AcDbEntity
  8
0
100
AcDbLine
 10
330.934
 20
407.63345
 30
0.0
 11
330.934
 21
409.68945
 31
0.0
  0
LINE
  5
8C1
330
1D
100
AcDbEntity
  8
0
100
AcDbLine
 10
330.934
 20
405.31245
 30
0.0
 11
330.934
 21
402.88045
 31
0.0
  0
LINE
  5
8C2
330
1D
100
AcDbEntity
  8
0
100
AcDbLine
 10
330.934
 20
405.31245
 30
0.0
 11
330.934
 21
407.63345
 31
0.0
  0
LINE
  5
8C3
330
1D
100
AcDbEntity
  8
0
100
AcDbLine
 10
330.934
 20
402.88045
 30
0.0
 11
330.934
 21
405.31245
 31
0.0
  0
LINE
  5
8C4
330
1D
100
AcDbEntity
  8
0
100
AcDbLine
 10
330.934
 20
413.04945
 30
0.0
 11
330.934
 21
414.22045
 31
0.0
  0
LINE
  5
8C5
330
1D
100
AcDbEntity
  8
0
100
AcDbLine
 10
330.934
 20
414.22045
 30
0.0
 11
330.934
 21
413.04945
 31
0.0
  0
LINE
  5
8C6
330
1D
100
AcDbEntity
  8
0
100
AcDbLine
 10
330.934
 20
414.22045
 30
0.0
 11
330.934
 21
415.10445
 31
0.0
  0
LINE
  5
8C7
330
1D
100
AcDbEntity
  8
0
100
AcDbLine
 10
330.934
 20
415.10445
 30
0.0
 11
330.934
 21
414.22045
 31
0.0
  0
LINE
  5
8C8
330
1D
100
AcDbEntity
  8
0
100
AcDbLine
 10
330.934
 20
415.10445
 30
0.0
 11
330.934
 21
415.63545
 31
0.0
  0
LINE
  5
8C9
330
1D
100
AcDbEntity
  8
0
100
AcDbLine
 10
330.934
 20
415.63545
 30
0.0
 11
330.934
 21
415.10445
 31
0.0
  0
LINE
  5
8CA
330
1D
100
AcDbEntity
  8
0
100
AcDbLine
 10
330.934
 20
415.63545
 30
0.0
 11
330.934
 21
415.85645
 31
0.0
  0
LINE
  5
8CB
330
1D
100
AcDbEntity
  8
0
100
AcDbLine
 10
330.934
 20
415.85645
 30
0.0
 11
330.934
 21
415.63545
 31
0.0
  0
LINE
  5
8CC
330
1D
100
AcDbEntity
  8
0
100
AcDbLine
 10
330.934
 20
415.85645
 30
0.0
 11
329.934
 21
415.85645
 31
0.0
  0
LINE
  5
8CD
330
1D
100
AcDbEntity
  8
0
100
AcDbLine
 10
329.934
 20
415.85645
 30
0.0
 11
329.934
 21
416.17945
 31
0.0
  0
LINE
  5
8CE
330
1D
100
AcDbEntity
  8
0
100
AcDbLine
 10
329.934
 20
416.72345
 30
0.0
 11
329.934
 21
416.17945
 31
0.0
  0
LINE
  5
8CF
330
1D
100
AcDbEntity
  8
0
100
AcDbLine
 10
329.934
 20
416.17945
 30
0.0
 11
329.934
 21
415.85645
 31
0.0
  0
LINE
  5
8D0
330
1D
100
AcDbEntity
  8
0
100
AcDbLine
 10
329.934
 20
416.17945
 30
0.0
 11
329.934
 21
416.72345
 31
0.0
  0
LINE
  5
8D1
330
1D
100
AcDbEntity
  8
0
100
AcDbLine
 10
329.231
 20
475.85445
 30
0.0
 11
327.949339131188
 21
475.854467169278
 31
0.0
  0
LINE
  5
8D2
330
1D
100
AcDbEntity
  8
0
100
AcDbLine
 10
329.313
 20
475.82545
 30
0.0
 11
329.231
 21
475.85445
 31
0.0
  0
LINE
  5
8D3
330
1D
100
AcDbEntity
  8
0
100
AcDbLine
 10
329.764
 20
475.45745
 30
0.0
 11
329.313
 21
475.82545
 31
0.0
  0
LINE
  5
8D4
330
1D
100
AcDbEntity
  8
0
100
AcDbLine
 10
329.934
 20
474.89945
 30
0.0
 11
329.764
 21
475.45745
 31
0.0
  0
LINE
  5
8D5
330
1D
100
AcDbEntity
  8
0
100
AcDbLine
 10
507.813101835862
 20
455.468550670345
 30
0.0
 11
505.096501835862
 21
455.693550670345
 31
0.0
  0
LINE
  5
8D6
330
1D
100
AcDbEntity
  8
0
100
AcDbLine
 10
510.680601835862
 20
454.710550670345
 30
0.0
 11
507.813101835862
 21
455.468550670345
 31
0.0
  0
LINE
  5
8D7
330
1D
100
AcDbEntity
  8
0
100
AcDbLine
 10
512.720201835862
 20
453.735550670345
 30
0.0
 11
510.680601835862
 21
454.710550670345
 31
0.0
  0
LINE
  5
8D8
330
1D
100
AcDbEntity
  8
0
100
AcDbLine
 10
519.204701835862
 20
445.447550670345
 30
0.0
 11
517.397277165486
 21
449.186904340677
 31
0.0
  0
LINE
  5
8D9
330
1D
100
AcDbEntity
  8
0
100
AcDbLine
 10
516.677701835862
 20
450.456550670345
 30
0.0
 11
514.162801835862
 21
452.728550670345
 31
0.0
  0
LINE
  5
8DA
330
1D
100
AcDbEntity
  8
0
100
AcDbLine
 10
517.397277165486
 20
449.186904340677
 30
0.0
 11
516.677701835862
 21
450.456550670345
 31
0.0
  0
LINE
  5
8DB
330
1D
100
AcDbEntity
  8
0
100
AcDbLine
 10
514.146099879502
 20
452.743639478985
 30
0.0
 11
512.720201835862
 21
453.735550670345
 31
0.0
  0
LINE
  5
8DC
330
1D
100
AcDbEntity
  8
0
100
AcDbLine
 10
521.275101835862
 20
420.609550670345
 30
0.0
 11
519.204701835862
 21
445.447550670345
 31
0.0
  0
LINE
  5
8DD
330
1D
100
AcDbEntity
  8
0
100
AcDbLine
 10
523.617001835862
 20
400.883550670345
 30
0.0
 11
523.453083445715
 21
401.734200826698
 31
0.0
  0
LINE
  5
8DE
330
1D
100
AcDbEntity
  8
0
100
AcDbLine
 10
522.715301835862
 20
406.079550670345
 30
0.0
 11
522.057701835862
 21
412.188550670345
 31
0.0
  0
LINE
  5
8DF
330
1D
100
AcDbEntity
  8
0
100
AcDbLine
 10
523.453083445715
 20
401.734200826698
 30
0.0
 11
522.715301835862
 21
406.079550670345
 31
0.0
  0
LINE
  5
8E0
330
1D
100
AcDbEntity
  8
0
100
AcDbLine
 10
524.310701835862
 20
398.797550670345
 30
0.0
 11
523.617001835862
 21
400.883550670345
 31
0.0
  0
LINE
  5
8E1
330
1D
100
AcDbEntity
  8
0
100
AcDbLine
 10
509.789683564854
 20
394.92378050171
 30
0.0
 11
505.096601835862
 21
395.015109170345
 31
0.0
  0
LINE
  5
8E2
330
1D
100
AcDbEntity
  8
0
100
AcDbLine
 10
515.973691606746
 20
394.441340158017
 30
0.0
 11
509.789683564854
 21
394.92378050171
 31
0.0
  0
LINE
  5
8E3
330
1D
100
AcDbEntity
  8
0
100
AcDbLine
 10
520.543601835862
 20
393.705550670345
 30
0.0
 11
515.973691606746
 21
394.441340158017
 31
0.0
  0
LINE
  5
8E4
330
1D
100
AcDbEntity
  8
0
100
AcDbLine
 10
522.057701835862
 20
412.188550670345
 30
0.0
 11
521.275101835862
 21
420.609550670345
 31
0.0
  0
LINE
  5
8E5
330
1D
100
AcDbEntity
  8
0
100
AcDbLine
 10
525.407101835862
 20
396.361550670345
 30
0.0
 11
525.193901835862
 21
396.739550670345
 31
0.0
  0
LINE
  5
8E6
330
1D
100
AcDbEntity
  8
0
100
AcDbLine
 10
527.667659372685
 20
393.551447149719
 30
0.0
 11
526.25508251908
 21
395.13386580188
 31
0.0
  0
LINE
  5
8E7
330
1D
100
AcDbEntity
  8
0
100
AcDbLine
 10
528.543478182574
 20
392.783772670407
 30
0.0
 11
527.667659372683
 21
393.551447149721
 31
0.0
  0
LINE
  5
8E8
330
1D
100
AcDbEntity
  8
0
100
AcDbLine
 10
529.943101835862
 20
391.868550670345
 30
0.0
 11
528.59728166504
 21
392.742270930184
 31
0.0
  0
LINE
  5
8E9
330
1D
100
AcDbEntity
  8
0
100
AcDbLine
 10
530.326988202909
 20
391.658239768834
 30
0.0
 11
529.943101835862
 21
391.868550670345
 31
0.0
  0
LINE
  5
8EA
330
1D
100
AcDbEntity
  8
0
100
AcDbLine
 10
528.59728166504
 20
392.742270930184
 30
0.0
 11
528.530801835862
 21
392.793550670345
 31
0.0
  0
LINE
  5
8EB
330
1D
100
AcDbEntity
  8
0
100
AcDbLine
 10
531.522801835862
 20
391.383250670345
 30
0.0
 11
527.664301835862
 21
392.270550670345
 31
0.0
  0
LINE
  5
8EC
330
1D
100
AcDbEntity
  8
0
100
AcDbLine
 10
541.014801835862
 20
388.342750670345
 30
0.0
 11
536.333601835862
 21
390.049050670345
 31
0.0
  0
LINE
  5
8ED
330
1D
100
AcDbEntity
  8
0
100
AcDbLine
 10
536.333601835862
 20
390.049050670345
 30
0.0
 11
531.522801835862
 21
391.383250670345
 31
0.0
  0
LINE
  5
8EE
330
1D
100
AcDbEntity
  8
0
100
AcDbLine
 10
526.25508251908
 20
395.13386580188
 30
0.0
 11
525.407101835862
 21
396.361550670345
 31
0.0
  0
LINE
  5
8EF
330
1D
100
AcDbEntity
  8
0
100
AcDbLine
 10
545.550001835862
 20
386.300350670345
 30
0.0
 11
545.492038757725
 21
386.326453993415
 31
0.0
  0
LINE
  5
8F0
330
1D
100
AcDbEntity
  8
0
100
AcDbLine
 10
549.719001835862
 20
383.892750670345
 30
0.0
 11
547.615801835862
 21
385.234450670345
 31
0.0
  0
LINE
  5
8F1
330
1D
100
AcDbEntity
  8
0
100
AcDbLine
 10
554.110701835862
 20
380.469950670345
 30
0.0
 11
551.948801835862
 21
382.380850670345
 31
0.0
  0
LINE
  5
8F2
330
1D
100
AcDbEntity
  8
0
100
AcDbLine
 10
551.948801835862
 20
382.380850670345
 30
0.0
 11
549.719001835862
 21
383.892750670345
 31
0.0
  0
LINE
  5
8F3
330
1D
100
AcDbEntity
  8
0
100
AcDbLine
 10
547.615801835862
 20
385.234450670345
 30
0.0
 11
545.550001835862
 21
386.300350670345
 31
0.0
  0
LINE
  5
8F4
330
1D
100
AcDbEntity
  8
0
100
AcDbLine
 10
557.850401835862
 20
376.099050670345
 30
0.0
 11
556.146901835862
 21
378.311750670345
 31
0.0
  0
LINE
  5
8F5
330
1D
100
AcDbEntity
  8
0
100
AcDbLine
 10
556.146901835862
 20
378.311750670345
 30
0.0
 11
554.110701835862
 21
380.469950670345
 31
0.0
  0
LINE
  5
8F6
330
1D
100
AcDbEntity
  8
0
100
AcDbLine
 10
545.492038757725
 20
386.326453993415
 30
0.0
 11
541.014801835862
 21
388.342750670345
 31
0.0
  0
LINE
  5
8F7
330
1D
100
AcDbEntity
  8
0
100
AcDbLine
 10
525.193901835862
 20
396.739550670345
 30
0.0
 11
524.310701835862
 21
398.797550670345
 31
0.0
  0
LINE
  5
8F8
330
1D
100
AcDbEntity
  8
0
100
AcDbLine
 10
527.664301835862
 20
392.270550670345
 30
0.0
 11
520.543601835862
 21
393.705550670345
 31
0.0
  0
LINE
  5
8F9
330
1D
100
AcDbEntity
  8
0
100
AcDbLine
 10
518.825701835862
 20
291.812317670345
 30
0.0
 11
518.664201835862
 21
291.798116670345
 31
0.0
  0
LINE
  5
8FA
330
1D
100
AcDbEntity
  8
0
100
AcDbLine
 10
514.239201835862
 20
291.479938670345
 30
0.0
 11
509.670101835862
 21
291.285287670345
 31
0.0
  0
LINE
  5
8FB
330
1D
100
AcDbEntity
  8
0
100
AcDbLine
 10
518.664201835862
 20
291.798116670345
 30
0.0
 11
514.239201835862
 21
291.479938670345
 31
0.0
  0
LINE
  5
8FC
330
1D
100
AcDbEntity
  8
0
100
AcDbLine
 10
509.670101835862
 20
291.285287670345
 30
0.0
 11
505.096501835862
 21
291.207667670345
 31
0.0
  0
LINE
  5
8FD
330
1D
100
AcDbEntity
  8
0
100
AcDbLine
 10
523.308301835862
 20
292.273553670345
 30
0.0
 11
518.825701835862
 21
291.812317670345
 31
0.0
  0
LINE
  5
8FE
330
1D
100
AcDbEntity
  8
0
100
AcDbLine
 10
560.527401835862
 20
371.548250670345
 30
0.0
 11
559.330401835862
 21
373.782250670345
 31
0.0
  0
LINE
  5
8FF
330
1D
100
AcDbEntity
  8
0
100
AcDbLine
 10
561.723301835862
 20
368.806850670345
 30
0.0
 11
560.527401835862
 21
371.548250670345
 31
0.0
  0
LINE
  5
900
330
1D
100
AcDbEntity
  8
0
100
AcDbLine
 10
562.597601835862
 20
366.548850670345
 30
0.0
 11
561.723301835862
 21
368.806850670345
 31
0.0
  0
LINE
  5
901
330
1D
100
AcDbEntity
  8
0
100
AcDbLine
 10
563.455201835862
 20
363.853750670345
 30
0.0
 11
563.393001835862
 21
364.065950670345
 31
0.0
  0
LINE
  5
902
330
1D
100
AcDbEntity
  8
0
100
AcDbLine
 10
564.711401835862
 20
358.834950670345
 30
0.0
 11
563.455201835862
 21
363.853750670345
 31
0.0
  0
LINE
  5
903
330
1D
100
AcDbEntity
  8
0
100
AcDbLine
 10
563.393001835862
 20
364.065950670345
 30
0.0
 11
562.597601835862
 21
366.548850670345
 31
0.0
  0
LINE
  5
904
330
1D
100
AcDbEntity
  8
0
100
AcDbLine
 10
566.073301835862
 20
348.837150670345
 30
0.0
 11
565.576001835862
 21
353.798950670345
 31
0.0
  0
LINE
  5
905
330
1D
100
AcDbEntity
  8
0
100
AcDbLine
 10
566.078201835862
 20
338.995750670345
 30
0.0
 11
565.688401835862
 21
333.690250670345
 31
0.0
  0
LINE
  5
906
330
1D
100
AcDbEntity
  8
0
100
AcDbLine
 10
566.228701835862
 20
343.912650670345
 30
0.0
 11
566.078201835862
 21
338.995750670345
 31
0.0
  0
LINE
  5
907
330
1D
100
AcDbEntity
  8
0
100
AcDbLine
 10
566.228701835862
 20
343.912650670345
 30
0.0
 11
566.073301835862
 21
348.837150670345
 31
0.0
  0
LINE
  5
908
330
1D
100
AcDbEntity
  8
0
100
AcDbLine
 10
565.576001835862
 20
353.798950670345
 30
0.0
 11
564.711401835862
 21
358.834950670345
 31
0.0
  0
LINE
  5
909
330
1D
100
AcDbEntity
  8
0
100
AcDbLine
 10
543.869601835862
 20
297.189260670345
 30
0.0
 11
541.098001835862
 21
296.119800670345
 31
0.0
  0
LINE
  5
90A
330
1D
100
AcDbEntity
  8
0
100
AcDbLine
 10
535.278601835862
 20
294.395590670345
 30
0.0
 11
529.327301835862
 21
293.152540670345
 31
0.0
  0
LINE
  5
90B
330
1D
100
AcDbEntity
  8
0
100
AcDbLine
 10
541.098001835862
 20
296.119800670345
 30
0.0
 11
538.209001835862
 21
295.187290670345
 31
0.0
  0
LINE
  5
90C
330
1D
100
AcDbEntity
  8
0
100
AcDbLine
 10
538.209001835862
 20
295.187290670345
 30
0.0
 11
535.278601835862
 21
294.395590670345
 31
0.0
  0
LINE
  5
90D
330
1D
100
AcDbEntity
  8
0
100
AcDbLine
 10
564.981101835862
 20
327.825750670345
 30
0.0
 11
564.385501835862
 21
324.306450670345
 31
0.0
  0
LINE
  5
90E
330
1D
100
AcDbEntity
  8
0
100
AcDbLine
 10
565.251101835862
 20
329.700850670345
 30
0.0
 11
564.981101835862
 21
327.825750670345
 31
0.0
  0
LINE
  5
90F
330
1D
100
AcDbEntity
  8
0
100
AcDbLine
 10
563.576301835862
 20
320.804450670345
 30
0.0
 11
562.520301835862
 21
317.346150670345
 31
0.0
  0
LINE
  5
910
330
1D
100
AcDbEntity
  8
0
100
AcDbLine
 10
562.520301835862
 20
317.346150670345
 30
0.0
 11
561.156801835862
 21
313.931950670345
 31
0.0
  0
LINE
  5
911
330
1D
100
AcDbEntity
  8
0
100
AcDbLine
 10
561.156801835862
 20
313.931950670345
 30
0.0
 11
560.923501835862
 21
313.358250670345
 31
0.0
  0
LINE
  5
912
330
1D
100
AcDbEntity
  8
0
100
AcDbLine
 10
564.385501835862
 20
324.306450670345
 30
0.0
 11
563.576301835862
 21
320.804450670345
 31
0.0
  0
LINE
  5
913
330
1D
100
AcDbEntity
  8
0
100
AcDbLine
 10
554.209301835862
 20
303.839450670345
 30
0.0
 11
553.628901835862
 21
303.316050670345
 31
0.0
  0
LINE
  5
914
330
1D
100
AcDbEntity
  8
0
100
AcDbLine
 10
549.124301835862
 20
299.890000670345
 30
0.0
 11
546.570601835862
 21
298.447210670345
 31
0.0
  0
LINE
  5
915
330
1D
100
AcDbEntity
  8
0
100
AcDbLine
 10
551.493701835862
 20
301.519550670345
 30
0.0
 11
549.124301835862
 21
299.890000670345
 31
0.0
  0
LINE
  5
916
330
1D
100
AcDbEntity
  8
0
100
AcDbLine
 10
553.628901835862
 20
303.316050670345
 30
0.0
 11
551.493701835862
 21
301.519550670345
 31
0.0
  0
LINE
  5
917
330
1D
100
AcDbEntity
  8
0
100
AcDbLine
 10
557.763001835862
 20
307.867750670345
 30
0.0
 11
556.111601835862
 21
305.797750670345
 31
0.0
  0
LINE
  5
918
330
1D
100
AcDbEntity
  8
0
100
AcDbLine
 10
559.304601835862
 20
310.326450670345
 30
0.0
 11
557.763001835862
 21
307.867750670345
 31
0.0
  0
LINE
  5
919
330
1D
100
AcDbEntity
  8
0
100
AcDbLine
 10
556.111601835862
 20
305.797750670345
 30
0.0
 11
554.209301835862
 21
303.839450670345
 31
0.0
  0
LINE
  5
91A
330
1D
100
AcDbEntity
  8
0
100
AcDbLine
 10
560.923501835862
 20
313.358250670345
 30
0.0
 11
559.304601835862
 21
310.326450670345
 31
0.0
  0
LINE
  5
91B
330
1D
100
AcDbEntity
  8
0
100
AcDbLine
 10
546.570601835862
 20
298.447210670345
 30
0.0
 11
543.869601835862
 21
297.189260670345
 31
0.0
  0
LINE
  5
91C
330
1D
100
AcDbEntity
  8
0
100
AcDbLine
 10
565.688401835862
 20
333.690250670345
 30
0.0
 11
565.251101835862
 21
329.700850670345
 31
0.0
  0
LINE
  5
91D
330
1D
100
AcDbEntity
  8
0
100
AcDbLine
 10
529.327301835862
 20
293.152540670345
 30
0.0
 11
523.308301835862
 21
292.273553670345
 31
0.0
  0
LINE
  5
91E
330
1D
100
AcDbEntity
  8
0
100
AcDbLine
 10
559.330401835862
 20
373.782250670345
 30
0.0
 11
557.850401835862
 21
376.099050670345
 31
0.0
  0
LINE
  5
91F
330
1D
100
AcDbEntity
  8
0
100
AcDbLine
 10
484.999301835862
 20
396.739550670345
 30
0.0
 11
485.882501835862
 21
398.797550670345
 31
0.0
  0
LINE
  5
920
330
1D
100
AcDbEntity
  8
0
100
AcDbLine
 10
484.786101835862
 20
396.361550670345
 30
0.0
 11
484.999301835862
 21
396.739550670345
 31
0.0
  0
LINE
  5
921
330
1D
100
AcDbEntity
  8
0
100
AcDbLine
 10
500.40352010687
 20
394.92378050171
 30
0.0
 11
505.096601835862
 21
395.015109170345
 31
0.0
  0
LINE
  5
922
330
1D
100
AcDbEntity
  8
0
100
AcDbLine
 10
494.219512064978
 20
394.441340158017
 30
0.0
 11
500.40352010687
 21
394.92378050171
 31
0.0
  0
LINE
  5
923
330
1D
100
AcDbEntity
  8
0
100
AcDbLine
 10
489.649601835862
 20
393.705550670345
 30
0.0
 11
494.219512064978
 21
394.441340158017
 31
0.0
  0
LINE
  5
924
330
1D
100
AcDbEntity
  8
0
100
AcDbLine
 10
502.380101835862
 20
455.468550670345
 30
0.0
 11
505.096701835862
 21
455.693550670345
 31
0.0
  0
LINE
  5
925
330
1D
100
AcDbEntity
  8
0
100
AcDbLine
 10
499.512601835862
 20
454.710550670345
 30
0.0
 11
502.380101835862
 21
455.468550670345
 31
0.0
  0
LINE
  5
926
330
1D
100
AcDbEntity
  8
0
100
AcDbLine
 10
497.473001835862
 20
453.735550670345
 30
0.0
 11
499.512601835862
 21
454.710550670345
 31
0.0
  0
LINE
  5
927
330
1D
100
AcDbEntity
  8
0
100
AcDbLine
 10
496.047103792222
 20
452.743639478985
 30
0.0
 11
497.473001835862
 21
453.735550670345
 31
0.0
  0
LINE
  5
928
330
1D
100
AcDbEntity
  8
0
100
AcDbLine
 10
490.988501835862
 20
445.447550670345
 30
0.0
 11
492.795926506238
 21
449.186904340677
 31
0.0
  0
LINE
  5
929
330
1D
100
AcDbEntity
  8
0
100
AcDbLine
 10
493.515501835862
 20
450.456550670345
 30
0.0
 11
496.030401835862
 21
452.728550670345
 31
0.0
  0
LINE
  5
92A
330
1D
100
AcDbEntity
  8
0
100
AcDbLine
 10
492.795926506238
 20
449.186904340677
 30
0.0
 11
493.515501835862
 21
450.456550670345
 31
0.0
  0
LINE
  5
92B
330
1D
100
AcDbEntity
  8
0
100
AcDbLine
 10
488.135501835862
 20
412.188550670345
 30
0.0
 11
488.918101835862
 21
420.609550670345
 31
0.0
  0
LINE
  5
92C
330
1D
100
AcDbEntity
  8
0
100
AcDbLine
 10
488.918101835862
 20
420.609550670345
 30
0.0
 11
490.988501835862
 21
445.447550670345
 31
0.0
  0
LINE
  5
92D
330
1D
100
AcDbEntity
  8
0
100
AcDbLine
 10
487.477901835862
 20
406.079550670345
 30
0.0
 11
488.135501835862
 21
412.188550670345
 31
0.0
  0
LINE
  5
92E
330
1D
100
AcDbEntity
  8
0
100
AcDbLine
 10
486.740120226009
 20
401.734200826698
 30
0.0
 11
487.477901835862
 21
406.079550670345
 31
0.0
  0
LINE
  5
92F
330
1D
100
AcDbEntity
  8
0
100
AcDbLine
 10
486.576201835862
 20
400.883550670345
 30
0.0
 11
486.740120226009
 21
401.734200826698
 31
0.0
  0
LINE
  5
930
330
1D
100
AcDbEntity
  8
0
100
AcDbLine
 10
485.882501835862
 20
398.797550670345
 30
0.0
 11
486.576201835862
 21
400.883550670345
 31
0.0
  0
LINE
  5
931
330
1D
100
AcDbEntity
  8
0
100
AcDbLine
 10
483.938121152644
 20
395.13386580188
 30
0.0
 11
484.786101835862
 21
396.361550670345
 31
0.0
  0
LINE
  5
932
330
1D
100
AcDbEntity
  8
0
100
AcDbLine
 10
482.528901835862
 20
392.270550670345
 30
0.0
 11
489.649601835862
 21
393.705550670345
 31
0.0
  0
LINE
  5
933
330
1D
100
AcDbEntity
  8
0
100
AcDbLine
 10
482.525544299039
 20
393.551447149719
 30
0.0
 11
483.938121152644
 21
395.13386580188
 31
0.0
  0
LINE
  5
934
330
1D
100
AcDbEntity
  8
0
100
AcDbLine
 10
464.701164913999
 20
386.326453993415
 30
0.0
 11
469.178401835862
 21
388.342750670345
 31
0.0
  0
LINE
  5
935
330
1D
100
AcDbEntity
  8
0
100
AcDbLine
 10
479.866215468815
 20
391.658239768834
 30
0.0
 11
480.250101835862
 21
391.868550670345
 31
0.0
  0
LINE
  5
936
330
1D
100
AcDbEntity
  8
0
100
AcDbLine
 10
480.250101835862
 20
391.868550670345
 30
0.0
 11
481.595922006684
 21
392.742270930184
 31
0.0
  0
LINE
  5
937
330
1D
100
AcDbEntity
  8
0
100
AcDbLine
 10
481.64972548915
 20
392.783772670407
 30
0.0
 11
482.525544299041
 21
393.551447149721
 31
0.0
  0
LINE
  5
938
330
1D
100
AcDbEntity
  8
0
100
AcDbLine
 10
481.595922006684
 20
392.742270930184
 30
0.0
 11
481.662401835862
 21
392.793550670345
 31
0.0
  0
LINE
  5
939
330
1D
100
AcDbEntity
  8
0
100
AcDbLine
 10
478.670401835862
 20
391.383250670345
 30
0.0
 11
482.528901835862
 21
392.270550670345
 31
0.0
  0
LINE
  5
93A
330
1D
100
AcDbEntity
  8
0
100
AcDbLine
 10
469.178401835862
 20
388.342750670345
 30
0.0
 11
473.859601835862
 21
390.049050670345
 31
0.0
  0
LINE
  5
93B
330
1D
100
AcDbEntity
  8
0
100
AcDbLine
 10
473.859601835862
 20
390.049050670345
 30
0.0
 11
478.670401835862
 21
391.383250670345
 31
0.0
  0
LINE
  5
93C
330
1D
100
AcDbEntity
  8
0
100
AcDbLine
 10
464.643201835862
 20
386.300350670345
 30
0.0
 11
464.701164913999
 21
386.326453993415
 31
0.0
  0
LINE
  5
93D
330
1D
100
AcDbEntity
  8
0
100
AcDbLine
 10
462.577401835862
 20
385.234450670345
 30
0.0
 11
464.643201835862
 21
386.300350670345
 31
0.0
  0
LINE
  5
93E
330
1D
100
AcDbEntity
  8
0
100
AcDbLine
 10
460.474201835862
 20
383.892750670345
 30
0.0
 11
462.577401835862
 21
385.234450670345
 31
0.0
  0
LINE
  5
93F
330
1D
100
AcDbEntity
  8
0
100
AcDbLine
 10
450.862801835862
 20
373.782250670345
 30
0.0
 11
452.342801835862
 21
376.099050670345
 31
0.0
  0
LINE
  5
940
330
1D
100
AcDbEntity
  8
0
100
AcDbLine
 10
452.342801835862
 20
376.099050670345
 30
0.0
 11
454.046301835862
 21
378.311750670345
 31
0.0
  0
LINE
  5
941
330
1D
100
AcDbEntity
  8
0
100
AcDbLine
 10
456.082501835862
 20
380.469950670345
 30
0.0
 11
458.244401835862
 21
382.380850670345
 31
0.0
  0
LINE
  5
942
330
1D
100
AcDbEntity
  8
0
100
AcDbLine
 10
458.244401835862
 20
382.380850670345
 30
0.0
 11
460.474201835862
 21
383.892750670345
 31
0.0
  0
LINE
  5
943
330
1D
100
AcDbEntity
  8
0
100
AcDbLine
 10
454.046301835862
 20
378.311750670345
 30
0.0
 11
456.082501835862
 21
380.469950670345
 31
0.0
  0
LINE
  5
944
330
1D
100
AcDbEntity
  8
0
100
AcDbLine
 10
449.665801835862
 20
371.548250670345
 30
0.0
 11
450.862801835862
 21
373.782250670345
 31
0.0
  0
LINE
  5
945
330
1D
100
AcDbEntity
  8
0
100
AcDbLine
 10
448.469901835862
 20
368.806850670345
 30
0.0
 11
449.665801835862
 21
371.548250670345
 31
0.0
  0
LINE
  5
946
330
1D
100
AcDbEntity
  8
0
100
AcDbLine
 10
447.595601835862
 20
366.548850670345
 30
0.0
 11
448.469901835862
 21
368.806850670345
 31
0.0
  0
LINE
  5
947
330
1D
100
AcDbEntity
  8
0
100
AcDbLine
 10
446.800201835862
 20
364.065950670345
 30
0.0
 11
447.595601835862
 21
366.548850670345
 31
0.0
  0
LINE
  5
948
330
1D
100
AcDbEntity
  8
0
100
AcDbLine
 10
446.738001835862
 20
363.853750670345
 30
0.0
 11
446.800201835862
 21
364.065950670345
 31
0.0
  0
LINE
  5
949
330
1D
100
AcDbEntity
  8
0
100
AcDbLine
 10
445.481801835862
 20
358.834950670345
 30
0.0
 11
446.738001835862
 21
363.853750670345
 31
0.0
  0
LINE
  5
94A
330
1D
100
AcDbEntity
  8
0
100
AcDbLine
 10
444.617201835862
 20
353.798950670345
 30
0.0
 11
445.481801835862
 21
358.834950670345
 31
0.0
  0
LINE
  5
94B
330
1D
100
AcDbEntity
  8
0
100
AcDbLine
 10
444.119901835862
 20
348.837150670345
 30
0.0
 11
444.617201835862
 21
353.798950670345
 31
0.0
  0
LINE
  5
94C
330
1D
100
AcDbEntity
  8
0
100
AcDbLine
 10
445.212101835862
 20
327.825750670345
 30
0.0
 11
445.807701835862
 21
324.306450670345
 31
0.0
  0
LINE
  5
94D
330
1D
100
AcDbEntity
  8
0
100
AcDbLine
 10
444.942101835862
 20
329.700850670345
 30
0.0
 11
445.212101835862
 21
327.825750670345
 31
0.0
  0
LINE
  5
94E
330
1D
100
AcDbEntity
  8
0
100
AcDbLine
 10
444.115001835862
 20
338.995750670345
 30
0.0
 11
444.504801835862
 21
333.690250670345
 31
0.0
  0
LINE
  5
94F
330
1D
100
AcDbEntity
  8
0
100
AcDbLine
 10
444.504801835862
 20
333.690250670345
 30
0.0
 11
444.942101835862
 21
329.700850670345
 31
0.0
  0
LINE
  5
950
330
1D
100
AcDbEntity
  8
0
100
AcDbLine
 10
443.964501835862
 20
343.912650670345
 30
0.0
 11
444.115001835862
 21
338.995750670345
 31
0.0
  0
LINE
  5
951
330
1D
100
AcDbEntity
  8
0
100
AcDbLine
 10
443.964501835862
 20
343.912650670345
 30
0.0
 11
444.119901835862
 21
348.837150670345
 31
0.0
  0
LINE
  5
952
330
1D
100
AcDbEntity
  8
0
100
AcDbLine
 10
445.807701835862
 20
324.306450670345
 30
0.0
 11
446.616901835862
 21
320.804450670345
 31
0.0
  0
LINE
  5
953
330
1D
100
AcDbEntity
  8
0
100
AcDbLine
 10
446.616901835862
 20
320.804450670345
 30
0.0
 11
447.672901835862
 21
317.346150670345
 31
0.0
  0
LINE
  5
954
330
1D
100
AcDbEntity
  8
0
100
AcDbLine
 10
447.672901835862
 20
317.346150670345
 30
0.0
 11
449.036401835862
 21
313.931950670345
 31
0.0
  0
LINE
  5
955
330
1D
100
AcDbEntity
  8
0
100
AcDbLine
 10
449.269701835862
 20
313.358250670345
 30
0.0
 11
450.888601835862
 21
310.326450670345
 31
0.0
  0
LINE
  5
956
330
1D
100
AcDbEntity
  8
0
100
AcDbLine
 10
449.036401835862
 20
313.931950670345
 30
0.0
 11
449.269701835862
 21
313.358250670345
 31
0.0
  0
LINE
  5
957
330
1D
100
AcDbEntity
  8
0
100
AcDbLine
 10
491.367501835862
 20
291.812317670345
 30
0.0
 11
491.529001835862
 21
291.798116670345
 31
0.0
  0
LINE
  5
958
330
1D
100
AcDbEntity
  8
0
100
AcDbLine
 10
495.954001835862
 20
291.479938670345
 30
0.0
 11
500.523101835862
 21
291.285287670345
 31
0.0
  0
LINE
  5
959
330
1D
100
AcDbEntity
  8
0
100
AcDbLine
 10
491.529001835862
 20
291.798116670345
 30
0.0
 11
495.954001835862
 21
291.479938670345
 31
0.0
  0
LINE
  5
95A
330
1D
100
AcDbEntity
  8
0
100
AcDbLine
 10
500.523101835862
 20
291.285287670345
 30
0.0
 11
505.096701835862
 21
291.207667670345
 31
0.0
  0
LINE
  5
95B
330
1D
100
AcDbEntity
  8
0
100
AcDbLine
 10
480.865901835862
 20
293.152540670345
 30
0.0
 11
486.884901835862
 21
292.273553670345
 31
0.0
  0
LINE
  5
95C
330
1D
100
AcDbEntity
  8
0
100
AcDbLine
 10
486.884901835862
 20
292.273553670345
 30
0.0
 11
491.367501835862
 21
291.812317670345
 31
0.0
  0
LINE
  5
95D
330
1D
100
AcDbEntity
  8
0
100
AcDbLine
 10
452.430201835862
 20
307.867750670345
 30
0.0
 11
454.081601835862
 21
305.797750670345
 31
0.0
  0
LINE
  5
95E
330
1D
100
AcDbEntity
  8
0
100
AcDbLine
 10
450.888601835862
 20
310.326450670345
 30
0.0
 11
452.430201835862
 21
307.867750670345
 31
0.0
  0
LINE
  5
95F
330
1D
100
AcDbEntity
  8
0
100
AcDbLine
 10
461.068901835862
 20
299.890000670345
 30
0.0
 11
463.622601835862
 21
298.447210670345
 31
0.0
  0
LINE
  5
960
330
1D
100
AcDbEntity
  8
0
100
AcDbLine
 10
463.622601835862
 20
298.447210670345
 30
0.0
 11
466.323601835862
 21
297.189260670345
 31
0.0
  0
LINE
  5
961
330
1D
100
AcDbEntity
  8
0
100
AcDbLine
 10
466.323601835862
 20
297.189260670345
 30
0.0
 11
469.095201835862
 21
296.119800670345
 31
0.0
  0
LINE
  5
962
330
1D
100
AcDbEntity
  8
0
100
AcDbLine
 10
474.914601835862
 20
294.395590670345
 30
0.0
 11
480.865901835862
 21
293.152540670345
 31
0.0
  0
LINE
  5
963
330
1D
100
AcDbEntity
  8
0
100
AcDbLine
 10
469.095201835862
 20
296.119800670345
 30
0.0
 11
471.984201835862
 21
295.187290670345
 31
0.0
  0
LINE
  5
964
330
1D
100
AcDbEntity
  8
0
100
AcDbLine
 10
471.984201835862
 20
295.187290670345
 30
0.0
 11
474.914601835862
 21
294.395590670345
 31
0.0
  0
LINE
  5
965
330
1D
100
AcDbEntity
  8
0
100
AcDbLine
 10
454.081601835862
 20
305.797750670345
 30
0.0
 11
455.983901835862
 21
303.839450670345
 31
0.0
  0
LINE
  5
966
330
1D
100
AcDbEntity
  8
0
100
AcDbLine
 10
455.983901835862
 20
303.839450670345
 30
0.0
 11
456.564301835862
 21
303.316050670345
 31
0.0
  0
LINE
  5
967
330
1D
100
AcDbEntity
  8
0
100
AcDbLine
 10
456.564301835862
 20
303.316050670345
 30
0.0
 11
458.699501835862
 21
301.519550670345
 31
0.0
  0
LINE
  5
968
330
1D
100
AcDbEntity
  8
0
100
AcDbLine
 10
458.699501835862
 20
301.519550670345
 30
0.0
 11
461.068901835862
 21
299.890000670345
 31
0.0
  0
LINE
  5
969
330
1D
100
AcDbEntity
  8
0
100
AcDbLine
 10
523.63071041489
 20
430.870860698732
 30
0.0
 11
523.77371041489
 21
431.979860698732
 31
0.0
  0
LINE
  5
96A
330
1D
100
AcDbEntity
  8
0
100
AcDbLine
 10
486.91471041489
 20
430.870860698732
 30
0.0
 11
486.77171041489
 21
431.979860698732
 31
0.0
  0
LINE
  5
96B
330
1D
100
AcDbEntity
  8
0
100
AcDbLine
 10
488.573704318408
 20
427.507369372771
 30
0.0
 11
487.62171041489
 21
428.861860698732
 31
0.0
  0
LINE
  5
96C
330
1D
100
AcDbEntity
  8
0
100
AcDbLine
 10
487.62171041489
 20
428.861860698732
 30
0.0
 11
486.91471041489
 21
430.870860698732
 31
0.0
  0
LINE
  5
96D
330
1D
100
AcDbEntity
  8
0
100
AcDbLine
 10
522.92371041489
 20
428.861860698732
 30
0.0
 11
523.63071041489
 21
430.870860698732
 31
0.0
  0
LINE
  5
96E
330
1D
100
AcDbEntity
  8
0
100
AcDbLine
 10
521.971716511372
 20
427.507369372771
 30
0.0
 11
522.92371041489
 21
428.861860698732
 31
0.0
  0
LINE
  5
96F
330
1D
100
AcDbEntity
  8
0
100
AcDbLine
 10
505.27371041489
 20
475.291860698732
 30
0.0
 11
523.77371041489
 21
475.291860698732
 31
0.0
  0
LINE
  5
970
330
1D
100
AcDbEntity
  8
0
100
AcDbLine
 10
486.77171041489
 20
431.979860698732
 30
0.0
 11
486.77171041489
 21
475.291860698732
 31
0.0
  0
LINE
  5
971
330
1D
100
AcDbEntity
  8
0
100
AcDbLine
 10
486.77171041489
 20
475.291860698732
 30
0.0
 11
486.77171041489
 21
431.979860698732
 31
0.0
  0
LINE
  5
972
330
1D
100
AcDbEntity
  8
0
100
AcDbLine
 10
505.27171041489
 20
475.291860698732
 30
0.0
 11
486.77171041489
 21
475.291860698732
 31
0.0
  0
LINE
  5
973
330
1D
100
AcDbEntity
  8
0
100
AcDbLine
 10
523.77371041489
 20
475.291860698732
 30
0.0
 11
523.77371041489
 21
431.979860698732
 31
0.0
  0
LINE
  5
974
330
1D
100
AcDbEntity
  8
0
100
AcDbLine
 10
523.77371041489
 20
431.979860698732
 30
0.0
 11
523.77371041489
 21
475.291860698732
 31
0.0
  0
ENDSEC
  0
SECTION
  2
OBJECTS
  0
DICTIONARY
  5
C
330
0
100
AcDbDictionary
281
     1
  3
ACAD_GROUP
350
D
  3
ACAD_LAYOUT
350
1A
  3
ACAD_MLEADERSTYLE
350
977
  3
ACAD_MLINESTYLE
350
17
  3
ACAD_PLOTSETTINGS
350
19
  3
ACAD_PLOTSTYLENAME
350
E
  3
ACAD_SCALELIST
350
520
  3
AcDbVariableDictionary
350
975
  3
DWGPROPS
350
97A
  0
DICTIONARY
  5
D
102
{ACAD_REACTORS
330
C
102
}
330
C
100
AcDbDictionary
281
     1
  0
DICTIONARY
  5
1A
102
{ACAD_REACTORS
330
C
102
}
330
C
100
AcDbDictionary
281
     1
  3
Layout1
350
1C
  3
Model
350
1E
  0
DICTIONARY
  5
977
102
{ACAD_REACTORS
330
C
102
}
330
C
100
AcDbDictionary
281
     1
  0
DICTIONARY
  5
17
102
{ACAD_REACTORS
330
C
102
}
330
C
100
AcDbDictionary
281
     1
  3
Standard
350
18
  0
DICTIONARY
  5
19
102
{ACAD_REACTORS
330
C
102
}
330
C
100
AcDbDictionary
281
     1
  0
ACDBDICTIONARYWDFLT
  5
E
102
{ACAD_REACTORS
330
C
102
}
330
C
100
AcDbDictionary
281
     1
  3
Normal
350
F
100
AcDbDictionaryWithDefault
340
F
  0
DICTIONARY
  5
520
102
{ACAD_REACTORS
330
C
102
}
330
C
100
AcDbDictionary
281
     1
  3
A0
350
521
  3
A1
350
522
  3
A2
350
523
  3
A3
350
524
  3
A4
350
525
  3
A5
350
526
  3
A6
350
527
  3
A7
350
528
  3
A8
350
529
  3
A9
350
52A
  3
B0
350
52B
  3
B1
350
52C
  3
B2
350
52D
  3
B3
350
52E
  3
B4
350
52F
  3
B5
350
530
  3
B6
350
531
  3
B7
350
532
  3
B8
350
533
  3
B9
350
534
  3
C0
350
535
  3
C1
350
536
  3
C2
350
537
  3
C3
350
538
  3
C4
350
539
  3
C5
350
53A
  3
C6
350
53B
  3
C7
350
53C
  3
C8
350
53D
  3
C9
350
53E
  3
D0
350
53F
  3
D1
350
540
  3
D2
350
541
  0
DICTIONARY
  5
975
102
{ACAD_REACTORS
330
C
102
}
330
C
100
AcDbDictionary
281
     1
  3
CANNOSCALE
350
978
  0
XRECORD
  5
97A
102
{ACAD_REACTORS
330
C
102
}
330
C
100
AcDbXrecord
280
     1
  1
DWGPROPS COOKIE
  2

  3

  4

  6

  7

  8
MARTIN
  9

300
=
301
=
302
=
303
=
304
=
305
=
306
=
307
=
308
=
309
=
 40
0.0
 41
2456647.31794596
 42
2456647.322654803
  1

 90
        0
  0
LAYOUT
  5
1C
102
{ACAD_REACTORS
330
1A
102
}
330
1A
100
AcDbPlotSettings
  1

  2
none_device
  4

  6

 40
0.0
 41
0.0
 42
0.0
 43
0.0
 44
0.0
 45
0.0
 46
0.0
 47
0.0
 48
0.0
 49
0.0
140
0.0
141
0.0
142
1.0
143
1.0
 70
   688
 72
     0
 73
     0
 74
     5
  7

 75
    16
147
1.0
148
0.0
149
0.0
100
AcDbLayout
  1
Layout1
 70
     1
 71
     1
 10
0.0
 20
0.0
 11
12.0
 21
9.0
 12
0.0
 22
0.0
 32
0.0
 14
1.000000000000E+20
 24
1.000000000000E+20
 34
1.000000000000E+20
 15
-1.000000000000E+20
 25
-1.000000000000E+20
 35
-1.000000000000E+20
146
0.0
 13
0.0
 23
0.0
 33
0.0
 16
1.0
 26
0.0
 36
0.0
 17
0.0
 27
1.0
 37
0.0
 76
     0
330
1B
  0
LAYOUT
  5
1E
102
{ACAD_REACTORS
330
1A
102
}
330
1A
100
AcDbPlotSettings
  1

  2
none_device
  4

  6

 40
0.0
 41
0.0
 42
0.0
 43
0.0
 44
0.0
 45
0.0
 46
0.0
 47
0.0
 48
0.0
 49
0.0
140
0.0
141
0.0
142
1.0
143
1.0
 70
  1712
 72
     0
 73
     0
 74
     0
  7

 75
     0
147
1.0
148
0.0
149
0.0
100
AcDbLayout
  1
Model
 70
     1
 71
     0
 10
0.0
 20
0.0
 11
12.0
 21
9.0
 12
0.0
 22
0.0
 32
0.0
 14
-0.066
 24
0.14355
 34
0.0
 15
566.228701835862
 25
475.85645
 35
0.0
146
0.0
 13
0.0
 23
0.0
 33
0.0
 16
1.0
 26
0.0
 36
0.0
 17
0.0
 27
1.0
 37
0.0
 76
     0
330
1D
331
51B
  0
MLINESTYLE
  5
18
102
{ACAD_REACTORS
330
17
102
}
330
17
100
AcDbMlineStyle
  2
Standard
 70
     0
  3

 62
   256
 51
90.0
 52
90.0
 71
     2
 49
0.5
 62
   256
  6
BYLAYER
 49
-0.5
 62
   256
  6
BYLAYER
  0
ACDBPLACEHOLDER
  5
F
102
{ACAD_REACTORS
330
E
102
}
330
E
  0
SCALE
  5
521
102
{ACAD_REACTORS
330
520
102
}
330
520
100
AcDbScale
 70
     0
300
1:1
140
1.0
141
1.0
290
     1
  0
SCALE
  5
522
102
{ACAD_REACTORS
330
520
102
}
330
520
100
AcDbScale
 70
     0
300
1:2
140
1.0
141
2.0
290
     0
  0
SCALE
  5
523
102
{ACAD_REACTORS
330
520
102
}
330
520
100
AcDbScale
 70
     0
300
1:4
140
1.0
141
4.0
290
     0
  0
SCALE
  5
524
102
{ACAD_REACTORS
330
520
102
}
330
520
100
AcDbScale
 70
     0
300
1:5
140
1.0
141
5.0
290
     0
  0
SCALE
  5
525
102
{ACAD_REACTORS
330
520
102
}
330
520
100
AcDbScale
 70
     0
300
1:8
140
1.0
141
8.0
290
     0
  0
SCALE
  5
526
102
{ACAD_REACTORS
330
520
102
}
330
520
100
AcDbScale
 70
     0
300
1:10
140
1.0
141
10.0
290
     0
  0
SCALE
  5
527
102
{ACAD_REACTORS
330
520
102
}
330
520
100
AcDbScale
 70
     0
300
1:16
140
1.0
141
16.0
290
     0
  0
SCALE
  5
528
102
{ACAD_REACTORS
330
520
102
}
330
520
100
AcDbScale
 70
     0
300
1:20
140
1.0
141
20.0
290
     0
  0
SCALE
  5
529
102
{ACAD_REACTORS
330
520
102
}
330
520
100
AcDbScale
 70
     0
300
1:30
140
1.0
141
30.0
290
     0
  0
SCALE
  5
52A
102
{ACAD_REACTORS
330
520
102
}
330
520
100
AcDbScale
 70
     0
300
1:40
140
1.0
141
40.0
290
     0
  0
SCALE
  5
52B
102
{ACAD_REACTORS
330
520
102
}
330
520
100
AcDbScale
 70
     0
300
1:50
140
1.0
141
50.0
290
     0
  0
SCALE
  5
52C
102
{ACAD_REACTORS
330
520
102
}
330
520
100
AcDbScale
 70
     0
300
1:100
140
1.0
141
100.0
290
     0
  0
SCALE
  5
52D
102
{ACAD_REACTORS
330
520
102
}
330
520
100
AcDbScale
 70
     0
300
2:1
140
2.0
141
1.0
290
     0
  0
SCALE
  5
52E
102
{ACAD_REACTORS
330
520
102
}
330
520
100
AcDbScale
 70
     0
300
4:1
140
4.0
141
1.0
290
     0
  0
SCALE
  5
52F
102
{ACAD_REACTORS
330
520
102
}
330
520
100
AcDbScale
 70
     0
300
8:1
140
8.0
141
1.0
290
     0
  0
SCALE
  5
530
102
{ACAD_REACTORS
330
520
102
}
330
520
100
AcDbScale
 70
     0
300
10:1
140
10.0
141
1.0
290
     0
  0
SCALE
  5
531
102
{ACAD_REACTORS
330
520
102
}
330
520
100
AcDbScale
 70
     0
300
100:1
140
100.0
141
1.0
290
     0
  0
SCALE
  5
532
102
{ACAD_REACTORS
330
520
102
}
330
520
100
AcDbScale
 70
     0
300
1/128" = 1'-0"
140
0.0078125
141
12.0
290
     0
  0
SCALE
  5
533
102
{ACAD_REACTORS
330
520
102
}
330
520
100
AcDbScale
 70
     0
300
1/64" = 1'-0"
140
0.015625
141
12.0
290
     0
  0
SCALE
  5
534
102
{ACAD_REACTORS
330
520
102
}
330
520
100
AcDbScale
 70
     0
300
1/32" = 1'-0"
140
0.03125
141
12.0
290
     0
  0
SCALE
  5
535
102
{ACAD_REACTORS
330
520
102
}
330
520
100
AcDbScale
 70
     0
300
1/16" = 1'-0"
140
0.0625
141
12.0
290
     0
  0
SCALE
  5
536
102
{ACAD_REACTORS
330
520
102
}
330
520
100
AcDbScale
 70
     0
300
3/32" = 1'-0"
140
0.09375
141
12.0
290
     0
  0
SCALE
  5
537
102
{ACAD_REACTORS
330
520
102
}
330
520
100
AcDbScale
 70
     0
300
1/8" = 1'-0"
140
0.125
141
12.0
290
     0
  0
SCALE
  5
538
102
{ACAD_REACTORS
330
520
102
}
330
520
100
AcDbScale
 70
     0
300
3/16" = 1'-0"
140
0.1875
141
12.0
290
     0
  0
SCALE
  5
539
102
{ACAD_REACTORS
330
520
102
}
330
520
100
AcDbScale
 70
     0
300
1/4" = 1'-0"
140
0.25
141
12.0
290
     0
  0
SCALE
  5
53A
102
{ACAD_REACTORS
330
520
102
}
330
520
100
AcDbScale
 70
     0
300
3/8" = 1'-0"
140
0.375
141
12.0
290
     0
  0
SCALE
  5
53B
102
{ACAD_REACTORS
330
520
102
}
330
520
100
AcDbScale
 70
     0
300
1/2" = 1'-0"
140
0.5
141
12.0
290
     0
  0
SCALE
  5
53C
102
{ACAD_REACTORS
330
520
102
}
330
520
100
AcDbScale
 70
     0
300
3/4" = 1'-0"
140
0.75
141
12.0
290
     0
  0
SCALE
  5
53D
102
{ACAD_REACTORS
330
520
102
}
330
520
100
AcDbScale
 70
     0
300
1" = 1'-0"
140
1.0
141
12.0
290
     0
  0
SCALE
  5
53E
102
{ACAD_REACTORS
330
520
102
}
330
520
100
AcDbScale
 70
     0
300
1-1/2" = 1'-0"
140
1.5
141
12.0
290
     0
  0
SCALE
  5
53F
102
{ACAD_REACTORS
330
520
102
}
330
520
100
AcDbScale
 70
     0
300
3" = 1'-0"
140
3.0
141
12.0
290
     0
  0
SCALE
  5
540
102
{ACAD_REACTORS
330
520
102
}
330
520
100
AcDbScale
 70
     0
300
6" = 1'-0"
140
6.0
141
12.0
290
     0
  0
SCALE
  5
541
102
{ACAD_REACTORS
330
520
102
}
330
520
100
AcDbScale
 70
     0
300
1'-0" = 1'-0"
140
12.0
141
12.0
290
     0
  0
DICTIONARYVAR
  5
978
102
{ACAD_REACTORS
330
975
102
}
330
975
100
DictionaryVariables
280
     0
  1
1:1
  0
ENDSEC
  0
SECTION
  2
THUMBNAILIMAGE
 90
    16364
310
28000000B40000005500000001000800000000000000000000000000000000000000000000000000FFFFFF000000FF0000FFFF0000FF0000FFFF0000FF000000FF00FF000000000080808000C0C0C0000000FF007F7FFF000000A5005252A50000007F003F3F7F0000004C0026264C000000260013132600003FFF007F9FFF
310
000029A5005267A500001F7F003F4F7F0000134C00262F4C000009260013172600007FFF007FBFFF000052A500527CA500003F7F003F5F7F0000264C0026394C0000132600131C260000BFFF007FDFFF00007CA5005291A500005F7F003F6F7F0000394C0026424C00001C26001321260000FFFF007FFFFF0000A5A50052A5
310
A500007F7F003F7F7F00004C4C00264C4C00002626001326260000FFBF007FFFDF0000A57C0052A59100007F5F003F7F6F00004C3900264C420000261C001326210000FF7F007FFFBF0000A5520052A57C00007F3F003F7F5F00004C2600264C39000026130013261C0000FF3F007FFF9F0000A5290052A56700007F1F003F
310
7F4F00004C1300264C2F00002609001326170000FF00007FFF7F0000A5000052A55200007F00003F7F3F00004C0000264C260000260000132613003FFF00009FFF7F0029A5000067A552001F7F00004F7F3F00134C00002F4C260009260000172613007FFF0000BFFF7F0052A500007CA552003F7F00005F7F3F00264C0000
310
394C2600132600001C261300BFFF0000DFFF7F007CA5000091A552005F7F00006F7F3F00394C0000424C26001C26000021261300FFFF0000FFFF7F00A5A50000A5A552007F7F00007F7F3F004C4C00004C4C26002626000026261300FFBF0000FFDF7F00A57C0000A59152007F5F00007F6F3F004C3900004C422600261C00
310
0026211300FF7F0000FFBF7F00A5520000A57C52007F3F00007F5F3F004C2600004C39260026130000261C1300FF3F0000FF9F7F00A5290000A56752007F1F00007F4F3F004C1300004C2F26002609000026171300FF000000FF7F7F00A5000000A55252007F0000007F3F3F004C0000004C2626002600000026131300FF00
310
3F00FF7F9F00A5002900A55267007F001F007F3F4F004C0013004C262F002600090026131700FF007F00FF7FBF00A5005200A5527C007F003F007F3F5F004C0026004C2639002600130026131C00FF00BF00FF7FDF00A5007C00A55291007F005F007F3F6F004C0039004C26420026001C0026132100FF00FF00FF7FFF00A5
310
00A500A552A5007F007F007F3F7F004C004C004C264C002600260026132600BF00FF00DF7FFF007C00A5009152A5005F007F006F3F7F0039004C0042264C001C002600211326007F00FF00BF7FFF005200A5007C52A5003F007F005F3F7F0026004C0039264C00130026001C1326003F00FF009F7FFF002900A5006752A500
310
1F007F004F3F7F0013004C002F264C000900260017132600000000002D2D2D005B5B5B0089898900B7B7B700B3B3B30000000000000000000000000000000000000000000000000000000000000000000000000000000000000707070707070707070707070707070707070707070707070707070707070707070707070707
310
07070707070707070707070707070707070707070707070707000000000000000000000000000000000000000000000000000000000000000000000000000000000000000000000000000000000000000000000000000000000000000000000000000000000000000000000000000000000000000000000000000000000000
310
00000000000000000000000000000707000000000000000000000000000000000000000000000000000000000000000000000000000000000000000000000000000000000000000000000000000700000000000000000000000000000000000000000000000000000000000000000000000000000000000000000000000000
310
00000000000000000000000000000000000000000000000000000000000000000000000000000000000000000000000000000000000000000000000000000000000000070000000000000000000000000000000000000000000000000000000000000000000000000000000000000000000000000000000000000000000000
310
00000007000000000000000000000000000000000000000000000000000000000000000000000000000000000000000000000000000000000000000000000000000000000000000000000000000000000000000000000000000000000000000000000000000000000000000000000000000000000000000007000000000000
310
00000000000000000000000000000000000000000000000000000000000000000000000000000000000000000000000000000000000000000700000000000000000000000000000000000000000000000000000000000000000000000000000000000000000000000000000000000000000000000000000000000000000000
310
00000000000000000000000000000000000000000000000000000000000000000000000000000000000000000000070000000000000000000000000000000000000000000000000000000000000000000000000000000000000000000000000000000000000000000000000000070000000000000000000000000000000000
310
00000000000000000000000000000000000000000000000000000000000000000000000000000000000000000000000000000000000000000000000000000000000000000000000000000000000000000000000000000000000000000000000000000007000000000000000000000000000000000000000000000000000000
310
00000000000000000000000000000000000000000000000000000000000000000000000700000000000000000000000000000000000000000000000000000000000000000000000000000000000000000000000000000000000000000000000000000000000000000000000000000000000000000000000000000000000000
310
00000000000000000000000000000000000000000000000000070000000000000000000000000000000000000000000000000000000000000000000000000000000000000000000000000000000000000000000000000000070000000000000000000000000000000000000000000000000000000000000000000000000000
310
00000000000000000000000000000000000000000000000000000000000000000000000000000000000000000000000000000000000000000000000000000000000000000000000000000000000007000000000000000000000000000000000000000000000000000000000000000000000000000000000000000000000000
310
00000000000000000000000000000700000000000000000000000000000000000000000000000000000000000000000000000000000000000000000000000000000000000000000000000000000000000000000000000000000000000000000000000000000000000000000000000000000000000000000000000000000000
310
00000000070000000000000000000000000000000000000000000000000000000000000000000000000000000000000000000000000000000000000000000000000000070000000000000000000000000000000000000000000000000000000000000000000000000000000000000000000000000000000000000000000000
310
00000000000000000000000000000000000000000000000000000000000000000000000000000000000000000000000000000000000000000007000000000000000000000000000000000000000000000000000000000000000000000000000000000000000000000000000000000000000000000000000007000000000000
310
00000000000000000000000000000000000000000000000000000000000000000000000000000000000000000000000000000000000000000000000000000000000000000000000000000000000000000000000000000000000000000000000000000000000000000000000000000700000000000000000000000000000000
310
00000000000000000000000000000000000000000000000000000000000000000000000000000000000000000000070000000000000000000000000000000000000000000000000000000000000000000000000000000000000000000000000000000000000000000000000000000000000000000000000000000000000000
310
00000000000000000000000000000000000000000000000000000000000000000000000007000000000000000000000000000000000000000000000000000000000000000000000000000000000000000000000000000000000000000000000000000007000000000000000000000000000000000000000000000000000000
310
00000000000000000000000000000000000000000000000000000000000000000000000000000000000000000000000000000000000000000000000000000000000000000000000000000000000000000000000000000000000700000000000000000000000000000000000000000000000000000000000000000000000000
310
00000000000000000000000000000000000000000000000000070000000000000000000000000000000000000000000000000000000000000000000000000000000000000000000000000000000000000000000000000000000000000000000000000000000000000000000000000000000000000000000000000000000000
310
00000000000000000000000000000007000000000000000000000000000000000000000000000000000000000000000000000000000000000000000000000000000000000000000000000000000007000000000000000000000000000000000000000000000000000000000000000000000000000000000000000000000000
310
00000000000000000000000000000000000000000000000000000000000000000000000000000000000000000000000000000000000000000000000000000000000000000700000000000000000000000000000000000000000000000000000007070707070707070700000000000000000000000000000000000000000000
310
00000000070000000000000000000000000000000000000000000000000000000000000000000000000000000000000000000000000000000000000000000000000000000000000000000000000000000000000000000000000000000000000000000000000000000000000000000000000000000000000000070000000000
310
00000000000000000000000000000000000000000000070000000000000007000000000000000000000000000000000000000000000000000007000000000000000000000000000000000000000000000000000000000000000000000000000000000000000000000000000000000000000000000000000000000000000000
310
00000000000000000000000000000000000000000000000000000000000000000000000000000000000000000000000700000000000000000000000000000000000000000000000000000007000000000000000700000000000000000000000000000000000000000000000000000700000000000000000000000000000000
310
00000000000000000000000000000000000000000000000000000000000000000000000000000000000000000000000000000000000000000000000000000000000000000000000000000000000000000000000000000000000000000000000000000000070000000000000000000000000000000000000000000000000000
310
00070000000000000007000000000000000000000000000000000000000000000000000007000000000000000000000000000000000000000000000000000000000000000000000000000000000000000000000000000000000000000000000000000000000000000000000000000000000000000000000000000000000000
310
00000000000000000000000000000000000000000000000000000700000000000000000000000000000000000000000000000000000007000000000000000700000000000000000000000000000000000000000000000000000700000000000000000000000000000000000000000000000000000000000000000000000000
310
00000000000000000000000000000000000000000000000000000000000000000000000000000000000000000000000000000000000000000000000000000000000000000000000000000000000000070000000000000000000000000000000000000000000000000000000700000000000000070000000000000000000000
310
00000000000000000000000000000007000000000000000000000000000000000000000000000000000000000000000000000000000000000000000000000000000000000000000000000000000000000000000000000000000000000000000000000000000000000000000000000000000000000000000000000000000000
310
00000000000700000000000000000000000000000000000000000000000000000007000000000000000700000000000000000000000000000000000000000000000000000700000000000000000000000000000000000000000000000000000000000000000000000000000000000000000000000000000000000000000000
310
00000000000000000000000000000000000000000000000000000000000000000000000000000000000000000000000000000000000000000000070000000000000000000000000000000000000000000000000000000700000000000000070000000000000000000000000000000000000000000000000000070000000000
310
00000000000000000000000000000000000000000000000000000000000000000000000000000000000000000000000000000000000000000000000000000000000000000000000000000000000000000000000000000000000000000000000000000000000000000000000000000007000000000000000000000000000000
310
00000000000000000000000007000000000000000700000000000000000000000000000000000000000000000000000700000000000000000000000000000000000000000000000000000000000000000000000000000000000000000000000000000000000000000000000000000000000000000000000000000000000000
310
00000000000000000000000000000000000000000000000000000000000000000000000000070000000000000000000000000000000000000000000000000000000700000000000000070000000000000000000000000000000000000000000000000000070000000000000000000000000000000000000000000000000000
310
00000000000000000000000000000000000000000000000000000000000000000000000000000000000000000000000000000000000000000000000000000000000000000000000000000000000000000000000000000000000007000000000000000000000000000000000000000000000000000000070000000000000007
310
00000000000000000000000000000000000000000000000000000700000000000000000000000000000000000000000000000000000000000000000000000000000000000000000000000000000000000000000000000000000000000000000000000000000000000000000000000000000000000000000000000000000000
310
00000000000000000000000000000000070000000000000000000000000000000000000000000000000000000700000000000000070000000000000000000000000000000000000000000000000000070000000000000000000000000000000000000000000000000000000000000000000000000000000000000000000000
310
00000000000000000000000000000000000000000000000000000000000000000000000000000000000000000000000000000000000000000000000000000000000000000007000000000000000000000000000000000000000000000000000000070000000000000007000000000000000000000000000000000000000000
310
00000000000700000000000000000000000000000000000000000000000000000000000000000000000000000000000000000000000000000000000000000000000000000000000000000000000000000000000000000000000000000000000000000000000000000000000000000000000000000000000000000700000000
310
00000000000000000000000000000000000000000000000700000000000000070000000000000000000000000000000000000000000000000000070000000000000000000000000000000000000000000000000000000000000000000000000000000000000000000000000000000000000000000000000000000000000000
310
00000000000000000000000000000000000000000000000000000000000000000000000000000000000000000000000007000000000000000000000000000000000000000000000000000000070000000000000007000000000000000000000000000000000000000000000000000007000000000000000000000000000000
310
00000000000000000000000000000000000000000000000000000000000000000000000000000000000000000000000000000000000000000000000000000000000000000000000000000000000000000000000000000000000000000000000000000000000700000000000000000000000000000000000000000000000000
310
00000700000000000000070000000000000000000000000000000000000000000000000000070000000000000000000000000000000000000000000000000000000000000000000000000000000000000000000000000000000000000000000000000000000000000000000000000000000000000000000000000000000000
310
00000000000000000000000000000000000000000000000000000007000000000000000000000000000000000000000000000000000000070000000000000007000000000000000000000000000000000000000000000000000007000000000000000000000000000000000000000000000000000000000000000000000000
310
00000000000000000000000000000000000000000000000000000000000000000000000000000000000000000000000000000000000000000000000000000000000000000000000000000000000000000700000000000000000000000000000000000000000000000000000007000000000000000700000000000000000000
310
00000000000000000000000000000000070000000000000000000000000000000000000000000000000000000000000000000000000000000000000000000000000000000000000000000000000000000000000000000000000000000000000000000000000000000000000000000000000000000000000000000000000000
310
00000000000007070000000000000000000000000000000000000000000000000000070000000000000007000000000000000000000000000000000000000000000000000007000000000000000000000000000000000000000000000000000000000000000000000000000000000000000000000000000000000000000000
310
00000000000000000000000000000000000000000000000000000000000000000000000000000000000000000000000000000000000000000000000007070707070707070707070707070707070707070707070707070707000000000000000707070707070707070707070707070707070707070707070707070700000000
310
00000000000000000000000000000000000000000000000000000000000000000000000000000000000000000000000000000000000000000000000000000000000000000000000000000000000000000000000000000000000000000000000000000000000000000000000000000000000000000000000000000000000000
310
00000000000000000000000000070000000000000007000000000000000000000000000000000000000000000000000000000000000000000000000000000000000000000000000000000000000000000000000000000000000000000000000000000000000000000000000000000000000000000000000000000000000000
310
00000000000000000000000000000000000000000000000000000000000000000000000000000000000000000000000000000000000000000000000000000000000007000000000000000700000000000000000000000000000000000000000000000000000000000000000000000000000000000000000000000000000000
310
00000000000000000000000000000000000000000000000000000000000000000000000000000000000000000000000000000000000000000000000000000000000000000000000000000000000000000000000000000000000000000000000000000000000000000000000000000000000000000000000700000000000000
310
07000000000000000000000000000000000000000000000000000000000000000000000000000000000000000000000000000000000000000000000000000000000000000000000000000000000000000000000000000000000000000000000000000000000000000000000000000000000000000000000000000000000000
310
00000000000000000000000000000000000000000000000000000000000000000000000000000000000000000007000000000000000700000000000000000000000000000000000000000000000000000000000000000000000000000000000000000000000000000000000000000000000000000000000000000000000000
310
00000000000000000000000000000000000000000000000000000000000000000000000000000000000000000000000000000000000000000000000000000000000000000000000000000000000000000000000000000000000000000000000000000700000000000000070000000000000000000000000000000000000000
310
00000000000000000000000000000000000000000000000000000000000000000000000000000000000000000000000000000000000000000000000000000000000000000000000000000000000000000000000000000000000000000000000000000000000000000000000000000000000000000000000000000000000000
310
00000000000000000000000000000000000000000000000007000000000000000700000000000000000000000000000000000000000000000000000000000000000000000000000000000000000000000000000000000000000000000000000000000000000000000000000000000000000000000000000000000000000000
310
00000000000000000000000000000000000000000000000000000000000000000000000000000000000000000000000000000000000000000000000000000000000000000000000000000000000700000000000000070000000000000000000000000000000000000000000000000000000000000000000000000000000000
310
00000000000000000000000000000000000000000000000000000000000000000000000000000000000000000000000000000000000000000000000000000000000000000000000000000000000000000000000000000000000000000000000000000000000000000000000000000000000000000000000000000000000000
310
00000007000000000000000700000000000000000000000000000000000000000000000000000000000000000000000000000000000000000000000000000000000000000000000000000000000000000000000000000000000000000000000000000000000000000000000000000000000000000000000000000000000000
310
00000000000000000000000000000000000000000000000000000000000000000000000000000000000000000000000000000000000000000700000000000000070000000000000000000000000000000000000000000000000000000000000000000000000000000000000000000000000000000000000000000000000000
310
00000000000000000000000000000000000000000000000000000000000000000000000000000000000000000000000000000000000000000000000000000000000000000000000000000000000000000000000000000000000000000000000000000000000000000000000000070000000000000007000000000000000000
310
00000000000000000000000000000000000000000000000000000000000000000000000000000000000000000000000000000000000000000000000000000000000000000000000000000000000000000000000000000000000000000000000000000000000000000000000000000000000000000000000000000000000000
310
00000000000000000000000000000000000000000000000000000000000000000000000700000000000000070000000000000000000000000000000000000000000000000000000000000000000000000000000000000000000000000000000000000000000000000000000000000000000000000000000000000000000000
310
00000000000000000000000000000000000000000000000000000000000000000000000000000000000000000000000000000000000000000000000000000000000000000000000000000000000000000000000000000000070000000000000007000000000000000000000000000000000000000000000000000000000000
310
00000000000000000000000000000000000000000000000000000000000000000000000000000000000000000000000000000000000000000000000000000000000000000000000000000000000000000000000000000000000000000000000000000000000000000000000000000000000000000000000000000000000000
310
00000000000000000000000000000700000000000000070000000000000000000000000000000000000000000000000000000000000000000000000000000000000000000000000000000000000000000000000000000000000000000000000000000000000000000000000000000000000000000000000000000000000000
310
00000000000000000000000000000000000000000000000000000000000000000000000000000000000000000000000000000000000000000000000000000000000000070000000000000007000000000000000000000000000000000000000000000000000000000000000000000000000000000000000000000000000000
310
00000000000000000000000000000000000000000000000000000000000000000000000000000000000000000000000000000000000000000000000000000000000000000000000000000000000000000000000000000000000000000000000000000000000000000000000000000000000000000000000007000000000000
310
00070000000000000000000000000000000000000000000000000000000000000000000000000000000000000000000000000000000000000000000000000000000000000000000000000000000000000000000000000000000000000000000000000000000000000000000000000000000000000000000000000000000000
310
00000000000000000000000000000000000000000000000000000000000000000000000000000000000000000000070000000000000007000000000000000000000000000000000000000000000000000000000000000000000000000000000000000000000000000000000000000000000000000000000000000000000000
310
00000000000000000000000000000000000000000000000000000000000000000000000000000000000000000000000000000000000000000000000000000000000000000000000000000000000000000000000000000000000000000000000000000007000000000000000700000000000000000000000000000000000000
310
00000000000000000000000000000000000000000000000000000000000000000000000000000000000000000000000000000000000000000000000000000000000000000000000000000000000000000000000000000000000000000000000000000000000000000000000000000000000000000000000000000000000000
310
00000000000000000000000000000000000000000000000000070000000000000007000000000000000000000000000000000000000000000000000000000000000000000000000000000000000000000007070707070007070707070000000000000000000000000000000000000000000000000000000000000000000000
310
00000000000000000000000000000000000000000000000000000000000000000000000000000000000000000000000000000000000000000000000000000000000000000000000000000000000007000000000000000700000000000000000000000000000000000000000000000000000000000000000000000000000000
310
00000000070707000000000000000000000007070700000000000000000000000000000000000000000000000000000000000000000000000000000000000000000000000000000000000000000000000000000000000000000000000000000000000000000000000000000000000000000000000000000000000000000000
310
00000000070000000000000007000000000000000000000000000000000000000000000000000000000000000000000000000000000000000707000000000000000000000000000000070700000000000000000000000000000000000000000000000000000000000000000000000000000000000000000000000000000000
310
00000000000000000000000000000000000000000000000000000000000000000000000000000000000000000000000000000000000000000007000000000000000700000000000000000000000000000000000000000000000000000000000000000000000000000000000007070000000000000000000000000000000000
310
07000000000000000000000000000000000000000000000000000000000000000000000000000000000000000000000000000000000000000000000000000000000000000000000000000000000000000000000000000000000000000000000000000000000000000000000000000700000000000000070000000000000000
310
00000000000000000000000000000000000000000000000000000000000000000000070000000000000000000000000000000000000007000000000000000000000000000000000000000000000000000000000000000000000000000000000000000000000000000000000000000000000000000000000000000000000000
310
00000000000000000000000000000000000000000000000000000000000000000000000007000000000000000700000000000000000000000000000000000000000000000000000000000000000000000000000000000007000000000000000000000000000000000000000700000000000000000000000000000000000000
310
00000000000000000000000000000000000000000000000000000000000000000000000000000000000000000000000000000000000000000000000000000000000000000000000000000000000000000000000000000000000700000000000000070000000000000000000000000000000000000000000000000000000000
310
00000000000000000000000007000000000000000000000000000000000000000007000000000000000000000000000000000000000000000000000000000000000000000000000000000000000000000000000000000000000000000000000000000000000000000000000000000000000000000000000000000000000000
310
00000000000000000000000000000007000000000000000700000000000000000000000000000000000000000000000000000000000000000000000000000000000700000000000000000000000000000000000000000700000000000000000000000000000000000000000000000000000000000000000000000000000000
310
00000000000000000000000000000000000000000000000000000000000000000000000000000000000000000000000000000000000000000000000000000000000000000700000000000000070000000000000000000000000000000000000000000000000000000000000000000000000000000000070000000000000000
310
00000000000000000000000000070000000000000000000000000000000000000000000000000000000000000000000000000000000000000000000000000000000000000000000000000000000000000000000000000000000000000000000000000000000000000000000000000000000000000000000000070000000000
310
00000700000000000000000000000000000000000000000000000000000000000000000000000000000000000700000000000000000000000000000000000000000007000000000000000000000000000000000000000000000000000000000000000000000000000000000000000000000000000000000000000000000000
310
00000000000000000000000000000000000000000000000000070707070707070707070707070707070707070707070700000000000000070707070707070707070707070707070707070707070700000000000000000000000000000000000000070000000000000000000000000000000000000000000700000000000000
310
00000000000000000000000000000000000000000000000000000000000000000000000000000000000000000000000000000000000000000000000000000000000000000000000000000000000007000000000000000000000000000000000000000000070000000000000007000000000000000000000000000000000000
310
00000007000000000000000000000000000000000000000700000000000000000000000000000000000000000700000000000000000000000000000000000000000000000000000000000000000000000000000000000000000000000000000000000000000000000000000000000000000000000000000000000000000000
310
00000000070000000000000000000000000000000000000000000700000000000000070000000000000000000000000000000000000000000700000000000000000000000000000000000000070000000000000000000000000000000000000000070000000000000000000000000000000000000000000000000000000000
310
00000000000000000000000000000000000000000000000000000000000000000000000000000000000000000000000000000000000000000007000000000000000000000000000000000000000000070000000000000007000000000000000000000000000000000000000000070000000000000000000000000000000000
310
00000007000000000000000000000000000000000000000700000000000000000000000000000000000000000000000000000000000000000000000000000000000000000000000000000000000000000000000000000000000000000000000000000000000000000000000000070700000000000000000000000000000000
310
00000000000700000000000000070000000000000000000000000000000000000000000700000000000000000000000000000000000000000700000000000000000000000000000000000007070000000000000000000000000000000000000000000000000000000000000000000000000000000000000000000000000000
310
00000000000000000000000000000000000000000000000000000000000000000000000707000000000000000000000000000000000000000000070000000000000007000000000000000000000000000000000000000000070000000000000000000000000000000000000000000700000000000000000000000000000000
310
07070000000000000000000000000000000000000000000000000000000000000000000000000000000000000000000000000000000000000000000000000000000000000000000000000000000000000000000000000000070700000000000000000000000000000000000000000007000000000000000700000000000000
310
00000000000000000000000000000700000000000000000000000000000000000000000000070700000000000000000000000000070700000000000000000000000000000000000000000000000000000000000000000000000000000000000000000000000000000000000000000000000000000000000000000000000000
310
00000000000000000000070707070707000000000000000000000000000000000000000000070000000000000007000000000000000000000000000000000000000000070707070707000000000000000000000000000000000000000707070000000000000007070700000000000000000000000000000000000000000000
310
00000000000000000000000000000000000000000000000000000000000000000000000000000000000000000000000000000000000000000000000000000007000000070700000000000000000000000000000000000000000007000000000000000700000000000000000000000000000000000000000007000000000700
310
00000000000000000000000000000000000000000707070700070707070000000000000000000000000000000000000000000000000000000000000000000000000000000000000000000000000000000000000000000000000000000000000000000000000000000000000000000000000000000707070707070000000000
310
00000000000000000000000000000000070000000000000007000000000000000000000000000000000000000000070707070707000000000000000000000000000000000000000000000700000000000700000000000000000000000000000000000000000000000000000000000000000000000000000000000000000000
310
00000000000000000000000000000000000000000000000000000000000000000000000000000000000000000000070700000000000000000000000000000000000000000007000000000000000700000000000000000000000000000000000000000007000000000000000000000000000000000000000000000000000000
310
07000000000007000000000000000000000000000000000000000000000000000000000000000000000000000000000000000000000000000000000000000000000000000000000000000000000000000000000000000000000000000000000000000007070000000000000000000000000000000000000000000700000000
310
00000007000000000000000000000000000000000000000000070000000000000000000000000000000000000000000000000000000700000000000700000000000000000000000000000000000000000000000000000000000000000000000000000000000000000000000000000000000000000000000000000000000000
310
00000000000000000000000000000000000000000000000000070700000000000000000000000000000000000000000007000000000000000700000000000000000000000000000000000000000007000000000000000000000000000000000000000000000000000000070000000000070000000000000000000000000000
310
00000000000000000000000000000000000000000000000000000000000000000000000000000000000000000000000000000000000000000000000000000000000000000000000000000000000000070000000000000000000000000000000000000000000700000000000000070000000000000000000000000000000000
310
00000000070000000000000000000000000000000000000000000000000000000700000000000700000000000000000000000000000000000000000000000000000000000000000000000000000000000000000000000000000000000000000000000000000000000000000000000000000000000000000000000000000000
310
00000000000700000000000000000000000000000000000000000007000000000000000700000000000000000000000000000000000000000007000000000000000000000000000000000000000000000000000000070000000000070000000000000000000000000000000000000000000000000000000000000000000000
310
00000000000000000000000000000000000000000000000000000000000000000000000000000000000000000000000000000000000000000000070000000000000000000000000000000000000000000700000000000000070000000000000000000000000000000000000000000700000000000000000000000000000000
310
00000000000000000000000700000000070700000000000000000000000000000000000000000000000000000000000000000000000000000000000000000000000000000000000000000000000000000000000000000000000000000000000000000000000000000000000000000007000000000000000000000000000000
310
00000000000007000000000000000700000000000000000000000000000000000000000007000000000000000000000000000000000000000000000000000000070000000007070000000000000000000000000000000000000000000000000000000000000000000000000000000000000000000000000000000000000000
310
00000000000000000000000000000000000000000000000000000000000000000000000000070000000000000000000000000000000000000000000700000000000000070000000000000000000000000000000000000000000700000000000000000000000000000000000000000000000000000007070000000707000000
310
00000000000000000000000000000000000000000000000000000000000000000000000000000000000000000000000000000000000000000000000000000000000000000000000000000000000000000000000000000000000007000000000000000000000000000000000000000000070000000000000007000000000000
310
00000000000000000000000000000007000000000000000000000000000000000000000000000000000000070707000707070000000000000000000000000000000000000000000000000000000000000000000000000000000000000000000000000000000000000000000000000000000000000000000000000000000000
310
00000000000000000000000000000000070000000000000000000000000000000000000000000700000000000000070000000000000000000000000000000000000000000700000000000000000000000000000000000000000000000000000007000707000007000000000000000000000000000000000000000000000000
310
00000000000000000000000000000000000000000000000000000000000000000000000000000000000000000000000000000000000000000000000000000000000000000007000000000000000000000000000000000000000000070000000000000007000000000000000000000000000000000000000000070000000000
310
00000000000000000000000000000000000000000000070000000000070000000000000000000000000000000000000000000000000000000000000000000000000000000000000000000000000000000000000000000000000000000000000000000000000000000000000000000000000000000000000000000700000000
310
00000000000000000000000000000000000700000000000000070000000000000000000000000000000000000000000700000000000000000000000000000000000000000000000000000007000000000007000000000000000000000000000000000000000000000000000000000000000000000000000000000000000000
310
00000000000000000000000000000000000000000000000000000000000000000000000000000000000000000000000007070707070707070707070707070707070707070707070707070707070707070707070707070707070707070707070707070707070000000000000000000000000000000000000000000000000000
310
00070707070707070000000000000000000000000000000000000000000000000000000000000000000000000000000000000000000000000000000000000000000000000000000000000000000000000000000000000000000000000000000000000000000000000000000000000000000000000000000000000000000000
310
000000000000000000000000000000000000000000000000000000000000000000000000000000000000000000000000000000000000000000000000000000000000000000000000000000000000000000000000000000000000000000000000000000000000000000000000
  0
ENDSEC
  0
EOF
