  0
SECTION
  2
HEADER
  9
$ACADVER
  1
AC1015
  9
$ACADMAINTVER
 70
     6
  9
$DWGCODEPAGE
  3
ANSI_1252
  9
$INSBASE
 10
0.0
 20
0.0
 30
0.0
  9
$EXTMIN
 10
0.0
 20
0.0
 30
0.0
  9
$EXTMAX
 10
472.0
 20
156.0
 30
0.0
  9
$LIMMIN
 10
0.0
 20
0.0
  9
$LIMMAX
 10
12.0
 20
9.0
  9
$ORTHOMODE
 70
     0
  9
$REGENMODE
 70
     1
  9
$FILLMODE
 70
     1
  9
$QTEXTMODE
 70
     0
  9
$MIRRTEXT
 70
     1
  9
$LTSCALE
 40
1.0
  9
$ATTMODE
 70
     1
  9
$TEXTSIZE
 40
0.2
  9
$TRACEWID
 40
0.05
  9
$TEXTSTYLE
  7
Standard
  9
$CLAYER
  8
0
  9
$CELTYPE
  6
ByBlock
  9
$CECOLOR
 62
   256
  9
$CELTSCALE
 40
1.0
  9
$DISPSILH
 70
     0
  9
$DIMSCALE
 40
1.0
  9
$DIMASZ
 40
0.18
  9
$DIMEXO
 40
0.0625
  9
$DIMDLI
 40
0.38
  9
$DIMRND
 40
0.0
  9
$DIMDLE
 40
0.0
  9
$DIMEXE
 40
0.18
  9
$DIMTP
 40
0.0
  9
$DIMTM
 40
0.0
  9
$DIMTXT
 40
0.18
  9
$DIMCEN
 40
0.09
  9
$DIMTSZ
 40
0.0
  9
$DIMTOL
 70
     0
  9
$DIMLIM
 70
     0
  9
$DIMTIH
 70
     1
  9
$DIMTOH
 70
     1
  9
$DIMSE1
 70
     0
  9
$DIMSE2
 70
     0
  9
$DIMTAD
 70
     0
  9
$DIMZIN
 70
     0
  9
$DIMBLK
  1

  9
$DIMASO
 70
     1
  9
$DIMSHO
 70
     1
  9
$DIMPOST
  1

  9
$DIMAPOST
  1

  9
$DIMALT
 70
     0
  9
$DIMALTD
 70
     2
  9
$DIMALTF
 40
25.4
  9
$DIMLFAC
 40
1.0
  9
$DIMTOFL
 70
     0
  9
$DIMTVP
 40
0.0
  9
$DIMTIX
 70
     0
  9
$DIMSOXD
 70
     0
  9
$DIMSAH
 70
     0
  9
$DIMBLK1
  1

  9
$DIMBLK2
  1

  9
$DIMSTYLE
  2
Standard
  9
$DIMCLRD
 70
     0
  9
$DIMCLRE
 70
     0
  9
$DIMCLRT
 70
     0
  9
$DIMTFAC
 40
1.0
  9
$DIMGAP
 40
0.09
  9
$DIMJUST
 70
     0
  9
$DIMSD1
 70
     0
  9
$DIMSD2
 70
     0
  9
$DIMTOLJ
 70
     1
  9
$DIMTZIN
 70
     0
  9
$DIMALTZ
 70
     0
  9
$DIMALTTZ
 70
     0
  9
$DIMUPT
 70
     0
  9
$DIMDEC
 70
     4
  9
$DIMTDEC
 70
     4
  9
$DIMALTU
 70
     2
  9
$DIMALTTD
 70
     2
  9
$DIMTXSTY
  7
Standard
  9
$DIMAUNIT
 70
     0
  9
$DIMADEC
 70
     0
  9
$DIMALTRND
 40
0.0
  9
$DIMAZIN
 70
     0
  9
$DIMDSEP
 70
    46
  9
$DIMATFIT
 70
     3
  9
$DIMFRAC
 70
     0
  9
$DIMLDRBLK
  1

  9
$DIMLUNIT
 70
     2
  9
$DIMLWD
 70
    -2
  9
$DIMLWE
 70
    -2
  9
$DIMTMOVE
 70
     2
  9
$LUNITS
 70
     2
  9
$LUPREC
 70
     4
  9
$SKETCHINC
 40
0.1
  9
$FILLETRAD
 40
0.5
  9
$AUNITS
 70
     0
  9
$AUPREC
 70
     0
  9
$MENU
  1
.
  9
$ELEVATION
 40
0.0
  9
$PELEVATION
 40
0.0
  9
$THICKNESS
 40
0.0
  9
$LIMCHECK
 70
     0
  9
$CHAMFERA
 40
0.5
  9
$CHAMFERB
 40
0.5
  9
$CHAMFERC
 40
1.0
  9
$CHAMFERD
 40
0.0
  9
$SKPOLY
 70
     0
  9
$TDCREATE
 40
2456466.669238275
  9
$TDUCREATE
 40
2456466.585904942
  9
$TDUPDATE
 40
2456466.680261678
  9
$TDUUPDATE
 40
2456466.596928345
  9
$TDINDWG
 40
0.0110230556
  9
$TDUSRTIMER
 40
0.0110230556
  9
$USRTIMER
 70
     1
  9
$ANGBASE
 50
0.0
  9
$ANGDIR
 70
     0
  9
$PDMODE
 70
     0
  9
$PDSIZE
 40
0.0
  9
$PLINEWID
 40
0.0
  9
$SPLFRAME
 70
     0
  9
$SPLINETYPE
 70
     6
  9
$SPLINESEGS
 70
     8
  9
$HANDSEED
  5
852
  9
$SURFTAB1
 70
     6
  9
$SURFTAB2
 70
     6
  9
$SURFTYPE
 70
     6
  9
$SURFU
 70
     6
  9
$SURFV
 70
     6
  9
$UCSBASE
  2

  9
$UCSNAME
  2

  9
$UCSORG
 10
0.0
 20
0.0
 30
0.0
  9
$UCSXDIR
 10
1.0
 20
0.0
 30
0.0
  9
$UCSYDIR
 10
0.0
 20
1.0
 30
0.0
  9
$UCSORTHOREF
  2

  9
$UCSORTHOVIEW
 70
     0
  9
$UCSORGTOP
 10
0.0
 20
0.0
 30
0.0
  9
$UCSORGBOTTOM
 10
0.0
 20
0.0
 30
0.0
  9
$UCSORGLEFT
 10
0.0
 20
0.0
 30
0.0
  9
$UCSORGRIGHT
 10
0.0
 20
0.0
 30
0.0
  9
$UCSORGFRONT
 10
0.0
 20
0.0
 30
0.0
  9
$UCSORGBACK
 10
0.0
 20
0.0
 30
0.0
  9
$PUCSBASE
  2

  9
$PUCSNAME
  2

  9
$PUCSORG
 10
0.0
 20
0.0
 30
0.0
  9
$PUCSXDIR
 10
1.0
 20
0.0
 30
0.0
  9
$PUCSYDIR
 10
0.0
 20
1.0
 30
0.0
  9
$PUCSORTHOREF
  2

  9
$PUCSORTHOVIEW
 70
     0
  9
$PUCSORGTOP
 10
0.0
 20
0.0
 30
0.0
  9
$PUCSORGBOTTOM
 10
0.0
 20
0.0
 30
0.0
  9
$PUCSORGLEFT
 10
0.0
 20
0.0
 30
0.0
  9
$PUCSORGRIGHT
 10
0.0
 20
0.0
 30
0.0
  9
$PUCSORGFRONT
 10
0.0
 20
0.0
 30
0.0
  9
$PUCSORGBACK
 10
0.0
 20
0.0
 30
0.0
  9
$USERI1
 70
     0
  9
$USERI2
 70
     0
  9
$USERI3
 70
     0
  9
$USERI4
 70
     0
  9
$USERI5
 70
     0
  9
$USERR1
 40
0.0
  9
$USERR2
 40
0.0
  9
$USERR3
 40
0.0
  9
$USERR4
 40
0.0
  9
$USERR5
 40
0.0
  9
$WORLDVIEW
 70
     1
  9
$SHADEDGE
 70
     3
  9
$SHADEDIF
 70
    70
  9
$TILEMODE
 70
     1
  9
$MAXACTVP
 70
    64
  9
$PINSBASE
 10
0.0
 20
0.0
 30
0.0
  9
$PLIMCHECK
 70
     0
  9
$PEXTMIN
 10
1.000000000000E+20
 20
1.000000000000E+20
 30
1.000000000000E+20
  9
$PEXTMAX
 10
-1.000000000000E+20
 20
-1.000000000000E+20
 30
-1.000000000000E+20
  9
$PLIMMIN
 10
0.0
 20
0.0
  9
$PLIMMAX
 10
12.0
 20
9.0
  9
$UNITMODE
 70
     0
  9
$VISRETAIN
 70
     1
  9
$PLINEGEN
 70
     0
  9
$PSLTSCALE
 70
     1
  9
$TREEDEPTH
 70
  3020
  9
$CMLSTYLE
  2
Standard
  9
$CMLJUST
 70
     0
  9
$CMLSCALE
 40
1.0
  9
$PROXYGRAPHICS
 70
     1
  9
$MEASUREMENT
 70
     0
  9
$CELWEIGHT
370
    -1
  9
$ENDCAPS
280
     0
  9
$JOINSTYLE
280
     0
  9
$LWDISPLAY
290
     0
  9
$INSUNITS
 70
     0
  9
$HYPERLINKBASE
  1

  9
$STYLESHEET
  1

  9
$XEDIT
290
     1
  9
$CEPSNTYPE
380
     0
  9
$PSTYLEMODE
290
     1
  9
$FINGERPRINTGUID
  2
{D80435B2-E3C4-4369-8866-83F35F4EC63C}
  9
$VERSIONGUID
  2
{FAEB1C32-E019-11D5-929B-00C0DF256EC4}
  9
$EXTNAMES
290
     1
  9
$PSVPSCALE
 40
0.0
  9
$OLESTARTUP
290
     0
  0
ENDSEC
  0
SECTION
  2
CLASSES
  0
CLASS
  1
ACDBDICTIONARYWDFLT
  2
AcDbDictionaryWithDefault
  3
ObjectDBX Classes
 90
        0
280
     0
281
     0
  0
CLASS
  1
SCALE
  2
AcDbScale
  3
ObjectDBX Classes
 90
     1153
280
     0
281
     0
  0
CLASS
  1
DICTIONARYVAR
  2
AcDbDictionaryVar
  3
ObjectDBX Classes
 90
        0
280
     0
281
     0
  0
CLASS
  1
ACDBPLACEHOLDER
  2
AcDbPlaceHolder
  3
ObjectDBX Classes
 90
        0
280
     0
281
     0
  0
CLASS
  1
LAYOUT
  2
AcDbLayout
  3
ObjectDBX Classes
 90
        0
280
     0
281
     0
  0
ENDSEC
  0
SECTION
  2
TABLES
  0
TABLE
  2
VPORT
  5
8
330
0
100
AcDbSymbolTable
 70
     1
  0
VPORT
  5
81A
330
8
100
AcDbSymbolTableRecord
100
AcDbViewportTableRecord
  2
*Active
 70
     0
 10
0.0
 20
0.0
 11
1.0
 21
1.0
 12
236.0
 22
78.0
 13
0.0
 23
0.0
 14
0.5
 24
0.5
 15
0.5
 25
0.5
 16
0.0
 26
0.0
 36
1.0
 17
0.0
 27
0.0
 37
0.0
 40
258.359733530718
 41
1.863448275862
 42
50.0
 43
0.0
 44
0.0
 50
0.0
 51
0.0
 71
    16
 72
   100
 73
     1
 74
     3
 75
     0
 76
     0
 77
     0
 78
     0
281
     0
 65
     1
110
0.0
120
0.0
130
0.0
111
1.0
121
0.0
131
0.0
112
0.0
122
1.0
132
0.0
 79
     0
146
0.0
  0
ENDTAB
  0
TABLE
  2
LTYPE
  5
5
330
0
100
AcDbSymbolTable
 70
     1
  0
LTYPE
  5
14
330
5
100
AcDbSymbolTableRecord
100
AcDbLinetypeTableRecord
  2
ByBlock
 70
     0
  3

 72
    65
 73
     0
 40
0.0
  0
LTYPE
  5
15
330
5
100
AcDbSymbolTableRecord
100
AcDbLinetypeTableRecord
  2
ByLayer
 70
     0
  3

 72
    65
 73
     0
 40
0.0
  0
LTYPE
  5
16
330
5
100
AcDbSymbolTableRecord
100
AcDbLinetypeTableRecord
  2
Continuous
 70
     0
  3
Solid line
 72
    65
 73
     0
 40
0.0
  0
ENDTAB
  0
TABLE
  2
LAYER
  5
2
330
0
100
AcDbSymbolTable
 70
     1
  0
LAYER
  5
10
330
2
100
AcDbSymbolTableRecord
100
AcDbLayerTableRecord
  2
0
 70
     0
 62
     7
  6
Continuous
370
    -3
390
F
  0
ENDTAB
  0
TABLE
  2
STYLE
  5
3
330
0
100
AcDbSymbolTable
 70
     1
  0
STYLE
  5
11
330
3
100
AcDbSymbolTableRecord
100
AcDbTextStyleTableRecord
  2
Standard
 70
     0
 40
0.0
 41
1.0
 50
0.0
 71
     0
 42
0.2
  3
txt
  4

  0
ENDTAB
  0
TABLE
  2
VIEW
  5
6
330
0
100
AcDbSymbolTable
 70
     0
  0
ENDTAB
  0
TABLE
  2
UCS
  5
7
330
0
100
AcDbSymbolTable
 70
     0
  0
ENDTAB
  0
TABLE
  2
APPID
  5
9
330
0
100
AcDbSymbolTable
 70
     1
  0
APPID
  5
12
330
9
100
AcDbSymbolTableRecord
100
AcDbRegAppTableRecord
  2
ACAD
 70
     0
  0
ENDTAB
  0
TABLE
  2
DIMSTYLE
  5
A
330
0
100
AcDbSymbolTable
 70
     1
100
AcDbDimStyleTable
  0
DIMSTYLE
105
20
330
A
100
AcDbSymbolTableRecord
100
AcDbDimStyleTableRecord
  2
Standard
 70
     0
340
11
  0
ENDTAB
  0
TABLE
  2
BLOCK_RECORD
  5
1
330
0
100
AcDbSymbolTable
 70
     0
  0
BLOCK_RECORD
  5
1D
330
1
100
AcDbSymbolTableRecord
100
AcDbBlockTableRecord
  2
*Model_Space
340
1E
  0
BLOCK_RECORD
  5
1B
330
1
100
AcDbSymbolTableRecord
100
AcDbBlockTableRecord
  2
*Paper_Space
340
1C
  0
ENDTAB
  0
ENDSEC
  0
SECTION
  2
BLOCKS
  0
BLOCK
  5
81D
330
1D
100
AcDbEntity
  8
0
100
AcDbBlockBegin
  2
*Model_Space
 70
     0
 10
0.0
 20
0.0
 30
0.0
  3
*Model_Space
  1
*Model_Space
  0
ENDBLK
  5
81E
330
1D
100
AcDbEntity
  8
0
100
AcDbBlockEnd
  0
BLOCK
  5
81B
330
1B
100
AcDbEntity
 67
     1
  8
0
100
AcDbBlockBegin
  2
*Paper_Space
 70
     0
 10
0.0
 20
0.0
 30
0.0
  3
*Paper_Space
  1
*Paper_Space
  0
ENDBLK
  5
81C
330
1B
100
AcDbEntity
 67
     1
  8
0
100
AcDbBlockEnd
  0
ENDSEC
  0
SECTION
  2
ENTITIES
  0
LINE
  5
21
330
1D
100
AcDbEntity
  8
0
100
AcDbLine
 10
9.56055
 20
51.04
 30
0.0
 11
16.3101
 21
49.09
 31
0.0
  0
LINE
  5
26
330
1D
100
AcDbEntity
  8
0
100
AcDbLine
 10
5.69431
 20
52.45
 30
0.0
 11
9.56055
 21
51.04
 31
0.0
  0
LINE
  5
27
330
1D
100
AcDbEntity
  8
0
100
AcDbLine
 10
5.06134
 20
52.93
 30
0.0
 11
5.69431
 21
52.45
 31
0.0
  0
LINE
  5
28
330
1D
100
AcDbEntity
  8
0
100
AcDbLine
 10
7.95029
 20
52.98
 30
0.0
 11
9.70192
 21
53.12
 31
0.0
  0
LINE
  5
29
330
1D
100
AcDbEntity
  8
0
100
AcDbLine
 10
7.12663
 20
52.95
 30
0.0
 11
7.95029
 21
52.98
 31
0.0
  0
LINE
  5
2D
330
1D
100
AcDbEntity
  8
0
100
AcDbLine
 10
12.4555
 20
53.07
 30
0.0
 11
14.9126
 21
52.97
 31
0.0
  0
LINE
  5
2E
330
1D
100
AcDbEntity
  8
0
100
AcDbLine
 10
0.0
 20
57.27
 30
0.0
 11
0.983215
 21
55.12
 31
0.0
  0
LINE
  5
2F
330
1D
100
AcDbEntity
  8
0
100
AcDbLine
 10
0.0
 20
57.27
 30
0.0
 11
0.899461
 21
77.84
 31
0.0
  0
LINE
  5
30
330
1D
100
AcDbEntity
  8
0
100
AcDbLine
 10
0.0
 20
57.27
 30
0.0
 11
0.983215
 21
55.12
 31
0.0
  0
LINE
  5
31
330
1D
100
AcDbEntity
  8
0
100
AcDbLine
 10
0.0
 20
57.27
 30
0.0
 11
0.899461
 21
77.84
 31
0.0
  0
LINE
  5
32
330
1D
100
AcDbEntity
  8
0
100
AcDbLine
 10
0.983215
 20
55.12
 30
0.0
 11
1.33514
 21
54.69
 31
0.0
  0
LINE
  5
33
330
1D
100
AcDbEntity
  8
0
100
AcDbLine
 10
1.33514
 20
54.69
 30
0.0
 11
2.96681
 21
53.66
 31
0.0
  0
LINE
  5
34
330
1D
100
AcDbEntity
  8
0
100
AcDbLine
 10
2.96681
 20
53.66
 30
0.0
 11
4.09682
 21
53.13
 31
0.0
  0
LINE
  5
35
330
1D
100
AcDbEntity
  8
0
100
AcDbLine
 10
4.09682
 20
53.13
 30
0.0
 11
4.24465
 21
53.12
 31
0.0
  0
LINE
  5
36
330
1D
100
AcDbEntity
  8
0
100
AcDbLine
 10
4.09682
 20
53.13
 30
0.0
 11
4.24328952059
 21
53.120092029995
 31
0.0
  0
LINE
  5
37
330
1D
100
AcDbEntity
  8
0
100
AcDbLine
 10
4.24346
 20
53.12
 30
0.0
 11
4.84279
 21
53.1
 31
0.0
  0
LINE
  5
38
330
1D
100
AcDbEntity
  8
0
100
AcDbLine
 10
5.015129209688
 20
53.098157883494
 30
0.0
 11
5.06134
 21
52.93
 31
0.0
  0
LINE
  5
3B
330
1D
100
AcDbEntity
  8
0
100
AcDbLine
 10
5.011657602398
 20
53.098194991156
 30
0.0
 11
5.06134
 21
52.93
 31
0.0
  0
LINE
  5
3C
330
1D
100
AcDbEntity
  8
0
100
AcDbLine
 10
9.70192
 20
53.12
 30
0.0
 11
12.4555
 21
53.07
 31
0.0
  0
LINE
  5
3D
330
1D
100
AcDbEntity
  8
0
100
AcDbLine
 10
4.84279
 20
53.1
 30
0.0
 11
5.77834
 21
53.09
 31
0.0
  0
LINE
  5
3E
330
1D
100
AcDbEntity
  8
0
100
AcDbLine
 10
5.77834
 20
53.09
 30
0.0
 11
7.12663
 21
52.95
 31
0.0
  0
LINE
  5
3F
330
1D
100
AcDbEntity
  8
0
100
AcDbLine
 10
16.3046
 20
49.1
 30
0.0
 11
17.4113
 21
48.82
 31
0.0
  0
LINE
  5
43
330
1D
100
AcDbEntity
  8
0
100
AcDbLine
 10
17.1703
 20
47.97
 30
0.0
 11
18.8314
 21
47.83
 31
0.0
  0
LINE
  5
45
330
1D
100
AcDbEntity
  8
0
100
AcDbLine
 10
16.4584
 20
48.03
 30
0.0
 11
16.545586565396
 21
49.028304179271
 31
0.0
  0
LINE
  5
46
330
1D
100
AcDbEntity
  8
0
100
AcDbLine
 10
16.4584
 20
48.03
 30
0.0
 11
17.1703
 21
47.97
 31
0.0
  0
LINE
  5
47
330
1D
100
AcDbEntity
  8
0
100
AcDbLine
 10
16.4584
 20
48.03
 30
0.0
 11
16.548068503101
 21
49.056722878551
 31
0.0
  0
LINE
  5
48
330
1D
100
AcDbEntity
  8
0
100
AcDbLine
 10
18.8314
 20
47.83
 30
0.0
 11
19.573027306273
 21
47.763025830258
 31
0.0
  0
LINE
  5
49
330
1D
100
AcDbEntity
  8
0
100
AcDbLine
 10
18.8314
 20
47.83
 30
0.0
 11
19.573027306273
 21
47.763025830258
 31
0.0
  0
LINE
  5
4B
330
1D
100
AcDbEntity
  8
0
100
AcDbLine
 10
19.4004
 20
47.78
 30
0.0
 11
20.1123
 21
47.71
 31
0.0
  0
LINE
  5
4C
330
1D
100
AcDbEntity
  8
0
100
AcDbLine
 10
19.4004
 20
47.78
 30
0.0
 11
19.459685534009
 21
48.457471223874
 31
0.0
  0
LINE
  5
4D
330
1D
100
AcDbEntity
  8
0
100
AcDbLine
 10
19.573027306273
 20
47.763025830258
 30
0.0
 11
20.1123
 21
47.71
 31
0.0
  0
LINE
  5
4E
330
1D
100
AcDbEntity
  8
0
100
AcDbLine
 10
19.2009
 20
48.38
 30
0.0
 11
19.447841495729
 21
48.322126316497
 31
0.0
  0
LINE
  5
4F
330
1D
100
AcDbEntity
  8
0
100
AcDbLine
 10
19.4918
 20
48.45
 30
0.0
 11
20.187657041786
 21
48.294584828123
 31
0.0
  0
LINE
  5
51
330
1D
100
AcDbEntity
  8
0
100
AcDbLine
 10
17.4113
 20
48.82
 30
0.0
 11
19.2009
 21
48.38
 31
0.0
  0
LINE
  5
52
330
1D
100
AcDbEntity
  8
0
100
AcDbLine
 10
19.7922
 20
48.73
 30
0.0
 11
19.8691
 21
48.73
 31
0.0
  0
LINE
  5
53
330
1D
100
AcDbEntity
  8
0
100
AcDbLine
 10
19.7922
 20
48.73
 30
0.0
 11
20.2039
 21
48.61
 31
0.0
  0
LINE
  5
57
330
1D
100
AcDbEntity
  8
0
100
AcDbLine
 10
16.3101
 20
49.09
 30
0.0
 11
16.545586565396
 21
49.028304179271
 31
0.0
  0
LINE
  5
59
330
1D
100
AcDbEntity
  8
0
100
AcDbLine
 10
35.4238
 20
43.36
 30
0.0
 11
36.1357
 21
43.3
 31
0.0
  0
LINE
  5
5A
330
1D
100
AcDbEntity
  8
0
100
AcDbLine
 10
35.4238
 20
43.36
 30
0.0
 11
35.550476832202
 21
44.807569124292
 31
0.0
  0
LINE
  5
5B
330
1D
100
AcDbEntity
  8
0
100
AcDbLine
 10
35.4238
 20
43.36
 30
0.0
 11
35.553235989689
 21
44.839098734854
 31
0.0
  0
LINE
  5
5C
330
1D
100
AcDbEntity
  8
0
100
AcDbLine
 10
37.7969
 20
43.16
 30
0.0
 11
39.4579
 21
43.01
 31
0.0
  0
LINE
  5
5E
330
1D
100
AcDbEntity
  8
0
100
AcDbLine
 10
36.1357
 20
43.3
 30
0.0
 11
37.7969
 21
43.16
 31
0.0
  0
LINE
  5
60
330
1D
100
AcDbEntity
  8
0
100
AcDbLine
 10
32.8908
 20
44.59
 30
0.0
 11
32.948218073566
 21
45.246131267455
 31
0.0
  0
LINE
  5
61
330
1D
100
AcDbEntity
  8
0
100
AcDbLine
 10
32.1789
 20
44.65
 30
0.0
 11
32.8908
 21
44.59
 31
0.0
  0
LINE
  5
63
330
1D
100
AcDbEntity
  8
0
100
AcDbLine
 10
30.5179
 20
44.8
 30
0.0
 11
32.1789
 21
44.65
 31
0.0
  0
LINE
  5
65
330
1D
100
AcDbEntity
  8
0
100
AcDbLine
 10
30.393740524767
 20
44.81046308706
 30
0.0
 11
30.5179
 21
44.8
 31
0.0
  0
LINE
  5
66
330
1D
100
AcDbEntity
  8
0
100
AcDbLine
 10
29.6818
 20
44.87
 30
0.0
 11
30.3937
 21
44.81
 31
0.0
  0
LINE
  5
67
330
1D
100
AcDbEntity
  8
0
100
AcDbLine
 10
29.605706154307
 20
44.876871810267
 30
0.0
 11
29.6818
 21
44.87
 31
0.0
  0
LINE
  5
68
330
1D
100
AcDbEntity
  8
0
100
AcDbLine
 10
29.605706154307
 20
44.876871810267
 30
0.0
 11
29.6818
 21
44.87
 31
0.0
  0
LINE
  5
69
330
1D
100
AcDbEntity
  8
0
100
AcDbLine
 10
28.1448
 20
45.0
 30
0.0
 11
28.8566
 21
44.94
 31
0.0
  0
LINE
  5
6A
330
1D
100
AcDbEntity
  8
0
100
AcDbLine
 10
28.1448
 20
45.0
 30
0.0
 11
28.231954821074
 21
45.997940700229
 31
0.0
  0
LINE
  5
6B
330
1D
100
AcDbEntity
  8
0
100
AcDbLine
 10
28.8566
 20
44.94
 30
0.0
 11
29.605706154307
 21
44.876871810267
 31
0.0
  0
LINE
  5
6C
330
1D
100
AcDbEntity
  8
0
100
AcDbLine
 10
28.8566
 20
44.94
 30
0.0
 11
29.605706154307
 21
44.876871810267
 31
0.0
  0
LINE
  5
6D
330
1D
100
AcDbEntity
  8
0
100
AcDbLine
 10
28.8566
 20
44.94
 30
0.0
 11
30.5179
 21
44.8
 31
0.0
  0
LINE
  5
6F
330
1D
100
AcDbEntity
  8
0
100
AcDbLine
 10
28.0208
 20
45.02
 30
0.0
 11
28.145562697995
 21
45.008733049549
 31
0.0
  0
LINE
  5
71
330
1D
100
AcDbEntity
  8
0
100
AcDbLine
 10
35.1289
 20
44.9
 30
0.0
 11
35.2749
 21
44.88
 31
0.0
  0
LINE
  5
72
330
1D
100
AcDbEntity
  8
0
100
AcDbLine
 10
35.1289
 20
44.9
 30
0.0
 11
35.552908701782
 21
44.835358730784
 31
0.0
  0
LINE
  5
73
330
1D
100
AcDbEntity
  8
0
100
AcDbLine
 10
36.6065
 20
44.67
 30
0.0
 11
38.0459
 21
44.45
 31
0.0
  0
LINE
  5
74
330
1D
100
AcDbEntity
  8
0
100
AcDbLine
 10
35.2749
 20
44.88
 30
0.0
 11
36.6065
 21
44.67
 31
0.0
  0
LINE
  5
75
330
1D
100
AcDbEntity
  8
0
100
AcDbLine
 10
38.0459
 20
44.45
 30
0.0
 11
39.119886287711
 21
44.286387592475
 31
0.0
  0
LINE
  5
76
330
1D
100
AcDbEntity
  8
0
100
AcDbLine
 10
39.0992
 20
44.05
 30
0.0
 11
39.8111
 21
43.98
 31
0.0
  0
LINE
  5
77
330
1D
100
AcDbEntity
  8
0
100
AcDbLine
 10
39.0992
 20
44.05
 30
0.0
 11
39.184251714427
 21
45.021908072163
 31
0.0
  0
LINE
  5
78
330
1D
100
AcDbEntity
  8
0
100
AcDbLine
 10
38.8961
 20
45.07
 30
0.0
 11
39.608
 21
45.01
 31
0.0
  0
LINE
  5
7B
330
1D
100
AcDbEntity
  8
0
100
AcDbLine
 10
39.0405
 20
44.97
 30
0.0
 11
39.17757892576
 21
44.945656379727
 31
0.0
  0
LINE
  5
7C
330
1D
100
AcDbEntity
  8
0
100
AcDbLine
 10
38.717112015851
 20
45.085086284034
 30
0.0
 11
39.2723
 21
45.01
 31
0.0
  0
LINE
  5
7D
330
1D
100
AcDbEntity
  8
0
100
AcDbLine
 10
26.3596
 20
45.16
 30
0.0
 11
28.0208
 21
45.02
 31
0.0
  0
LINE
  5
7F
330
1D
100
AcDbEntity
  8
0
100
AcDbLine
 10
25.6478
 20
45.22
 30
0.0
 11
26.3596
 21
45.16
 31
0.0
  0
LINE
  5
80
330
1D
100
AcDbEntity
  8
0
100
AcDbLine
 10
25.6478
 20
45.22
 30
0.0
 11
25.756584441641
 21
46.463393434412
 31
0.0
  0
LINE
  5
81
330
1D
100
AcDbEntity
  8
0
100
AcDbLine
 10
26.9559
 20
46.25
 30
0.0
 11
27.78938879203
 21
46.109339975093
 31
0.0
  0
LINE
  5
84
330
1D
100
AcDbEntity
  8
0
100
AcDbLine
 10
28.650124930112
 20
45.960932936355
 30
0.0
 11
31.1598
 21
45.53
 31
0.0
  0
LINE
  5
87
330
1D
100
AcDbEntity
  8
0
100
AcDbLine
 10
27.8697
 20
46.03
 30
0.0
 11
27.94006696219
 21
46.834286141161
 31
0.0
  0
LINE
  5
8A
330
1D
100
AcDbEntity
  8
0
100
AcDbLine
 10
28.650124930112
 20
45.960932936355
 30
0.0
 11
31.1598
 21
45.53
 31
0.0
  0
LINE
  5
8B
330
1D
100
AcDbEntity
  8
0
100
AcDbLine
 10
26.0772
 20
46.4
 30
0.0
 11
26.9559
 21
46.25
 31
0.0
  0
LINE
  5
8C
330
1D
100
AcDbEntity
  8
0
100
AcDbLine
 10
30.5016
 20
46.36
 30
0.0
 11
31.1061
 21
46.24
 31
0.0
  0
LINE
  5
8D
330
1D
100
AcDbEntity
  8
0
100
AcDbLine
 10
33.182037633974
 20
45.209017986596
 30
0.0
 11
35.550476832202
 21
44.807569124292
 31
0.0
  0
LINE
  5
8E
330
1D
100
AcDbEntity
  8
0
100
AcDbLine
 10
33.8309
 20
45.51
 30
0.0
 11
34.862268609705
 21
45.423069472993
 31
0.0
  0
LINE
  5
8F
330
1D
100
AcDbEntity
  8
0
100
AcDbLine
 10
33.8309
 20
45.51
 30
0.0
 11
36.2038
 21
45.3
 31
0.0
  0
LINE
  5
91
330
1D
100
AcDbEntity
  8
0
100
AcDbLine
 10
34.862
 20
45.42
 30
0.0
 11
37.2351
 21
45.21
 31
0.0
  0
LINE
  5
92
330
1D
100
AcDbEntity
  8
0
100
AcDbLine
 10
34.862
 20
45.42
 30
0.0
 11
35.5739
 21
45.36
 31
0.0
  0
LINE
  5
93
330
1D
100
AcDbEntity
  8
0
100
AcDbLine
 10
34.862
 20
45.42
 30
0.0
 11
34.98315564303
 21
46.804477058946
 31
0.0
  0
LINE
  5
94
330
1D
100
AcDbEntity
  8
0
100
AcDbLine
 10
33.182037633974
 20
45.209017986596
 30
0.0
 11
35.550476832202
 21
44.807569124292
 31
0.0
  0
LINE
  5
95
330
1D
100
AcDbEntity
  8
0
100
AcDbLine
 10
35.054513132737
 20
45.401711088594
 30
0.0
 11
35.772
 21
45.28
 31
0.0
  0
LINE
  5
96
330
1D
100
AcDbEntity
  8
0
100
AcDbLine
 10
35.054513132737
 20
45.401711088594
 30
0.0
 11
35.772
 21
45.28
 31
0.0
  0
LINE
  5
97
330
1D
100
AcDbEntity
  8
0
100
AcDbLine
 10
31.9037
 20
45.68
 30
0.0
 11
32.035488926317
 21
45.668892631579
 31
0.0
  0
LINE
  5
98
330
1D
100
AcDbEntity
  8
0
100
AcDbLine
 10
31.458
 20
45.72
 30
0.0
 11
33.8309
 21
45.51
 31
0.0
  0
LINE
  5
99
330
1D
100
AcDbEntity
  8
0
100
AcDbLine
 10
31.458
 20
45.72
 30
0.0
 11
32.1698
 21
45.66
 31
0.0
  0
LINE
  5
9A
330
1D
100
AcDbEntity
  8
0
100
AcDbLine
 10
31.458
 20
45.72
 30
0.0
 11
31.538501911045
 21
46.640127420251
 31
0.0
  0
LINE
  5
9B
330
1D
100
AcDbEntity
  8
0
100
AcDbLine
 10
32.1698
 20
45.66
 30
0.0
 11
33.8309
 21
45.51
 31
0.0
  0
LINE
  5
9D
330
1D
100
AcDbEntity
  8
0
100
AcDbLine
 10
31.1598
 20
45.53
 30
0.0
 11
35.1289
 21
44.9
 31
0.0
  0
LINE
  5
9E
330
1D
100
AcDbEntity
  8
0
100
AcDbLine
 10
37.2351
 20
45.21
 30
0.0
 11
38.8961
 21
45.07
 31
0.0
  0
LINE
  5
A0
330
1D
100
AcDbEntity
  8
0
100
AcDbLine
 10
36.075539764111
 20
45.312611625948
 30
0.0
 11
36.2038
 21
45.3
 31
0.0
  0
LINE
  5
A1
330
1D
100
AcDbEntity
  8
0
100
AcDbLine
 10
35.5739
 20
45.36
 30
0.0
 11
37.2351
 21
45.21
 31
0.0
  0
LINE
  5
A3
330
1D
100
AcDbEntity
  8
0
100
AcDbLine
 10
35.772
 20
45.28
 30
0.0
 11
37.6802
 21
45.01
 31
0.0
  0
LINE
  5
A4
330
1D
100
AcDbEntity
  8
0
100
AcDbLine
 10
35.301457116945
 20
45.379856717705
 30
0.0
 11
37.6802
 21
45.01
 31
0.0
  0
LINE
  5
A7
330
1D
100
AcDbEntity
  8
0
100
AcDbLine
 10
32.728
 20
46.44
 30
0.0
 11
34.0158
 21
46.21
 31
0.0
  0
LINE
  5
A8
330
1D
100
AcDbEntity
  8
0
100
AcDbLine
 10
34.0158
 20
46.21
 30
0.0
 11
34.916475155688
 21
46.042501779085
 31
0.0
  0
LINE
  5
A9
330
1D
100
AcDbEntity
  8
0
100
AcDbLine
 10
31.1061
 20
46.24
 30
0.0
 11
31.496922355817
 21
46.164877971011
 31
0.0
  0
LINE
  5
AA
330
1D
100
AcDbEntity
  8
0
100
AcDbLine
 10
38.37657220493
 20
45.113789218128
 30
0.0
 11
39.0405
 21
44.97
 31
0.0
  0
LINE
  5
AB
330
1D
100
AcDbEntity
  8
0
100
AcDbLine
 10
39.8111
 20
43.98
 30
0.0
 11
41.4721
 21
43.84
 31
0.0
  0
LINE
  5
AD
330
1D
100
AcDbEntity
  8
0
100
AcDbLine
 10
39.608
 20
45.01
 30
0.0
 11
39.697394728736
 21
46.031536826765
 31
0.0
  0
LINE
  5
AE
330
1D
100
AcDbEntity
  8
0
100
AcDbLine
 10
39.4579
 20
43.01
 30
0.0
 11
40.1698
 21
42.95
 31
0.0
  0
LINE
  5
B0
330
1D
100
AcDbEntity
  8
0
100
AcDbLine
 10
40.256649006863
 20
43.942446200505
 30
0.0
 11
41.047961071157
 21
43.875749217362
 31
0.0
  0
LINE
  5
B1
330
1D
100
AcDbEntity
  8
0
100
AcDbLine
 10
40.1698
 20
42.95
 30
0.0
 11
40.256649006863
 21
43.942446200505
 31
0.0
  0
LINE
  5
B7
330
1D
100
AcDbEntity
  8
0
100
AcDbLine
 10
39.2723
 20
45.01
 30
0.0
 11
40.3587
 21
44.84
 31
0.0
  0
LINE
  5
B8
330
1D
100
AcDbEntity
  8
0
100
AcDbLine
 10
41.4721
 20
43.84
 30
0.0
 11
43.1332
 21
43.69
 31
0.0
  0
LINE
  5
BB
330
1D
100
AcDbEntity
  8
0
100
AcDbLine
 10
41.047961071157
 20
43.875749217362
 30
0.0
 11
43.856146590589
 21
43.399763647305
 31
0.0
  0
LINE
  5
BD
330
1D
100
AcDbEntity
  8
0
100
AcDbLine
 10
43.1332
 20
43.69
 30
0.0
 11
43.845
 21
43.63
 31
0.0
  0
LINE
  5
C0
330
1D
100
AcDbEntity
  8
0
100
AcDbLine
 10
41.6484
 20
44.63
 30
0.0
 11
43.5868
 21
44.31
 31
0.0
  0
LINE
  5
C5
330
1D
100
AcDbEntity
  8
0
100
AcDbLine
 10
40.3587
 20
44.84
 30
0.0
 11
41.6484
 21
44.63
 31
0.0
  0
LINE
  5
C6
330
1D
100
AcDbEntity
  8
0
100
AcDbLine
 10
40.344
 20
45.81
 30
0.0
 11
40.351
 21
45.89
 31
0.0
  0
LINE
  5
C7
330
1D
100
AcDbEntity
  8
0
100
AcDbLine
 10
39.68367926371
 20
45.874806639001
 30
0.0
 11
40.344
 21
45.81
 31
0.0
  0
LINE
  5
C8
330
1D
100
AcDbEntity
  8
0
100
AcDbLine
 10
39.2427
 20
46.13
 30
0.0
 11
40.351
 21
45.89
 31
0.0
  0
LINE
  5
CB
330
1D
100
AcDbEntity
  8
0
100
AcDbLine
 10
37.444
 20
46.45
 30
0.0
 11
39.2427
 21
46.13
 31
0.0
  0
LINE
  5
CE
330
1D
100
AcDbEntity
  8
0
100
AcDbLine
 10
43.7888
 20
42.63
 30
0.0
 11
43.873127061622
 21
43.593848443598
 31
0.0
  0
LINE
  5
CF
330
1D
100
AcDbEntity
  8
0
100
AcDbLine
 10
43.845
 20
43.63
 30
0.0
 11
43.899482350298
 21
44.252583993769
 31
0.0
  0
LINE
  5
D0
330
1D
100
AcDbEntity
  8
0
100
AcDbLine
 10
43.892993082241
 20
44.178429439101
 30
0.0
 11
44.0904
 21
44.15
 31
0.0
  0
LINE
  5
D1
330
1D
100
AcDbEntity
  8
0
100
AcDbLine
 10
43.5868
 20
44.31
 30
0.0
 11
44.120087655511
 21
44.212075549443
 31
0.0
  0
LINE
  5
D3
330
1D
100
AcDbEntity
  8
0
100
AcDbLine
 10
44.0674
 20
43.61
 30
0.0
 11
44.7794
 21
43.55
 31
0.0
  0
LINE
  5
D4
330
1D
100
AcDbEntity
  8
0
100
AcDbLine
 10
44.0674
 20
43.61
 30
0.0
 11
44.167636521858
 21
44.755428817922
 31
0.0
  0
LINE
  5
D5
330
1D
100
AcDbEntity
  8
0
100
AcDbLine
 10
43.923882824429
 20
44.173980871369
 30
0.0
 11
43.930265272717
 21
44.246931508223
 31
0.0
  0
LINE
  5
D9
330
1D
100
AcDbEntity
  8
0
100
AcDbLine
 10
43.6687
 20
44.81
 30
0.0
 11
44.3087
 21
44.74
 31
0.0
  0
LINE
  5
DA
330
1D
100
AcDbEntity
  8
0
100
AcDbLine
 10
43.5318
 20
44.78
 30
0.0
 11
43.6687
 21
44.81
 31
0.0
  0
LINE
  5
DB
330
1D
100
AcDbEntity
  8
0
100
AcDbLine
 10
43.5318
 20
44.78
 30
0.0
 11
44.157455411363
 21
44.639086619062
 31
0.0
  0
LINE
  5
E1
330
1D
100
AcDbEntity
  8
0
100
AcDbLine
 10
24.2582
 20
46.73
 30
0.0
 11
26.0772
 21
46.4
 31
0.0
  0
LINE
  5
E6
330
1D
100
AcDbEntity
  8
0
100
AcDbLine
 10
28.7031
 20
46.7
 30
0.0
 11
30.5016
 21
46.36
 31
0.0
  0
LINE
  5
E7
330
1D
100
AcDbEntity
  8
0
100
AcDbLine
 10
31.1232
 20
46.71
 30
0.0
 11
32.728
 21
46.44
 31
0.0
  0
LINE
  5
E8
330
1D
100
AcDbEntity
  8
0
100
AcDbLine
 10
30.7167
 20
46.74
 30
0.0
 11
31.4088
 21
46.56
 31
0.0
  0
LINE
  5
E9
330
1D
100
AcDbEntity
  8
0
100
AcDbLine
 10
30.7167
 20
46.74
 30
0.0
 11
31.1232
 21
46.71
 31
0.0
  0
LINE
  5
EA
330
1D
100
AcDbEntity
  8
0
100
AcDbLine
 10
31.4088
 20
46.56
 30
0.0
 11
31.529362676285
 21
46.535667036723
 31
0.0
  0
LINE
  5
EB
330
1D
100
AcDbEntity
  8
0
100
AcDbLine
 10
36.4465
 20
46.61
 30
0.0
 11
37.444
 21
46.45
 31
0.0
  0
LINE
  5
EC
330
1D
100
AcDbEntity
  8
0
100
AcDbLine
 10
35.5541
 20
46.74
 30
0.0
 11
36.4465
 21
46.61
 31
0.0
  0
LINE
  5
EE
330
1D
100
AcDbEntity
  8
0
100
AcDbLine
 10
48.5347
 20
42.22
 30
0.0
 11
48.595369236466
 21
42.913283151902
 31
0.0
  0
LINE
  5
102
330
1D
100
AcDbEntity
  8
0
100
AcDbLine
 10
44.7861
 20
45.56
 30
0.0
 11
45.498
 21
45.49
 31
0.0
  0
LINE
  5
103
330
1D
100
AcDbEntity
  8
0
100
AcDbLine
 10
44.7861
 20
45.56
 30
0.0
 11
44.859442255503
 21
46.398101038104
 31
0.0
  0
LINE
  5
104
330
1D
100
AcDbEntity
  8
0
100
AcDbLine
 10
45.498
 20
45.49
 30
0.0
 11
47.1591
 21
45.35
 31
0.0
  0
LINE
  5
106
330
1D
100
AcDbEntity
  8
0
100
AcDbLine
 10
45.3441
 20
44.61
 30
0.0
 11
46.5916
 21
44.42
 31
0.0
  0
LINE
  5
107
330
1D
100
AcDbEntity
  8
0
100
AcDbLine
 10
44.3087
 20
44.74
 30
0.0
 11
45.3441
 21
44.61
 31
0.0
  0
LINE
  5
10B
330
1D
100
AcDbEntity
  8
0
100
AcDbLine
 10
44.7019
 20
46.41
 30
0.0
 11
45.6287
 21
46.34
 31
0.0
  0
LINE
  5
10C
330
1D
100
AcDbEntity
  8
0
100
AcDbLine
 10
45.6287
 20
46.34
 30
0.0
 11
47.5759
 21
46.1
 31
0.0
  0
LINE
  5
112
330
1D
100
AcDbEntity
  8
0
100
AcDbLine
 10
47.1591
 20
45.35
 30
0.0
 11
48.8201
 21
45.2
 31
0.0
  0
LINE
  5
115
330
1D
100
AcDbEntity
  8
0
100
AcDbLine
 10
46.5916
 20
44.42
 30
0.0
 11
47.9838
 21
44.19
 31
0.0
  0
LINE
  5
116
330
1D
100
AcDbEntity
  8
0
100
AcDbLine
 10
48.8134
 20
43.2
 30
0.0
 11
48.886188452626
 21
44.031963493411
 31
0.0
  0
LINE
  5
117
330
1D
100
AcDbEntity
  8
0
100
AcDbLine
 10
48.1015
 20
43.26
 30
0.0
 11
48.8134
 21
43.2
 31
0.0
  0
LINE
  5
11F
330
1D
100
AcDbEntity
  8
0
100
AcDbLine
 10
48.875112643627
 20
43.905368293009
 30
0.0
 11
49.0029
 21
43.89
 31
0.0
  0
LINE
  5
120
330
1D
100
AcDbEntity
  8
0
100
AcDbLine
 10
49.0029
 20
43.89
 30
0.0
 11
49.6498
 21
43.85
 31
0.0
  0
LINE
  5
122
330
1D
100
AcDbEntity
  8
0
100
AcDbLine
 10
49.0687
 20
44.0
 30
0.0
 11
49.6498
 21
43.85
 31
0.0
  0
LINE
  5
123
330
1D
100
AcDbEntity
  8
0
100
AcDbLine
 10
49.532
 20
45.14
 30
0.0
 11
49.587393159004
 21
45.772992041852
 31
0.0
  0
LINE
  5
124
330
1D
100
AcDbEntity
  8
0
100
AcDbLine
 10
48.8201
 20
45.2
 30
0.0
 11
49.532
 21
45.14
 31
0.0
  0
LINE
  5
126
330
1D
100
AcDbEntity
  8
0
100
AcDbLine
 10
47.9838
 20
44.19
 30
0.0
 11
49.0687
 21
44.0
 31
0.0
  0
LINE
  5
127
330
1D
100
AcDbEntity
  8
0
100
AcDbLine
 10
49.558358530779
 20
45.441205789992
 30
0.0
 11
50.0401
 21
45.4
 31
0.0
  0
LINE
  5
12A
330
1D
100
AcDbEntity
  8
0
100
AcDbLine
 10
49.515
 20
45.79
 30
0.0
 11
50.7068
 21
45.51
 31
0.0
  0
LINE
  5
12B
330
1D
100
AcDbEntity
  8
0
100
AcDbLine
 10
47.5759
 20
46.1
 30
0.0
 11
49.515
 21
45.79
 31
0.0
  0
LINE
  5
130
330
1D
100
AcDbEntity
  8
0
100
AcDbLine
 10
44.2666
 20
46.34
 30
0.0
 11
44.839688436918
 21
46.172369012967
 31
0.0
  0
LINE
  5
131
330
1D
100
AcDbEntity
  8
0
100
AcDbLine
 10
44.2666
 20
46.34
 30
0.0
 11
44.7019
 21
46.41
 31
0.0
  0
LINE
  5
132
330
1D
100
AcDbEntity
  8
0
100
AcDbLine
 10
23.5076
 20
46.97
 30
0.0
 11
23.6138
 21
46.89
 31
0.0
  0
LINE
  5
134
330
1D
100
AcDbEntity
  8
0
100
AcDbLine
 10
23.6138
 20
46.89
 30
0.0
 11
24.2582
 21
46.73
 31
0.0
  0
LINE
  5
137
330
1D
100
AcDbEntity
  8
0
100
AcDbLine
 10
20.1365
 20
47.71
 30
0.0
 11
20.22005288784
 21
48.664780590738
 31
0.0
  0
LINE
  5
142
330
1D
100
AcDbEntity
  8
0
100
AcDbLine
 10
22.7125
 20
47.49
 30
0.0
 11
25.0856
 21
47.28
 31
0.0
  0
LINE
  5
143
330
1D
100
AcDbEntity
  8
0
100
AcDbLine
 10
22.7125
 20
47.49
 30
0.0
 11
22.821395557895
 21
48.734377875903
 31
0.0
  0
LINE
  5
149
330
1D
100
AcDbEntity
  8
0
100
AcDbLine
 10
20.3534
 20
48.64
 30
0.0
 11
21.439
 21
48.41
 31
0.0
  0
LINE
  5
14A
330
1D
100
AcDbEntity
  8
0
100
AcDbLine
 10
21.439
 20
48.41
 30
0.0
 11
22.766984734166
 21
48.112611234854
 31
0.0
  0
LINE
  5
14B
330
1D
100
AcDbEntity
  8
0
100
AcDbLine
 10
19.8691
 20
48.73
 30
0.0
 11
20.3534
 21
48.64
 31
0.0
  0
LINE
  5
152
330
1D
100
AcDbEntity
  8
0
100
AcDbLine
 10
23.075
 20
47.39
 30
0.0
 11
23.5076
 21
46.97
 31
0.0
  0
LINE
  5
153
330
1D
100
AcDbEntity
  8
0
100
AcDbLine
 10
23.0248
 20
47.44
 30
0.0
 11
23.075
 21
47.39
 31
0.0
  0
LINE
  5
154
330
1D
100
AcDbEntity
  8
0
100
AcDbLine
 10
22.8567
 20
48.73
 30
0.0
 11
24.0294
 21
48.51
 31
0.0
  0
LINE
  5
155
330
1D
100
AcDbEntity
  8
0
100
AcDbLine
 10
22.2922
 20
48.8
 30
0.0
 11
22.813239302582
 21
48.641174224087
 31
0.0
  0
LINE
  5
156
330
1D
100
AcDbEntity
  8
0
100
AcDbLine
 10
22.2922
 20
48.8
 30
0.0
 11
22.8567
 21
48.73
 31
0.0
  0
LINE
  5
158
330
1D
100
AcDbEntity
  8
0
100
AcDbLine
 10
24.0294
 20
48.51
 30
0.0
 11
25.5224
 21
48.21
 31
0.0
  0
LINE
  5
15A
330
1D
100
AcDbEntity
  8
0
100
AcDbLine
 10
27.9076
 20
46.84
 30
0.0
 11
28.7031
 21
46.7
 31
0.0
  0
LINE
  5
15B
330
1D
100
AcDbEntity
  8
0
100
AcDbLine
 10
27.8555
 20
46.81
 30
0.0
 11
27.936423401745
 21
46.792640671774
 31
0.0
  0
LINE
  5
15E
330
1D
100
AcDbEntity
  8
0
100
AcDbLine
 10
27.4585
 20
47.07
 30
0.0
 11
27.502209572144
 21
47.569480654608
 31
0.0
  0
LINE
  5
15F
330
1D
100
AcDbEntity
  8
0
100
AcDbLine
 10
26.7466
 20
47.13
 30
0.0
 11
27.4585
 21
47.07
 31
0.0
  0
LINE
  5
162
330
1D
100
AcDbEntity
  8
0
100
AcDbLine
 10
27.4884
 20
46.9
 30
0.0
 11
27.8555
 21
46.81
 31
0.0
  0
LINE
  5
163
330
1D
100
AcDbEntity
  8
0
100
AcDbLine
 10
27.4884
 20
46.9
 30
0.0
 11
27.9076
 21
46.84
 31
0.0
  0
LINE
  5
164
330
1D
100
AcDbEntity
  8
0
100
AcDbLine
 10
26.131935657944
 20
47.185508519752
 30
0.0
 11
27.8555
 21
46.81
 31
0.0
  0
LINE
  5
165
330
1D
100
AcDbEntity
  8
0
100
AcDbLine
 10
26.131935657944
 20
47.185508519752
 30
0.0
 11
27.8555
 21
46.81
 31
0.0
  0
LINE
  5
166
330
1D
100
AcDbEntity
  8
0
100
AcDbLine
 10
34.4915
 20
46.86
 30
0.0
 11
35.5541
 21
46.74
 31
0.0
  0
LINE
  5
167
330
1D
100
AcDbEntity
  8
0
100
AcDbLine
 10
34.4915
 20
46.86
 30
0.0
 11
34.5506
 21
46.77
 31
0.0
  0
LINE
  5
175
330
1D
100
AcDbEntity
  8
0
100
AcDbLine
 10
25.0856
 20
47.28
 30
0.0
 11
26.7466
 21
47.13
 31
0.0
  0
LINE
  5
179
330
1D
100
AcDbEntity
  8
0
100
AcDbLine
 10
31.7343
 20
47.2
 30
0.0
 11
31.796008482654
 21
47.905158888514
 31
0.0
  0
LINE
  5
17A
330
1D
100
AcDbEntity
  8
0
100
AcDbLine
 10
31.0224
 20
47.26
 30
0.0
 11
31.7343
 21
47.2
 31
0.0
  0
LINE
  5
17C
330
1D
100
AcDbEntity
  8
0
100
AcDbLine
 10
29.3614
 20
47.41
 30
0.0
 11
31.0224
 21
47.26
 31
0.0
  0
LINE
  5
183
330
1D
100
AcDbEntity
  8
0
100
AcDbLine
 10
26.9885
 20
47.62
 30
0.0
 11
27.7003
 21
47.55
 31
0.0
  0
LINE
  5
184
330
1D
100
AcDbEntity
  8
0
100
AcDbLine
 10
26.9885
 20
47.62
 30
0.0
 11
27.090674176178
 21
48.787838873915
 31
0.0
  0
LINE
  5
185
330
1D
100
AcDbEntity
  8
0
100
AcDbLine
 10
27.7003
 20
47.55
 30
0.0
 11
29.3614
 21
47.41
 31
0.0
  0
LINE
  5
187
330
1D
100
AcDbEntity
  8
0
100
AcDbLine
 10
25.5224
 20
48.21
 30
0.0
 11
27.012321275783
 21
47.892274393848
 31
0.0
  0
LINE
  5
188
330
1D
100
AcDbEntity
  8
0
100
AcDbLine
 10
31.3966
 20
48.01
 30
0.0
 11
32.5014
 21
47.72
 31
0.0
  0
LINE
  5
18A
330
1D
100
AcDbEntity
  8
0
100
AcDbLine
 10
36.288
 20
48.31
 30
0.0
 11
38.6609
 21
48.1
 31
0.0
  0
LINE
  5
18B
330
1D
100
AcDbEntity
  8
0
100
AcDbLine
 10
36.288
 20
48.31
 30
0.0
 11
36.9998
 21
48.25
 31
0.0
  0
LINE
  5
18C
330
1D
100
AcDbEntity
  8
0
100
AcDbLine
 10
36.288
 20
48.31
 30
0.0
 11
36.348079166064
 21
48.996697835663
 31
0.0
  0
LINE
  5
18D
330
1D
100
AcDbEntity
  8
0
100
AcDbLine
 10
36.9998
 20
48.25
 30
0.0
 11
38.6609
 21
48.1
 31
0.0
  0
LINE
  5
193
330
1D
100
AcDbEntity
  8
0
100
AcDbLine
 10
32.5014
 20
47.72
 30
0.0
 11
32.5982
 21
47.62
 31
0.0
  0
LINE
  5
194
330
1D
100
AcDbEntity
  8
0
100
AcDbLine
 10
31.9871
 20
47.66
 30
0.0
 11
32.5982
 21
47.62
 31
0.0
  0
LINE
  5
195
330
1D
100
AcDbEntity
  8
0
100
AcDbLine
 10
31.777220529802
 20
47.690464062443
 30
0.0
 11
31.9871
 21
47.66
 31
0.0
  0
LINE
  5
197
330
1D
100
AcDbEntity
  8
0
100
AcDbLine
 10
41.0338
 20
47.89
 30
0.0
 11
41.072298425062
 21
48.329931520901
 31
0.0
  0
LINE
  5
198
330
1D
100
AcDbEntity
  8
0
100
AcDbLine
 10
40.322
 20
47.95
 30
0.0
 11
41.0338
 21
47.89
 31
0.0
  0
LINE
  5
19A
330
1D
100
AcDbEntity
  8
0
100
AcDbLine
 10
40.8702
 20
47.84
 30
0.0
 11
41.7028
 21
47.79
 31
0.0
  0
LINE
  5
19C
330
1D
100
AcDbEntity
  8
0
100
AcDbLine
 10
41.7028
 20
47.79
 30
0.0
 11
42.3505
 21
47.89
 31
0.0
  0
LINE
  5
19D
330
1D
100
AcDbEntity
  8
0
100
AcDbLine
 10
39.092776787814
 20
48.061000831875
 30
0.0
 11
40.8702
 21
47.84
 31
0.0
  0
LINE
  5
19E
330
1D
100
AcDbEntity
  8
0
100
AcDbLine
 10
38.6609
 20
48.1
 30
0.0
 11
40.322
 21
47.95
 31
0.0
  0
LINE
  5
1A1
330
1D
100
AcDbEntity
  8
0
100
AcDbLine
 10
41.7359
 20
48.17
 30
0.0
 11
42.3505
 21
47.89
 31
0.0
  0
LINE
  5
1A6
330
1D
100
AcDbEntity
  8
0
100
AcDbLine
 10
26.5477
 20
48.79
 30
0.0
 11
26.684
 21
48.83
 31
0.0
  0
LINE
  5
1A7
330
1D
100
AcDbEntity
  8
0
100
AcDbLine
 10
26.5477
 20
48.79
 30
0.0
 11
27.0734
 21
48.61
 31
0.0
  0
LINE
  5
1A8
330
1D
100
AcDbEntity
  8
0
100
AcDbLine
 10
26.684
 20
48.83
 30
0.0
 11
27.3592
 21
48.76
 31
0.0
  0
LINE
  5
1AC
330
1D
100
AcDbEntity
  8
0
100
AcDbLine
 10
40.5741
 20
48.45
 30
0.0
 11
41.7359
 21
48.17
 31
0.0
  0
LINE
  5
1AD
330
1D
100
AcDbEntity
  8
0
100
AcDbLine
 10
39.0766
 20
48.71
 30
0.0
 11
40.5741
 21
48.45
 31
0.0
  0
LINE
  5
1AE
330
1D
100
AcDbEntity
  8
0
100
AcDbLine
 10
36.0198
 20
48.73
 30
0.0
 11
36.31780846639
 21
48.65070728167
 31
0.0
  0
LINE
  5
1AF
330
1D
100
AcDbEntity
  8
0
100
AcDbLine
 10
29.6021
 20
48.38
 30
0.0
 11
31.3966
 21
48.01
 31
0.0
  0
LINE
  5
1B0
330
1D
100
AcDbEntity
  8
0
100
AcDbLine
 10
28.8821
 20
48.51
 30
0.0
 11
29.6021
 21
48.38
 31
0.0
  0
LINE
  5
1B2
330
1D
100
AcDbEntity
  8
0
100
AcDbLine
 10
37.1284
 20
48.95
 30
0.0
 11
39.0766
 21
48.71
 31
0.0
  0
LINE
  5
1B3
330
1D
100
AcDbEntity
  8
0
100
AcDbLine
 10
36.2929
 20
49.0
 30
0.0
 11
37.1284
 21
48.95
 31
0.0
  0
LINE
  5
1B4
330
1D
100
AcDbEntity
  8
0
100
AcDbLine
 10
35.8235
 20
48.96
 30
0.0
 11
36.0198
 21
48.73
 31
0.0
  0
LINE
  5
1B5
330
1D
100
AcDbEntity
  8
0
100
AcDbLine
 10
35.8235
 20
48.96
 30
0.0
 11
36.2929
 21
49.0
 31
0.0
  0
LINE
  5
1B9
330
1D
100
AcDbEntity
  8
0
100
AcDbLine
 10
27.3592
 20
48.76
 30
0.0
 11
28.8821
 21
48.51
 31
0.0
  0
LINE
  5
1BD
330
1D
100
AcDbEntity
  8
0
100
AcDbLine
 10
34.5506
 20
46.77
 30
0.0
 11
34.971560433138
 21
46.671975578312
 31
0.0
  0
LINE
  5
1BE
330
1D
100
AcDbEntity
  8
0
100
AcDbLine
 10
52.8157
 20
40.838
 30
0.0
 11
53.5276
 21
40.776
 31
0.0
  0
LINE
  5
1BF
330
1D
100
AcDbEntity
  8
0
100
AcDbLine
 10
52.8157
 20
40.838
 30
0.0
 11
52.896275015134
 21
41.75912144424
 31
0.0
  0
LINE
  5
1C1
330
1D
100
AcDbEntity
  8
0
100
AcDbLine
 10
57.5617
 20
40.423
 30
0.0
 11
57.626792364524
 21
41.166379298379
 31
0.0
  0
LINE
  5
1C2
330
1D
100
AcDbEntity
  8
0
100
AcDbLine
 10
56.8497
 20
40.486
 30
0.0
 11
57.5617
 21
40.423
 31
0.0
  0
LINE
  5
1C4
330
1D
100
AcDbEntity
  8
0
100
AcDbLine
 10
55.1886
 20
40.631
 30
0.0
 11
56.8497
 21
40.486
 31
0.0
  0
LINE
  5
1C6
330
1D
100
AcDbEntity
  8
0
100
AcDbLine
 10
53.5276
 20
40.776
 30
0.0
 11
55.1886
 21
40.631
 31
0.0
  0
LINE
  5
1C8
330
1D
100
AcDbEntity
  8
0
100
AcDbLine
 10
57.623704718876
 20
41.131117223142
 30
0.0
 11
63.841197201936
 21
40.319469383315
 31
0.0
  0
LINE
  5
1CD
330
1D
100
AcDbEntity
  8
0
100
AcDbLine
 10
52.5368
 20
41.867
 30
0.0
 11
53.2486
 21
41.804
 31
0.0
  0
LINE
  5
1CE
330
1D
100
AcDbEntity
  8
0
100
AcDbLine
 10
52.5368
 20
41.867
 30
0.0
 11
52.646715957932
 21
43.124083356378
 31
0.0
  0
LINE
  5
1D1
330
1D
100
AcDbEntity
  8
0
100
AcDbLine
 10
52.5159
 20
41.813
 30
0.0
 11
52.896275015134
 21
41.75912144424
 31
0.0
  0
LINE
  5
1D2
330
1D
100
AcDbEntity
  8
0
100
AcDbLine
 10
53.2486
 20
41.804
 30
0.0
 11
57.2826
 21
41.451
 31
0.0
  0
LINE
  5
1DB
330
1D
100
AcDbEntity
  8
0
100
AcDbLine
 10
51.520853070785
 20
41.954820426752
 30
0.0
 11
52.5159
 21
41.813
 31
0.0
  0
LINE
  5
1E6
330
1D
100
AcDbEntity
  8
0
100
AcDbLine
 10
50.6951
 20
45.38
 30
0.0
 11
50.7068
 21
45.51
 31
0.0
  0
LINE
  5
1E7
330
1D
100
AcDbEntity
  8
0
100
AcDbLine
 10
50.0401
 20
45.4
 30
0.0
 11
50.6951
 21
45.38
 31
0.0
  0
LINE
  5
1EC
330
1D
100
AcDbEntity
  8
0
100
AcDbLine
 10
52.7691
 20
43.85
 30
0.0
 11
53.481
 21
43.79
 31
0.0
  0
LINE
  5
1ED
330
1D
100
AcDbEntity
  8
0
100
AcDbLine
 10
52.7691
 20
43.85
 30
0.0
 11
52.825901292959
 21
44.499083154972
 31
0.0
  0
LINE
  5
1EE
330
1D
100
AcDbEntity
  8
0
100
AcDbLine
 10
53.481
 20
43.79
 30
0.0
 11
55.1421
 21
43.65
 31
0.0
  0
LINE
  5
1F0
330
1D
100
AcDbEntity
  8
0
100
AcDbLine
 10
51.9838
 20
43.18
 30
0.0
 11
52.5114
 21
43.14
 31
0.0
  0
LINE
  5
1F1
330
1D
100
AcDbEntity
  8
0
100
AcDbLine
 10
51.9838
 20
43.18
 30
0.0
 11
52.6305
 21
43.05
 31
0.0
  0
LINE
  5
1F2
330
1D
100
AcDbEntity
  8
0
100
AcDbLine
 10
52.5114
 20
43.14
 30
0.0
 11
53.6166
 21
43.01
 31
0.0
  0
LINE
  5
1F3
330
1D
100
AcDbEntity
  8
0
100
AcDbLine
 10
55.1421
 20
43.65
 30
0.0
 11
56.8032
 21
43.5
 31
0.0
  0
LINE
  5
1F7
330
1D
100
AcDbEntity
  8
0
100
AcDbLine
 10
55.0598
 20
42.82
 30
0.0
 11
56.4548
 21
42.63
 31
0.0
  0
LINE
  5
1F8
330
1D
100
AcDbEntity
  8
0
100
AcDbLine
 10
53.6166
 20
43.01
 30
0.0
 11
55.0598
 21
42.82
 31
0.0
  0
LINE
  5
1FA
330
1D
100
AcDbEntity
  8
0
100
AcDbLine
 10
51.8026
 20
44.55
 30
0.0
 11
53.4104
 21
44.47
 31
0.0
  0
LINE
  5
1FB
330
1D
100
AcDbEntity
  8
0
100
AcDbLine
 10
51.8026
 20
44.55
 30
0.0
 11
52.810580878384
 21
44.324012791085
 31
0.0
  0
LINE
  5
1FC
330
1D
100
AcDbEntity
  8
0
100
AcDbLine
 10
54.8374
 20
46.68
 30
0.0
 11
55.5493
 21
46.62
 31
0.0
  0
LINE
  5
1FD
330
1D
100
AcDbEntity
  8
0
100
AcDbLine
 10
54.8374
 20
46.68
 30
0.0
 11
54.89815574471
 21
47.375665824012
 31
0.0
  0
LINE
  5
1FE
330
1D
100
AcDbEntity
  8
0
100
AcDbLine
 10
54.2846
 20
47.19
 30
0.0
 11
54.4132
 21
47.35
 31
0.0
  0
LINE
  5
1FF
330
1D
100
AcDbEntity
  8
0
100
AcDbLine
 10
54.2846
 20
47.19
 30
0.0
 11
54.82
 21
46.97
 31
0.0
  0
LINE
  5
200
330
1D
100
AcDbEntity
  8
0
100
AcDbLine
 10
54.4132
 20
47.35
 30
0.0
 11
55.5469
 21
47.41
 31
0.0
  0
LINE
  5
201
330
1D
100
AcDbEntity
  8
0
100
AcDbLine
 10
53.4104
 20
44.47
 30
0.0
 11
54.4085
 21
44.37
 31
0.0
  0
LINE
  5
202
330
1D
100
AcDbEntity
  8
0
100
AcDbLine
 10
54.4085
 20
44.37
 30
0.0
 11
55.5422
 21
44.24
 31
0.0
  0
LINE
  5
209
330
1D
100
AcDbEntity
  8
0
100
AcDbLine
 10
59.5216
 20
41.256
 30
0.0
 11
59.541830327993
 21
41.487362906651
 31
0.0
  0
LINE
  5
20A
330
1D
100
AcDbEntity
  8
0
100
AcDbLine
 10
58.8096
 20
41.318
 30
0.0
 11
59.5216
 21
41.256
 31
0.0
  0
LINE
  5
20E
330
1D
100
AcDbEntity
  8
0
100
AcDbLine
 10
57.2826255556
 20
41.451291971849
 30
0.0
 11
58.8096
 21
41.318
 31
0.0
  0
LINE
  5
20F
330
1D
100
AcDbEntity
  8
0
100
AcDbLine
 10
57.2826
 20
41.451
 30
0.0
 11
57.373235515014
 21
42.486507639415
 31
0.0
  0
LINE
  5
217
330
1D
100
AcDbEntity
  8
0
100
AcDbLine
 10
56.4548
 20
42.63
 30
0.0
 11
57.5429
 21
42.46
 31
0.0
  0
LINE
  5
218
330
1D
100
AcDbEntity
  8
0
100
AcDbLine
 10
57.5151
 20
43.44
 30
0.0
 11
57.559349687052
 21
43.945652688208
 31
0.0
  0
LINE
  5
219
330
1D
100
AcDbEntity
  8
0
100
AcDbLine
 10
57.5429
 20
42.46
 30
0.0
 11
58.1274
 21
42.35
 31
0.0
  0
LINE
  5
21A
330
1D
100
AcDbEntity
  8
0
100
AcDbLine
 10
57.8595
 20
42.37
 30
0.0
 11
58.1274
 21
42.35
 31
0.0
  0
LINE
  5
21B
330
1D
100
AcDbEntity
  8
0
100
AcDbLine
 10
57.367610181562
 20
42.422238398347
 30
0.0
 11
57.8595
 21
42.37
 31
0.0
  0
LINE
  5
21D
330
1D
100
AcDbEntity
  8
0
100
AcDbLine
 10
56.8032
 20
43.5
 30
0.0
 11
57.5151
 21
43.44
 31
0.0
  0
LINE
  5
221
330
1D
100
AcDbEntity
  8
0
100
AcDbLine
 10
57.2103
 20
46.48
 30
0.0
 11
58.8714
 21
46.33
 31
0.0
  0
LINE
  5
223
330
1D
100
AcDbEntity
  8
0
100
AcDbLine
 10
55.5493
 20
46.62
 30
0.0
 11
57.2103
 21
46.48
 31
0.0
  0
LINE
  5
225
330
1D
100
AcDbEntity
  8
0
100
AcDbLine
 10
55.5469
 20
47.41
 30
0.0
 11
58.998183467094
 21
46.873499745668
 31
0.0
  0
LINE
  5
226
330
1D
100
AcDbEntity
  8
0
100
AcDbLine
 10
55.5422
 20
44.24
 30
0.0
 11
57.4847
 21
43.96
 31
0.0
  0
LINE
  5
227
330
1D
100
AcDbEntity
  8
0
100
AcDbLine
 10
57.4847
 20
43.96
 30
0.0
 11
58.6814
 21
43.73
 31
0.0
  0
LINE
  5
228
330
1D
100
AcDbEntity
  8
0
100
AcDbLine
 10
58.6724
 20
43.62
 30
0.0
 11
58.6814
 21
43.73
 31
0.0
  0
LINE
  5
229
330
1D
100
AcDbEntity
  8
0
100
AcDbLine
 10
58.8714
 20
46.33
 30
0.0
 11
59.5833
 21
46.27
 31
0.0
  0
LINE
  5
22C
330
1D
100
AcDbEntity
  8
0
100
AcDbLine
 10
57.9397
 20
43.65
 30
0.0
 11
58.6724
 21
43.62
 31
0.0
  0
LINE
  5
22D
330
1D
100
AcDbEntity
  8
0
100
AcDbLine
 10
57.536747102254
 20
43.687367070268
 30
0.0
 11
57.9397
 21
43.65
 31
0.0
  0
LINE
  5
22F
330
1D
100
AcDbEntity
  8
0
100
AcDbLine
 10
59.5833
 20
46.27
 30
0.0
 11
59.627550757582
 21
46.775664921425
 31
0.0
  0
LINE
  5
231
330
1D
100
AcDbEntity
  8
0
100
AcDbLine
 10
58.998183467094
 20
46.873499745668
 30
0.0
 11
60.1143
 21
46.7
 31
0.0
  0
LINE
  5
232
330
1D
100
AcDbEntity
  8
0
100
AcDbLine
 10
59.594807928413
 20
46.40150409247
 30
0.0
 11
60.3319
 21
46.47
 31
0.0
  0
LINE
  5
23C
330
1D
100
AcDbEntity
  8
0
100
AcDbLine
 10
60.1143
 20
46.7
 30
0.0
 11
60.3319
 21
46.47
 31
0.0
  0
LINE
  5
23E
330
1D
100
AcDbEntity
  8
0
100
AcDbLine
 10
55.9537
 20
49.61
 30
0.0
 11
64.7163
 21
48.83
 31
0.0
  0
LINE
  5
23F
330
1D
100
AcDbEntity
  8
0
100
AcDbLine
 10
49.7052
 20
50.16
 30
0.0
 11
55.9537
 21
49.61
 31
0.0
  0
LINE
  5
242
330
1D
100
AcDbEntity
  8
0
100
AcDbLine
 10
27.1389
 20
52.14
 30
0.0
 11
30.2674
 21
51.88
 31
0.0
  0
LINE
  5
243
330
1D
100
AcDbEntity
  8
0
100
AcDbLine
 10
23.1363
 20
52.46
 30
0.0
 11
27.1389
 21
52.14
 31
0.0
  0
LINE
  5
247
330
1D
100
AcDbEntity
  8
0
100
AcDbLine
 10
35.2818
 20
51.45
 30
0.0
 11
41.8673
 21
50.86
 31
0.0
  0
LINE
  5
248
330
1D
100
AcDbEntity
  8
0
100
AcDbLine
 10
30.2674
 20
51.88
 30
0.0
 11
35.2818
 21
51.45
 31
0.0
  0
LINE
  5
249
330
1D
100
AcDbEntity
  8
0
100
AcDbLine
 10
41.8673
 20
50.86
 30
0.0
 11
49.7052
 21
50.16
 31
0.0
  0
LINE
  5
24A
330
1D
100
AcDbEntity
  8
0
100
AcDbLine
 10
19.8498
 20
52.69
 30
0.0
 11
23.1363
 21
52.46
 31
0.0
  0
LINE
  5
24B
330
1D
100
AcDbEntity
  8
0
100
AcDbLine
 10
17.2003
 20
52.86
 30
0.0
 11
19.8498
 21
52.69
 31
0.0
  0
LINE
  5
24C
330
1D
100
AcDbEntity
  8
0
100
AcDbLine
 10
14.9126
 20
52.97
 30
0.0
 11
17.2003
 21
52.86
 31
0.0
  0
LINE
  5
24D
330
1D
100
AcDbEntity
  8
0
100
AcDbLine
 10
1.28933
 20
78.6
 30
0.0
 11
1.47504
 21
78.7
 31
0.0
  0
LINE
  5
24E
330
1D
100
AcDbEntity
  8
0
100
AcDbLine
 10
0.988586
 20
78.25
 30
0.0
 11
1.28933
 21
78.6
 31
0.0
  0
LINE
  5
24F
330
1D
100
AcDbEntity
  8
0
100
AcDbLine
 10
0.899461
 20
77.84
 30
0.0
 11
0.988586
 21
78.25
 31
0.0
  0
LINE
  5
252
330
1D
100
AcDbEntity
  8
0
100
AcDbLine
 10
27.3698
 20
81.14
 30
0.0
 11
42.5146
 21
81.64
 31
0.0
  0
LINE
  5
253
330
1D
100
AcDbEntity
  8
0
100
AcDbLine
 10
42.5146
 20
81.64
 30
0.0
 11
58.7039
 21
81.65
 31
0.0
  0
LINE
  5
254
330
1D
100
AcDbEntity
  8
0
100
AcDbLine
 10
13.7026
 20
80.21
 30
0.0
 11
27.3698
 21
81.14
 31
0.0
  0
LINE
  5
255
330
1D
100
AcDbEntity
  8
0
100
AcDbLine
 10
58.7039
 20
81.65
 30
0.0
 11
76.4135
 21
81.07
 31
0.0
  0
LINE
  5
256
330
1D
100
AcDbEntity
  8
0
100
AcDbLine
 10
1.88853
 20
78.8
 30
0.0
 11
3.27176
 21
79.02
 31
0.0
  0
LINE
  5
257
330
1D
100
AcDbEntity
  8
0
100
AcDbLine
 10
1.47504
 20
78.7
 30
0.0
 11
1.88853
 21
78.8
 31
0.0
  0
LINE
  5
25D
330
1D
100
AcDbEntity
  8
0
100
AcDbLine
 10
63.8025
 20
39.877
 30
0.0
 11
64.5144
 21
39.815
 31
0.0
  0
LINE
  5
25E
330
1D
100
AcDbEntity
  8
0
100
AcDbLine
 10
63.8025
 20
39.877
 30
0.0
 11
63.841197201936
 21
40.319469383315
 31
0.0
  0
LINE
  5
25F
330
1D
100
AcDbEntity
  8
0
100
AcDbLine
 10
63.8025
 20
39.877
 30
0.0
 11
63.8519868714
 21
40.442840018787
 31
0.0
  0
LINE
  5
263
330
1D
100
AcDbEntity
  8
0
100
AcDbLine
 10
61.475
 20
42.09
 30
0.0
 11
62.1869
 21
42.03
 31
0.0
  0
LINE
  5
264
330
1D
100
AcDbEntity
  8
0
100
AcDbLine
 10
61.475
 20
42.09
 30
0.0
 11
61.513644281595
 21
42.531598261461
 31
0.0
  0
LINE
  5
26F
330
1D
100
AcDbEntity
  8
0
100
AcDbLine
 10
62.6533
 20
42.45
 30
0.0
 11
64.1578
 21
42.27
 31
0.0
  0
LINE
  5
272
330
1D
100
AcDbEntity
  8
0
100
AcDbLine
 10
62.1869
 20
42.03
 30
0.0
 11
65.5091
 21
41.736
 31
0.0
  0
LINE
  5
275
330
1D
100
AcDbEntity
  8
0
100
AcDbLine
 10
63.2706
 20
40.509
 30
0.0
 11
64.4745
 21
40.372
 31
0.0
  0
LINE
  5
276
330
1D
100
AcDbEntity
  8
0
100
AcDbLine
 10
63.2068
 20
40.504
 30
0.0
 11
63.849540721915
 21
40.414870393078
 31
0.0
  0
LINE
  5
277
330
1D
100
AcDbEntity
  8
0
100
AcDbLine
 10
63.2068
 20
40.504
 30
0.0
 11
63.2706
 21
40.509
 31
0.0
  0
LINE
  5
27A
330
1D
100
AcDbEntity
  8
0
100
AcDbLine
 10
60.9935
 20
42.49
 30
0.0
 11
61.502194217571
 21
42.400755400426
 31
0.0
  0
LINE
  5
27B
330
1D
100
AcDbEntity
  8
0
100
AcDbLine
 10
60.9773
 20
42.57
 30
0.0
 11
60.9935
 21
42.49
 31
0.0
  0
LINE
  5
27C
330
1D
100
AcDbEntity
  8
0
100
AcDbLine
 10
60.9773
 20
42.57
 30
0.0
 11
62.6533
 21
42.45
 31
0.0
  0
LINE
  5
27D
330
1D
100
AcDbEntity
  8
0
100
AcDbLine
 10
63.8098
 20
44.08
 30
0.0
 11
63.8227
 21
44.21
 31
0.0
  0
LINE
  5
27E
330
1D
100
AcDbEntity
  8
0
100
AcDbLine
 10
63.8098
 20
44.08
 30
0.0
 11
64.309329523323
 21
43.965752698823
 31
0.0
  0
LINE
  5
27F
330
1D
100
AcDbEntity
  8
0
100
AcDbLine
 10
63.8227
 20
44.21
 30
0.0
 11
64.9498
 21
44.19
 31
0.0
  0
LINE
  5
282
330
1D
100
AcDbEntity
  8
0
100
AcDbLine
 10
63.4743
 20
84.18
 30
0.0
 11
63.4906
 21
83.9
 31
0.0
  0
LINE
  5
283
330
1D
100
AcDbEntity
  8
0
100
AcDbLine
 10
63.4743
 20
84.18
 30
0.0
 11
63.6022
 21
84.43
 31
0.0
  0
LINE
  5
284
330
1D
100
AcDbEntity
  8
0
100
AcDbLine
 10
63.6022
 20
84.43
 30
0.0
 11
68.9941
 21
89.86
 31
0.0
  0
LINE
  5
285
330
1D
100
AcDbEntity
  8
0
100
AcDbLine
 10
63.4906
 20
83.9
 30
0.0
 11
63.6468
 21
83.68
 31
0.0
  0
LINE
  5
286
330
1D
100
AcDbEntity
  8
0
100
AcDbLine
 10
63.6468
 20
83.68
 30
0.0
 11
63.8935
 21
83.58
 31
0.0
  0
LINE
  5
287
330
1D
100
AcDbEntity
  8
0
100
AcDbLine
 10
64.5144
 20
39.815
 30
0.0
 11
66.1755
 21
39.67
 31
0.0
  0
LINE
  5
28D
330
1D
100
AcDbEntity
  8
0
100
AcDbLine
 10
64.1578
 20
42.27
 30
0.0
 11
65.9596
 21
42.03
 31
0.0
  0
LINE
  5
28E
330
1D
100
AcDbEntity
  8
0
100
AcDbLine
 10
64.2992
 20
43.85
 30
0.0
 11
66.6722
 21
43.64
 31
0.0
  0
LINE
  5
290
330
1D
100
AcDbEntity
  8
0
100
AcDbLine
 10
64.2992
 20
43.85
 30
0.0
 11
64.3299159915
 21
44.200999627513
 31
0.0
  0
LINE
  5
294
330
1D
100
AcDbEntity
  8
0
100
AcDbLine
 10
64.4745
 20
40.372
 30
0.0
 11
66.4219
 21
40.137
 31
0.0
  0
LINE
  5
297
330
1D
100
AcDbEntity
  8
0
100
AcDbLine
 10
65.5091
 20
41.736
 30
0.0
 11
66.221
 21
41.673
 31
0.0
  0
LINE
  5
29D
330
1D
100
AcDbEntity
  8
0
100
AcDbLine
 10
64.9498
 20
44.19
 30
0.0
 11
66.7626
 21
44.03
 31
0.0
  0
LINE
  5
29E
330
1D
100
AcDbEntity
  8
0
100
AcDbLine
 10
64.7163
 20
48.83
 30
0.0
 11
79.0816
 21
47.57
 31
0.0
  0
LINE
  5
2AA
330
1D
100
AcDbEntity
  8
0
100
AcDbLine
 10
68.5484
 20
39.462
 30
0.0
 11
68.584139566324
 21
39.87024130602
 31
0.0
  0
LINE
  5
2AB
330
1D
100
AcDbEntity
  8
0
100
AcDbLine
 10
68.5484
 20
39.462
 30
0.0
 11
68.584139566324
 21
39.87024130602
 31
0.0
  0
LINE
  5
2AC
330
1D
100
AcDbEntity
  8
0
100
AcDbLine
 10
66.1755
 20
39.67
 30
0.0
 11
67.8365
 21
39.524
 31
0.0
  0
LINE
  5
2AE
330
1D
100
AcDbEntity
  8
0
100
AcDbLine
 10
67.8365
 20
39.524
 30
0.0
 11
68.5484
 21
39.462
 31
0.0
  0
LINE
  5
2B0
330
1D
100
AcDbEntity
  8
0
100
AcDbLine
 10
68.572641909199
 20
39.738907351984
 30
0.0
 11
69.153015934777
 21
39.672813766068
 31
0.0
  0
LINE
  5
2B2
330
1D
100
AcDbEntity
  8
0
100
AcDbLine
 10
66.221
 20
41.673
 30
0.0
 11
66.247940485942
 21
41.980670487682
 31
0.0
  0
LINE
  5
2B4
330
1D
100
AcDbEntity
  8
0
100
AcDbLine
 10
66.231246943298
 20
41.790023948584
 30
0.0
 11
66.6753
 21
41.748
 31
0.0
  0
LINE
  5
2B8
330
1D
100
AcDbEntity
  8
0
100
AcDbLine
 10
67.1754
 20
41.822
 30
0.0
 11
67.3839
 21
41.717
 31
0.0
  0
LINE
  5
2B9
330
1D
100
AcDbEntity
  8
0
100
AcDbLine
 10
66.6753
 20
41.748
 30
0.0
 11
67.3839
 21
41.717
 31
0.0
  0
LINE
  5
2BB
330
1D
100
AcDbEntity
  8
0
100
AcDbLine
 10
66.4219
 20
40.137
 30
0.0
 11
68.3688
 21
39.898
 31
0.0
  0
LINE
  5
2BE
330
1D
100
AcDbEntity
  8
0
100
AcDbLine
 10
68.8641
 20
40.379
 30
0.0
 11
69.211554329409
 21
40.341612909889
 31
0.0
  0
LINE
  5
2BF
330
1D
100
AcDbEntity
  8
0
100
AcDbLine
 10
68.6636
 20
40.398
 30
0.0
 11
68.8641
 21
40.379
 31
0.0
  0
LINE
  5
2C0
330
1D
100
AcDbEntity
  8
0
100
AcDbLine
 10
68.6636
 20
40.398
 30
0.0
 11
69.6154
 21
40.289
 31
0.0
  0
LINE
  5
2C4
330
1D
100
AcDbEntity
  8
0
100
AcDbLine
 10
66.6722
 20
43.64
 30
0.0
 11
69.0452
 21
43.43
 31
0.0
  0
LINE
  5
2C6
330
1D
100
AcDbEntity
  8
0
100
AcDbLine
 10
66.7626
 20
44.03
 30
0.0
 11
68.0137
 21
43.87
 31
0.0
  0
LINE
  5
2CD
330
1D
100
AcDbEntity
  8
0
100
AcDbLine
 10
68.0137
 20
43.87
 30
0.0
 11
69.0427
 21
43.71
 31
0.0
  0
LINE
  5
2CE
330
1D
100
AcDbEntity
  8
0
100
AcDbLine
 10
65.9596
 20
42.03
 30
0.0
 11
67.1754
 21
41.822
 31
0.0
  0
LINE
  5
2D1
330
1D
100
AcDbEntity
  8
0
100
AcDbLine
 10
68.7713
 20
83.15
 30
0.0
 11
77.530716236516
 21
82.383954805826
 31
0.0
  0
LINE
  5
2D3
330
1D
100
AcDbEntity
  8
0
100
AcDbLine
 10
65.5788
 20
83.43
 30
0.0
 11
68.7713
 21
83.15
 31
0.0
  0
LINE
  5
2DA
330
1D
100
AcDbEntity
  8
0
100
AcDbLine
 10
64.2769
 20
83.54
 30
0.0
 11
64.7321
 21
83.5
 31
0.0
  0
LINE
  5
2DB
330
1D
100
AcDbEntity
  8
0
100
AcDbLine
 10
64.7321
 20
83.5
 30
0.0
 11
65.5788
 21
83.43
 31
0.0
  0
LINE
  5
2DC
330
1D
100
AcDbEntity
  8
0
100
AcDbLine
 10
69.1301
 20
39.411
 30
0.0
 11
69.153015934777
 21
39.672813766068
 31
0.0
  0
LINE
  5
2DD
330
1D
100
AcDbEntity
  8
0
100
AcDbLine
 10
69.1301
 20
39.411
 30
0.0
 11
69.842
 21
39.349
 31
0.0
  0
LINE
  5
2DE
330
1D
100
AcDbEntity
  8
0
100
AcDbLine
 10
69.1301
 20
39.411
 30
0.0
 11
69.2118628605
 21
40.345137866983
 31
0.0
  0
LINE
  5
2DF
330
1D
100
AcDbEntity
  8
0
100
AcDbLine
 10
71.503
 20
39.203
 30
0.0
 11
73.1641
 21
39.058
 31
0.0
  0
LINE
  5
2E1
330
1D
100
AcDbEntity
  8
0
100
AcDbLine
 10
69.842
 20
39.349
 30
0.0
 11
71.503
 21
39.203
 31
0.0
  0
LINE
  5
2E3
330
1D
100
AcDbEntity
  8
0
100
AcDbLine
 10
71.024
 20
40.249
 30
0.0
 11
71.7359
 21
40.187
 31
0.0
  0
LINE
  5
2E4
330
1D
100
AcDbEntity
  8
0
100
AcDbLine
 10
71.024
 20
40.249
 30
0.0
 11
71.083722914279
 21
40.931606324056
 31
0.0
  0
LINE
  5
2E5
330
1D
100
AcDbEntity
  8
0
100
AcDbLine
 10
71.024
 20
40.249
 30
0.0
 11
71.083722914279
 21
40.931606324056
 31
0.0
  0
LINE
  5
2E6
330
1D
100
AcDbEntity
  8
0
100
AcDbLine
 10
70.572
 20
40.182
 30
0.0
 11
71.6757
 21
40.06
 31
0.0
  0
LINE
  5
2E7
330
1D
100
AcDbEntity
  8
0
100
AcDbLine
 10
69.6154
 20
40.289
 30
0.0
 11
70.572
 21
40.182
 31
0.0
  0
LINE
  5
2E8
330
1D
100
AcDbEntity
  8
0
100
AcDbLine
 10
70.426
 20
40.985
 30
0.0
 11
71.6332
 21
40.887
 31
0.0
  0
LINE
  5
2E9
330
1D
100
AcDbEntity
  8
0
100
AcDbLine
 10
70.4226
 20
40.947
 30
0.0
 11
71.077190269367
 21
40.856941100769
 31
0.0
  0
LINE
  5
2EA
330
1D
100
AcDbEntity
  8
0
100
AcDbLine
 10
71.6332
 20
40.887
 30
0.0
 11
73.5837
 21
40.688
 31
0.0
  0
LINE
  5
2EB
330
1D
100
AcDbEntity
  8
0
100
AcDbLine
 10
71.5394
 20
42.38
 30
0.0
 11
72.6319
 21
42.38
 31
0.0
  0
LINE
  5
2EC
330
1D
100
AcDbEntity
  8
0
100
AcDbLine
 10
71.5394
 20
42.38
 30
0.0
 11
72.528162633952
 21
42.182023673885
 31
0.0
  0
LINE
  5
2ED
330
1D
100
AcDbEntity
  8
0
100
AcDbLine
 10
69.0452
 20
43.43
 30
0.0
 11
69.069064169891
 21
43.702764668483
 31
0.0
  0
LINE
  5
2EF
330
1D
100
AcDbEntity
  8
0
100
AcDbLine
 10
69.0427
 20
43.71
 30
0.0
 11
69.8079
 21
43.5
 31
0.0
  0
LINE
  5
2F0
330
1D
100
AcDbEntity
  8
0
100
AcDbLine
 10
69.401
 20
43.41
 30
0.0
 11
69.481684977962
 21
43.427846271852
 31
0.0
  0
LINE
  5
2F1
330
1D
100
AcDbEntity
  8
0
100
AcDbLine
 10
69.401
 20
43.41
 30
0.0
 11
69.8079
 21
43.5
 31
0.0
  0
LINE
  5
2F2
330
1D
100
AcDbEntity
  8
0
100
AcDbLine
 10
79.2299
 20
37.524
 30
0.0
 11
79.9418
 21
37.461
 31
0.0
  0
LINE
  5
2F3
330
1D
100
AcDbEntity
  8
0
100
AcDbLine
 10
79.2299
 20
37.524
 30
0.0
 11
79.288981769106
 21
38.198600465975
 31
0.0
  0
LINE
  5
2F5
330
1D
100
AcDbEntity
  8
0
100
AcDbLine
 10
83.2639
 20
37.171
 30
0.0
 11
83.9759
 21
37.108
 31
0.0
  0
LINE
  5
2F6
330
1D
100
AcDbEntity
  8
0
100
AcDbLine
 10
83.2639
 20
37.171
 30
0.0
 11
83.35108782155
 21
38.16711786025
 31
0.0
  0
LINE
  5
2F7
330
1D
100
AcDbEntity
  8
0
100
AcDbLine
 10
81.6029
 20
37.316
 30
0.0
 11
83.2639
 21
37.171
 31
0.0
  0
LINE
  5
2F8
330
1D
100
AcDbEntity
  8
0
100
AcDbLine
 10
81.6029
 20
37.316
 30
0.0
 11
81.689980663607
 21
38.312121247232
 31
0.0
  0
LINE
  5
2F9
330
1D
100
AcDbEntity
  8
0
100
AcDbLine
 10
83.9759
 20
37.108
 30
0.0
 11
84.034975413254
 21
37.783341231826
 31
0.0
  0
LINE
  5
2FA
330
1D
100
AcDbEntity
  8
0
100
AcDbLine
 10
83.9759
 20
37.108
 30
0.0
 11
84.063109045377
 21
38.104960679362
 31
0.0
  0
LINE
  5
2FB
330
1D
100
AcDbEntity
  8
0
100
AcDbLine
 10
79.9418
 20
37.461
 30
0.0
 11
81.6029
 21
37.316
 31
0.0
  0
LINE
  5
2FC
330
1D
100
AcDbEntity
  8
0
100
AcDbLine
 10
79.9418
 20
37.461
 30
0.0
 11
80.04623977043
 21
38.654220782406
 31
0.0
  0
LINE
  5
2FD
330
1D
100
AcDbEntity
  8
0
100
AcDbLine
 10
84.034975413254
 20
37.783341231826
 30
0.0
 11
85.1219
 21
37.688
 31
0.0
  0
LINE
  5
2FE
330
1D
100
AcDbEntity
  8
0
100
AcDbLine
 10
85.1219
 20
37.688
 30
0.0
 11
88.7004
 21
37.375
 31
0.0
  0
LINE
  5
2FF
330
1D
100
AcDbEntity
  8
0
100
AcDbLine
 10
85.1985
 20
38.005
 30
0.0
 11
85.264693305561
 21
38.76216757279
 31
0.0
  0
LINE
  5
301
330
1D
100
AcDbEntity
  8
0
100
AcDbLine
 10
88.7004
 20
37.375
 30
0.0
 11
92.5872
 21
37.035
 31
0.0
  0
LINE
  5
304
330
1D
100
AcDbEntity
  8
0
100
AcDbLine
 10
104.976
 20
35.271
 30
0.0
 11
105.689
 21
35.209
 31
0.0
  0
LINE
  5
306
330
1D
100
AcDbEntity
  8
0
100
AcDbLine
 10
101.654
 20
35.562
 30
0.0
 11
103.316
 21
35.416
 31
0.0
  0
LINE
  5
308
330
1D
100
AcDbEntity
  8
0
100
AcDbLine
 10
104.64
 20
36.304
 30
0.0
 11
104.710508939469
 21
37.109516118108
 31
0.0
  0
LINE
  5
309
330
1D
100
AcDbEntity
  8
0
100
AcDbLine
 10
103.928
 20
36.367
 30
0.0
 11
104.64
 21
36.304
 31
0.0
  0
LINE
  5
30B
330
1D
100
AcDbEntity
  8
0
100
AcDbLine
 10
100.943
 20
35.624
 30
0.0
 11
101.002082527013
 21
36.298977218008
 31
0.0
  0
LINE
  5
30C
330
1D
100
AcDbEntity
  8
0
100
AcDbLine
 10
100.943
 20
35.624
 30
0.0
 11
101.654
 21
35.562
 31
0.0
  0
LINE
  5
30D
330
1D
100
AcDbEntity
  8
0
100
AcDbLine
 10
100.943
 20
35.624
 30
0.0
 11
101.030185556814
 21
36.620034996543
 31
0.0
  0
LINE
  5
30E
330
1D
100
AcDbEntity
  8
0
100
AcDbLine
 10
103.316
 20
35.416
 30
0.0
 11
104.976
 21
35.271
 31
0.0
  0
LINE
  5
310
330
1D
100
AcDbEntity
  8
0
100
AcDbLine
 10
100.052
 20
36.382
 30
0.0
 11
101.002082527013
 21
36.298977218008
 31
0.0
  0
LINE
  5
313
330
1D
100
AcDbEntity
  8
0
100
AcDbLine
 10
96.4742
 20
36.695
 30
0.0
 11
100.052
 21
36.382
 31
0.0
  0
LINE
  5
314
330
1D
100
AcDbEntity
  8
0
100
AcDbLine
 10
100.607
 20
36.657
 30
0.0
 11
102.267
 21
36.512
 31
0.0
  0
LINE
  5
316
330
1D
100
AcDbEntity
  8
0
100
AcDbLine
 10
102.267
 20
36.512
 30
0.0
 11
103.928
 21
36.367
 31
0.0
  0
LINE
  5
318
330
1D
100
AcDbEntity
  8
0
100
AcDbLine
 10
99.8943
 20
36.72
 30
0.0
 11
100.607
 21
36.657
 31
0.0
  0
LINE
  5
319
330
1D
100
AcDbEntity
  8
0
100
AcDbLine
 10
99.8943
 20
36.72
 30
0.0
 11
99.95965067971
 21
37.467100609679
 31
0.0
  0
LINE
  5
31B
330
1D
100
AcDbEntity
  8
0
100
AcDbLine
 10
104.656497528812
 20
36.492472915165
 30
0.0
 11
105.465
 21
36.431
 31
0.0
  0
LINE
  5
31C
330
1D
100
AcDbEntity
  8
0
100
AcDbLine
 10
105.689
 20
35.209
 30
0.0
 11
105.793409964775
 21
36.404554102397
 31
0.0
  0
LINE
  5
31D
330
1D
100
AcDbEntity
  8
0
100
AcDbLine
 10
105.747909888179
 20
35.883552075912
 30
0.0
 11
107.086
 21
35.767
 31
0.0
  0
LINE
  5
31E
330
1D
100
AcDbEntity
  8
0
100
AcDbLine
 10
105.465
 20
36.431
 30
0.0
 11
106.148
 21
36.376
 31
0.0
  0
LINE
  5
31F
330
1D
100
AcDbEntity
  8
0
100
AcDbLine
 10
92.5872
 20
37.035
 30
0.0
 11
96.4742
 21
36.695
 31
0.0
  0
LINE
  5
324
330
1D
100
AcDbEntity
  8
0
100
AcDbLine
 10
107.086
 20
35.767
 30
0.0
 11
107.641
 21
35.718
 31
0.0
  0
LINE
  5
325
330
1D
100
AcDbEntity
  8
0
100
AcDbLine
 10
106.539
 20
36.315
 30
0.0
 11
106.67
 21
36.329
 31
0.0
  0
LINE
  5
327
330
1D
100
AcDbEntity
  8
0
100
AcDbLine
 10
106.148
 20
36.376
 30
0.0
 11
106.67
 21
36.329
 31
0.0
  0
LINE
  5
328
330
1D
100
AcDbEntity
  8
0
100
AcDbLine
 10
105.790007396974
 20
36.365592745579
 30
0.0
 11
106.539
 21
36.315
 31
0.0
  0
LINE
  5
329
330
1D
100
AcDbEntity
  8
0
100
AcDbLine
 10
105.780887001279
 20
36.261158973271
 30
0.0
 11
109.404
 21
35.999
 31
0.0
  0
LINE
  5
32A
330
1D
100
AcDbEntity
  8
0
100
AcDbLine
 10
95.0759
 20
37.141
 30
0.0
 11
95.20437134152
 21
38.608780654949
 31
0.0
  0
LINE
  5
32B
330
1D
100
AcDbEntity
  8
0
100
AcDbLine
 10
94.364
 20
37.203
 30
0.0
 11
95.0759
 21
37.141
 31
0.0
  0
LINE
  5
333
330
1D
100
AcDbEntity
  8
0
100
AcDbLine
 10
90.33
 20
37.556
 30
0.0
 11
94.364
 21
37.203
 31
0.0
  0
LINE
  5
334
330
1D
100
AcDbEntity
  8
0
100
AcDbLine
 10
90.33
 20
37.556
 30
0.0
 11
90.458134094559
 21
39.021397722078
 31
0.0
  0
LINE
  5
33D
330
1D
100
AcDbEntity
  8
0
100
AcDbLine
 10
103.402
 20
37.417
 30
0.0
 11
103.489917273867
 21
38.421797650643
 31
0.0
  0
LINE
  5
33E
330
1D
100
AcDbEntity
  8
0
100
AcDbLine
 10
102.756
 20
37.269
 30
0.0
 11
104.125
 21
37.16
 31
0.0
  0
LINE
  5
340
330
1D
100
AcDbEntity
  8
0
100
AcDbLine
 10
101.672
 20
37.351
 30
0.0
 11
102.756
 21
37.269
 31
0.0
  0
LINE
  5
341
330
1D
100
AcDbEntity
  8
0
100
AcDbLine
 10
102.69
 20
37.479
 30
0.0
 11
103.402
 21
37.417
 31
0.0
  0
LINE
  5
343
330
1D
100
AcDbEntity
  8
0
100
AcDbLine
 10
100.707
 20
37.421
 30
0.0
 11
101.672
 21
37.351
 31
0.0
  0
LINE
  5
344
330
1D
100
AcDbEntity
  8
0
100
AcDbLine
 10
99.6268
 20
37.464
 30
0.0
 11
99.956704504069
 21
37.433419405026
 31
0.0
  0
LINE
  5
345
330
1D
100
AcDbEntity
  8
0
100
AcDbLine
 10
101.029
 20
37.624
 30
0.0
 11
102.69
 21
37.479
 31
0.0
  0
LINE
  5
347
330
1D
100
AcDbEntity
  8
0
100
AcDbLine
 10
98.6565
 20
37.832
 30
0.0
 11
99.3678
 21
37.769
 31
0.0
  0
LINE
  5
348
330
1D
100
AcDbEntity
  8
0
100
AcDbLine
 10
98.6565
 20
37.832
 30
0.0
 11
98.737335836316
 21
38.755361159206
 31
0.0
  0
LINE
  5
349
330
1D
100
AcDbEntity
  8
0
100
AcDbLine
 10
99.3678
 20
37.769
 30
0.0
 11
101.029
 21
37.624
 31
0.0
  0
LINE
  5
34D
330
1D
100
AcDbEntity
  8
0
100
AcDbLine
 10
99.556
 20
37.492
 30
0.0
 11
99.6268
 21
37.464
 31
0.0
  0
LINE
  5
34E
330
1D
100
AcDbEntity
  8
0
100
AcDbLine
 10
99.556
 20
37.492
 30
0.0
 11
100.707
 21
37.421
 31
0.0
  0
LINE
  5
357
330
1D
100
AcDbEntity
  8
0
100
AcDbLine
 10
73.876
 20
38.996
 30
0.0
 11
73.947760002528
 21
39.816867231116
 31
0.0
  0
LINE
  5
358
330
1D
100
AcDbEntity
  8
0
100
AcDbLine
 10
73.1641
 20
39.058
 30
0.0
 11
73.876
 21
38.996
 31
0.0
  0
LINE
  5
35A
330
1D
100
AcDbEntity
  8
0
100
AcDbLine
 10
73.889495029738
 20
39.15037050313
 30
0.0
 11
76.0542
 21
38.917
 31
0.0
  0
LINE
  5
35E
330
1D
100
AcDbEntity
  8
0
100
AcDbLine
 10
71.7359
 20
40.187
 30
0.0
 11
73.397
 21
40.042
 31
0.0
  0
LINE
  5
360
330
1D
100
AcDbEntity
  8
0
100
AcDbLine
 10
72.4361
 20
41.13
 30
0.0
 11
73.148
 21
41.067
 31
0.0
  0
LINE
  5
361
330
1D
100
AcDbEntity
  8
0
100
AcDbLine
 10
72.4361
 20
41.13
 30
0.0
 11
72.545487550201
 21
42.38
 31
0.0
  0
LINE
  5
362
330
1D
100
AcDbEntity
  8
0
100
AcDbLine
 10
71.6757
 20
40.06
 30
0.0
 11
73.947760002528
 21
39.816867231116
 31
0.0
  0
LINE
  5
363
330
1D
100
AcDbEntity
  8
0
100
AcDbLine
 10
73.397
 20
40.042
 30
0.0
 11
75.058
 21
39.896
 31
0.0
  0
LINE
  5
365
330
1D
100
AcDbEntity
  8
0
100
AcDbLine
 10
73.148
 20
41.067
 30
0.0
 11
74.8091
 21
40.922
 31
0.0
  0
LINE
  5
36A
330
1D
100
AcDbEntity
  8
0
100
AcDbLine
 10
73.5837
 20
40.688
 30
0.0
 11
74.9323
 21
40.538
 31
0.0
  0
LINE
  5
36B
330
1D
100
AcDbEntity
  8
0
100
AcDbLine
 10
73.6472
 20
42.32
 30
0.0
 11
74.8523
 21
42.21
 31
0.0
  0
LINE
  5
36C
330
1D
100
AcDbEntity
  8
0
100
AcDbLine
 10
72.6319
 20
42.38
 30
0.0
 11
73.6472
 21
42.32
 31
0.0
  0
LINE
  5
36F
330
1D
100
AcDbEntity
  8
0
100
AcDbLine
 10
77.5331
 20
38.352
 30
0.0
 11
78.0884
 21
38.304
 31
0.0
  0
LINE
  5
370
330
1D
100
AcDbEntity
  8
0
100
AcDbLine
 10
78.0884
 20
38.304
 30
0.0
 11
79.288981769106
 21
38.198600465975
 31
0.0
  0
LINE
  5
372
330
1D
100
AcDbEntity
  8
0
100
AcDbLine
 10
77.1892
 20
38.684
 30
0.0
 11
77.199294057709
 21
38.799480357484
 31
0.0
  0
LINE
  5
373
330
1D
100
AcDbEntity
  8
0
100
AcDbLine
 10
77.1892
 20
38.684
 30
0.0
 11
77.5331
 21
38.352
 31
0.0
  0
LINE
  5
374
330
1D
100
AcDbEntity
  8
0
100
AcDbLine
 10
77.1892
 20
38.684
 30
0.0
 11
77.199294057709
 21
38.799480357484
 31
0.0
  0
LINE
  5
376
330
1D
100
AcDbEntity
  8
0
100
AcDbLine
 10
84.4865
 20
38.068
 30
0.0
 11
85.1985
 21
38.005
 31
0.0
  0
LINE
  5
377
330
1D
100
AcDbEntity
  8
0
100
AcDbLine
 10
84.4865
 20
38.068
 30
0.0
 11
84.554236772132
 21
38.842356582748
 31
0.0
  0
LINE
  5
378
330
1D
100
AcDbEntity
  8
0
100
AcDbLine
 10
84.061177105189
 20
38.082875029944
 30
0.0
 11
84.963
 21
38.004
 31
0.0
  0
LINE
  5
379
330
1D
100
AcDbEntity
  8
0
100
AcDbLine
 10
82.8255
 20
38.213
 30
0.0
 11
84.4865
 21
38.068
 31
0.0
  0
LINE
  5
37A
330
1D
100
AcDbEntity
  8
0
100
AcDbLine
 10
82.8255
 20
38.213
 30
0.0
 11
82.894908707028
 21
39.005855485143
 31
0.0
  0
LINE
  5
37B
330
1D
100
AcDbEntity
  8
0
100
AcDbLine
 10
80.4525
 20
38.421
 30
0.0
 11
81.1644
 21
38.358
 31
0.0
  0
LINE
  5
37C
330
1D
100
AcDbEntity
  8
0
100
AcDbLine
 10
80.4525
 20
38.421
 30
0.0
 11
80.523013401281
 21
39.2266131826
 31
0.0
  0
LINE
  5
37D
330
1D
100
AcDbEntity
  8
0
100
AcDbLine
 10
81.1644
 20
38.358
 30
0.0
 11
82.8255
 21
38.213
 31
0.0
  0
LINE
  5
37E
330
1D
100
AcDbEntity
  8
0
100
AcDbLine
 10
81.1644
 20
38.358
 30
0.0
 11
81.234790566927
 21
39.162694365378
 31
0.0
  0
LINE
  5
383
330
1D
100
AcDbEntity
  8
0
100
AcDbLine
 10
78.804
 20
38.767
 30
0.0
 11
79.3263
 21
38.723
 31
0.0
  0
LINE
  5
384
330
1D
100
AcDbEntity
  8
0
100
AcDbLine
 10
85.9371
 20
38.662
 30
0.0
 11
86.0114
 21
38.677
 31
0.0
  0
LINE
  5
388
330
1D
100
AcDbEntity
  8
0
100
AcDbLine
 10
79.3263
 20
38.723
 30
0.0
 11
80.008
 21
38.658
 31
0.0
  0
LINE
  5
389
330
1D
100
AcDbEntity
  8
0
100
AcDbLine
 10
80.008
 20
38.658
 30
0.0
 11
80.469254053977
 21
38.612414490028
 31
0.0
  0
LINE
  5
38A
330
1D
100
AcDbEntity
  8
0
100
AcDbLine
 10
78.8029
 20
38.755
 30
0.0
 11
79.332123657963
 21
38.691198077151
 31
0.0
  0
LINE
  5
38B
330
1D
100
AcDbEntity
  8
0
100
AcDbLine
 10
75.7699
 20
39.834
 30
0.0
 11
75.821932349482
 21
40.429303567039
 31
0.0
  0
LINE
  5
38C
330
1D
100
AcDbEntity
  8
0
100
AcDbLine
 10
75.058
 20
39.896
 30
0.0
 11
75.7699
 21
39.834
 31
0.0
  0
LINE
  5
391
330
1D
100
AcDbEntity
  8
0
100
AcDbLine
 10
75.814600157421
 20
40.345415752412
 30
0.0
 11
76.4481
 21
40.29
 31
0.0
  0
LINE
  5
392
330
1D
100
AcDbEntity
  8
0
100
AcDbLine
 10
76.4481
 20
40.29
 30
0.0
 11
76.8764
 21
40.279
 31
0.0
  0
LINE
  5
393
330
1D
100
AcDbEntity
  8
0
100
AcDbLine
 10
74.8091
 20
40.922
 30
0.0
 11
76.4701
 21
40.777
 31
0.0
  0
LINE
  5
395
330
1D
100
AcDbEntity
  8
0
100
AcDbLine
 10
77.182
 20
40.714
 30
0.0
 11
77.285148718462
 21
41.894127375524
 31
0.0
  0
LINE
  5
396
330
1D
100
AcDbEntity
  8
0
100
AcDbLine
 10
76.4701
 20
40.777
 30
0.0
 11
77.182
 21
40.714
 31
0.0
  0
LINE
  5
398
330
1D
100
AcDbEntity
  8
0
100
AcDbLine
 10
74.9323
 20
40.538
 30
0.0
 11
76.0454
 21
40.402
 31
0.0
  0
LINE
  5
399
330
1D
100
AcDbEntity
  8
0
100
AcDbLine
 10
76.0454
 20
40.402
 30
0.0
 11
76.8764
 21
40.279
 31
0.0
  0
LINE
  5
39B
330
1D
100
AcDbEntity
  8
0
100
AcDbLine
 10
79.5144
 20
39.303
 30
0.0
 11
79.963
 21
39.237
 31
0.0
  0
LINE
  5
39C
330
1D
100
AcDbEntity
  8
0
100
AcDbLine
 10
79.5144
 20
39.303
 30
0.0
 11
80.3294
 21
39.244
 31
0.0
  0
LINE
  5
39E
330
1D
100
AcDbEntity
  8
0
100
AcDbLine
 10
80.3294
 20
39.244
 30
0.0
 11
81.4541
 21
39.143
 31
0.0
  0
LINE
  5
39F
330
1D
100
AcDbEntity
  8
0
100
AcDbLine
 10
79.963
 20
39.237
 30
0.0
 11
80.518706400942
 21
39.177405851972
 31
0.0
  0
LINE
  5
3A2
330
1D
100
AcDbEntity
  8
0
100
AcDbLine
 10
77.268569338164
 20
41.704442221395
 30
0.0
 11
77.9166
 21
41.729
 31
0.0
  0
LINE
  5
3A4
330
1D
100
AcDbEntity
  8
0
100
AcDbLine
 10
77.4011
 20
41.877
 30
0.0
 11
77.466652846683
 21
41.858179784076
 31
0.0
  0
LINE
  5
3A5
330
1D
100
AcDbEntity
  8
0
100
AcDbLine
 10
77.4011
 20
41.877
 30
0.0
 11
77.9166
 21
41.729
 31
0.0
  0
LINE
  5
3A7
330
1D
100
AcDbEntity
  8
0
100
AcDbLine
 10
74.8523
 20
42.21
 30
0.0
 11
76.2976
 21
42.04
 31
0.0
  0
LINE
  5
3A8
330
1D
100
AcDbEntity
  8
0
100
AcDbLine
 10
76.2976
 20
42.04
 30
0.0
 11
77.4011
 21
41.877
 31
0.0
  0
LINE
  5
3A9
330
1D
100
AcDbEntity
  8
0
100
AcDbLine
 10
81.865
 20
39.301
 30
0.0
 11
82.5769
 21
39.238
 31
0.0
  0
LINE
  5
3AA
330
1D
100
AcDbEntity
  8
0
100
AcDbLine
 10
81.865
 20
39.301
 30
0.0
 11
81.951949007249
 21
40.294389415082
 31
0.0
  0
LINE
  5
3AB
330
1D
100
AcDbEntity
  8
0
100
AcDbLine
 10
82.5769
 20
39.238
 30
0.0
 11
84.238
 21
39.093
 31
0.0
  0
LINE
  5
3AC
330
1D
100
AcDbEntity
  8
0
100
AcDbLine
 10
82.5769
 20
39.238
 30
0.0
 11
82.665894480927
 21
40.255371509815
 31
0.0
  0
LINE
  5
3AD
330
1D
100
AcDbEntity
  8
0
100
AcDbLine
 10
81.4541
 20
39.143
 30
0.0
 11
82.8224
 21
39.013
 31
0.0
  0
LINE
  5
3AE
330
1D
100
AcDbEntity
  8
0
100
AcDbLine
 10
84.238
 20
39.093
 30
0.0
 11
85.899
 21
38.948
 31
0.0
  0
LINE
  5
3AF
330
1D
100
AcDbEntity
  8
0
100
AcDbLine
 10
84.238
 20
39.093
 30
0.0
 11
84.327332065121
 21
40.113439954343
 31
0.0
  0
LINE
  5
3B0
330
1D
100
AcDbEntity
  8
0
100
AcDbLine
 10
85.899
 20
38.948
 30
0.0
 11
86.6109
 21
38.886
 31
0.0
  0
LINE
  5
3B1
330
1D
100
AcDbEntity
  8
0
100
AcDbLine
 10
85.899
 20
38.948
 30
0.0
 11
85.98497367832
 21
39.930838149134
 31
0.0
  0
LINE
  5
3B2
330
1D
100
AcDbEntity
  8
0
100
AcDbLine
 10
82.8224
 20
39.013
 30
0.0
 11
84.6086
 21
38.837
 31
0.0
  0
LINE
  5
3B3
330
1D
100
AcDbEntity
  8
0
100
AcDbLine
 10
84.2939
 20
40.117
 30
0.0
 11
85.7401
 21
39.963
 31
0.0
  0
LINE
  5
3B4
330
1D
100
AcDbEntity
  8
0
100
AcDbLine
 10
85.7401
 20
39.963
 30
0.0
 11
86.8441
 21
39.818
 31
0.0
  0
LINE
  5
3B5
330
1D
100
AcDbEntity
  8
0
100
AcDbLine
 10
82.6585
 20
40.256
 30
0.0
 11
84.2939
 21
40.117
 31
0.0
  0
LINE
  5
3B6
330
1D
100
AcDbEntity
  8
0
100
AcDbLine
 10
81.6367
 20
41.83
 30
0.0
 11
82.3486
 21
41.768
 31
0.0
  0
LINE
  5
3B7
330
1D
100
AcDbEntity
  8
0
100
AcDbLine
 10
81.6367
 20
41.83
 30
0.0
 11
81.696742728129
 21
42.516123878118
 31
0.0
  0
LINE
  5
3B8
330
1D
100
AcDbEntity
  8
0
100
AcDbLine
 10
86.3827
 20
41.415
 30
0.0
 11
86.443227794595
 21
42.107361303481
 31
0.0
  0
LINE
  5
3B9
330
1D
100
AcDbEntity
  8
0
100
AcDbLine
 10
85.6708
 20
41.477
 30
0.0
 11
86.3827
 21
41.415
 31
0.0
  0
LINE
  5
3BB
330
1D
100
AcDbEntity
  8
0
100
AcDbLine
 10
84.0098
 20
41.623
 30
0.0
 11
85.6708
 21
41.477
 31
0.0
  0
LINE
  5
3BD
330
1D
100
AcDbEntity
  8
0
100
AcDbLine
 10
82.3486
 20
41.768
 30
0.0
 11
84.0098
 21
41.623
 31
0.0
  0
LINE
  5
3BF
330
1D
100
AcDbEntity
  8
0
100
AcDbLine
 10
81.5174
 20
40.318
 30
0.0
 11
82.6585
 21
40.256
 31
0.0
  0
LINE
  5
3C0
330
1D
100
AcDbEntity
  8
0
100
AcDbLine
 10
81.2516
 20
40.26
 30
0.0
 11
81.940424404545
 21
40.162721225856
 31
0.0
  0
LINE
  5
3C1
330
1D
100
AcDbEntity
  8
0
100
AcDbLine
 10
81.2516
 20
40.26
 30
0.0
 11
81.5174
 21
40.318
 31
0.0
  0
LINE
  5
3C3
330
1D
100
AcDbEntity
  8
0
100
AcDbLine
 10
84.3121
 20
42.38
 30
0.0
 11
86.0038
 21
42.18
 31
0.0
  0
LINE
  5
3C4
330
1D
100
AcDbEntity
  8
0
100
AcDbLine
 10
86.0038
 20
42.18
 30
0.0
 11
87.2137
 21
41.98
 31
0.0
  0
LINE
  5
3C5
330
1D
100
AcDbEntity
  8
0
100
AcDbLine
 10
80.9958
 20
42.42
 30
0.0
 11
81.1726
 21
42.51
 31
0.0
  0
LINE
  5
3C6
330
1D
100
AcDbEntity
  8
0
100
AcDbLine
 10
80.9958
 20
42.42
 30
0.0
 11
81.673941952226
 21
42.255573478851
 31
0.0
  0
LINE
  5
3C7
330
1D
100
AcDbEntity
  8
0
100
AcDbLine
 10
76.0542
 20
38.917
 30
0.0
 11
77.199294057709
 21
38.799480357484
 31
0.0
  0
LINE
  5
3C8
330
1D
100
AcDbEntity
  8
0
100
AcDbLine
 10
76.0542
 20
38.917
 30
0.0
 11
79.322522905712
 21
38.581575903683
 31
0.0
  0
LINE
  5
3C9
330
1D
100
AcDbEntity
  8
0
100
AcDbLine
 10
86.6109
 20
38.886
 30
0.0
 11
86.694116371711
 21
39.837698936687
 31
0.0
  0
LINE
  5
3CA
330
1D
100
AcDbEntity
  8
0
100
AcDbLine
 10
86.8441
 20
39.818
 30
0.0
 11
87.1762
 21
39.679
 31
0.0
  0
LINE
  5
3CB
330
1D
100
AcDbEntity
  8
0
100
AcDbLine
 10
86.681759186537
 20
39.696376745531
 30
0.0
 11
87.1762
 21
39.679
 31
0.0
  0
LINE
  5
3CD
330
1D
100
AcDbEntity
  8
0
100
AcDbLine
 10
92.8499
 20
38.84
 30
0.0
 11
93.8546
 21
38.749
 31
0.0
  0
LINE
  5
3CF
330
1D
100
AcDbEntity
  8
0
100
AcDbLine
 10
90.4168
 20
39.998
 30
0.0
 11
91.1287
 21
39.936
 31
0.0
  0
LINE
  5
3D0
330
1D
100
AcDbEntity
  8
0
100
AcDbLine
 10
90.4168
 20
39.998
 30
0.0
 11
90.480713268282
 21
40.728646862274
 31
0.0
  0
LINE
  5
3D1
330
1D
100
AcDbEntity
  8
0
100
AcDbLine
 10
92.7899
 20
39.79
 30
0.0
 11
94.4509
 21
39.645
 31
0.0
  0
LINE
  5
3D3
330
1D
100
AcDbEntity
  8
0
100
AcDbLine
 10
91.1287
 20
39.936
 30
0.0
 11
92.7899
 21
39.79
 31
0.0
  0
LINE
  5
3D5
330
1D
100
AcDbEntity
  8
0
100
AcDbLine
 10
90.9505
 20
38.994
 30
0.0
 11
91.8447
 21
38.925
 31
0.0
  0
LINE
  5
3D6
330
1D
100
AcDbEntity
  8
0
100
AcDbLine
 10
91.8447
 20
38.925
 30
0.0
 11
92.8499
 21
38.84
 31
0.0
  0
LINE
  5
3DA
330
1D
100
AcDbEntity
  8
0
100
AcDbLine
 10
90.045
 20
40.574
 30
0.0
 11
90.461700804142
 21
40.511299234132
 31
0.0
  0
LINE
  5
3DB
330
1D
100
AcDbEntity
  8
0
100
AcDbLine
 10
94.4509
 20
39.645
 30
0.0
 11
95.1628
 21
39.583
 31
0.0
  0
LINE
  5
3DD
330
1D
100
AcDbEntity
  8
0
100
AcDbLine
 10
93.8546
 20
38.749
 30
0.0
 11
94.7472
 21
38.662
 31
0.0
  0
LINE
  5
3DE
330
1D
100
AcDbEntity
  8
0
100
AcDbLine
 10
95.1628
 20
39.583
 30
0.0
 11
95.22788473479
 21
40.32629216395
 31
0.0
  0
LINE
  5
3DF
330
1D
100
AcDbEntity
  8
0
100
AcDbLine
 10
94.7472
 20
38.662
 30
0.0
 11
95.8124
 21
38.538
 31
0.0
  0
LINE
  5
3E0
330
1D
100
AcDbEntity
  8
0
100
AcDbLine
 10
95.198484883039
 20
38.541528069417
 30
0.0
 11
95.2731
 21
38.536
 31
0.0
  0
LINE
  5
3E1
330
1D
100
AcDbEntity
  8
0
100
AcDbLine
 10
103.132
 20
38.465
 30
0.0
 11
104.267
 21
38.328
 31
0.0
  0
LINE
  5
3E2
330
1D
100
AcDbEntity
  8
0
100
AcDbLine
 10
100.047
 20
38.711
 30
0.0
 11
101.498
 21
38.612
 31
0.0
  0
LINE
  5
3E3
330
1D
100
AcDbEntity
  8
0
100
AcDbLine
 10
101.498
 20
38.612
 30
0.0
 11
103.132
 21
38.465
 31
0.0
  0
LINE
  5
3E4
330
1D
100
AcDbEntity
  8
0
100
AcDbLine
 10
98.5828
 20
38.681
 30
0.0
 11
98.729030525248
 21
38.66049232374
 31
0.0
  0
LINE
  5
3E5
330
1D
100
AcDbEntity
  8
0
100
AcDbLine
 10
103.354
 20
39.93
 30
0.0
 11
104.066
 21
39.868
 31
0.0
  0
LINE
  5
3E7
330
1D
100
AcDbEntity
  8
0
100
AcDbLine
 10
98.9341
 20
38.76
 30
0.0
 11
100.047
 21
38.711
 31
0.0
  0
LINE
  5
3E8
330
1D
100
AcDbEntity
  8
0
100
AcDbLine
 10
98.4251
 20
38.748
 30
0.0
 11
98.9341
 21
38.76
 31
0.0
  0
LINE
  5
3E9
330
1D
100
AcDbEntity
  8
0
100
AcDbLine
 10
98.4251
 20
38.748
 30
0.0
 11
98.5828
 21
38.681
 31
0.0
  0
LINE
  5
3EA
330
1D
100
AcDbEntity
  8
0
100
AcDbLine
 10
95.8124
 20
38.538
 30
0.0
 11
95.8731
 21
38.507
 31
0.0
  0
LINE
  5
3EB
330
1D
100
AcDbEntity
  8
0
100
AcDbLine
 10
95.2731
 20
38.536
 30
0.0
 11
95.8731
 21
38.507
 31
0.0
  0
LINE
  5
3EC
330
1D
100
AcDbEntity
  8
0
100
AcDbLine
 10
103.475008609353
 20
38.25140802846
 30
0.0
 11
103.946
 21
38.229
 31
0.0
  0
LINE
  5
3EE
330
1D
100
AcDbEntity
  8
0
100
AcDbLine
 10
101.693
 20
40.076
 30
0.0
 11
103.354
 21
39.93
 31
0.0
  0
LINE
  5
3F0
330
1D
100
AcDbEntity
  8
0
100
AcDbLine
 10
100.032
 20
40.221
 30
0.0
 11
101.693
 21
40.076
 31
0.0
  0
LINE
  5
3F4
330
1D
100
AcDbEntity
  8
0
100
AcDbLine
 10
95.9133
 20
40.06
 30
0.0
 11
96.2772
 21
40.134
 31
0.0
  0
LINE
  5
3F5
330
1D
100
AcDbEntity
  8
0
100
AcDbLine
 10
95.206161336974
 20
40.078202785954
 30
0.0
 11
95.9133
 21
40.06
 31
0.0
  0
LINE
  5
3F6
330
1D
100
AcDbEntity
  8
0
100
AcDbLine
 10
99.3197
 20
40.283
 30
0.0
 11
100.032
 21
40.221
 31
0.0
  0
LINE
  5
3F7
330
1D
100
AcDbEntity
  8
0
100
AcDbLine
 10
99.3197
 20
40.283
 30
0.0
 11
99.378176766132
 21
40.950826675169
 31
0.0
  0
LINE
  5
3F8
330
1D
100
AcDbEntity
  8
0
100
AcDbLine
 10
94.5589
 20
40.417
 30
0.0
 11
95.7168
 21
40.26
 31
0.0
  0
LINE
  5
3F9
330
1D
100
AcDbEntity
  8
0
100
AcDbLine
 10
95.7168
 20
40.26
 30
0.0
 11
96.2772
 21
40.134
 31
0.0
  0
LINE
  5
3FA
330
1D
100
AcDbEntity
  8
0
100
AcDbLine
 10
104.066
 20
39.868
 30
0.0
 11
104.129228191853
 21
40.59214448692
 31
0.0
  0
LINE
  5
3FB
330
1D
100
AcDbEntity
  8
0
100
AcDbLine
 10
104.066
 20
39.868
 30
0.0
 11
104.129228191853
 21
40.59214448692
 31
0.0
  0
LINE
  5
400
330
1D
100
AcDbEntity
  8
0
100
AcDbLine
 10
104.267
 20
38.328
 30
0.0
 11
104.527
 21
38.235
 31
0.0
  0
LINE
  5
401
330
1D
100
AcDbEntity
  8
0
100
AcDbLine
 10
104.256
 20
40.247
 30
0.0
 11
105.145
 21
40.306
 31
0.0
  0
LINE
  5
403
330
1D
100
AcDbEntity
  8
0
100
AcDbLine
 10
104.988
 20
40.429
 30
0.0
 11
105.145
 21
40.306
 31
0.0
  0
LINE
  5
404
330
1D
100
AcDbEntity
  8
0
100
AcDbLine
 10
104.146
 20
40.59
 30
0.0
 11
104.988
 21
40.429
 31
0.0
  0
LINE
  5
405
330
1D
100
AcDbEntity
  8
0
100
AcDbLine
 10
104.099549537646
 20
40.252238612767
 30
0.0
 11
104.256
 21
40.247
 31
0.0
  0
LINE
  5
408
330
1D
100
AcDbEntity
  8
0
100
AcDbLine
 10
103.946
 20
38.229
 30
0.0
 11
104.527
 21
38.235
 31
0.0
  0
LINE
  5
409
330
1D
100
AcDbEntity
  8
0
100
AcDbLine
 10
93.0016
 20
40.574
 30
0.0
 11
94.5589
 21
40.417
 31
0.0
  0
LINE
  5
40B
330
1D
100
AcDbEntity
  8
0
100
AcDbLine
 10
89.6994
 20
40.71
 30
0.0
 11
90.2732
 21
40.737
 31
0.0
  0
LINE
  5
40C
330
1D
100
AcDbEntity
  8
0
100
AcDbLine
 10
89.6994
 20
40.71
 30
0.0
 11
90.045
 21
40.574
 31
0.0
  0
LINE
  5
40D
330
1D
100
AcDbEntity
  8
0
100
AcDbLine
 10
98.5294
 20
40.881
 30
0.0
 11
98.838
 21
40.748
 31
0.0
  0
LINE
  5
40E
330
1D
100
AcDbEntity
  8
0
100
AcDbLine
 10
98.5294
 20
40.881
 30
0.0
 11
98.9453
 21
40.954
 31
0.0
  0
LINE
  5
40F
330
1D
100
AcDbEntity
  8
0
100
AcDbLine
 10
90.2732
 20
40.737
 30
0.0
 11
91.4408
 21
40.69
 31
0.0
  0
LINE
  5
410
330
1D
100
AcDbEntity
  8
0
100
AcDbLine
 10
87.2841
 20
41.759
 30
0.0
 11
87.6112
 21
41.836
 31
0.0
  0
LINE
  5
411
330
1D
100
AcDbEntity
  8
0
100
AcDbLine
 10
87.2137
 20
41.98
 30
0.0
 11
87.6112
 21
41.836
 31
0.0
  0
LINE
  5
412
330
1D
100
AcDbEntity
  8
0
100
AcDbLine
 10
98.910785741923
 20
40.736622357258
 30
0.0
 11
98.929574469355
 21
40.951239808278
 31
0.0
  0
LINE
  5
413
330
1D
100
AcDbEntity
  8
0
100
AcDbLine
 10
98.910785741923
 20
40.736622357258
 30
0.0
 11
98.929574469355
 21
40.951239808278
 31
0.0
  0
LINE
  5
414
330
1D
100
AcDbEntity
  8
0
100
AcDbLine
 10
98.9453
 20
40.954
 30
0.0
 11
100.173
 21
40.945
 31
0.0
  0
LINE
  5
415
330
1D
100
AcDbEntity
  8
0
100
AcDbLine
 10
100.173
 20
40.945
 30
0.0
 11
101.872
 21
40.84
 31
0.0
  0
LINE
  5
416
330
1D
100
AcDbEntity
  8
0
100
AcDbLine
 10
101.872
 20
40.84
 30
0.0
 11
103.098
 21
40.724
 31
0.0
  0
LINE
  5
417
330
1D
100
AcDbEntity
  8
0
100
AcDbLine
 10
103.098
 20
40.724
 30
0.0
 11
104.146
 21
40.59
 31
0.0
  0
LINE
  5
418
330
1D
100
AcDbEntity
  8
0
100
AcDbLine
 10
98.838
 20
40.748
 30
0.0
 11
99.353362647302
 21
40.6674401001
 31
0.0
  0
LINE
  5
419
330
1D
100
AcDbEntity
  8
0
100
AcDbLine
 10
91.4408
 20
40.69
 30
0.0
 11
93.0016
 21
40.574
 31
0.0
  0
LINE
  5
41A
330
1D
100
AcDbEntity
  8
0
100
AcDbLine
 10
86.414274901849
 20
41.776176883242
 30
0.0
 11
87.2841
 21
41.759
 31
0.0
  0
LINE
  5
41B
330
1D
100
AcDbEntity
  8
0
100
AcDbLine
 10
95.4731
 20
43.13
 30
0.0
 11
95.530230998723
 21
43.782850788533
 31
0.0
  0
LINE
  5
41C
330
1D
100
AcDbEntity
  8
0
100
AcDbLine
 10
94.7612
 20
43.19
 30
0.0
 11
95.4731
 21
43.13
 31
0.0
  0
LINE
  5
41D
330
1D
100
AcDbEntity
  8
0
100
AcDbLine
 10
94.7612
 20
43.19
 30
0.0
 11
94.826538482868
 21
43.936639845527
 31
0.0
  0
LINE
  5
41E
330
1D
100
AcDbEntity
  8
0
100
AcDbLine
 10
82.0285
 20
42.52
 30
0.0
 11
83.0845
 21
42.47
 31
0.0
  0
LINE
  5
41F
330
1D
100
AcDbEntity
  8
0
100
AcDbLine
 10
81.1726
 20
42.51
 30
0.0
 11
82.0285
 21
42.52
 31
0.0
  0
LINE
  5
420
330
1D
100
AcDbEntity
  8
0
100
AcDbLine
 10
83.0845
 20
42.47
 30
0.0
 11
84.3121
 21
42.38
 31
0.0
  0
LINE
  5
422
330
1D
100
AcDbEntity
  8
0
100
AcDbLine
 10
107.641
 20
35.718
 30
0.0
 11
108.038
 21
35.985
 31
0.0
  0
LINE
  5
423
330
1D
100
AcDbEntity
  8
0
100
AcDbLine
 10
107.618
 20
42.56
 30
0.0
 11
108.344
 21
42.69
 31
0.0
  0
LINE
  5
424
330
1D
100
AcDbEntity
  8
0
100
AcDbLine
 10
107.593
 20
42.37
 30
0.0
 11
108.030825569734
 21
42.24502600293
 31
0.0
  0
LINE
  5
425
330
1D
100
AcDbEntity
  8
0
100
AcDbLine
 10
107.593
 20
42.37
 30
0.0
 11
107.618
 21
42.56
 31
0.0
  0
LINE
  5
426
330
1D
100
AcDbEntity
  8
0
100
AcDbLine
 10
78.1267
 20
44.65
 30
0.0
 11
78.18658494578
 21
45.334320858152
 31
0.0
  0
LINE
  5
427
330
1D
100
AcDbEntity
  8
0
100
AcDbLine
 10
77.4148
 20
44.71
 30
0.0
 11
78.1267
 21
44.65
 31
0.0
  0
LINE
  5
429
330
1D
100
AcDbEntity
  8
0
100
AcDbLine
 10
73.3807
 20
45.06
 30
0.0
 11
75.7536
 21
44.85
 31
0.0
  0
LINE
  5
42A
330
1D
100
AcDbEntity
  8
0
100
AcDbLine
 10
73.3807
 20
45.06
 30
0.0
 11
74.0926
 21
45.0
 31
0.0
  0
LINE
  5
42B
330
1D
100
AcDbEntity
  8
0
100
AcDbLine
 10
73.3807
 20
45.06
 30
0.0
 11
73.445457429719
 21
45.8
 31
0.0
  0
LINE
  5
42C
330
1D
100
AcDbEntity
  8
0
100
AcDbLine
 10
75.7536
 20
44.85
 30
0.0
 11
77.4148
 21
44.71
 31
0.0
  0
LINE
  5
42E
330
1D
100
AcDbEntity
  8
0
100
AcDbLine
 10
74.0926
 20
45.0
 30
0.0
 11
75.7536
 21
44.85
 31
0.0
  0
LINE
  5
431
330
1D
100
AcDbEntity
  8
0
100
AcDbLine
 10
73.034
 20
45.3
 30
0.0
 11
73.395727266269
 21
45.23172048192
 31
0.0
  0
LINE
  5
432
330
1D
100
AcDbEntity
  8
0
100
AcDbLine
 10
77.1408
 20
45.54
 30
0.0
 11
78.2594
 21
45.32
 31
0.0
  0
LINE
  5
433
330
1D
100
AcDbEntity
  8
0
100
AcDbLine
 10
73.0323
 20
45.8
 30
0.0
 11
74.711
 21
45.8
 31
0.0
  0
LINE
  5
434
330
1D
100
AcDbEntity
  8
0
100
AcDbLine
 10
74.711
 20
45.8
 30
0.0
 11
75.7574
 21
45.72
 31
0.0
  0
LINE
  5
435
330
1D
100
AcDbEntity
  8
0
100
AcDbLine
 10
75.7574
 20
45.72
 30
0.0
 11
77.1408
 21
45.54
 31
0.0
  0
LINE
  5
436
330
1D
100
AcDbEntity
  8
0
100
AcDbLine
 10
72.3997
 20
45.6
 30
0.0
 11
73.034
 21
45.3
 31
0.0
  0
LINE
  5
437
330
1D
100
AcDbEntity
  8
0
100
AcDbLine
 10
72.3997
 20
45.6
 30
0.0
 11
73.0323
 21
45.8
 31
0.0
  0
LINE
  5
438
330
1D
100
AcDbEntity
  8
0
100
AcDbLine
 10
78.141407698302
 20
44.818068695598
 30
0.0
 11
78.9425
 21
44.87
 31
0.0
  0
LINE
  5
439
330
1D
100
AcDbEntity
  8
0
100
AcDbLine
 10
90.7271
 20
43.54
 30
0.0
 11
91.439
 21
43.48
 31
0.0
  0
LINE
  5
43A
330
1D
100
AcDbEntity
  8
0
100
AcDbLine
 10
90.7271
 20
43.54
 30
0.0
 11
90.779986882138
 21
44.145565722503
 31
0.0
  0
LINE
  5
43B
330
1D
100
AcDbEntity
  8
0
100
AcDbLine
 10
93.1002
 20
43.34
 30
0.0
 11
94.7612
 21
43.19
 31
0.0
  0
LINE
  5
43C
330
1D
100
AcDbEntity
  8
0
100
AcDbLine
 10
93.1002
 20
43.34
 30
0.0
 11
93.170677020986
 21
44.145544100323
 31
0.0
  0
LINE
  5
43D
330
1D
100
AcDbEntity
  8
0
100
AcDbLine
 10
91.439
 20
43.48
 30
0.0
 11
93.1002
 21
43.34
 31
0.0
  0
LINE
  5
43E
330
1D
100
AcDbEntity
  8
0
100
AcDbLine
 10
91.439
 20
43.48
 30
0.0
 11
91.502798550775
 21
44.209042640799
 31
0.0
  0
LINE
  5
43F
330
1D
100
AcDbEntity
  8
0
100
AcDbLine
 10
95.489393882983
 20
43.312825047283
 30
0.0
 11
95.530543217358
 21
43.78276593114
 31
0.0
  0
LINE
  5
440
330
1D
100
AcDbEntity
  8
0
100
AcDbLine
 10
90.74551185375
 20
43.75578443181
 30
0.0
 11
90.779605003354
 21
44.14553218612
 31
0.0
  0
LINE
  5
441
330
1D
100
AcDbEntity
  8
0
100
AcDbLine
 10
95.530543217358
 20
43.78276593114
 30
0.0
 11
96.203
 21
43.6
 31
0.0
  0
LINE
  5
442
330
1D
100
AcDbEntity
  8
0
100
AcDbLine
 10
96.203
 20
43.6
 30
0.0
 11
96.2207
 21
43.36
 31
0.0
  0
LINE
  5
443
330
1D
100
AcDbEntity
  8
0
100
AcDbLine
 10
90.375
 20
44.11
 30
0.0
 11
91.5137
 21
44.21
 31
0.0
  0
LINE
  5
444
330
1D
100
AcDbEntity
  8
0
100
AcDbLine
 10
91.5137
 20
44.21
 30
0.0
 11
93.3132
 21
44.14
 31
0.0
  0
LINE
  5
445
330
1D
100
AcDbEntity
  8
0
100
AcDbLine
 10
78.9425
 20
44.87
 30
0.0
 11
78.9527
 21
45.07
 31
0.0
  0
LINE
  5
446
330
1D
100
AcDbEntity
  8
0
100
AcDbLine
 10
78.2594
 20
45.32
 30
0.0
 11
78.9527
 21
45.07
 31
0.0
  0
LINE
  5
447
330
1D
100
AcDbEntity
  8
0
100
AcDbLine
 10
78.18658494578
 20
45.334320858152
 30
0.0
 11
78.2594
 21
45.32
 31
0.0
  0
LINE
  5
448
330
1D
100
AcDbEntity
  8
0
100
AcDbLine
 10
93.3132
 20
44.14
 30
0.0
 11
95.0992
 21
43.9
 31
0.0
  0
LINE
  5
449
330
1D
100
AcDbEntity
  8
0
100
AcDbLine
 10
95.0992
 20
43.9
 30
0.0
 11
96.203
 21
43.6
 31
0.0
  0
LINE
  5
44A
330
1D
100
AcDbEntity
  8
0
100
AcDbLine
 10
90.3144
 20
43.87
 30
0.0
 11
90.745935656146
 21
43.755672152755
 31
0.0
  0
LINE
  5
44B
330
1D
100
AcDbEntity
  8
0
100
AcDbLine
 10
90.3144
 20
43.87
 30
0.0
 11
90.375
 21
44.11
 31
0.0
  0
LINE
  5
44D
330
1D
100
AcDbEntity
  8
0
100
AcDbLine
 10
95.489097353296
 20
43.312805918804
 30
0.0
 11
96.2207
 21
43.36
 31
0.0
  0
LINE
  5
44E
330
1D
100
AcDbEntity
  8
0
100
AcDbLine
 10
108.038
 20
35.985
 30
0.0
 11
108.047795333347
 21
36.097131419882
 31
0.0
  0
LINE
  5
450
330
1D
100
AcDbEntity
  8
0
100
AcDbLine
 10
109.404
 20
35.999
 30
0.0
 11
111.229891998119
 21
35.876282207866
 31
0.0
  0
LINE
  5
451
330
1D
100
AcDbEntity
  8
0
100
AcDbLine
 10
109.497
 20
36.883
 30
0.0
 11
110.208
 21
36.821
 31
0.0
  0
LINE
  5
452
330
1D
100
AcDbEntity
  8
0
100
AcDbLine
 10
109.497
 20
36.883
 30
0.0
 11
109.547888920256
 21
37.464370898612
 31
0.0
  0
LINE
  5
453
330
1D
100
AcDbEntity
  8
0
100
AcDbLine
 10
111.928
 20
35.667
 30
0.0
 11
113.59
 21
35.521
 31
0.0
  0
LINE
  5
455
330
1D
100
AcDbEntity
  8
0
100
AcDbLine
 10
113.59
 20
35.521
 30
0.0
 11
115.251
 21
35.376
 31
0.0
  0
LINE
  5
457
330
1D
100
AcDbEntity
  8
0
100
AcDbLine
 10
111.217
 20
35.729
 30
0.0
 11
111.229891998119
 21
35.876282207866
 31
0.0
  0
LINE
  5
458
330
1D
100
AcDbEntity
  8
0
100
AcDbLine
 10
111.217
 20
35.729
 30
0.0
 11
111.928
 21
35.667
 31
0.0
  0
LINE
  5
459
330
1D
100
AcDbEntity
  8
0
100
AcDbLine
 10
111.217
 20
35.729
 30
0.0
 11
111.288606150346
 21
36.547050997422
 31
0.0
  0
LINE
  5
45A
330
1D
100
AcDbEntity
  8
0
100
AcDbLine
 10
114.243
 20
36.468
 30
0.0
 11
114.302879458146
 21
37.152081607861
 31
0.0
  0
LINE
  5
45B
330
1D
100
AcDbEntity
  8
0
100
AcDbLine
 10
113.914
 20
36.365
 30
0.0
 11
115.022
 21
36.293
 31
0.0
  0
LINE
  5
45C
330
1D
100
AcDbEntity
  8
0
100
AcDbLine
 10
115.963
 20
35.314
 30
0.0
 11
116.043239030556
 21
36.23067571376
 31
0.0
  0
LINE
  5
45D
330
1D
100
AcDbEntity
  8
0
100
AcDbLine
 10
115.251
 20
35.376
 30
0.0
 11
115.963
 21
35.314
 31
0.0
  0
LINE
  5
464
330
1D
100
AcDbEntity
  8
0
100
AcDbLine
 10
116.544
 20
35.263
 30
0.0
 11
116.567350205116
 21
35.530373268234
 31
0.0
  0
LINE
  5
465
330
1D
100
AcDbEntity
  8
0
100
AcDbLine
 10
116.544
 20
35.263
 30
0.0
 11
117.256
 21
35.201
 31
0.0
  0
LINE
  5
466
330
1D
100
AcDbEntity
  8
0
100
AcDbLine
 10
116.544
 20
35.263
 30
0.0
 11
116.578366479298
 21
35.656515938817
 31
0.0
  0
LINE
  5
468
330
1D
100
AcDbEntity
  8
0
100
AcDbLine
 10
116.016
 20
35.564
 30
0.0
 11
116.567353849101
 21
35.530414993963
 31
0.0
  0
LINE
  5
469
330
1D
100
AcDbEntity
  8
0
100
AcDbLine
 10
116.015
 20
35.564
 30
0.0
 11
116.567350205116
 21
35.530373268234
 31
0.0
  0
LINE
  5
46A
330
1D
100
AcDbEntity
  8
0
100
AcDbLine
 10
115.995239904099
 20
35.682318720909
 30
0.0
 11
116.057
 21
35.681
 31
0.0
  0
LINE
  5
46B
330
1D
100
AcDbEntity
  8
0
100
AcDbLine
 10
116.057
 20
35.681
 30
0.0
 11
116.578366479298
 21
35.656515938817
 31
0.0
  0
LINE
  5
46C
330
1D
100
AcDbEntity
  8
0
100
AcDbLine
 10
116.057
 20
35.681
 30
0.0
 11
117.143
 21
35.63
 31
0.0
  0
LINE
  5
46D
330
1D
100
AcDbEntity
  8
0
100
AcDbLine
 10
115.995076716985
 20
35.680454420414
 30
0.0
 11
116.057
 21
35.681
 31
0.0
  0
LINE
  5
471
330
1D
100
AcDbEntity
  8
0
100
AcDbLine
 10
117.256
 20
35.201
 30
0.0
 11
118.917
 21
35.055
 31
0.0
  0
LINE
  5
473
330
1D
100
AcDbEntity
  8
0
100
AcDbLine
 10
117.143
 20
35.63
 30
0.0
 11
119.101
 21
35.528
 31
0.0
  0
LINE
  5
479
330
1D
100
AcDbEntity
  8
0
100
AcDbLine
 10
115.022
 20
36.293
 30
0.0
 11
115.983
 21
36.233
 31
0.0
  0
LINE
  5
47C
330
1D
100
AcDbEntity
  8
0
100
AcDbLine
 10
110.208
 20
36.821
 30
0.0
 11
111.87
 21
36.676
 31
0.0
  0
LINE
  5
47F
330
1D
100
AcDbEntity
  8
0
100
AcDbLine
 10
113.531
 20
36.53
 30
0.0
 11
114.243
 21
36.468
 31
0.0
  0
LINE
  5
481
330
1D
100
AcDbEntity
  8
0
100
AcDbLine
 10
111.87
 20
36.676
 30
0.0
 11
113.531
 21
36.53
 31
0.0
  0
LINE
  5
488
330
1D
100
AcDbEntity
  8
0
100
AcDbLine
 10
112.098
 20
36.485
 30
0.0
 11
113.914
 21
36.365
 31
0.0
  0
LINE
  5
48A
330
1D
100
AcDbEntity
  8
0
100
AcDbLine
 10
108.259
 20
37.995
 30
0.0
 11
108.971
 21
37.933
 31
0.0
  0
LINE
  5
48B
330
1D
100
AcDbEntity
  8
0
100
AcDbLine
 10
108.259
 20
37.995
 30
0.0
 11
108.357390959141
 21
39.119951677338
 31
0.0
  0
LINE
  5
48C
330
1D
100
AcDbEntity
  8
0
100
AcDbLine
 10
108.324
 20
39.12
 30
0.0
 11
109.706
 21
39.118
 31
0.0
  0
LINE
  5
490
330
1D
100
AcDbEntity
  8
0
100
AcDbLine
 10
109.255
 20
37.42
 30
0.0
 11
109.541807361933
 21
37.394893279336
 31
0.0
  0
LINE
  5
491
330
1D
100
AcDbEntity
  8
0
100
AcDbLine
 10
108.971
 20
37.933
 30
0.0
 11
110.632
 21
37.788
 31
0.0
  0
LINE
  5
493
330
1D
100
AcDbEntity
  8
0
100
AcDbLine
 10
108.831
 20
37.484
 30
0.0
 11
109.671
 21
37.461
 31
0.0
  0
LINE
  5
494
330
1D
100
AcDbEntity
  8
0
100
AcDbLine
 10
108.831
 20
37.484
 30
0.0
 11
109.255
 21
37.42
 31
0.0
  0
LINE
  5
495
330
1D
100
AcDbEntity
  8
0
100
AcDbLine
 10
110.632
 20
37.788
 30
0.0
 11
112.293
 21
37.643
 31
0.0
  0
LINE
  5
497
330
1D
100
AcDbEntity
  8
0
100
AcDbLine
 10
109.671
 20
37.461
 30
0.0
 11
110.79
 21
37.401
 31
0.0
  0
LINE
  5
498
330
1D
100
AcDbEntity
  8
0
100
AcDbLine
 10
110.79
 20
37.401
 30
0.0
 11
112.144
 21
37.314
 31
0.0
  0
LINE
  5
499
330
1D
100
AcDbEntity
  8
0
100
AcDbLine
 10
112.293
 20
37.643
 30
0.0
 11
113.005
 21
37.58
 31
0.0
  0
LINE
  5
49B
330
1D
100
AcDbEntity
  8
0
100
AcDbLine
 10
112.144
 20
37.314
 30
0.0
 11
114.099
 21
37.171
 31
0.0
  0
LINE
  5
49C
330
1D
100
AcDbEntity
  8
0
100
AcDbLine
 10
111.159
 20
39.03
 30
0.0
 11
112.365
 21
38.928
 31
0.0
  0
LINE
  5
49D
330
1D
100
AcDbEntity
  8
0
100
AcDbLine
 10
113.005
 20
37.58
 30
0.0
 11
113.115800721439
 21
38.845567873314
 31
0.0
  0
LINE
  5
49F
330
1D
100
AcDbEntity
  8
0
100
AcDbLine
 10
112.365
 20
38.928
 30
0.0
 11
113.376
 21
38.817
 31
0.0
  0
LINE
  5
4A0
330
1D
100
AcDbEntity
  8
0
100
AcDbLine
 10
112.758
 20
41.617
 30
0.0
 11
112.824921391946
 21
42.381837835017
 31
0.0
  0
LINE
  5
4A1
330
1D
100
AcDbEntity
  8
0
100
AcDbLine
 10
112.046
 20
41.679
 30
0.0
 11
112.758
 21
41.617
 31
0.0
  0
LINE
  5
4A3
330
1D
100
AcDbEntity
  8
0
100
AcDbLine
 10
109.706
 20
39.118
 30
0.0
 11
111.159
 21
39.03
 31
0.0
  0
LINE
  5
4A4
330
1D
100
AcDbEntity
  8
0
100
AcDbLine
 10
108.012
 20
42.03
 30
0.0
 11
108.723
 21
41.97
 31
0.0
  0
LINE
  5
4A5
330
1D
100
AcDbEntity
  8
0
100
AcDbLine
 10
108.012
 20
42.03
 30
0.0
 11
110.385
 21
41.825
 31
0.0
  0
LINE
  5
4A6
330
1D
100
AcDbEntity
  8
0
100
AcDbLine
 10
108.012
 20
42.03
 30
0.0
 11
108.065415758121
 21
42.64011576936
 31
0.0
  0
LINE
  5
4A7
330
1D
100
AcDbEntity
  8
0
100
AcDbLine
 10
108.723
 20
41.97
 30
0.0
 11
110.385
 21
41.825
 31
0.0
  0
LINE
  5
4A9
330
1D
100
AcDbEntity
  8
0
100
AcDbLine
 10
110.385
 20
41.825
 30
0.0
 11
112.046
 21
41.679
 31
0.0
  0
LINE
  5
4AB
330
1D
100
AcDbEntity
  8
0
100
AcDbLine
 10
108.030825569734
 20
42.24502600293
 30
0.0
 11
108.065415758121
 21
42.64011576936
 31
0.0
  0
LINE
  5
4AC
330
1D
100
AcDbEntity
  8
0
100
AcDbLine
 10
109.485
 20
42.71
 30
0.0
 11
111.699
 21
42.58
 31
0.0
  0
LINE
  5
4AD
330
1D
100
AcDbEntity
  8
0
100
AcDbLine
 10
108.344
 20
42.69
 30
0.0
 11
109.485
 21
42.71
 31
0.0
  0
LINE
  5
4AE
330
1D
100
AcDbEntity
  8
0
100
AcDbLine
 10
111.699
 20
42.58
 30
0.0
 11
113.574
 21
42.25
 31
0.0
  0
LINE
  5
4AF
330
1D
100
AcDbEntity
  8
0
100
AcDbLine
 10
112.773930307391
 20
41.799065875531
 30
0.0
 11
113.897
 21
41.867
 31
0.0
  0
LINE
  5
4B2
330
1D
100
AcDbEntity
  8
0
100
AcDbLine
 10
114.963928685362
 20
37.090741497299
 30
0.0
 11
115.303
 21
37.02
 31
0.0
  0
LINE
  5
4B3
330
1D
100
AcDbEntity
  8
0
100
AcDbLine
 10
114.099
 20
37.171
 30
0.0
 11
115.306
 21
37.059
 31
0.0
  0
LINE
  5
4B6
330
1D
100
AcDbEntity
  8
0
100
AcDbLine
 10
114.101
 20
38.698
 30
0.0
 11
114.185
 21
38.617
 31
0.0
  0
LINE
  5
4B8
330
1D
100
AcDbEntity
  8
0
100
AcDbLine
 10
113.376
 20
38.817
 30
0.0
 11
114.101
 21
38.698
 31
0.0
  0
LINE
  5
4B9
330
1D
100
AcDbEntity
  8
0
100
AcDbLine
 10
116.352
 20
39.428
 30
0.0
 11
116.737
 21
39.273
 31
0.0
  0
LINE
  5
4BA
330
1D
100
AcDbEntity
  8
0
100
AcDbLine
 10
116.352
 20
39.428
 30
0.0
 11
117.141
 21
39.498
 31
0.0
  0
LINE
  5
4BB
330
1D
100
AcDbEntity
  8
0
100
AcDbLine
 10
113.28
 20
38.597
 30
0.0
 11
114.185
 21
38.617
 31
0.0
  0
LINE
  5
4BC
330
1D
100
AcDbEntity
  8
0
100
AcDbLine
 10
113.094693392992
 20
38.604479580505
 30
0.0
 11
113.28
 21
38.597
 31
0.0
  0
LINE
  5
4BE
330
1D
100
AcDbEntity
  8
0
100
AcDbLine
 10
116.745
 20
39.261
 30
0.0
 11
117.456
 21
39.198
 31
0.0
  0
LINE
  5
4BF
330
1D
100
AcDbEntity
  8
0
100
AcDbLine
 10
116.745
 20
39.261
 30
0.0
 11
116.7628154473
 21
39.46444750483
 31
0.0
  0
LINE
  5
4C1
330
1D
100
AcDbEntity
  8
0
100
AcDbLine
 10
117.456
 20
39.198
 30
0.0
 11
119.118
 21
39.053
 31
0.0
  0
LINE
  5
4C4
330
1D
100
AcDbEntity
  8
0
100
AcDbLine
 10
117.141
 20
39.498
 30
0.0
 11
118.182
 21
39.484
 31
0.0
  0
LINE
  5
4C5
330
1D
100
AcDbEntity
  8
0
100
AcDbLine
 10
118.182
 20
39.484
 30
0.0
 11
119.442
 21
39.422
 31
0.0
  0
LINE
  5
4C7
330
1D
100
AcDbEntity
  8
0
100
AcDbLine
 10
113.416281937409
 20
42.277669835542
 30
0.0
 11
113.574
 21
42.25
 31
0.0
  0
LINE
  5
4C8
330
1D
100
AcDbEntity
  8
0
100
AcDbLine
 10
113.574
 20
42.25
 30
0.0
 11
113.897
 21
41.867
 31
0.0
  0
LINE
  5
4CB
330
1D
100
AcDbEntity
  8
0
100
AcDbLine
 10
107.924
 20
45.05
 30
0.0
 11
122.292
 21
43.8
 31
0.0
  0
LINE
  5
4CF
330
1D
100
AcDbEntity
  8
0
100
AcDbLine
 10
79.0816
 20
47.57
 30
0.0
 11
93.5032
 21
46.31
 31
0.0
  0
LINE
  5
4D0
330
1D
100
AcDbEntity
  8
0
100
AcDbLine
 10
93.5032
 20
46.31
 30
0.0
 11
107.924
 21
45.05
 31
0.0
  0
LINE
  5
4D2
330
1D
100
AcDbEntity
  8
0
100
AcDbLine
 10
111.045
 20
78.16
 30
0.0
 11
113.408
 21
77.91
 31
0.0
  0
LINE
  5
4D3
330
1D
100
AcDbEntity
  8
0
100
AcDbLine
 10
108.348563159797
 20
78.311556264077
 30
0.0
 11
108.404915109072
 21
78.303360139788
 31
0.0
  0
LINE
  5
4D4
330
1D
100
AcDbEntity
  8
0
100
AcDbLine
 10
108.354
 20
78.47
 30
0.0
 11
111.045
 21
78.16
 31
0.0
  0
LINE
  5
4D5
330
1D
100
AcDbEntity
  8
0
100
AcDbLine
 10
115.377859505066
 20
77.690624984186
 30
0.0
 11
115.49731414117
 21
79.055930216066
 31
0.0
  0
LINE
  5
4D6
330
1D
100
AcDbEntity
  8
0
100
AcDbLine
 10
116.041
 20
77.61
 30
0.0
 11
116.369
 21
77.57
 31
0.0
  0
LINE
  5
4D7
330
1D
100
AcDbEntity
  8
0
100
AcDbLine
 10
115.054
 20
77.73
 30
0.0
 11
116.041
 21
77.61
 31
0.0
  0
LINE
  5
4D8
330
1D
100
AcDbEntity
  8
0
100
AcDbLine
 10
113.408
 20
77.91
 30
0.0
 11
115.054
 21
77.73
 31
0.0
  0
LINE
  5
4D9
330
1D
100
AcDbEntity
  8
0
100
AcDbLine
 10
105.072
 20
78.81
 30
0.0
 11
108.354
 21
78.47
 31
0.0
  0
LINE
  5
4DA
330
1D
100
AcDbEntity
  8
0
100
AcDbLine
 10
116.304410878661
 20
77.561029288703
 30
0.0
 11
116.369
 21
77.57
 31
0.0
  0
LINE
  5
4DB
330
1D
100
AcDbEntity
  8
0
100
AcDbLine
 10
116.369
 20
77.57
 30
0.0
 11
133.91
 21
75.07
 31
0.0
  0
LINE
  5
4DC
330
1D
100
AcDbEntity
  8
0
100
AcDbLine
 10
118.917
 20
35.055
 30
0.0
 11
120.578
 21
34.91
 31
0.0
  0
LINE
  5
4DF
330
1D
100
AcDbEntity
  8
0
100
AcDbLine
 10
119.101
 20
35.528
 30
0.0
 11
121.06
 21
35.421
 31
0.0
  0
LINE
  5
4E1
330
1D
100
AcDbEntity
  8
0
100
AcDbLine
 10
118.652
 20
37.318
 30
0.0
 11
119.885
 21
37.31
 31
0.0
  0
LINE
  5
4E4
330
1D
100
AcDbEntity
  8
0
100
AcDbLine
 10
119.118
 20
39.053
 30
0.0
 11
120.778
 21
38.908
 31
0.0
  0
LINE
  5
4E7
330
1D
100
AcDbEntity
  8
0
100
AcDbLine
 10
119.22
 20
37.036
 30
0.0
 11
119.933
 21
36.974
 31
0.0
  0
LINE
  5
4E8
330
1D
100
AcDbEntity
  8
0
100
AcDbLine
 10
119.22
 20
37.036
 30
0.0
 11
119.244333139039
 21
37.314156800396
 31
0.0
  0
LINE
  5
4E9
330
1D
100
AcDbEntity
  8
0
100
AcDbLine
 10
119.132
 20
37.159
 30
0.0
 11
119.230067649378
 21
37.151085239674
 31
0.0
  0
LINE
  5
4EE
330
1D
100
AcDbEntity
  8
0
100
AcDbLine
 10
118.429
 20
37.251
 30
0.0
 11
119.132
 21
37.159
 31
0.0
  0
LINE
  5
4EF
330
1D
100
AcDbEntity
  8
0
100
AcDbLine
 10
118.429
 20
37.251
 30
0.0
 11
118.652
 21
37.318
 31
0.0
  0
LINE
  5
4F1
330
1D
100
AcDbEntity
  8
0
100
AcDbLine
 10
118.407
 20
78.8
 30
0.0
 11
119.369
 21
78.71
 31
0.0
  0
LINE
  5
4F2
330
1D
100
AcDbEntity
  8
0
100
AcDbLine
 10
101.754
 20
79.11
 30
0.0
 11
105.072
 21
78.81
 31
0.0
  0
LINE
  5
4F3
330
1D
100
AcDbEntity
  8
0
100
AcDbLine
 10
115.451
 20
79.06
 30
0.0
 11
117.158
 21
78.91
 31
0.0
  0
LINE
  5
4F4
330
1D
100
AcDbEntity
  8
0
100
AcDbLine
 10
77.410476581482
 20
81.00967721014
 30
0.0
 11
77.530716236516
 21
82.383954805826
 31
0.0
  0
LINE
  5
4F5
330
1D
100
AcDbEntity
  8
0
100
AcDbLine
 10
77.7362
 20
80.99
 30
0.0
 11
79.3893
 21
80.89
 31
0.0
  0
LINE
  5
4F6
330
1D
100
AcDbEntity
  8
0
100
AcDbLine
 10
79.3893
 20
80.89
 30
0.0
 11
81.6935
 21
80.74
 31
0.0
  0
LINE
  5
4F7
330
1D
100
AcDbEntity
  8
0
100
AcDbLine
 10
81.6935
 20
80.74
 30
0.0
 11
84.4629
 21
80.56
 31
0.0
  0
LINE
  5
4F8
330
1D
100
AcDbEntity
  8
0
100
AcDbLine
 10
76.4135
 20
81.07
 30
0.0
 11
76.480816485485
 21
81.047475363365
 31
0.0
  0
LINE
  5
4F9
330
1D
100
AcDbEntity
  8
0
100
AcDbLine
 10
76.4135
 20
81.07
 30
0.0
 11
76.743
 21
81.05
 31
0.0
  0
LINE
  5
4FA
330
1D
100
AcDbEntity
  8
0
100
AcDbLine
 10
76.743
 20
81.05
 30
0.0
 11
77.410476581482
 21
81.00967721014
 31
0.0
  0
LINE
  5
4FB
330
1D
100
AcDbEntity
  8
0
100
AcDbLine
 10
76.743
 20
81.05
 30
0.0
 11
77.7362
 21
80.99
 31
0.0
  0
LINE
  5
4FC
330
1D
100
AcDbEntity
  8
0
100
AcDbLine
 10
87.7526
 20
80.32
 30
0.0
 11
91.0529
 21
80.07
 31
0.0
  0
LINE
  5
4FD
330
1D
100
AcDbEntity
  8
0
100
AcDbLine
 10
84.4629
 20
80.56
 30
0.0
 11
87.7526
 21
80.32
 31
0.0
  0
LINE
  5
4FF
330
1D
100
AcDbEntity
  8
0
100
AcDbLine
 10
96.028388953704
 20
79.637847685185
 30
0.0
 11
96.4165
 21
79.61
 31
0.0
  0
LINE
  5
500
330
1D
100
AcDbEntity
  8
0
100
AcDbLine
 10
94.5913
 20
79.78
 30
0.0
 11
96.4176
 21
79.62
 31
0.0
  0
LINE
  5
501
330
1D
100
AcDbEntity
  8
0
100
AcDbLine
 10
96.4176
 20
79.62
 30
0.0
 11
98.2422
 21
79.46
 31
0.0
  0
LINE
  5
502
330
1D
100
AcDbEntity
  8
0
100
AcDbLine
 10
98.2422
 20
79.46
 30
0.0
 11
101.754
 21
79.11
 31
0.0
  0
LINE
  5
503
330
1D
100
AcDbEntity
  8
0
100
AcDbLine
 10
108.819
 20
79.64
 30
0.0
 11
112.5
 21
79.32
 31
0.0
  0
LINE
  5
504
330
1D
100
AcDbEntity
  8
0
100
AcDbLine
 10
91.0529
 20
80.07
 30
0.0
 11
94.5913
 21
79.78
 31
0.0
  0
LINE
  5
508
330
1D
100
AcDbEntity
  8
0
100
AcDbLine
 10
102.646
 20
80.18
 30
0.0
 11
105.411
 21
79.94
 31
0.0
  0
LINE
  5
509
330
1D
100
AcDbEntity
  8
0
100
AcDbLine
 10
105.411
 20
79.94
 30
0.0
 11
108.819
 21
79.64
 31
0.0
  0
LINE
  5
50A
330
1D
100
AcDbEntity
  8
0
100
AcDbLine
 10
77.530716236516
 20
82.383954805826
 30
0.0
 11
102.646
 21
80.18
 31
0.0
  0
LINE
  5
50B
330
1D
100
AcDbEntity
  8
0
100
AcDbLine
 10
112.5
 20
79.32
 30
0.0
 11
115.451
 21
79.06
 31
0.0
  0
LINE
  5
50F
330
1D
100
AcDbEntity
  8
0
100
AcDbLine
 10
117.158
 20
78.91
 30
0.0
 11
118.407
 21
78.8
 31
0.0
  0
LINE
  5
510
330
1D
100
AcDbEntity
  8
0
100
AcDbLine
 10
127.531
 20
34.302
 30
0.0
 11
127.591503125372
 21
34.994795557421
 31
0.0
  0
LINE
  5
511
330
1D
100
AcDbEntity
  8
0
100
AcDbLine
 10
127.531
 20
34.302
 30
0.0
 11
128.243
 21
34.239
 31
0.0
  0
LINE
  5
512
330
1D
100
AcDbEntity
  8
0
100
AcDbLine
 10
127.531
 20
34.302
 30
0.0
 11
127.59450725717
 21
35.029194593024
 31
0.0
  0
LINE
  5
513
330
1D
100
AcDbEntity
  8
0
100
AcDbLine
 10
128.243
 20
34.239
 30
0.0
 11
129.904
 21
34.094
 31
0.0
  0
LINE
  5
515
330
1D
100
AcDbEntity
  8
0
100
AcDbLine
 10
132.277
 20
33.887
 30
0.0
 11
132.361088013021
 21
34.849662769753
 31
0.0
  0
LINE
  5
516
330
1D
100
AcDbEntity
  8
0
100
AcDbLine
 10
131.565
 20
33.949
 30
0.0
 11
132.277
 21
33.887
 31
0.0
  0
LINE
  5
518
330
1D
100
AcDbEntity
  8
0
100
AcDbLine
 10
129.904
 20
34.094
 30
0.0
 11
131.565
 21
33.949
 31
0.0
  0
LINE
  5
51B
330
1D
100
AcDbEntity
  8
0
100
AcDbLine
 10
136.397
 20
34.53
 30
0.0
 11
136.733064420804
 21
34.500735963357
 31
0.0
  0
LINE
  5
51D
330
1D
100
AcDbEntity
  8
0
100
AcDbLine
 10
134.736
 20
34.675
 30
0.0
 11
136.397
 21
34.53
 31
0.0
  0
LINE
  5
51F
330
1D
100
AcDbEntity
  8
0
100
AcDbLine
 10
136.733
 20
34.5
 30
0.0
 11
137.444
 21
34.438
 31
0.0
  0
LINE
  5
520
330
1D
100
AcDbEntity
  8
0
100
AcDbLine
 10
136.733
 20
34.5
 30
0.0
 11
136.792751008845
 21
35.182614162979
 31
0.0
  0
LINE
  5
521
330
1D
100
AcDbEntity
  8
0
100
AcDbLine
 10
136.733
 20
34.5
 30
0.0
 11
136.792751008845
 21
35.182614162979
 31
0.0
  0
LINE
  5
522
330
1D
100
AcDbEntity
  8
0
100
AcDbLine
 10
149.843
 20
33.353
 30
0.0
 11
149.96962430029
 21
34.799595504003
 31
0.0
  0
LINE
  5
523
330
1D
100
AcDbEntity
  8
0
100
AcDbLine
 10
149.132
 20
33.416
 30
0.0
 11
149.843
 21
33.353
 31
0.0
  0
LINE
  5
525
330
1D
100
AcDbEntity
  8
0
100
AcDbLine
 10
147.47
 20
33.561
 30
0.0
 11
149.132
 21
33.416
 31
0.0
  0
LINE
  5
527
330
1D
100
AcDbEntity
  8
0
100
AcDbLine
 10
141.479
 20
34.085
 30
0.0
 11
141.561566251912
 21
35.028262616456
 31
0.0
  0
LINE
  5
528
330
1D
100
AcDbEntity
  8
0
100
AcDbLine
 10
140.767
 20
34.148
 30
0.0
 11
141.479
 21
34.085
 31
0.0
  0
LINE
  5
52A
330
1D
100
AcDbEntity
  8
0
100
AcDbLine
 10
139.106
 20
34.293
 30
0.0
 11
140.767
 21
34.148
 31
0.0
  0
LINE
  5
533
330
1D
100
AcDbEntity
  8
0
100
AcDbLine
 10
146.343
 20
34.664
 30
0.0
 11
146.426274179533
 21
35.615159206597
 31
0.0
  0
LINE
  5
534
330
1D
100
AcDbEntity
  8
0
100
AcDbLine
 10
152.55
 20
34.12
 30
0.0
 11
153.262
 21
34.058
 31
0.0
  0
LINE
  5
535
330
1D
100
AcDbEntity
  8
0
100
AcDbLine
 10
152.55
 20
34.12
 30
0.0
 11
152.606099413964
 21
34.760897204025
 31
0.0
  0
LINE
  5
536
330
1D
100
AcDbEntity
  8
0
100
AcDbLine
 10
153.262
 20
34.058
 30
0.0
 11
157.296
 21
33.705
 31
0.0
  0
LINE
  5
538
330
1D
100
AcDbEntity
  8
0
100
AcDbLine
 10
145.097
 20
33.769
 30
0.0
 11
145.809
 21
33.706
 31
0.0
  0
LINE
  5
539
330
1D
100
AcDbEntity
  8
0
100
AcDbLine
 10
145.097
 20
33.769
 30
0.0
 11
145.184176402639
 21
34.764930416386
 31
0.0
  0
LINE
  5
53A
330
1D
100
AcDbEntity
  8
0
100
AcDbLine
 10
145.097
 20
33.769
 30
0.0
 11
145.184182992328
 21
34.765005699044
 31
0.0
  0
LINE
  5
53B
330
1D
100
AcDbEntity
  8
0
100
AcDbLine
 10
145.809
 20
33.706
 30
0.0
 11
147.47
 21
33.561
 31
0.0
  0
LINE
  5
53D
330
1D
100
AcDbEntity
  8
0
100
AcDbLine
 10
137.444
 20
34.438
 30
0.0
 11
139.106
 21
34.293
 31
0.0
  0
LINE
  5
53F
330
1D
100
AcDbEntity
  8
0
100
AcDbLine
 10
145.631
 20
34.726
 30
0.0
 11
146.343
 21
34.664
 31
0.0
  0
LINE
  5
542
330
1D
100
AcDbEntity
  8
0
100
AcDbLine
 10
157.421
 20
33.694
 30
0.0
 11
159.082
 21
33.549
 31
0.0
  0
LINE
  5
543
330
1D
100
AcDbEntity
  8
0
100
AcDbLine
 10
157.421
 20
33.694
 30
0.0
 11
157.508050496825
 21
34.690778217667
 31
0.0
  0
LINE
  5
544
330
1D
100
AcDbEntity
  8
0
100
AcDbLine
 10
157.421
 20
33.694
 30
0.0
 11
157.508050496825
 21
34.690778217667
 31
0.0
  0
LINE
  5
545
330
1D
100
AcDbEntity
  8
0
100
AcDbLine
 10
157.747
 20
34.67
 30
0.0
 11
157.814498039294
 21
35.441118655324
 31
0.0
  0
LINE
  5
546
330
1D
100
AcDbEntity
  8
0
100
AcDbLine
 10
157.747
 20
34.67
 30
0.0
 11
157.814498039294
 21
35.441118655324
 31
0.0
  0
LINE
  5
547
330
1D
100
AcDbEntity
  8
0
100
AcDbLine
 10
157.296
 20
33.705
 30
0.0
 11
157.383237770174
 21
34.701631498246
 31
0.0
  0
LINE
  5
548
330
1D
100
AcDbEntity
  8
0
100
AcDbLine
 10
157.382926579786
 20
34.698076362193
 30
0.0
 11
157.434572416599
 21
34.697167615948
 31
0.0
  0
LINE
  5
549
330
1D
100
AcDbEntity
  8
0
100
AcDbLine
 10
157.382875287411
 20
34.697490382091
 30
0.0
 11
157.442911405405
 21
34.696442486486
 31
0.0
  0
LINE
  5
54A
330
1D
100
AcDbEntity
  8
0
100
AcDbLine
 10
157.748893934554
 20
34.691636899111
 30
0.0
 11
161.536
 21
34.625
 31
0.0
  0
LINE
  5
54B
330
1D
100
AcDbEntity
  8
0
100
AcDbLine
 10
157.748847162044
 20
34.691102555368
 30
0.0
 11
161.536
 21
34.625
 31
0.0
  0
LINE
  5
54D
330
1D
100
AcDbEntity
  8
0
100
AcDbLine
 10
156.985
 20
34.721
 30
0.0
 11
157.181298454221
 21
34.719191438763
 31
0.0
  0
LINE
  5
54E
330
1D
100
AcDbEntity
  8
0
100
AcDbLine
 10
134.073075159222
 20
34.732871223307
 30
0.0
 11
134.736
 21
34.675
 31
0.0
  0
LINE
  5
54F
330
1D
100
AcDbEntity
  8
0
100
AcDbLine
 10
133.899125090209
 20
34.748056509283
 30
0.0
 11
134.736
 21
34.675
 31
0.0
  0
LINE
  5
550
330
1D
100
AcDbEntity
  8
0
100
AcDbLine
 10
144.897
 20
34.79
 30
0.0
 11
145.184176402639
 21
34.764930416386
 31
0.0
  0
LINE
  5
551
330
1D
100
AcDbEntity
  8
0
100
AcDbLine
 10
133.088
 20
34.764
 30
0.0
 11
134.073075159222
 21
34.732871223307
 31
0.0
  0
LINE
  5
553
330
1D
100
AcDbEntity
  8
0
100
AcDbLine
 10
132.355752201291
 20
34.788576925129
 30
0.0
 11
133.088
 21
34.764
 31
0.0
  0
LINE
  5
554
330
1D
100
AcDbEntity
  8
0
100
AcDbLine
 10
121.29
 20
34.848
 30
0.0
 11
121.338552190629
 21
35.403950486264
 31
0.0
  0
LINE
  5
555
330
1D
100
AcDbEntity
  8
0
100
AcDbLine
 10
120.578
 20
34.91
 30
0.0
 11
121.29
 21
34.848
 31
0.0
  0
LINE
  5
557
330
1D
100
AcDbEntity
  8
0
100
AcDbLine
 10
132.019
 20
34.913
 30
0.0
 11
132.73
 21
34.851
 31
0.0
  0
LINE
  5
559
330
1D
100
AcDbEntity
  8
0
100
AcDbLine
 10
129.245
 20
34.967
 30
0.0
 11
131.037
 21
34.9
 31
0.0
  0
LINE
  5
55D
330
1D
100
AcDbEntity
  8
0
100
AcDbLine
 10
132.73
 20
34.851
 30
0.0
 11
132.839327514155
 21
36.099991623872
 31
0.0
  0
LINE
  5
55E
330
1D
100
AcDbEntity
  8
0
100
AcDbLine
 10
144.185
 20
34.852
 30
0.0
 11
144.897
 21
34.79
 31
0.0
  0
LINE
  5
55F
330
1D
100
AcDbEntity
  8
0
100
AcDbLine
 10
143.97
 20
34.871
 30
0.0
 11
145.631
 21
34.726
 31
0.0
  0
LINE
  5
564
330
1D
100
AcDbEntity
  8
0
100
AcDbLine
 10
146.534
 20
34.879
 30
0.0
 11
147.795
 21
34.848
 31
0.0
  0
LINE
  5
566
330
1D
100
AcDbEntity
  8
0
100
AcDbLine
 10
147.795
 20
34.848
 30
0.0
 11
149.251
 21
34.814
 31
0.0
  0
LINE
  5
567
330
1D
100
AcDbEntity
  8
0
100
AcDbLine
 10
149.251
 20
34.814
 30
0.0
 11
150.598
 21
34.787
 31
0.0
  0
LINE
  5
568
330
1D
100
AcDbEntity
  8
0
100
AcDbLine
 10
146.362245684319
 20
34.883824559429
 30
0.0
 11
146.534
 21
34.879
 31
0.0
  0
LINE
  5
569
330
1D
100
AcDbEntity
  8
0
100
AcDbLine
 10
130.357
 20
35.058
 30
0.0
 11
132.019
 21
34.913
 31
0.0
  0
LINE
  5
56B
330
1D
100
AcDbEntity
  8
0
100
AcDbLine
 10
142.308
 20
35.016
 30
0.0
 11
143.97
 21
34.871
 31
0.0
  0
LINE
  5
56D
330
1D
100
AcDbEntity
  8
0
100
AcDbLine
 10
141.597
 20
35.079
 30
0.0
 11
142.308
 21
35.016
 31
0.0
  0
LINE
  5
56E
330
1D
100
AcDbEntity
  8
0
100
AcDbLine
 10
141.597
 20
35.079
 30
0.0
 11
141.648404883776
 21
35.666265426803
 31
0.0
  0
LINE
  5
56F
330
1D
100
AcDbEntity
  8
0
100
AcDbLine
 10
130.253910828023
 20
35.067066878981
 30
0.0
 11
130.492
 21
35.046
 31
0.0
  0
LINE
  5
570
330
1D
100
AcDbEntity
  8
0
100
AcDbLine
 10
121.06
 20
35.421
 30
0.0
 11
129.245
 21
34.967
 31
0.0
  0
LINE
  5
575
330
1D
100
AcDbEntity
  8
0
100
AcDbLine
 10
150.598
 20
34.787
 30
0.0
 11
150.891
 21
34.783
 31
0.0
  0
LINE
  5
576
330
1D
100
AcDbEntity
  8
0
100
AcDbLine
 10
150.891
 20
34.783
 30
0.0
 11
155.314
 21
34.726
 31
0.0
  0
LINE
  5
577
330
1D
100
AcDbEntity
  8
0
100
AcDbLine
 10
157.034
 20
34.732
 30
0.0
 11
157.747
 21
34.67
 31
0.0
  0
LINE
  5
579
330
1D
100
AcDbEntity
  8
0
100
AcDbLine
 10
155.921533372886
 20
34.73453010976
 30
0.0
 11
156.985
 21
34.721
 31
0.0
  0
LINE
  5
57A
330
1D
100
AcDbEntity
  8
0
100
AcDbLine
 10
153.445
 20
35.046
 30
0.0
 11
154.157
 21
34.984
 31
0.0
  0
LINE
  5
57C
330
1D
100
AcDbEntity
  8
0
100
AcDbLine
 10
154.157
 20
34.984
 30
0.0
 11
154.23567265587
 21
35.882780960756
 31
0.0
  0
LINE
  5
57D
330
1D
100
AcDbEntity
  8
0
100
AcDbLine
 10
154.037810572693
 20
34.994378854625
 30
0.0
 11
155.374
 21
34.877
 31
0.0
  0
LINE
  5
57E
330
1D
100
AcDbEntity
  8
0
100
AcDbLine
 10
154.037810572693
 20
34.994378854625
 30
0.0
 11
155.374
 21
34.877
 31
0.0
  0
LINE
  5
57F
330
1D
100
AcDbEntity
  8
0
100
AcDbLine
 10
155.374
 20
34.877
 30
0.0
 11
157.034
 21
34.732
 31
0.0
  0
LINE
  5
582
330
1D
100
AcDbEntity
  8
0
100
AcDbLine
 10
149.96962430029
 20
34.799595504003
 30
0.0
 11
150.598
 21
34.787
 31
0.0
  0
LINE
  5
583
330
1D
100
AcDbEntity
  8
0
100
AcDbLine
 10
149.968634437098
 20
34.788286998126
 30
0.0
 11
150.712141467851
 21
34.785441754705
 31
0.0
  0
LINE
  5
584
330
1D
100
AcDbEntity
  8
0
100
AcDbLine
 10
155.314
 20
34.726
 30
0.0
 11
156.854990499143
 21
34.747636372063
 31
0.0
  0
LINE
  5
585
330
1D
100
AcDbEntity
  8
0
100
AcDbLine
 10
159.793
 20
33.487
 30
0.0
 11
159.895125740104
 21
34.653716310686
 31
0.0
  0
LINE
  5
586
330
1D
100
AcDbEntity
  8
0
100
AcDbLine
 10
159.082
 20
33.549
 30
0.0
 11
159.793
 21
33.487
 31
0.0
  0
LINE
  5
589
330
1D
100
AcDbEntity
  8
0
100
AcDbLine
 10
169.332
 20
34.66
 30
0.0
 11
169.414403328098
 21
35.60140132398
 31
0.0
  0
LINE
  5
58A
330
1D
100
AcDbEntity
  8
0
100
AcDbLine
 10
161.536
 20
34.625
 30
0.0
 11
162.573
 21
34.815
 31
0.0
  0
LINE
  5
58B
330
1D
100
AcDbEntity
  8
0
100
AcDbLine
 10
168.62
 20
34.722
 30
0.0
 11
169.332
 21
34.66
 31
0.0
  0
LINE
  5
58C
330
1D
100
AcDbEntity
  8
0
100
AcDbLine
 10
168.62
 20
34.722
 30
0.0
 11
168.696104494477
 21
35.593440199975
 31
0.0
  0
LINE
  5
590
330
1D
100
AcDbEntity
  8
0
100
AcDbLine
 10
165.654
 20
34.982
 30
0.0
 11
165.733682073929
 21
35.892312867529
 31
0.0
  0
LINE
  5
595
330
1D
100
AcDbEntity
  8
0
100
AcDbLine
 10
166.959
 20
34.867
 30
0.0
 11
168.62
 21
34.722
 31
0.0
  0
LINE
  5
596
330
1D
100
AcDbEntity
  8
0
100
AcDbLine
 10
166.959
 20
34.867
 30
0.0
 11
167.014291163358
 21
35.498663496988
 31
0.0
  0
LINE
  5
597
330
1D
100
AcDbEntity
  8
0
100
AcDbLine
 10
166.959
 20
34.867
 30
0.0
 11
167.014291163358
 21
35.498663496988
 31
0.0
  0
LINE
  5
59B
330
1D
100
AcDbEntity
  8
0
100
AcDbLine
 10
162.573
 20
34.815
 30
0.0
 11
163.049
 21
35.141
 31
0.0
  0
LINE
  5
5A2
330
1D
100
AcDbEntity
  8
0
100
AcDbLine
 10
120.139
 20
35.952
 30
0.0
 11
121.801
 21
35.807
 31
0.0
  0
LINE
  5
5AA
330
1D
100
AcDbEntity
  8
0
100
AcDbLine
 10
120.069
 20
36.037
 30
0.0
 11
121.887
 21
35.938
 31
0.0
  0
LINE
  5
5B1
330
1D
100
AcDbEntity
  8
0
100
AcDbLine
 10
124.174
 20
35.599
 30
0.0
 11
124.191755864547
 21
35.801848535117
 31
0.0
  0
LINE
  5
5B2
330
1D
100
AcDbEntity
  8
0
100
AcDbLine
 10
123.462
 20
35.662
 30
0.0
 11
124.174
 21
35.599
 31
0.0
  0
LINE
  5
5B9
330
1D
100
AcDbEntity
  8
0
100
AcDbLine
 10
121.801
 20
35.807
 30
0.0
 11
123.462
 21
35.662
 31
0.0
  0
LINE
  5
5BC
330
1D
100
AcDbEntity
  8
0
100
AcDbLine
 10
122.978
 20
35.876
 30
0.0
 11
123.931
 21
35.819
 31
0.0
  0
LINE
  5
5BD
330
1D
100
AcDbEntity
  8
0
100
AcDbLine
 10
121.887
 20
35.938
 30
0.0
 11
122.978
 21
35.876
 31
0.0
  0
LINE
  5
5D3
330
1D
100
AcDbEntity
  8
0
100
AcDbLine
 10
123.966
 20
36.621
 30
0.0
 11
124.006287378388
 21
37.081255577407
 31
0.0
  0
LINE
  5
5D4
330
1D
100
AcDbEntity
  8
0
100
AcDbLine
 10
123.255
 20
36.683
 30
0.0
 11
123.966
 21
36.621
 31
0.0
  0
LINE
  5
5D6
330
1D
100
AcDbEntity
  8
0
100
AcDbLine
 10
121.593
 20
36.829
 30
0.0
 11
123.255
 21
36.683
 31
0.0
  0
LINE
  5
5D8
330
1D
100
AcDbEntity
  8
0
100
AcDbLine
 10
119.933
 20
36.974
 30
0.0
 11
121.593
 21
36.829
 31
0.0
  0
LINE
  5
5DA
330
1D
100
AcDbEntity
  8
0
100
AcDbLine
 10
123.990785120723
 20
36.904152950274
 30
0.0
 11
124.857
 21
36.907
 31
0.0
  0
LINE
  5
5DB
330
1D
100
AcDbEntity
  8
0
100
AcDbLine
 10
124.395
 20
37.049
 30
0.0
 11
124.985
 21
36.962
 31
0.0
  0
LINE
  5
5DC
330
1D
100
AcDbEntity
  8
0
100
AcDbLine
 10
124.857
 20
36.907
 30
0.0
 11
124.985
 21
36.962
 31
0.0
  0
LINE
  5
5DD
330
1D
100
AcDbEntity
  8
0
100
AcDbLine
 10
124.288329065715
 20
36.905130909008
 30
0.0
 11
124.857
 21
36.907
 31
0.0
  0
LINE
  5
5DE
330
1D
100
AcDbEntity
  8
0
100
AcDbLine
 10
124.288329065715
 20
36.905130909008
 30
0.0
 11
124.301600710784
 21
37.056750322052
 31
0.0
  0
LINE
  5
5E0
330
1D
100
AcDbEntity
  8
0
100
AcDbLine
 10
127.984
 20
35.266
 30
0.0
 11
128.697
 21
35.204
 31
0.0
  0
LINE
  5
5E1
330
1D
100
AcDbEntity
  8
0
100
AcDbLine
 10
127.984
 20
35.266
 30
0.0
 11
128.072487438686
 21
36.276908101129
 31
0.0
  0
LINE
  5
5E2
330
1D
100
AcDbEntity
  8
0
100
AcDbLine
 10
128.697
 20
35.204
 30
0.0
 11
130.357
 21
35.058
 31
0.0
  0
LINE
  5
5E4
330
1D
100
AcDbEntity
  8
0
100
AcDbLine
 10
128.119
 20
35.254
 30
0.0
 11
129.395560354375
 21
35.142560354374
 31
0.0
  0
LINE
  5
5E5
330
1D
100
AcDbEntity
  8
0
100
AcDbLine
 10
128.119
 20
35.254
 30
0.0
 11
129.395560354375
 21
35.142560354374
 31
0.0
  0
LINE
  5
5E6
330
1D
100
AcDbEntity
  8
0
100
AcDbLine
 10
127.922
 20
36.238
 30
0.0
 11
128.068217157724
 21
36.228123079412
 31
0.0
  0
LINE
  5
5E7
330
1D
100
AcDbEntity
  8
0
100
AcDbLine
 10
130.757
 20
36.199
 30
0.0
 11
132.212
 21
36.135
 31
0.0
  0
LINE
  5
5E8
330
1D
100
AcDbEntity
  8
0
100
AcDbLine
 10
132.212
 20
36.135
 30
0.0
 11
133.323
 21
36.073
 31
0.0
  0
LINE
  5
5E9
330
1D
100
AcDbEntity
  8
0
100
AcDbLine
 10
129.35
 20
36.25
 30
0.0
 11
130.757
 21
36.199
 31
0.0
  0
LINE
  5
5EA
330
1D
100
AcDbEntity
  8
0
100
AcDbLine
 10
130.474
 20
37.056
 30
0.0
 11
132.135
 21
36.91
 31
0.0
  0
LINE
  5
5EC
330
1D
100
AcDbEntity
  8
0
100
AcDbLine
 10
132.135
 20
36.91
 30
0.0
 11
132.847
 21
36.848
 31
0.0
  0
LINE
  5
5EF
330
1D
100
AcDbEntity
  8
0
100
AcDbLine
 10
128.25
 20
36.279
 30
0.0
 11
129.35
 21
36.25
 31
0.0
  0
LINE
  5
5F4
330
1D
100
AcDbEntity
  8
0
100
AcDbLine
 10
132.847
 20
36.848
 30
0.0
 11
132.904342477487
 21
37.503098349454
 31
0.0
  0
LINE
  5
5F5
330
1D
100
AcDbEntity
  8
0
100
AcDbLine
 10
132.847
 20
36.848
 30
0.0
 11
132.904342477487
 21
37.503098349454
 31
0.0
  0
LINE
  5
5F9
330
1D
100
AcDbEntity
  8
0
100
AcDbLine
 10
132.831880248302
 20
36.014911735757
 30
0.0
 11
133.19
 21
36.006
 31
0.0
  0
LINE
  5
5FE
330
1D
100
AcDbEntity
  8
0
100
AcDbLine
 10
133.19
 20
36.006
 30
0.0
 11
133.849
 21
36.017
 31
0.0
  0
LINE
  5
5FF
330
1D
100
AcDbEntity
  8
0
100
AcDbLine
 10
133.323
 20
36.073
 30
0.0
 11
133.849
 21
36.017
 31
0.0
  0
LINE
  5
604
330
1D
100
AcDbEntity
  8
0
100
AcDbLine
 10
127.656
 20
36.272
 30
0.0
 11
128.25
 21
36.279
 31
0.0
  0
LINE
  5
605
330
1D
100
AcDbEntity
  8
0
100
AcDbLine
 10
127.656
 20
36.272
 30
0.0
 11
127.922
 21
36.238
 31
0.0
  0
LINE
  5
606
330
1D
100
AcDbEntity
  8
0
100
AcDbLine
 10
133.285287648286
 20
37.222391688327
 30
0.0
 11
133.305212220409
 21
37.450016215268
 31
0.0
  0
LINE
  5
607
330
1D
100
AcDbEntity
  8
0
100
AcDbLine
 10
128.813
 20
37.201
 30
0.0
 11
130.474
 21
37.056
 31
0.0
  0
LINE
  5
609
330
1D
100
AcDbEntity
  8
0
100
AcDbLine
 10
132.938341301228
 20
37.231156012425
 30
0.0
 11
132.961711624682
 21
37.49814587739
 31
0.0
  0
LINE
  5
60A
330
1D
100
AcDbEntity
  8
0
100
AcDbLine
 10
123.214
 20
37.147
 30
0.0
 11
124.395
 21
37.049
 31
0.0
  0
LINE
  5
60B
330
1D
100
AcDbEntity
  8
0
100
AcDbLine
 10
128.101
 20
37.263
 30
0.0
 11
128.813
 21
37.201
 31
0.0
  0
LINE
  5
60C
330
1D
100
AcDbEntity
  8
0
100
AcDbLine
 10
128.101
 20
37.263
 30
0.0
 11
128.142203158908
 21
37.733339729095
 31
0.0
  0
LINE
  5
610
330
1D
100
AcDbEntity
  8
0
100
AcDbLine
 10
121.702
 20
37.238
 30
0.0
 11
123.214
 21
37.147
 31
0.0
  0
LINE
  5
611
330
1D
100
AcDbEntity
  8
0
100
AcDbLine
 10
119.885
 20
37.31
 30
0.0
 11
121.702
 21
37.238
 31
0.0
  0
LINE
  5
612
330
1D
100
AcDbEntity
  8
0
100
AcDbLine
 10
128.066
 20
37.518
 30
0.0
 11
128.122947536337
 21
37.513534147595
 31
0.0
  0
LINE
  5
613
330
1D
100
AcDbEntity
  8
0
100
AcDbLine
 10
133.253
 20
37.473
 30
0.0
 11
133.855
 21
37.208
 31
0.0
  0
LINE
  5
614
330
1D
100
AcDbEntity
  8
0
100
AcDbLine
 10
132.880666181804
 20
37.232612962306
 30
0.0
 11
133.855
 21
37.208
 31
0.0
  0
LINE
  5
617
330
1D
100
AcDbEntity
  8
0
100
AcDbLine
 10
124.301600710784
 20
37.056750322052
 30
0.0
 11
124.395
 21
37.049
 31
0.0
  0
LINE
  5
618
330
1D
100
AcDbEntity
  8
0
100
AcDbLine
 10
141.374
 20
35.098
 30
0.0
 11
141.473115556121
 21
36.230327029903
 31
0.0
  0
LINE
  5
619
330
1D
100
AcDbEntity
  8
0
100
AcDbLine
 10
141.374
 20
35.098
 30
0.0
 11
141.473115556121
 21
36.230327029903
 31
0.0
  0
LINE
  5
61B
330
1D
100
AcDbEntity
  8
0
100
AcDbLine
 10
163.049
 20
35.141
 30
0.0
 11
163.108
 21
35.186
 31
0.0
  0
LINE
  5
61F
330
1D
100
AcDbEntity
  8
0
100
AcDbLine
 10
151.785
 20
35.191
 30
0.0
 11
153.445
 21
35.046
 31
0.0
  0
LINE
  5
621
330
1D
100
AcDbEntity
  8
0
100
AcDbLine
 10
140.662
 20
35.161
 30
0.0
 11
141.374
 21
35.098
 31
0.0
  0
LINE
  5
625
330
1D
100
AcDbEntity
  8
0
100
AcDbLine
 10
139.001
 20
35.306
 30
0.0
 11
140.662
 21
35.161
 31
0.0
  0
LINE
  5
627
330
1D
100
AcDbEntity
  8
0
100
AcDbLine
 10
150.753
 20
35.281
 30
0.0
 11
150.87342513337
 21
36.656774287427
 31
0.0
  0
LINE
  5
628
330
1D
100
AcDbEntity
  8
0
100
AcDbLine
 10
150.041
 20
35.344
 30
0.0
 11
150.753
 21
35.281
 31
0.0
  0
LINE
  5
62A
330
1D
100
AcDbEntity
  8
0
100
AcDbLine
 10
150.753057073549
 20
35.28165202603
 30
0.0
 11
151.785
 21
35.191
 31
0.0
  0
LINE
  5
62E
330
1D
100
AcDbEntity
  8
0
100
AcDbLine
 10
154.193238179755
 20
35.397996269175
 30
0.0
 11
154.941
 21
35.41
 31
0.0
  0
LINE
  5
630
330
1D
100
AcDbEntity
  8
0
100
AcDbLine
 10
136.628
 20
35.513
 30
0.0
 11
137.339
 21
35.451
 31
0.0
  0
LINE
  5
631
330
1D
100
AcDbEntity
  8
0
100
AcDbLine
 10
136.628
 20
35.513
 30
0.0
 11
136.697009437629
 21
36.301385341356
 31
0.0
  0
LINE
  5
632
330
1D
100
AcDbEntity
  8
0
100
AcDbLine
 10
137.339
 20
35.451
 30
0.0
 11
139.001
 21
35.306
 31
0.0
  0
LINE
  5
635
330
1D
100
AcDbEntity
  8
0
100
AcDbLine
 10
141.643040229758
 20
35.604977945925
 30
0.0
 11
141.648404883776
 21
35.666265426803
 31
0.0
  0
LINE
  5
637
330
1D
100
AcDbEntity
  8
0
100
AcDbLine
 10
141.419306995633
 20
35.615601250567
 30
0.0
 11
141.643040229758
 21
35.604977945925
 31
0.0
  0
LINE
  5
63A
330
1D
100
AcDbEntity
  8
0
100
AcDbLine
 10
141.460466665554
 20
36.085822158542
 30
0.0
 11
141.666
 21
36.087
 31
0.0
  0
LINE
  5
63B
330
1D
100
AcDbEntity
  8
0
100
AcDbLine
 10
141.423660940473
 20
35.665342074529
 30
0.0
 11
142.314
 21
35.669
 31
0.0
  0
LINE
  5
63F
330
1D
100
AcDbEntity
  8
0
100
AcDbLine
 10
136.529
 20
36.221
 30
0.0
 11
136.689091987661
 21
36.210933923256
 31
0.0
  0
LINE
  5
640
330
1D
100
AcDbEntity
  8
0
100
AcDbLine
 10
141.666
 20
36.087
 30
0.0
 11
142.452
 21
36.13
 31
0.0
  0
LINE
  5
641
330
1D
100
AcDbEntity
  8
0
100
AcDbLine
 10
142.147
 20
36.2
 30
0.0
 11
142.452
 21
36.13
 31
0.0
  0
LINE
  5
642
330
1D
100
AcDbEntity
  8
0
100
AcDbLine
 10
140.636
 20
36.268
 30
0.0
 11
142.147
 21
36.2
 31
0.0
  0
LINE
  5
643
330
1D
100
AcDbEntity
  8
0
100
AcDbLine
 10
136.263
 20
36.268
 30
0.0
 11
136.861
 21
36.314
 31
0.0
  0
LINE
  5
644
330
1D
100
AcDbEntity
  8
0
100
AcDbLine
 10
136.263
 20
36.268
 30
0.0
 11
136.529
 21
36.221
 31
0.0
  0
LINE
  5
645
330
1D
100
AcDbEntity
  8
0
100
AcDbLine
 10
136.861
 20
36.314
 30
0.0
 11
137.964
 21
36.321
 31
0.0
  0
LINE
  5
646
330
1D
100
AcDbEntity
  8
0
100
AcDbLine
 10
137.964
 20
36.321
 30
0.0
 11
139.375
 21
36.302
 31
0.0
  0
LINE
  5
647
330
1D
100
AcDbEntity
  8
0
100
AcDbLine
 10
139.375
 20
36.302
 30
0.0
 11
140.636
 21
36.268
 31
0.0
  0
LINE
  5
648
330
1D
100
AcDbEntity
  8
0
100
AcDbLine
 10
142.314
 20
35.669
 30
0.0
 11
144.279
 21
35.651
 31
0.0
  0
LINE
  5
649
330
1D
100
AcDbEntity
  8
0
100
AcDbLine
 10
144.279
 20
35.651
 30
0.0
 11
145.585
 21
35.632
 31
0.0
  0
LINE
  5
64A
330
1D
100
AcDbEntity
  8
0
100
AcDbLine
 10
146.008
 20
35.697
 30
0.0
 11
146.719
 21
35.634
 31
0.0
  0
LINE
  5
64B
330
1D
100
AcDbEntity
  8
0
100
AcDbLine
 10
146.008
 20
35.697
 30
0.0
 11
146.09347977227
 21
36.675792518803
 31
0.0
  0
LINE
  5
64C
330
1D
100
AcDbEntity
  8
0
100
AcDbLine
 10
146.719
 20
35.634
 30
0.0
 11
148.381
 21
35.489
 31
0.0
  0
LINE
  5
64E
330
1D
100
AcDbEntity
  8
0
100
AcDbLine
 10
145.79293295611
 20
36.580225412376
 30
0.0
 11
145.800173163036
 21
36.663129942721
 31
0.0
  0
LINE
  5
64F
330
1D
100
AcDbEntity
  8
0
100
AcDbLine
 10
145.585
 20
35.632
 30
0.0
 11
146.684
 21
35.61
 31
0.0
  0
LINE
  5
650
330
1D
100
AcDbEntity
  8
0
100
AcDbLine
 10
146.684
 20
35.61
 30
0.0
 11
147.215175884372
 21
35.590711490232
 31
0.0
  0
LINE
  5
651
330
1D
100
AcDbEntity
  8
0
100
AcDbLine
 10
148.381
 20
35.489
 30
0.0
 11
150.041
 21
35.344
 31
0.0
  0
LINE
  5
654
330
1D
100
AcDbEntity
  8
0
100
AcDbLine
 10
141.004
 20
37.138
 30
0.0
 11
141.07796418515
 21
37.983159565179
 31
0.0
  0
LINE
  5
655
330
1D
100
AcDbEntity
  8
0
100
AcDbLine
 10
140.291
 20
37.201
 30
0.0
 11
141.004
 21
37.138
 31
0.0
  0
LINE
  5
657
330
1D
100
AcDbEntity
  8
0
100
AcDbLine
 10
136.97
 20
37.491
 30
0.0
 11
138.631
 21
37.346
 31
0.0
  0
LINE
  5
659
330
1D
100
AcDbEntity
  8
0
100
AcDbLine
 10
138.631
 20
37.346
 30
0.0
 11
140.291
 21
37.201
 31
0.0
  0
LINE
  5
65C
330
1D
100
AcDbEntity
  8
0
100
AcDbLine
 10
145.774
 20
36.662
 30
0.0
 11
146.909
 21
36.711
 31
0.0
  0
LINE
  5
65D
330
1D
100
AcDbEntity
  8
0
100
AcDbLine
 10
146.909
 20
36.711
 30
0.0
 11
148.736
 21
36.715
 31
0.0
  0
LINE
  5
65E
330
1D
100
AcDbEntity
  8
0
100
AcDbLine
 10
145.768
 20
36.582
 30
0.0
 11
146.083328679934
 21
36.559556677585
 31
0.0
  0
LINE
  5
65F
330
1D
100
AcDbEntity
  8
0
100
AcDbLine
 10
145.768
 20
36.582
 30
0.0
 11
145.774
 21
36.662
 31
0.0
  0
LINE
  5
660
330
1D
100
AcDbEntity
  8
0
100
AcDbLine
 10
150.804462809909
 20
35.868927193019
 30
0.0
 11
152.071
 21
35.885
 31
0.0
  0
LINE
  5
661
330
1D
100
AcDbEntity
  8
0
100
AcDbLine
 10
152.071
 20
35.885
 30
0.0
 11
153.379
 21
35.889
 31
0.0
  0
LINE
  5
664
330
1D
100
AcDbEntity
  8
0
100
AcDbLine
 10
153.379
 20
35.889
 30
0.0
 11
154.481
 21
35.881
 31
0.0
  0
LINE
  5
665
330
1D
100
AcDbEntity
  8
0
100
AcDbLine
 10
154.481
 20
35.881
 30
0.0
 11
155.195
 21
35.862
 31
0.0
  0
LINE
  5
667
330
1D
100
AcDbEntity
  8
0
100
AcDbLine
 10
154.855
 20
36.428
 30
0.0
 11
156.516
 21
36.283
 31
0.0
  0
LINE
  5
669
330
1D
100
AcDbEntity
  8
0
100
AcDbLine
 10
154.698
 20
35.776
 30
0.0
 11
155.411
 21
35.832
 31
0.0
  0
LINE
  5
66B
330
1D
100
AcDbEntity
  8
0
100
AcDbLine
 10
154.223132259748
 20
35.739515563774
 30
0.0
 11
154.698
 21
35.776
 31
0.0
  0
LINE
  5
66C
330
1D
100
AcDbEntity
  8
0
100
AcDbLine
 10
151.64
 20
36.521
 30
0.0
 11
151.714
 21
36.6
 31
0.0
  0
LINE
  5
66D
330
1D
100
AcDbEntity
  8
0
100
AcDbLine
 10
149.746
 20
36.699
 30
0.0
 11
150.648
 21
36.672
 31
0.0
  0
LINE
  5
66E
330
1D
100
AcDbEntity
  8
0
100
AcDbLine
 10
150.648
 20
36.672
 30
0.0
 11
151.714
 21
36.6
 31
0.0
  0
LINE
  5
66F
330
1D
100
AcDbEntity
  8
0
100
AcDbLine
 10
154.143
 20
36.491
 30
0.0
 11
154.855
 21
36.428
 31
0.0
  0
LINE
  5
670
330
1D
100
AcDbEntity
  8
0
100
AcDbLine
 10
154.143
 20
36.491
 30
0.0
 11
154.199517376364
 21
37.13667213685
 31
0.0
  0
LINE
  5
671
330
1D
100
AcDbEntity
  8
0
100
AcDbLine
 10
153.712
 20
37.029
 30
0.0
 11
153.824
 21
37.107
 31
0.0
  0
LINE
  5
672
330
1D
100
AcDbEntity
  8
0
100
AcDbLine
 10
153.712
 20
37.029
 30
0.0
 11
154.185457482041
 21
36.976047518456
 31
0.0
  0
LINE
  5
673
330
1D
100
AcDbEntity
  8
0
100
AcDbLine
 10
153.824
 20
37.107
 30
0.0
 11
154.963
 21
37.197
 31
0.0
  0
LINE
  5
674
330
1D
100
AcDbEntity
  8
0
100
AcDbLine
 10
154.963
 20
37.197
 30
0.0
 11
156.793
 21
37.249
 31
0.0
  0
LINE
  5
675
330
1D
100
AcDbEntity
  8
0
100
AcDbLine
 10
150.858257292566
 20
36.483492142825
 30
0.0
 11
151.64
 21
36.521
 31
0.0
  0
LINE
  5
676
330
1D
100
AcDbEntity
  8
0
100
AcDbLine
 10
148.736
 20
36.715
 30
0.0
 11
149.746
 21
36.699
 31
0.0
  0
LINE
  5
677
330
1D
100
AcDbEntity
  8
0
100
AcDbLine
 10
154.941
 20
35.41
 30
0.0
 11
155.556
 21
35.419
 31
0.0
  0
LINE
  5
680
330
1D
100
AcDbEntity
  8
0
100
AcDbLine
 10
163.108
 20
35.186
 30
0.0
 11
163.160503059976
 21
35.199474236631
 31
0.0
  0
LINE
  5
68F
330
1D
100
AcDbEntity
  8
0
100
AcDbLine
 10
156.516
 20
36.283
 30
0.0
 11
158.177
 21
36.138
 31
0.0
  0
LINE
  5
693
330
1D
100
AcDbEntity
  8
0
100
AcDbLine
 10
158.177
 20
36.138
 30
0.0
 11
158.889
 21
36.075
 31
0.0
  0
LINE
  5
695
330
1D
100
AcDbEntity
  8
0
100
AcDbLine
 10
158.332
 20
35.622
 30
0.0
 11
159.043
 21
35.56
 31
0.0
  0
LINE
  5
696
330
1D
100
AcDbEntity
  8
0
100
AcDbLine
 10
158.332
 20
35.622
 30
0.0
 11
158.375628424652
 21
36.120424732088
 31
0.0
  0
LINE
  5
699
330
1D
100
AcDbEntity
  8
0
100
AcDbLine
 10
158.889
 20
36.075
 30
0.0
 11
158.990392808234
 21
37.236005926011
 31
0.0
  0
LINE
  5
69A
330
1D
100
AcDbEntity
  8
0
100
AcDbLine
 10
158.90886766232
 20
36.302496151765
 30
0.0
 11
160.2
 21
36.356
 31
0.0
  0
LINE
  5
69B
330
1D
100
AcDbEntity
  8
0
100
AcDbLine
 10
158.195
 20
35.443
 30
0.0
 11
158.621
 21
35.437
 31
0.0
  0
LINE
  5
69C
330
1D
100
AcDbEntity
  8
0
100
AcDbLine
 10
157.386
 20
35.439
 30
0.0
 11
158.195
 21
35.443
 31
0.0
  0
LINE
  5
69D
330
1D
100
AcDbEntity
  8
0
100
AcDbLine
 10
159.171563610382
 20
37.028750787419
 30
0.0
 11
159.188899150294
 21
37.226797402783
 31
0.0
  0
LINE
  5
69F
330
1D
100
AcDbEntity
  8
0
100
AcDbLine
 10
158.971231282719
 20
37.016595446494
 30
0.0
 11
159.324
 21
37.038
 31
0.0
  0
LINE
  5
6A0
330
1D
100
AcDbEntity
  8
0
100
AcDbLine
 10
159.324
 20
37.038
 30
0.0
 11
159.873
 21
37.126
 31
0.0
  0
LINE
  5
6A1
330
1D
100
AcDbEntity
  8
0
100
AcDbLine
 10
160.2
 20
36.356
 30
0.0
 11
160.782
 21
36.375
 31
0.0
  0
LINE
  5
6A2
330
1D
100
AcDbEntity
  8
0
100
AcDbLine
 10
160.782
 20
36.375
 30
0.0
 11
162.305
 21
36.413
 31
0.0
  0
LINE
  5
6A3
330
1D
100
AcDbEntity
  8
0
100
AcDbLine
 10
155.556
 20
35.419
 30
0.0
 11
157.386
 21
35.439
 31
0.0
  0
LINE
  5
6A4
330
1D
100
AcDbEntity
  8
0
100
AcDbLine
 10
163.078
 20
35.207
 30
0.0
 11
163.184468497692
 21
36.423329327993
 31
0.0
  0
LINE
  5
6AA
330
1D
100
AcDbEntity
  8
0
100
AcDbLine
 10
163.128964866772
 20
35.789238535298
 30
0.0
 11
163.422
 21
35.802
 31
0.0
  0
LINE
  5
6AB
330
1D
100
AcDbEntity
  8
0
100
AcDbLine
 10
166.44191056779
 20
35.521466830643
 30
0.0
 11
167.303
 21
35.578
 31
0.0
  0
LINE
  5
6AC
330
1D
100
AcDbEntity
  8
0
100
AcDbLine
 10
165.701240852875
 20
35.521694238925
 30
0.0
 11
166.263
 21
35.549
 31
0.0
  0
LINE
  5
6AD
330
1D
100
AcDbEntity
  8
0
100
AcDbLine
 10
166.263
 20
35.549
 30
0.0
 11
167.139
 21
35.594
 31
0.0
  0
LINE
  5
6AE
330
1D
100
AcDbEntity
  8
0
100
AcDbLine
 10
169.411617254521
 20
35.569572350383
 30
0.0
 11
170.1
 21
35.609
 31
0.0
  0
LINE
  5
6AF
330
1D
100
AcDbEntity
  8
0
100
AcDbLine
 10
170.1
 20
35.609
 30
0.0
 11
176.992
 21
36.389
 31
0.0
  0
LINE
  5
6B0
330
1D
100
AcDbEntity
  8
0
100
AcDbLine
 10
167.303
 20
35.578
 30
0.0
 11
167.6
 21
35.613
 31
0.0
  0
LINE
  5
6B1
330
1D
100
AcDbEntity
  8
0
100
AcDbLine
 10
167.139
 20
35.594
 30
0.0
 11
167.6
 21
35.613
 31
0.0
  0
LINE
  5
6B3
330
1D
100
AcDbEntity
  8
0
100
AcDbLine
 10
166.089
 20
35.847
 30
0.0
 11
166.515
 21
35.892
 31
0.0
  0
LINE
  5
6B4
330
1D
100
AcDbEntity
  8
0
100
AcDbLine
 10
165.727496389082
 20
35.821645674347
 30
0.0
 11
166.089
 21
35.847
 31
0.0
  0
LINE
  5
6B5
330
1D
100
AcDbEntity
  8
0
100
AcDbLine
 10
163.422
 20
35.802
 30
0.0
 11
164.837
 21
35.86
 31
0.0
  0
LINE
  5
6B6
330
1D
100
AcDbEntity
  8
0
100
AcDbLine
 10
162.305
 20
36.413
 30
0.0
 11
163.497
 21
36.427
 31
0.0
  0
LINE
  5
6B8
330
1D
100
AcDbEntity
  8
0
100
AcDbLine
 10
165.947
 20
35.9
 30
0.0
 11
166.439
 21
35.909
 31
0.0
  0
LINE
  5
6B9
330
1D
100
AcDbEntity
  8
0
100
AcDbLine
 10
176.992
 20
36.389
 30
0.0
 11
180.895
 21
37.129
 31
0.0
  0
LINE
  5
6BA
330
1D
100
AcDbEntity
  8
0
100
AcDbLine
 10
166.439
 20
35.909
 30
0.0
 11
166.515
 21
35.892
 31
0.0
  0
LINE
  5
6BC
330
1D
100
AcDbEntity
  8
0
100
AcDbLine
 10
163.497
 20
36.427
 30
0.0
 11
164.034
 21
36.413
 31
0.0
  0
LINE
  5
6BD
330
1D
100
AcDbEntity
  8
0
100
AcDbLine
 10
164.034
 20
36.413
 30
0.0
 11
164.095
 21
36.375
 31
0.0
  0
LINE
  5
6BE
330
1D
100
AcDbEntity
  8
0
100
AcDbLine
 10
163.179
 20
36.278
 30
0.0
 11
164.095
 21
36.375
 31
0.0
  0
LINE
  5
6BF
330
1D
100
AcDbEntity
  8
0
100
AcDbLine
 10
164.837
 20
35.86
 30
0.0
 11
165.947
 21
35.9
 31
0.0
  0
LINE
  5
6C1
330
1D
100
AcDbEntity
  8
0
100
AcDbLine
 10
156.793
 20
37.249
 30
0.0
 11
157.525
 21
37.255
 31
0.0
  0
LINE
  5
6C2
330
1D
100
AcDbEntity
  8
0
100
AcDbLine
 10
157.525
 20
37.255
 30
0.0
 11
159.068
 21
37.235
 31
0.0
  0
LINE
  5
6C3
330
1D
100
AcDbEntity
  8
0
100
AcDbLine
 10
159.068
 20
37.235
 30
0.0
 11
159.746
 21
37.189
 31
0.0
  0
LINE
  5
6C5
330
1D
100
AcDbEntity
  8
0
100
AcDbLine
 10
159.746
 20
37.189
 30
0.0
 11
159.873
 21
37.126
 31
0.0
  0
LINE
  5
6C7
330
1D
100
AcDbEntity
  8
0
100
AcDbLine
 10
180.895
 20
37.129
 30
0.0
 11
181.605
 21
37.499
 31
0.0
  0
LINE
  5
6CC
330
1D
100
AcDbEntity
  8
0
100
AcDbLine
 10
181.605
 20
37.499
 30
0.0
 11
181.771962413412
 21
37.639824527606
 31
0.0
  0
LINE
  5
6D0
330
1D
100
AcDbEntity
  8
0
100
AcDbLine
 10
155.195
 20
35.862
 30
0.0
 11
155.411
 21
35.832
 31
0.0
  0
LINE
  5
6D8
330
1D
100
AcDbEntity
  8
0
100
AcDbLine
 10
136.258
 20
37.553
 30
0.0
 11
136.97
 21
37.491
 31
0.0
  0
LINE
  5
6D9
330
1D
100
AcDbEntity
  8
0
100
AcDbLine
 10
136.258
 20
37.553
 30
0.0
 11
136.309109143124
 21
38.136417902128
 31
0.0
  0
LINE
  5
6DB
330
1D
100
AcDbEntity
  8
0
100
AcDbLine
 10
182.589
 20
37.521
 30
0.0
 11
182.736
 21
37.5
 31
0.0
  0
LINE
  5
6DC
330
1D
100
AcDbEntity
  8
0
100
AcDbLine
 10
182.736
 20
37.5
 30
0.0
 11
183.789
 21
37.843
 31
0.0
  0
LINE
  5
6DD
330
1D
100
AcDbEntity
  8
0
100
AcDbLine
 10
182.736
 20
37.5
 30
0.0
 11
183.796
 21
37.843
 31
0.0
  0
LINE
  5
6E0
330
1D
100
AcDbEntity
  8
0
100
AcDbLine
 10
127.339
 20
37.616
 30
0.0
 11
128.066
 21
37.518
 31
0.0
  0
LINE
  5
6E1
330
1D
100
AcDbEntity
  8
0
100
AcDbLine
 10
127.339
 20
37.616
 30
0.0
 11
127.347
 21
37.719
 31
0.0
  0
LINE
  5
6E2
330
1D
100
AcDbEntity
  8
0
100
AcDbLine
 10
121.491
 20
38.845
 30
0.0
 11
121.524040661413
 21
39.222769947583
 31
0.0
  0
LINE
  5
6E3
330
1D
100
AcDbEntity
  8
0
100
AcDbLine
 10
120.778
 20
38.908
 30
0.0
 11
121.491
 21
38.845
 31
0.0
  0
LINE
  5
6E6
330
1D
100
AcDbEntity
  8
0
100
AcDbLine
 10
119.442
 20
39.422
 30
0.0
 11
121.255
 21
39.266
 31
0.0
  0
LINE
  5
6E7
330
1D
100
AcDbEntity
  8
0
100
AcDbLine
 10
121.255
 20
39.266
 30
0.0
 11
122.369
 21
39.087
 31
0.0
  0
LINE
  5
6EA
330
1D
100
AcDbEntity
  8
0
100
AcDbLine
 10
122.358
 20
38.953
 30
0.0
 11
122.369
 21
39.087
 31
0.0
  0
LINE
  5
6EB
330
1D
100
AcDbEntity
  8
0
100
AcDbLine
 10
121.597
 20
38.917
 30
0.0
 11
122.358
 21
38.953
 31
0.0
  0
LINE
  5
6EC
330
1D
100
AcDbEntity
  8
0
100
AcDbLine
 10
121.497557855896
 20
38.919979155144
 30
0.0
 11
121.597
 21
38.917
 31
0.0
  0
LINE
  5
6ED
330
1D
100
AcDbEntity
  8
0
100
AcDbLine
 10
127.347
 20
37.719
 30
0.0
 11
128.567
 21
37.741
 31
0.0
  0
LINE
  5
6EE
330
1D
100
AcDbEntity
  8
0
100
AcDbLine
 10
131.301
 20
39.995
 30
0.0
 11
131.365356973219
 21
40.730824567657
 31
0.0
  0
LINE
  5
6EF
330
1D
100
AcDbEntity
  8
0
100
AcDbLine
 10
130.589
 20
40.057
 30
0.0
 11
131.301
 21
39.995
 31
0.0
  0
LINE
  5
6F1
330
1D
100
AcDbEntity
  8
0
100
AcDbLine
 10
128.928
 20
40.202
 30
0.0
 11
130.589
 21
40.057
 31
0.0
  0
LINE
  5
6F4
330
1D
100
AcDbEntity
  8
0
100
AcDbLine
 10
128.567
 20
37.741
 30
0.0
 11
130.528
 21
37.676
 31
0.0
  0
LINE
  5
6F5
330
1D
100
AcDbEntity
  8
0
100
AcDbLine
 10
130.528
 20
37.676
 30
0.0
 11
131.666
 21
37.61
 31
0.0
  0
LINE
  5
6F6
330
1D
100
AcDbEntity
  8
0
100
AcDbLine
 10
131.666
 20
37.61
 30
0.0
 11
133.253
 21
37.473
 31
0.0
  0
LINE
  5
6F8
330
1D
100
AcDbEntity
  8
0
100
AcDbLine
 10
135.511
 20
38.094
 30
0.0
 11
136.734
 21
38.159
 31
0.0
  0
LINE
  5
6F9
330
1D
100
AcDbEntity
  8
0
100
AcDbLine
 10
135.5
 20
37.96
 30
0.0
 11
135.511
 21
38.094
 31
0.0
  0
LINE
  5
6FA
330
1D
100
AcDbEntity
  8
0
100
AcDbLine
 10
135.5
 20
37.96
 30
0.0
 11
136.147
 21
37.862
 31
0.0
  0
LINE
  5
6FB
330
1D
100
AcDbEntity
  8
0
100
AcDbLine
 10
136.734
 20
38.159
 30
0.0
 11
138.698
 21
38.132
 31
0.0
  0
LINE
  5
6FC
330
1D
100
AcDbEntity
  8
0
100
AcDbLine
 10
136.147
 20
37.862
 30
0.0
 11
136.284191151126
 21
37.851975594385
 31
0.0
  0
LINE
  5
6FD
330
1D
100
AcDbEntity
  8
0
100
AcDbLine
 10
131.321657316273
 20
40.231185141331
 30
0.0
 11
131.714
 21
40.241
 31
0.0
  0
LINE
  5
6FE
330
1D
100
AcDbEntity
  8
0
100
AcDbLine
 10
126.198
 20
40.704
 30
0.0
 11
126.5720305958
 21
40.604523777713
 31
0.0
  0
LINE
  5
6FF
330
1D
100
AcDbEntity
  8
0
100
AcDbLine
 10
126.198
 20
40.704
 30
0.0
 11
126.418
 21
40.92
 31
0.0
  0
LINE
  5
700
330
1D
100
AcDbEntity
  8
0
100
AcDbLine
 10
126.555
 20
40.41
 30
0.0
 11
127.268
 21
40.348
 31
0.0
  0
LINE
  5
701
330
1D
100
AcDbEntity
  8
0
100
AcDbLine
 10
126.555
 20
40.41
 30
0.0
 11
126.600984471808
 21
40.93523548074
 31
0.0
  0
LINE
  5
702
330
1D
100
AcDbEntity
  8
0
100
AcDbLine
 10
127.268
 20
40.348
 30
0.0
 11
128.928
 21
40.202
 31
0.0
  0
LINE
  5
704
330
1D
100
AcDbEntity
  8
0
100
AcDbLine
 10
126.5720305958
 20
40.604523777713
 30
0.0
 11
126.600984471808
 21
40.93523548074
 31
0.0
  0
LINE
  5
705
330
1D
100
AcDbEntity
  8
0
100
AcDbLine
 10
132.18
 20
40.543
 30
0.0
 11
132.279
 21
40.365
 31
0.0
  0
LINE
  5
706
330
1D
100
AcDbEntity
  8
0
100
AcDbLine
 10
127.571
 20
41.016
 30
0.0
 11
129.263
 21
40.978
 31
0.0
  0
LINE
  5
707
330
1D
100
AcDbEntity
  8
0
100
AcDbLine
 10
129.263
 20
40.978
 30
0.0
 11
131.074
 21
40.798
 31
0.0
  0
LINE
  5
708
330
1D
100
AcDbEntity
  8
0
100
AcDbLine
 10
131.074
 20
40.798
 30
0.0
 11
132.18
 21
40.543
 31
0.0
  0
LINE
  5
709
330
1D
100
AcDbEntity
  8
0
100
AcDbLine
 10
126.418
 20
40.92
 30
0.0
 11
127.571
 21
41.016
 31
0.0
  0
LINE
  5
70A
330
1D
100
AcDbEntity
  8
0
100
AcDbLine
 10
131.714
 20
40.241
 30
0.0
 11
132.279
 21
40.365
 31
0.0
  0
LINE
  5
70C
330
1D
100
AcDbEntity
  8
0
100
AcDbLine
 10
141.147
 20
37.691
 30
0.0
 11
141.997
 21
37.787
 31
0.0
  0
LINE
  5
70D
330
1D
100
AcDbEntity
  8
0
100
AcDbLine
 10
141.052354248644
 20
37.690524923724
 30
0.0
 11
141.147
 21
37.691
 31
0.0
  0
LINE
  5
70F
330
1D
100
AcDbEntity
  8
0
100
AcDbLine
 10
138.698
 20
38.132
 30
0.0
 11
140.656
 21
38.027
 31
0.0
  0
LINE
  5
710
330
1D
100
AcDbEntity
  8
0
100
AcDbLine
 10
140.656
 20
38.027
 30
0.0
 11
141.58
 21
37.931
 31
0.0
  0
LINE
  5
711
330
1D
100
AcDbEntity
  8
0
100
AcDbLine
 10
141.58
 20
37.931
 30
0.0
 11
141.997
 21
37.787
 31
0.0
  0
LINE
  5
716
330
1D
100
AcDbEntity
  8
0
100
AcDbLine
 10
144.151
 20
38.98
 30
0.0
 11
144.775
 21
38.777
 31
0.0
  0
LINE
  5
717
330
1D
100
AcDbEntity
  8
0
100
AcDbLine
 10
144.151
 20
38.98
 30
0.0
 11
144.807
 21
39.107
 31
0.0
  0
LINE
  5
718
330
1D
100
AcDbEntity
  8
0
100
AcDbLine
 10
144.775
 20
38.777
 30
0.0
 11
145.604
 21
38.68
 31
0.0
  0
LINE
  5
71A
330
1D
100
AcDbEntity
  8
0
100
AcDbLine
 10
145.105
 20
38.787
 30
0.0
 11
145.135773794162
 21
39.139519117947
 31
0.0
  0
LINE
  5
71B
330
1D
100
AcDbEntity
  8
0
100
AcDbLine
 10
147.477
 20
38.58
 30
0.0
 11
149.139
 21
38.434
 31
0.0
  0
LINE
  5
71D
330
1D
100
AcDbEntity
  8
0
100
AcDbLine
 10
149.85
 20
38.372
 30
0.0
 11
149.911146731057
 21
39.070138594497
 31
0.0
  0
LINE
  5
71E
330
1D
100
AcDbEntity
  8
0
100
AcDbLine
 10
149.139
 20
38.434
 30
0.0
 11
149.85
 21
38.372
 31
0.0
  0
LINE
  5
725
330
1D
100
AcDbEntity
  8
0
100
AcDbLine
 10
149.871595867195
 20
38.618569327741
 30
0.0
 11
150.542
 21
38.642
 31
0.0
  0
LINE
  5
726
330
1D
100
AcDbEntity
  8
0
100
AcDbLine
 10
145.604
 20
38.68
 30
0.0
 11
147.356139506888
 21
38.590557091266
 31
0.0
  0
LINE
  5
727
330
1D
100
AcDbEntity
  8
0
100
AcDbLine
 10
149.481
 20
39.123
 30
0.0
 11
150.311
 21
39.021
 31
0.0
  0
LINE
  5
72B
330
1D
100
AcDbEntity
  8
0
100
AcDbLine
 10
150.542
 20
38.642
 30
0.0
 11
150.767
 21
38.904
 31
0.0
  0
LINE
  5
72C
330
1D
100
AcDbEntity
  8
0
100
AcDbLine
 10
150.311
 20
39.021
 30
0.0
 11
150.767
 21
38.904
 31
0.0
  0
LINE
  5
72D
330
1D
100
AcDbEntity
  8
0
100
AcDbLine
 10
147.521
 20
39.226
 30
0.0
 11
149.481
 21
39.123
 31
0.0
  0
LINE
  5
72E
330
1D
100
AcDbEntity
  8
0
100
AcDbLine
 10
146.0
 20
39.225
 30
0.0
 11
147.521
 21
39.226
 31
0.0
  0
LINE
  5
72F
330
1D
100
AcDbEntity
  8
0
100
AcDbLine
 10
144.807
 20
39.107
 30
0.0
 11
146.0
 21
39.225
 31
0.0
  0
LINE
  5
730
330
1D
100
AcDbEntity
  8
0
100
AcDbLine
 10
145.144
 20
41.827
 30
0.0
 11
151.732
 21
41.259
 31
0.0
  0
LINE
  5
731
330
1D
100
AcDbEntity
  8
0
100
AcDbLine
 10
137.304
 20
42.5
 30
0.0
 11
145.144
 21
41.827
 31
0.0
  0
LINE
  5
734
330
1D
100
AcDbEntity
  8
0
100
AcDbLine
 10
122.292
 20
43.8
 30
0.0
 11
131.055
 21
43.04
 31
0.0
  0
LINE
  5
735
330
1D
100
AcDbEntity
  8
0
100
AcDbLine
 10
131.055
 20
43.04
 30
0.0
 11
137.304
 21
42.5
 31
0.0
  0
LINE
  5
73A
330
1D
100
AcDbEntity
  8
0
100
AcDbLine
 10
169.784
 20
39.507
 30
0.0
 11
172.056
 21
39.225
 31
0.0
  0
LINE
  5
73C
330
1D
100
AcDbEntity
  8
0
100
AcDbLine
 10
172.056
 20
39.225
 30
0.0
 11
174.493
 21
38.89
 31
0.0
  0
LINE
  5
73D
330
1D
100
AcDbEntity
  8
0
100
AcDbLine
 10
174.493
 20
38.89
 30
0.0
 11
176.671
 21
38.554
 31
0.0
  0
LINE
  5
73E
330
1D
100
AcDbEntity
  8
0
100
AcDbLine
 10
176.671
 20
38.554
 30
0.0
 11
178.972
 21
38.049
 31
0.0
  0
LINE
  5
73F
330
1D
100
AcDbEntity
  8
0
100
AcDbLine
 10
178.972
 20
38.049
 30
0.0
 11
181.072
 21
37.758
 31
0.0
  0
LINE
  5
740
330
1D
100
AcDbEntity
  8
0
100
AcDbLine
 10
167.146
 20
39.807
 30
0.0
 11
169.784
 21
39.507
 31
0.0
  0
LINE
  5
741
330
1D
100
AcDbEntity
  8
0
100
AcDbLine
 10
156.746
 20
40.816
 30
0.0
 11
159.829
 21
40.367
 31
0.0
  0
LINE
  5
745
330
1D
100
AcDbEntity
  8
0
100
AcDbLine
 10
159.829
 20
40.367
 30
0.0
 11
163.868
 21
40.148
 31
0.0
  0
LINE
  5
746
330
1D
100
AcDbEntity
  8
0
100
AcDbLine
 10
163.868
 20
40.148
 30
0.0
 11
167.146
 21
39.807
 31
0.0
  0
LINE
  5
747
330
1D
100
AcDbEntity
  8
0
100
AcDbLine
 10
151.732
 20
41.259
 30
0.0
 11
156.746
 21
40.816
 31
0.0
  0
LINE
  5
748
330
1D
100
AcDbEntity
  8
0
100
AcDbLine
 10
169.14
 20
68.02
 30
0.0
 11
184.52
 21
63.93
 31
0.0
  0
LINE
  5
749
330
1D
100
AcDbEntity
  8
0
100
AcDbLine
 10
164.681
 20
69.13
 30
0.0
 11
169.14
 21
68.02
 31
0.0
  0
LINE
  5
74B
330
1D
100
AcDbEntity
  8
0
100
AcDbLine
 10
183.796
 20
37.843
 30
0.0
 11
185.05
 21
38.305
 31
0.0
  0
LINE
  5
74C
330
1D
100
AcDbEntity
  8
0
100
AcDbLine
 10
186.145
 20
38.983
 30
0.0
 11
186.426
 21
39.356
 31
0.0
  0
LINE
  5
74D
330
1D
100
AcDbEntity
  8
0
100
AcDbLine
 10
185.648
 20
38.658
 30
0.0
 11
186.145
 21
38.983
 31
0.0
  0
LINE
  5
74E
330
1D
100
AcDbEntity
  8
0
100
AcDbLine
 10
186.426
 20
39.356
 30
0.0
 11
187.528
 21
40.949
 31
0.0
  0
LINE
  5
752
330
1D
100
AcDbEntity
  8
0
100
AcDbLine
 10
185.043
 20
38.306
 30
0.0
 11
185.648
 21
38.658
 31
0.0
  0
LINE
  5
753
330
1D
100
AcDbEntity
  8
0
100
AcDbLine
 10
187.528
 20
40.949
 30
0.0
 11
189.469
 21
54.9
 31
0.0
  0
LINE
  5
756
330
1D
100
AcDbEntity
  8
0
100
AcDbLine
 10
189.469
 20
54.9
 30
0.0
 11
190.176
 21
61.28
 31
0.0
  0
LINE
  5
758
330
1D
100
AcDbEntity
  8
0
100
AcDbLine
 10
189.923
 20
62.09
 30
0.0
 11
190.158
 21
61.7
 31
0.0
  0
LINE
  5
759
330
1D
100
AcDbEntity
  8
0
100
AcDbLine
 10
189.369
 20
62.4
 30
0.0
 11
189.758
 21
62.22
 31
0.0
  0
LINE
  5
75B
330
1D
100
AcDbEntity
  8
0
100
AcDbLine
 10
184.52
 20
63.93
 30
0.0
 11
188.044
 21
62.86
 31
0.0
  0
LINE
  5
75C
330
1D
100
AcDbEntity
  8
0
100
AcDbLine
 10
188.044
 20
62.86
 30
0.0
 11
189.369
 21
62.4
 31
0.0
  0
LINE
  5
75E
330
1D
100
AcDbEntity
  8
0
100
AcDbLine
 10
189.758
 20
62.22
 30
0.0
 11
189.923
 21
62.09
 31
0.0
  0
LINE
  5
761
330
1D
100
AcDbEntity
  8
0
100
AcDbLine
 10
190.158
 20
61.7
 30
0.0
 11
190.176
 21
61.28
 31
0.0
  0
LINE
  5
762
330
1D
100
AcDbEntity
  8
0
100
AcDbLine
 10
181.829441032529
 20
37.630120345158
 30
0.0
 11
181.996
 21
37.602
 31
0.0
  0
LINE
  5
763
330
1D
100
AcDbEntity
  8
0
100
AcDbLine
 10
181.072
 20
37.758
 30
0.0
 11
181.996
 21
37.602
 31
0.0
  0
LINE
  5
764
330
1D
100
AcDbEntity
  8
0
100
AcDbLine
 10
181.996
 20
37.602
 30
0.0
 11
182.59
 21
37.52
 31
0.0
  0
LINE
  5
766
330
1D
100
AcDbEntity
  8
0
100
AcDbLine
 10
460.0
 20
69.02
 30
0.0
 11
460.0
 21
69.15
 31
0.0
  0
LINE
  5
767
330
1D
100
AcDbEntity
  8
0
100
AcDbLine
 10
460.0
 20
69.2
 30
0.0
 11
460.0
 21
69.33
 31
0.0
  0
LINE
  5
768
330
1D
100
AcDbEntity
  8
0
100
AcDbLine
 10
460.0
 20
69.39
 30
0.0
 11
460.0
 21
69.58
 31
0.0
  0
LINE
  5
76F
330
1D
100
AcDbEntity
  8
0
100
AcDbLine
 10
460.0
 20
69.65
 30
0.0
 11
460.0
 21
69.89
 31
0.0
  0
LINE
  5
770
330
1D
100
AcDbEntity
  8
0
100
AcDbLine
 10
460.0
 20
69.99
 30
0.0
 11
460.0
 21
70.3
 31
0.0
  0
LINE
  5
772
330
1D
100
AcDbEntity
  8
0
100
AcDbLine
 10
460.0
 20
70.57
 30
0.0
 11
460.0
 21
70.78
 31
0.0
  0
LINE
  5
778
330
1D
100
AcDbEntity
  8
0
100
AcDbLine
 10
133.91
 20
75.07
 30
0.0
 11
149.853
 21
72.25
 31
0.0
  0
LINE
  5
779
330
1D
100
AcDbEntity
  8
0
100
AcDbLine
 10
149.853
 20
72.25
 30
0.0
 11
164.681
 21
69.13
 31
0.0
  0
LINE
  5
77B
330
1D
100
AcDbEntity
  8
0
100
AcDbLine
 10
287.354
 20
77.99
 30
0.0
 11
460.0
 21
68.27
 31
0.0
  0
LINE
  5
783
330
1D
100
AcDbEntity
  8
0
100
AcDbLine
 10
460.0
 20
71.03
 30
0.0
 11
460.0
 21
80.92
 31
0.0
  0
LINE
  5
784
330
1D
100
AcDbEntity
  8
0
100
AcDbLine
 10
460.0
 20
70.78
 30
0.0
 11
460.0
 21
71.03
 31
0.0
  0
LINE
  5
7A6
330
1D
100
AcDbEntity
  8
0
100
AcDbLine
 10
460.0
 20
69.33
 30
0.0
 11
460.0
 21
69.39
 31
0.0
  0
LINE
  5
7A7
330
1D
100
AcDbEntity
  8
0
100
AcDbLine
 10
122.35
 20
82.68
 30
0.0
 11
123.699
 21
84.36
 31
0.0
  0
LINE
  5
7A8
330
1D
100
AcDbEntity
  8
0
100
AcDbLine
 10
123.699
 20
84.36
 30
0.0
 11
126.208
 21
86.56
 31
0.0
  0
LINE
  5
7AB
330
1D
100
AcDbEntity
  8
0
100
AcDbLine
 10
259.101582826956
 20
80.468439749463
 30
0.0
 11
287.354
 21
77.99
 31
0.0
  0
LINE
  5
7AC
330
1D
100
AcDbEntity
  8
0
100
AcDbLine
 10
259.101582826956
 20
80.468439749463
 30
0.0
 11
287.354
 21
77.99
 31
0.0
  0
LINE
  5
7B6
330
1D
100
AcDbEntity
  8
0
100
AcDbLine
 10
255.892
 20
80.75
 30
0.0
 11
258.619
 21
80.51
 31
0.0
  0
LINE
  5
7B7
330
1D
100
AcDbEntity
  8
0
100
AcDbLine
 10
255.892
 20
80.75
 30
0.0
 11
258.632061514975
 21
80.509628447609
 31
0.0
  0
LINE
  5
7B8
330
1D
100
AcDbEntity
  8
0
100
AcDbLine
 10
460.0
 20
85.01
 30
0.0
 11
460.0
 21
85.23
 31
0.0
  0
LINE
  5
7B9
330
1D
100
AcDbEntity
  8
0
100
AcDbLine
 10
460.0
 20
85.23
 30
0.0
 11
460.0
 21
86.65
 31
0.0
  0
LINE
  5
7BA
330
1D
100
AcDbEntity
  8
0
100
AcDbLine
 10
460.0
 20
84.71
 30
0.0
 11
460.0
 21
85.01
 31
0.0
  0
LINE
  5
7BB
330
1D
100
AcDbEntity
  8
0
100
AcDbLine
 10
460.0
 20
84.33
 30
0.0
 11
460.0
 21
84.71
 31
0.0
  0
LINE
  5
7BC
330
1D
100
AcDbEntity
  8
0
100
AcDbLine
 10
224.424
 20
83.51
 30
0.0
 11
255.892
 21
80.75
 31
0.0
  0
LINE
  5
7BD
330
1D
100
AcDbEntity
  8
0
100
AcDbLine
 10
224.424
 20
83.51
 30
0.0
 11
225.426618371143
 21
83.445904197926
 31
0.0
  0
LINE
  5
7BE
330
1D
100
AcDbEntity
  8
0
100
AcDbLine
 10
224.424
 20
83.51
 30
0.0
 11
225.413923539749
 21
83.446967886813
 31
0.0
  0
LINE
  5
7BF
330
1D
100
AcDbEntity
  8
0
100
AcDbLine
 10
224.424
 20
83.51
 30
0.0
 11
225.413923539749
 21
83.446967886813
 31
0.0
  0
LINE
  5
7C0
330
1D
100
AcDbEntity
  8
0
100
AcDbLine
 10
224.424
 20
83.51
 30
0.0
 11
225.426618371142
 21
83.445904197926
 31
0.0
  0
LINE
  5
7C1
330
1D
100
AcDbEntity
  8
0
100
AcDbLine
 10
207.582
 20
84.99
 30
0.0
 11
224.424
 21
83.51
 31
0.0
  0
LINE
  5
7C3
330
1D
100
AcDbEntity
  8
0
100
AcDbLine
 10
192.956
 20
86.27
 30
0.0
 11
207.582
 21
84.99
 31
0.0
  0
LINE
  5
7C5
330
1D
100
AcDbEntity
  8
0
100
AcDbLine
 10
192.956000000001
 20
86.27
 30
0.0
 11
207.582
 21
84.99
 31
0.0
  0
LINE
  5
7C6
330
1D
100
AcDbEntity
  8
0
100
AcDbLine
 10
126.208
 20
86.56
 30
0.0
 11
129.371
 21
88.29
 31
0.0
  0
LINE
  5
7C7
330
1D
100
AcDbEntity
  8
0
100
AcDbLine
 10
129.371
 20
88.29
 30
0.0
 11
133.191
 21
89.51
 31
0.0
  0
LINE
  5
7C8
330
1D
100
AcDbEntity
  8
0
100
AcDbLine
 10
133.191
 20
89.51
 30
0.0
 11
136.085
 21
90.02
 31
0.0
  0
LINE
  5
7C9
330
1D
100
AcDbEntity
  8
0
100
AcDbLine
 10
136.085
 20
90.02
 30
0.0
 11
139.239
 21
90.31
 31
0.0
  0
LINE
  5
7CA
330
1D
100
AcDbEntity
  8
0
100
AcDbLine
 10
161.491
 20
89.03
 30
0.0
 11
192.956
 21
86.27
 31
0.0
  0
LINE
  5
7CC
330
1D
100
AcDbEntity
  8
0
100
AcDbLine
 10
460.0
 20
87.79
 30
0.0
 11
460.0
 21
88.35
 31
0.0
  0
LINE
  5
7D4
330
1D
100
AcDbEntity
  8
0
100
AcDbLine
 10
154.252
 20
89.66
 30
0.0
 11
161.491
 21
89.03
 31
0.0
  0
LINE
  5
7DA
330
1D
100
AcDbEntity
  8
0
100
AcDbLine
 10
146.944845278945
 20
90.221810010795
 30
0.0
 11
154.252
 21
89.66
 31
0.0
  0
LINE
  5
7DB
330
1D
100
AcDbEntity
  8
0
100
AcDbLine
 10
161.491
 20
89.03
 30
0.0
 11
192.956
 21
86.27
 31
0.0
  0
LINE
  5
7DF
330
1D
100
AcDbEntity
  8
0
100
AcDbLine
 10
139.239
 20
90.31
 30
0.0
 11
146.944845278945
 21
90.221810010795
 31
0.0
  0
LINE
  5
7E0
330
1D
100
AcDbEntity
  8
0
100
AcDbLine
 10
460.0
 20
86.65
 30
0.0
 11
460.0
 21
87.79
 31
0.0
  0
LINE
  5
7E1
330
1D
100
AcDbEntity
  8
0
100
AcDbLine
 10
460.0
 20
88.4
 30
0.0
 11
460.0
 21
88.62
 31
0.0
  0
LINE
  5
7E2
330
1D
100
AcDbEntity
  8
0
100
AcDbLine
 10
120.173
 20
78.96
 30
0.0
 11
122.35
 21
82.68
 31
0.0
  0
LINE
  5
7E3
330
1D
100
AcDbEntity
  8
0
100
AcDbLine
 10
119.97
 20
78.75
 30
0.0
 11
120.173
 21
78.96
 31
0.0
  0
LINE
  5
7E4
330
1D
100
AcDbEntity
  8
0
100
AcDbLine
 10
119.685
 20
78.69
 30
0.0
 11
119.97
 21
78.75
 31
0.0
  0
LINE
  5
7E5
330
1D
100
AcDbEntity
  8
0
100
AcDbLine
 10
119.369
 20
78.71
 30
0.0
 11
119.685
 21
78.69
 31
0.0
  0
LINE
  5
7EB
330
1D
100
AcDbEntity
  8
0
100
AcDbLine
 10
91.4673
 20
107.15
 30
0.0
 11
96.1461
 21
109.16
 31
0.0
  0
LINE
  5
7EC
330
1D
100
AcDbEntity
  8
0
100
AcDbLine
 10
86.9046
 20
104.62
 30
0.0
 11
91.4673
 21
107.15
 31
0.0
  0
LINE
  5
7ED
330
1D
100
AcDbEntity
  8
0
100
AcDbLine
 10
82.4356
 20
101.62
 30
0.0
 11
86.9046
 21
104.62
 31
0.0
  0
LINE
  5
7EE
330
1D
100
AcDbEntity
  8
0
100
AcDbLine
 10
77.9868
 20
98.13
 30
0.0
 11
82.4356
 21
101.62
 31
0.0
  0
LINE
  5
7EF
330
1D
100
AcDbEntity
  8
0
100
AcDbLine
 10
73.532
 20
94.2
 30
0.0
 11
77.9868
 21
98.13
 31
0.0
  0
LINE
  5
7F0
330
1D
100
AcDbEntity
  8
0
100
AcDbLine
 10
68.9941
 20
89.86
 30
0.0
 11
73.532
 21
94.2
 31
0.0
  0
LINE
  5
7F5
330
1D
100
AcDbEntity
  8
0
100
AcDbLine
 10
136.558
 20
111.31
 30
0.0
 11
163.233
 21
108.98
 31
0.0
  0
LINE
  5
7F6
330
1D
100
AcDbEntity
  8
0
100
AcDbLine
 10
134.535
 20
111.49
 30
0.0
 11
136.558
 21
111.31
 31
0.0
  0
LINE
  5
7F7
330
1D
100
AcDbEntity
  8
0
100
AcDbLine
 10
122.435
 20
112.39
 30
0.0
 11
134.535
 21
111.49
 31
0.0
  0
LINE
  5
7F8
330
1D
100
AcDbEntity
  8
0
100
AcDbLine
 10
116.728
 20
112.52
 30
0.0
 11
122.435
 21
112.39
 31
0.0
  0
LINE
  5
7F9
330
1D
100
AcDbEntity
  8
0
100
AcDbLine
 10
111.248
 20
112.33
 30
0.0
 11
116.728
 21
112.52
 31
0.0
  0
LINE
  5
7FA
330
1D
100
AcDbEntity
  8
0
100
AcDbLine
 10
106.016
 20
111.73
 30
0.0
 11
111.248
 21
112.33
 31
0.0
  0
LINE
  5
7FB
330
1D
100
AcDbEntity
  8
0
100
AcDbLine
 10
100.982
 20
110.69
 30
0.0
 11
106.016
 21
111.73
 31
0.0
  0
LINE
  5
7FC
330
1D
100
AcDbEntity
  8
0
100
AcDbLine
 10
96.1461
 20
109.16
 30
0.0
 11
100.982
 21
110.69
 31
0.0
  0
LINE
  5
7FD
330
1D
100
AcDbEntity
  8
0
100
AcDbLine
 10
163.233
 20
108.98
 30
0.0
 11
460.0
 21
88.62
 31
0.0
  0
LINE
  5
7FE
330
1D
100
AcDbEntity
  8
0
100
AcDbLine
 10
63.8935
 20
83.58
 30
0.0
 11
64.2769
 21
83.54
 31
0.0
  0
LINE
  5
7FF
330
1D
100
AcDbEntity
  8
0
100
AcDbLine
 10
460.0
 20
1.56
 30
0.0
 11
460.24
 21
0.0
 31
0.0
  0
LINE
  5
800
330
1D
100
AcDbEntity
  8
0
100
AcDbLine
 10
460.0
 20
1.56
 30
0.0
 11
460.24
 21
0.0
 31
0.0
  0
LINE
  5
801
330
1D
100
AcDbEntity
  8
0
100
AcDbLine
 10
460.0
 20
1.56
 30
0.0
 11
460.0
 21
154.44
 31
0.0
  0
LINE
  5
803
330
1D
100
AcDbEntity
  8
0
100
AcDbLine
 10
460.24
 20
0.0
 30
0.0
 11
471.76
 21
0.0
 31
0.0
  0
LINE
  5
807
330
1D
100
AcDbEntity
  8
0
100
AcDbLine
 10
471.76
 20
0.0
 30
0.0
 11
472.0
 21
1.56
 31
0.0
  0
LINE
  5
808
330
1D
100
AcDbEntity
  8
0
100
AcDbLine
 10
460.242
 20
0.0
 30
0.0
 11
471.76
 21
0.0
 31
0.0
  0
LINE
  5
80B
330
1D
100
AcDbEntity
  8
0
100
AcDbLine
 10
471.76
 20
0.0
 30
0.0
 11
472.0
 21
1.56
 31
0.0
  0
LINE
  5
80D
330
1D
100
AcDbEntity
  8
0
100
AcDbLine
 10
472.0
 20
1.56
 30
0.0
 11
472.0
 21
154.44
 31
0.0
  0
LINE
  5
810
330
1D
100
AcDbEntity
  8
0
100
AcDbLine
 10
471.76
 20
156.0
 30
0.0
 11
472.0
 21
154.44
 31
0.0
  0
LINE
  5
812
330
1D
100
AcDbEntity
  8
0
100
AcDbLine
 10
472.0
 20
154.44
 30
0.0
 11
472.0
 21
1.56
 31
0.0
  0
LINE
  5
817
330
1D
100
AcDbEntity
  8
0
100
AcDbLine
 10
460.24
 20
156.0
 30
0.0
 11
471.76
 21
156.0
 31
0.0
  0
LINE
  5
818
330
1D
100
AcDbEntity
  8
0
100
AcDbLine
 10
460.0
 20
154.44
 30
0.0
 11
460.24
 21
156.0
 31
0.0
  0
LINE
  5
819
330
1D
100
AcDbEntity
  8
0
100
AcDbLine
 10
460.0
 20
154.44
 30
0.0
 11
460.0
 21
1.56
 31
0.0
  0
LINE
  5
841
330
1D
100
AcDbEntity
  8
0
100
AcDbLine
 10
3.27176
 20
79.02
 30
0.0
 11
13.7026
 21
80.21
 31
0.0
  0
LINE
  5
842
330
1D
100
AcDbEntity
  8
0
100
AcDbLine
 10
166.959
 20
34.867
 30
0.0
 11
163.160503059976
 21
35.199474236631
 31
0.0
  0
LINE
  5
843
330
1D
100
AcDbEntity
  8
0
100
AcDbLine
 10
163.160503059976
 20
35.199474236631
 30
0.0
 11
158.616107453182
 21
35.437
 31
0.0
  0
LINE
  5
844
330
1D
100
AcDbEntity
  8
0
100
AcDbLine
 10
141.561566251912
 20
35.028262616456
 30
0.0
 11
136.792751008845
 21
35.182614162979
 31
0.0
  0
LINE
  5
845
330
1D
100
AcDbEntity
  8
0
100
AcDbLine
 10
69.0452
 20
43.43
 30
0.0
 11
69.401
 21
43.41
 31
0.0
  0
LINE
  5
846
330
1D
100
AcDbEntity
  8
0
100
AcDbLine
 10
90.9505
 20
38.994
 30
0.0
 11
90.455738443018
 21
38.994
 31
0.0
  0
LINE
  5
847
330
1D
100
AcDbEntity
  8
0
100
AcDbLine
 10
20.1123
 20
47.71
 30
0.0
 11
22.7125
 21
47.49
 31
0.0
  0
LINE
  5
848
330
1D
100
AcDbEntity
  8
0
100
AcDbLine
 10
43.7888
 20
42.63
 30
0.0
 11
48.5347
 21
42.22
 31
0.0
  0
LINE
  5
849
330
1D
100
AcDbEntity
  8
0
100
AcDbLine
 10
48.5347
 20
42.22
 30
0.0
 11
51.520853070785
 21
41.954820426752
 31
0.0
  0
LINE
  5
84A
330
1D
100
AcDbEntity
  8
0
100
AcDbLine
 10
43.873127061622
 20
43.593848443598
 30
0.0
 11
48.595369236466
 21
42.913283151902
 31
0.0
  0
LINE
  5
84B
330
1D
100
AcDbEntity
  8
0
100
AcDbLine
 10
44.7794
 20
43.55
 30
0.0
 11
48.1015
 21
43.26
 31
0.0
  0
ENDSEC
  0
SECTION
  2
OBJECTS
  0
DICTIONARY
  5
C
330
0
100
AcDbDictionary
281
     1
  3
ACAD_GROUP
350
D
  3
ACAD_LAYOUT
350
1A
  3
ACAD_MLEADERSTYLE
350
84E
  3
ACAD_MLINESTYLE
350
17
  3
ACAD_PLOTSETTINGS
350
19
  3
ACAD_PLOTSTYLENAME
350
E
  3
ACAD_SCALELIST
350
81F
  3
AcDbVariableDictionary
350
84C
  3
DWGPROPS
350
851
  0
DICTIONARY
  5
D
102
{ACAD_REACTORS
330
C
102
}
330
C
100
AcDbDictionary
281
     1
  0
DICTIONARY
  5
1A
102
{ACAD_REACTORS
330
C
102
}
330
C
100
AcDbDictionary
281
     1
  3
Layout1
350
1C
  3
Model
350
1E
  0
DICTIONARY
  5
84E
102
{ACAD_REACTORS
330
C
102
}
330
C
100
AcDbDictionary
281
     1
  0
DICTIONARY
  5
17
102
{ACAD_REACTORS
330
C
102
}
330
C
100
AcDbDictionary
281
     1
  3
Standard
350
18
  0
DICTIONARY
  5
19
102
{ACAD_REACTORS
330
C
102
}
330
C
100
AcDbDictionary
281
     1
  0
ACDBDICTIONARYWDFLT
  5
E
102
{ACAD_REACTORS
330
C
102
}
330
C
100
AcDbDictionary
281
     1
  3
Normal
350
F
100
AcDbDictionaryWithDefault
340
F
  0
DICTIONARY
  5
81F
102
{ACAD_REACTORS
330
C
102
}
330
C
100
AcDbDictionary
281
     1
  3
A0
350
820
  3
A1
350
821
  3
A2
350
822
  3
A3
350
823
  3
A4
350
824
  3
A5
350
825
  3
A6
350
826
  3
A7
350
827
  3
A8
350
828
  3
A9
350
829
  3
B0
350
82A
  3
B1
350
82B
  3
B2
350
82C
  3
B3
350
82D
  3
B4
350
82E
  3
B5
350
82F
  3
B6
350
830
  3
B7
350
831
  3
B8
350
832
  3
B9
350
833
  3
C0
350
834
  3
C1
350
835
  3
C2
350
836
  3
C3
350
837
  3
C4
350
838
  3
C5
350
839
  3
C6
350
83A
  3
C7
350
83B
  3
C8
350
83C
  3
C9
350
83D
  3
D0
350
83E
  3
D1
350
83F
  3
D2
350
840
  0
DICTIONARY
  5
84C
102
{ACAD_REACTORS
330
C
102
}
330
C
100
AcDbDictionary
281
     1
  3
CANNOSCALE
350
84F
  0
XRECORD
  5
851
102
{ACAD_REACTORS
330
C
102
}
330
C
100
AcDbXrecord
280
     1
  1
DWGPROPS COOKIE
  2

  3

  4

  6

  7

  8
MARTIN
  9

300
=
301
=
302
=
303
=
304
=
305
=
306
=
307
=
308
=
309
=
 40
0.0
 41
2456466.585904942
 42
2456466.596928345
  1

 90
        0
  0
LAYOUT
  5
1C
102
{ACAD_REACTORS
330
1A
102
}
330
1A
100
AcDbPlotSettings
  1

  2
none_device
  4

  6

 40
0.0
 41
0.0
 42
0.0
 43
0.0
 44
0.0
 45
0.0
 46
0.0
 47
0.0
 48
0.0
 49
0.0
140
0.0
141
0.0
142
1.0
143
1.0
 70
   688
 72
     0
 73
     0
 74
     5
  7

 75
    16
147
1.0
148
0.0
149
0.0
100
AcDbLayout
  1
Layout1
 70
     1
 71
     1
 10
0.0
 20
0.0
 11
12.0
 21
9.0
 12
0.0
 22
0.0
 32
0.0
 14
1.000000000000E+20
 24
1.000000000000E+20
 34
1.000000000000E+20
 15
-1.000000000000E+20
 25
-1.000000000000E+20
 35
-1.000000000000E+20
146
0.0
 13
0.0
 23
0.0
 33
0.0
 16
1.0
 26
0.0
 36
0.0
 17
0.0
 27
1.0
 37
0.0
 76
     0
330
1B
  0
LAYOUT
  5
1E
102
{ACAD_REACTORS
330
1A
102
}
330
1A
100
AcDbPlotSettings
  1

  2
none_device
  4

  6

 40
0.0
 41
0.0
 42
0.0
 43
0.0
 44
0.0
 45
0.0
 46
0.0
 47
0.0
 48
0.0
 49
0.0
140
0.0
141
0.0
142
1.0
143
1.0
 70
  1712
 72
     0
 73
     0
 74
     0
  7

 75
     0
147
1.0
148
0.0
149
0.0
100
AcDbLayout
  1
Model
 70
     1
 71
     0
 10
0.0
 20
0.0
 11
12.0
 21
9.0
 12
0.0
 22
0.0
 32
0.0
 14
0.0
 24
0.0
 34
0.0
 15
472.0
 25
156.0
 35
0.0
146
0.0
 13
0.0
 23
0.0
 33
0.0
 16
1.0
 26
0.0
 36
0.0
 17
0.0
 27
1.0
 37
0.0
 76
     0
330
1D
331
81A
  0
MLINESTYLE
  5
18
102
{ACAD_REACTORS
330
17
102
}
330
17
100
AcDbMlineStyle
  2
Standard
 70
     0
  3

 62
   256
 51
90.0
 52
90.0
 71
     2
 49
0.5
 62
   256
  6
BYLAYER
 49
-0.5
 62
   256
  6
BYLAYER
  0
ACDBPLACEHOLDER
  5
F
102
{ACAD_REACTORS
330
E
102
}
330
E
  0
SCALE
  5
820
102
{ACAD_REACTORS
330
81F
102
}
330
81F
100
AcDbScale
 70
     0
300
1:1
140
1.0
141
1.0
290
     1
  0
SCALE
  5
821
102
{ACAD_REACTORS
330
81F
102
}
330
81F
100
AcDbScale
 70
     0
300
1:2
140
1.0
141
2.0
290
     0
  0
SCALE
  5
822
102
{ACAD_REACTORS
330
81F
102
}
330
81F
100
AcDbScale
 70
     0
300
1:4
140
1.0
141
4.0
290
     0
  0
SCALE
  5
823
102
{ACAD_REACTORS
330
81F
102
}
330
81F
100
AcDbScale
 70
     0
300
1:5
140
1.0
141
5.0
290
     0
  0
SCALE
  5
824
102
{ACAD_REACTORS
330
81F
102
}
330
81F
100
AcDbScale
 70
     0
300
1:8
140
1.0
141
8.0
290
     0
  0
SCALE
  5
825
102
{ACAD_REACTORS
330
81F
102
}
330
81F
100
AcDbScale
 70
     0
300
1:10
140
1.0
141
10.0
290
     0
  0
SCALE
  5
826
102
{ACAD_REACTORS
330
81F
102
}
330
81F
100
AcDbScale
 70
     0
300
1:16
140
1.0
141
16.0
290
     0
  0
SCALE
  5
827
102
{ACAD_REACTORS
330
81F
102
}
330
81F
100
AcDbScale
 70
     0
300
1:20
140
1.0
141
20.0
290
     0
  0
SCALE
  5
828
102
{ACAD_REACTORS
330
81F
102
}
330
81F
100
AcDbScale
 70
     0
300
1:30
140
1.0
141
30.0
290
     0
  0
SCALE
  5
829
102
{ACAD_REACTORS
330
81F
102
}
330
81F
100
AcDbScale
 70
     0
300
1:40
140
1.0
141
40.0
290
     0
  0
SCALE
  5
82A
102
{ACAD_REACTORS
330
81F
102
}
330
81F
100
AcDbScale
 70
     0
300
1:50
140
1.0
141
50.0
290
     0
  0
SCALE
  5
82B
102
{ACAD_REACTORS
330
81F
102
}
330
81F
100
AcDbScale
 70
     0
300
1:100
140
1.0
141
100.0
290
     0
  0
SCALE
  5
82C
102
{ACAD_REACTORS
330
81F
102
}
330
81F
100
AcDbScale
 70
     0
300
2:1
140
2.0
141
1.0
290
     0
  0
SCALE
  5
82D
102
{ACAD_REACTORS
330
81F
102
}
330
81F
100
AcDbScale
 70
     0
300
4:1
140
4.0
141
1.0
290
     0
  0
SCALE
  5
82E
102
{ACAD_REACTORS
330
81F
102
}
330
81F
100
AcDbScale
 70
     0
300
8:1
140
8.0
141
1.0
290
     0
  0
SCALE
  5
82F
102
{ACAD_REACTORS
330
81F
102
}
330
81F
100
AcDbScale
 70
     0
300
10:1
140
10.0
141
1.0
290
     0
  0
SCALE
  5
830
102
{ACAD_REACTORS
330
81F
102
}
330
81F
100
AcDbScale
 70
     0
300
100:1
140
100.0
141
1.0
290
     0
  0
SCALE
  5
831
102
{ACAD_REACTORS
330
81F
102
}
330
81F
100
AcDbScale
 70
     0
300
1/128" = 1'-0"
140
0.0078125
141
12.0
290
     0
  0
SCALE
  5
832
102
{ACAD_REACTORS
330
81F
102
}
330
81F
100
AcDbScale
 70
     0
300
1/64" = 1'-0"
140
0.015625
141
12.0
290
     0
  0
SCALE
  5
833
102
{ACAD_REACTORS
330
81F
102
}
330
81F
100
AcDbScale
 70
     0
300
1/32" = 1'-0"
140
0.03125
141
12.0
290
     0
  0
SCALE
  5
834
102
{ACAD_REACTORS
330
81F
102
}
330
81F
100
AcDbScale
 70
     0
300
1/16" = 1'-0"
140
0.0625
141
12.0
290
     0
  0
SCALE
  5
835
102
{ACAD_REACTORS
330
81F
102
}
330
81F
100
AcDbScale
 70
     0
300
3/32" = 1'-0"
140
0.09375
141
12.0
290
     0
  0
SCALE
  5
836
102
{ACAD_REACTORS
330
81F
102
}
330
81F
100
AcDbScale
 70
     0
300
1/8" = 1'-0"
140
0.125
141
12.0
290
     0
  0
SCALE
  5
837
102
{ACAD_REACTORS
330
81F
102
}
330
81F
100
AcDbScale
 70
     0
300
3/16" = 1'-0"
140
0.1875
141
12.0
290
     0
  0
SCALE
  5
838
102
{ACAD_REACTORS
330
81F
102
}
330
81F
100
AcDbScale
 70
     0
300
1/4" = 1'-0"
140
0.25
141
12.0
290
     0
  0
SCALE
  5
839
102
{ACAD_REACTORS
330
81F
102
}
330
81F
100
AcDbScale
 70
     0
300
3/8" = 1'-0"
140
0.375
141
12.0
290
     0
  0
SCALE
  5
83A
102
{ACAD_REACTORS
330
81F
102
}
330
81F
100
AcDbScale
 70
     0
300
1/2" = 1'-0"
140
0.5
141
12.0
290
     0
  0
SCALE
  5
83B
102
{ACAD_REACTORS
330
81F
102
}
330
81F
100
AcDbScale
 70
     0
300
3/4" = 1'-0"
140
0.75
141
12.0
290
     0
  0
SCALE
  5
83C
102
{ACAD_REACTORS
330
81F
102
}
330
81F
100
AcDbScale
 70
     0
300
1" = 1'-0"
140
1.0
141
12.0
290
     0
  0
SCALE
  5
83D
102
{ACAD_REACTORS
330
81F
102
}
330
81F
100
AcDbScale
 70
     0
300
1-1/2" = 1'-0"
140
1.5
141
12.0
290
     0
  0
SCALE
  5
83E
102
{ACAD_REACTORS
330
81F
102
}
330
81F
100
AcDbScale
 70
     0
300
3" = 1'-0"
140
3.0
141
12.0
290
     0
  0
SCALE
  5
83F
102
{ACAD_REACTORS
330
81F
102
}
330
81F
100
AcDbScale
 70
     0
300
6" = 1'-0"
140
6.0
141
12.0
290
     0
  0
SCALE
  5
840
102
{ACAD_REACTORS
330
81F
102
}
330
81F
100
AcDbScale
 70
     0
300
1'-0" = 1'-0"
140
12.0
141
12.0
290
     0
  0
DICTIONARYVAR
  5
84F
102
{ACAD_REACTORS
330
84C
102
}
330
84C
100
DictionaryVariables
280
     0
  1
1:1
  0
ENDSEC
  0
SECTION
  2
THUMBNAILIMAGE
 90
    16364
310
28000000B40000005500000001000800000000000000000000000000000000000000000000000000FFFFFF000000FF0000FFFF0000FF0000FFFF0000FF000000FF00FF000000000080808000C0C0C0000000FF007F7FFF000000A5005252A50000007F003F3F7F0000004C0026264C000000260013132600003FFF007F9FFF
310
000029A5005267A500001F7F003F4F7F0000134C00262F4C000009260013172600007FFF007FBFFF000052A500527CA500003F7F003F5F7F0000264C0026394C0000132600131C260000BFFF007FDFFF00007CA5005291A500005F7F003F6F7F0000394C0026424C00001C26001321260000FFFF007FFFFF0000A5A50052A5
310
A500007F7F003F7F7F00004C4C00264C4C00002626001326260000FFBF007FFFDF0000A57C0052A59100007F5F003F7F6F00004C3900264C420000261C001326210000FF7F007FFFBF0000A5520052A57C00007F3F003F7F5F00004C2600264C39000026130013261C0000FF3F007FFF9F0000A5290052A56700007F1F003F
310
7F4F00004C1300264C2F00002609001326170000FF00007FFF7F0000A5000052A55200007F00003F7F3F00004C0000264C260000260000132613003FFF00009FFF7F0029A5000067A552001F7F00004F7F3F00134C00002F4C260009260000172613007FFF0000BFFF7F0052A500007CA552003F7F00005F7F3F00264C0000
310
394C2600132600001C261300BFFF0000DFFF7F007CA5000091A552005F7F00006F7F3F00394C0000424C26001C26000021261300FFFF0000FFFF7F00A5A50000A5A552007F7F00007F7F3F004C4C00004C4C26002626000026261300FFBF0000FFDF7F00A57C0000A59152007F5F00007F6F3F004C3900004C422600261C00
310
0026211300FF7F0000FFBF7F00A5520000A57C52007F3F00007F5F3F004C2600004C39260026130000261C1300FF3F0000FF9F7F00A5290000A56752007F1F00007F4F3F004C1300004C2F26002609000026171300FF000000FF7F7F00A5000000A55252007F0000007F3F3F004C0000004C2626002600000026131300FF00
310
3F00FF7F9F00A5002900A55267007F001F007F3F4F004C0013004C262F002600090026131700FF007F00FF7FBF00A5005200A5527C007F003F007F3F5F004C0026004C2639002600130026131C00FF00BF00FF7FDF00A5007C00A55291007F005F007F3F6F004C0039004C26420026001C0026132100FF00FF00FF7FFF00A5
310
00A500A552A5007F007F007F3F7F004C004C004C264C002600260026132600BF00FF00DF7FFF007C00A5009152A5005F007F006F3F7F0039004C0042264C001C002600211326007F00FF00BF7FFF005200A5007C52A5003F007F005F3F7F0026004C0039264C00130026001C1326003F00FF009F7FFF002900A5006752A500
310
1F007F004F3F7F0013004C002F264C000900260017132600000000002D2D2D005B5B5B0089898900B7B7B700B3B3B30000000000000000000000000000000000000000000000000000000000000000000000000000000000000000000000000000000000000000000000000000000000000000000000000000000000000000
310
00000000000000000000000000000000000000000000000000000000000000000000000000000000000000000000000000000000000000000000000000000000000000000000000000000000000000000000000000000000000000000000000000000000000000000000000000000000000000000000000000000000000000
310
00000000000000000000000000000000000000000000000000000000000000000000000000000000000000000000000000000000000000000000000000000000000000000000000000000000000000000000000000000000000000000000000000000000000000000000000000000000000000000000000000000000000000
310
00000000000000000000000000000000000000000000000000000000000000000000000000000000000000000000000000000000000000000000000000000000000000000000000000000000000000000000000000000000000000000000000000000000000000000000000000000000000000000000000000000000000000
310
00000000000000000000000000000000000000000000000000000000000000000000000000000000000000000000000000000000000000000000000000000000000000000000000000000000000000000000000000000000000000000000000000000000000000000000000000000000000000000000000000000000000000
310
00000000000000000000000000000000000000000000000000000000000000000000000000000000000000000000000000000000000000000000000000000000000000000000000000000000000000000000000000000000000000000000000000000000000000000000000000000000000000000000000000000000000000
310
00000000000000000000000000000000000000000000000000000000000000000000000000000000000000000000000000000000000000000000000000000000000000000000000000000000000000000000000000000000000000000000000000000000000000000000000000000000000000000000000000000000000000
310
00000000000000000000000000000000000000000000000000000000000000000000000000000000000000000000000000000000000000000000000000000000000000000000000000000000000000000000000000000000000000000000000000000000000000000000000000000000000000000000000000000000000000
310
00000000000000000000000000000000000000000000000000000000000000000000000000000000000000000000000000000000000000000000000000000000000000000000000000000000000000000000000000000000000000000000000000000000000000000000000000000000000000000000000000000000000000
310
00000000000000000000000000000000000000000000000000000000000000000000000000000000000000000000000000000000000000000000000000000000000000000000000000000000000000000000000000000000000000000000000000000000000000000000000000000000000000000000000000000000000000
310
00000000000000000000000000000000000000000000000000000000000000000000000000000000000000000000000000000000000000000000000000000000000000000000000000000000000000000000000000000000000000000000000000000000000000000000000000000000000000000000000000000000000000
310
00000000000000000000000000000000000000000000000000000000000000000000000000000000000000000000000000000000000000000000000000000000000000000000000000000000000000000000000000000000000000000000000000000000000000000000000000000000000000000000000000000000000000
310
00000000000000000000000000000000000000000000000000000000000000000000000000000000000000000000000000000000000000000000000000000000000000000000000000000000000000000000000000000000000000000000000000000000000000000000000000000000000000000000000000000000000000
310
00000000000000000000000000000000000000000000000000000000000000000000000000000000000000000000000000000000000000000000000000000000000000000000000000000000000000000000000000000000000000000000000000000000000000000000000000000000000000000000000000000000000000
310
00000000000000000000000000000000000000000000000000000000000000000000000000000000000000000000000000000000000000000000000000000000000000000000000000000000000000000000000000000000000000000000000000000000000000000000000000000000000000000000000000000000000000
310
00000000000000000000000000000000000000000000000000000000000000000000000000000000000000000000000000000000000000000000000000000000000000000000000000000000000000000000000000000000000000000000000000000000000000000000000000000000000000000000000000000000000000
310
00000000000000000000000000000000000000000000000000000000000000000000000000000000000000000000000000000000000000000000000000000000000000000000000000000000000000000000000000000000000000000000000000000000000000000000000000000000000000000000000000000000000000
310
00000000000000000000000000000000000000000000000000000000000000000000000000000000000000000000000000000000000000000000000000000000000000000000000000000000000000000000000000000000000000000000000000000000000000000000000000000000000000000000000000000000000000
310
00000000000000000000000000000000000000000000000000000000000000000000000000000000000000000000000000000000000000000000000000000000000000000000000000000000000000000000000000000000000000000000000000000000000000000000000000000000000000000000000000000000000000
310
00000000000000000000000000000000000000000000000000000000000000000000000000000000000000000000000000000000000000000000000000000000000000000000000000000000000000000000000000000000000000000000000000000000000000000000000000000000000000000000000000000000000000
310
00000000000000000000000000000000000000000000000000000000000000000000000000000000000000000000000000000000000000000000000000000000000000000000000000000000000000000000000000000000000000000000000000000000000000000000000000000000000000000000000000000000000000
310
00000000000000000000000000000000000000000000000000000000000000000000000000000000000000000000000000000000000000000000000000000000000000000000000000000000000000000000000000000000000000000000000000000000000000000000000000000000000000000000000000000000000000
310
00000000000000000000000000000000000000000000000000000000000000000000000000000000000000000000000000000000000000000000000000000000000000000000000000000000000000000000000000000000000000000000000000000000000000000000000000000000000000000000000000000000000000
310
00000000000000000000000000000000000000000000000000000000000000000000000000000000000000000000000000000000000000000000000000000000000000000000000000000000000000000000000000000000000000000000000000000000000000000000000000000000000000000000000000000000000000
310
00000000000000000000000000000000000000000000000000000000000000000000000000000000000000000707070707000000000000000000000000000000000000000000000000000000000000000000000000000000000000000000000000000000000000000000000000000000000000000000000000000000000000
310
00000000000000000000000000000000000000000000000000000000000000000000000000000000000000000000000000000000000000000000000000000000000000000000000000000000000000000000000000000000000000000000000000070000000700000000000000000000000000000000000000000000000000
310
00000000000000000000000000000000000000000000000000000000000000000000000000000000000000000000000000000000000000000000000000000000000000000000000000000000000000000000000000000000000000000000000000000000000000000000000000000000000000000000000000000000000000
310
00000000000000000000000000000000000000000000000700000007000000000000000000000000000000000000000000000000000000000000000000000000000000000000000000000000000000000000000000000000000000000000000000000000000000000000000000000000000000000000000000000000000000
310
00000000000000000000000000000000000000000000000000000000000000000000000000000000000000000000000000000000000000000000000000000000000000000000000000000000070000000700000000000000000000000000000000000000000000000000000000000000000000000000000000000000000000
310
00000000000000000000000000000000000000000000000000000000000000000000000000000000000000000000000000000000000000000000000000000000000000000000000000000000000000000000000000000000000000000000000000000000000000000000000000000000000000000000000000000000000000
310
00000700000007000000000000000000000000000000000000000000000000000000000000000000000000000000000000000000000000000000000000000000000000000000000000000000000000000000000000000000000000000000000000000000000000000000000000000000000000000000000000000000000000
310
00000000000000000000000000000000000000000000000000000000000000000000000000000000000000000000000000000000000000070000000700000000000000000000000000000000000000000000000000000000000000000000000000000000000000000000000000000000000000000000000000000000000000
310
00000000000000000000000000000000000000000000000000000000000000000000000000000000000000000000000000000000000000000000000000000000000000000000000000000000000000000000000000000000000000000000000000000000000000000000000007000000070000000000000000000000000000
310
00000000000000000000000000000000000000000000000000000000000000000000000000000000000000000000000000000000000000000000000000000000000000000000000000000000000000000000000000000000000000000000000000000000000000000000000000000000000000000000000000000000000000
310
00000000000000000000000000000000000000000000000000000000000000000000070000000700000000000000000000000000000000000000000000000000000000000000000000000000000000000000000000000000000000000000000000000000000000000000000000000000000000000000000000000000000000
310
00000000000000000000000000000000000000000000000000000000000000000000000000000000000000000000000000000000000000000000000000000000000000000000000000000000000000000000000000000007000000070000000000000000000000000000000000000000000000000000000000000000000000
310
00000000000000000000000000000000000000000000000000000000000000000000000000000000000000000000000000000000000000000000000000000000000000000000000000000000000000000000000000000000000000000000000000000000000000000000000000000000000000000000000000000000000000
310
00000000000000000000000000070000000700000000000000000000000000000000000000000000000000000000000000000000000000000000000000000000000000000000000000000000000000000000000000000000000000000000000000000000000000000000000000000000000000000000000000000000000000
310
00000000000000000000000000000000000000000000000000000000000000000000000000000000000000000000000000000000000000000000000000000000000007000000070000000000000000000000000000000000000000000000000000000000000000000000000000000000000000000000000000000000000000
310
00070700000707070707070707070707070707070707070700000000000000000000000000000000000000000000000000000000000000000000000000000000000000000000000000000000000000000000000000000000000000000000000000000000000000000000000000000000000000000000000700000007000000
310
00000000000000000000000000000000000000000000000000000000000000000000000000000000000000000000070707070707070707070707070707070707070707070707070707070707070707070707000000000000000000000000000000000000000000000000000000000000000000000000000000000000000000
310
00000000000000000000000000000000000000000000000000000000000000000000000000000000000000000007000000070000000000000000000000000000000000000000000000000000000000000000000000000000000000070707070707070707070707070707070707070707070707070707000000070707070707
310
07070707070000070700000000000000000000000000000000000000000000000000000000000000000000000000000000000000000000000000000000000000000000000000000000000000000000000000000000000000000000000000000000000700000007000000000000000000000000000000000000000000000000
310
00000000000000000000000707070707070707070707070707070707070707070000000707070707070707070707070707000000000000000000000000070000000000000000000000000000000000000000000000000000000000000000000000000000000000000000000000000000000000000000000000000000000000
310
00000000000000000000000000000000000000000000000007000000070000000000000000000000000000000000000000000000000000000000000007070707070707070707070707000000070707070707070707070707070707000000000000000000000000000000000000000000000007000000000000000000000000
310
00000000000000000000000000000000000000000000000000000000000000000000000000000000000000000000000000000000000000000000000000000000000000000000000000000000000700000007000000000000000000000000000000000000000000000000000000000007070707070707070700070707070707
310
07070700000000000000000000000000000000000000000000000000000000000000000000000000000700000000000000000000000000000000000000000000000000000000000000000000000000000000000000000000000000000000000000000000000000000000000000000000000000000000000000000000000000
310
00000007000000070000000000000000000000000000000000000000000000000707070707070707070707070707070000000000000000000000000000000000000000000000000000000000000000000000000000000000000000000000070000000000000000000000000000000000000000000000000000000000000000
310
00000000000000000000000000000000000000000000000000000000000000000000000000000000000000000000000000000000000000000700000007000000000000000000000000000000000000000000000000070000000000000000000000000000000000000000000000000000000000000000000000000000000000
310
00000000000000000000000000000000000000000700000000000000000000000000000000000000000000000000000000000000000000000000000000000000000000000000000000000000000000000000000000000000000000000000000000000000000000000000000000070000000700000000000000000000000000
310
00000000000000000000070000000000000000000000000000000000000000000000000000000000000000000000000000000000000000000000000000000000000000000000000000070000000000000000000000000000000000000000000000000000000000000000000000000000000000000000000000000000000000
310
00000000000000000000000000000000000000000000000000000000000000000000000700000007000000000000000000000000000000000000000000000007000000000000000000000000000000000000000000000000000000000000000000000000000000000000000000000000000000000000000000000000000007
310
00000000000000000000000000000000000000000000000000000000000000000000000000000000000000000000000000000000000000000000000000000000000000000000000000000000000000000000000000000000070000000700000000000000000000000000000000000000000000000700000000000000000000
310
00000000000000000000000000000000000000000000000000000000000000000000000000000000000000000000000007070707000000000000000000000000000000000000000000000000000000000000000000000000000000000000000000000000000000000000000000000000000000000000000000000000000000
310
00000000000000000000000000000700000007000000000000000000000000000000000000000000000007000000000000000000000000000000000000000000000000000000000000000000000000000000000000000000000000000000000000000707070000000000000000000000000000000000000000000000000000
310
00000000000000000000000000000000000000000000000000000000000000000000000000000000000000000000000000000000000000000000070707070707070707070000000700000000000000000000000000000000000000000000000007000000000000000000000000000000000000000000000000000000000000
310
00000000000000000000000000000000000000000007070700000000000000000000000000000000000000000000000000000000000000000000000000000000000000000000000000000000000000000000000000000000000000000707070707070707070707070707070707070700000000000000000007000000070000
310
00000000000000000000000000000000000000000000070000000000000000000000000000000000000000000000000000000000000000000000000000000000000000000007070707070000000000000000000000000000000000000000000000000000000000000000000000000000000000000000000000000000000007
310
07070707070707070707070707070707070700000000000000000000000000000000000000000000000000000000070000000700000000000000000000000000000000000000000000000007000000000000000000000000000000000000000000000000000000000000000000000000070707070707070707070000000000
310
00000000000000000000000000000000000000000000000000000000000000000000000000000707070707070707070707070707000000000000000000000000000000000000000000000000000000000000000000000000000000000000000000000007000000070000000000000000000000000000000000000000000000
310
00070707070707000000000000000000000000000000000000000707070707070707070707070707070000000000000000000000000000000000000000000000000000000000000000000000000000000707070707070707070707000000000000000000000000000000000000000000000000000000000000000000000000
310
00000000000000000000000000000000000000000000000000070000000700000000000000000000000000000000000000000000000000000000000007070707070707070707070707070707070707070707070700000000000000000000070000000000000000000000000000000000000000000000000000000000000707
310
07070707070700000000000000000000000000000000000000000000000000000000000000000000000000000000000000000000000000000000000000000000000000000000000000000000000007000000070000000000000000000000000000000000000000000000000000000000000000000000000000000000000000
310
07000000000000000000000000000000000000000707000000000000000000000000000000000707070707070707070707070700000000000000000000000000000000000000000000000000000000000000000000000000000000000000000000000000000000000000000000000000000000000000000000000000000000
310
00000000070000000700000000000000000000000000000000000000000000000000000000000000000000000000000000000000000007070000000000000000000000000000000000000007070700000000000707070707070707000000000000000000000000000000000000000000000000000000000000000000000000
310
00000000000000000000000000000000000000000000000000000000000000000000000000000000000000000000000000000007070707070707000000070000000000000000000000000000000000000000000000000000000000000000000000000000000000000000000000070000000000000000000000000000000000
310
00000000070707070700000000000000000000000000000000000000000000000000000000000000000000000000000000000000000000000000000000000000000000000000000000000000000000000000000000000000000007070707070707070707070707070000000000000700000007000000000000000000000000
310
00000000000000000000000000000000000000000000000000000000000000000000000007000000000000000000000000000000000000000000000000000000000000000000000000000000000000000000000000000000000000000000000000000000000000000000000000000000000000000000000000000000000000
310
00000707070707070707070707070707000000000000000000000000000000000000000007000000070000000000000000000000000000000000000000000000000000000000000000000000000000000000000000000000000007000000000000000000000000000000000000000000000000000000000000000000000000
310
00000000000000000000000000000000000000000000000000000000000000000000000000000000000707070707070707070707070707000000000000000000000000000000000000000000000000000000000000000000000700000007000000000000000000000000000000000000000000000000000000000000000000
310
00000000000000000000000000000000000700000000000000000000000000000000000000000000000000000000000000000000000000000000000000000000000000000000000000000000000000000707070707070707070707070707000000000000000000000000000000000000000000000000000000000000000000
310
00000000000000000000000000000007000000070000000000000000000000000000000000000000000000000000000000000000000000000000000000000000000000000000000707000000000000000000000000000000000000000000000000000000000000000000000000000000000000000000000707070707070707
310
07070707070700000000000000000000000000000000000000000000000000000000000000000000000000000000000000000000000000000000000000000000000000000700000007000000000000000000000000000000000000000000000000000000000000000000000000000000000000000000000000000000000007
310
00000000000000000000000000000000000000000000000000000000000000070707070707070707070707070700000000000000000000000000000000000000000000000000000000000000000000000000000000000000000000000000000000000000000000000000000000000000000000000000000000070000000700
310
00000000000000000000000000000000000000000000000000000000000000000000000000000000000000000000000000000000000707070700000000000000000000070707070707070707070707070707070700000000000000000000000000000000000000000000000000000000000000000000000000000000000000
310
00000000000000000000000000000000000000000000000000000000000000000000000000000000000000000000000700000007000000000000000000000000000000000000000000000000000000000000000000000000000000000000000000000000000000000000000000000707070707070707070707000000000000
310
00000000000000000000000000000000000000000000000000000000000000000000000000000000000000000000000000000000000000000000000000000000000000000000000000000000000000000000000000000000000000000000000000000000070000000700000000000000000000000000000000000000000000
310
00000000000000000000000000000000000000000000000000000000000000000000000000000000000000000000000000000000000000000000000000000000000000000000000000000000000000000000000000000000000000000000000000000000000000000000000000000000000000000000000000000000000000
310
00000000000000000000000000000000000000000000000000000700000007000000000000000000000000000000000000000000000000000000000000000000000000000000000000000000000000000000000000000000000000000000000000000000000000000000000000000000000000000000000000000000000000
310
00000000000000000000000000000000000000000000000000000000000000000000000000000000000000000000000000000000000000000000000000000000000000000000000000000000000000070000000700000000000000000000000000000000000000000000000000000000000000000000000000000000000000
310
00000000000000000000000000000000000000000000000000000000000000000000000000000000000000000000000000000000000000000000000000000000000000000000000000000000000000000000000000000000000000000000000000000000000000000000000000000000000000000000000000000000000000
310
00000000000700000007000000000000000000000000000000000000000000000000000000000000000000000000000000000000000000000000000000000000000000000000000000000000000000000000000000000000000000000000000000000000000000000000000000000000000000000000000000000000000000
310
00000000000000000000000000000000000000000000000000000000000000000000000000000000000000000000000000000000000000000000070000000700000000000000000000000000000000000000000000000000000000000000000000000000000000000000000000000000000000000000000000000000000000
310
00000000000000000000000000000000000000000000000000000000000000000000000000000000000000000000000000000000000000000000000000000000000000000000000000000000000000000000000000000000000000000000000000000000000000000000000000000007000000070000000000000000000000
310
00000000000000000000000000000000000000000000000000000000000000000000000000000000000000000000000000000000000000000000000000000000000000000000000000000000000000000000000000000000000000000000000000000000000000000000000000000000000000000000000000000000000000
310
00000000000000000000000000000000000000000000000000000000000000000000000000070000000700000000000000000000000000000000000000000000000000000000000000000000000000000000000000000000000000000000000000000000000000000000000000000000000000000000000000000000000000
310
00000000000000000000000000000000000000000000000000000000000000000000000000000000000000000000000000000000000000000000000000000000000000000000000000000000000000000000000000000000000007000000070000000000000000000000000000000000000000000000000000000000000000
310
00000000000000000000000000000000000000000000000000000000000000000000000000000000000000000000000000000000000000000000000000000000000000000000000000000000000000000000000000000000000000000000000000000000000000000000000000000000000000000000000000000000000000
310
00000000000000000000000000000000070000000700000000000000000000000000000000000000000000000000000000000000000000000000000000000000000000000000000000000000000000000000000000000000000000000000000000000000000000000000000000000000000000000000000000000000000000
310
00000000000000000000000000000000000000000000000000000000000000000000000000000000000000000000000000000000000000000000000000000000000000000007000000070000000000000000000000000000000000000000000000000000000000000000000000000000000000000000000000000000000000
310
00000000000000000000000000000000000000000000000000000000000000000000000000000000000000000000000000000000000000000000000000000000000000000000000000000000000000000000000000000000000000000000000000000000000000000000000000000000000000000000000000000700000007
310
00000000000000000000000000000000000000000000000000000000000000000000000000000000000000000000000000000000000000000000000000000000000000000000000000000000000000000000000000000000000000000000000000000000000000000000000000000000000000000000000000000000000000
310
00000000000000000000000000000000000000000000000000000000000000000000000000000000000000000000000007000000070000000000000000000000000000000000000000000000000000000000000000000000000000000000000000000000000000000000000000000000000000000000000000000000000000
310
00000000000000000000000000000000000000000000000000000000000000000000000000000000000000000000000000000000000000000000000000000000000000000000000000000000000000000000000000000000000000000000000000000000000700000007000000000000000000000000000000000000000000
310
00000000000000000000000000000000000000000000000000000000000000000000000000000000000000000000000000000000000000000000000000000000000000000000000000000000000000000000000000000000000000000000000000000000000000000000000000000000000000000000000000000000000000
310
00000000000000000000000000000000000000000000000000000007000000070000000000000000000000000000000000000000000000000000000000000000000000000000000000000000000000000000000000000000000000000000000000000000000000000000000000000000000000000000000000000000000000
310
00000000000000000000000000000000000000000000000000000000000000000000000000000000000000000000000000000000000000000000000000000000000000000000000000000000000000000707070707000000000000000000000000000000000000000000000000000000000000000000000000000000000000
310
00000000000000000000000000000000000000000000000000000000000000000000000000000000000000000000000000000000000000000000000000000000000000000000000000000000000000000000000000000000000000000000000000000000000000000000000000000000000000000000000000000000000000
310
00000000000000000000000000000000000000000000000000000000000000000000000000000000000000000000000000000000000000000000000000000000000000000000000000000000000000000000000000000000000000000000000000000000000000000000000000000000000000000000000000000000000000
310
00000000000000000000000000000000000000000000000000000000000000000000000000000000000000000000000000000000000000000000000000000000000000000000000000000000000000000000000000000000000000000000000000000000000000000000000000000000000000000000000000000000000000
310
00000000000000000000000000000000000000000000000000000000000000000000000000000000000000000000000000000000000000000000000000000000000000000000000000000000000000000000000000000000000000000000000000000000000000000000000000000000000000000000000000000000000000
310
00000000000000000000000000000000000000000000000000000000000000000000000000000000000000000000000000000000000000000000000000000000000000000000000000000000000000000000000000000000000000000000000000000000000000000000000000000000000000000000000000000000000000
310
00000000000000000000000000000000000000000000000000000000000000000000000000000000000000000000000000000000000000000000000000000000000000000000000000000000000000000000000000000000000000000000000000000000000000000000000000000000000000000000000000000000000000
310
00000000000000000000000000000000000000000000000000000000000000000000000000000000000000000000000000000000000000000000000000000000000000000000000000000000000000000000000000000000000000000000000000000000000000000000000000000000000000000000000000000000000000
310
00000000000000000000000000000000000000000000000000000000000000000000000000000000000000000000000000000000000000000000000000000000000000000000000000000000000000000000000000000000000000000000000000000000000000000000000000000000000000000000000000000000000000
310
00000000000000000000000000000000000000000000000000000000000000000000000000000000000000000000000000000000000000000000000000000000000000000000000000000000000000000000000000000000000000000000000000000000000000000000000000000000000000000000000000000000000000
310
00000000000000000000000000000000000000000000000000000000000000000000000000000000000000000000000000000000000000000000000000000000000000000000000000000000000000000000000000000000000000000000000000000000000000000000000000000000000000000000000000000000000000
310
00000000000000000000000000000000000000000000000000000000000000000000000000000000000000000000000000000000000000000000000000000000000000000000000000000000000000000000000000000000000000000000000000000000000000000000000000000000000000000000000000000000000000
310
00000000000000000000000000000000000000000000000000000000000000000000000000000000000000000000000000000000000000000000000000000000000000000000000000000000000000000000000000000000000000000000000000000000000000000000000000000000000000000000000000000000000000
310
00000000000000000000000000000000000000000000000000000000000000000000000000000000000000000000000000000000000000000000000000000000000000000000000000000000000000000000000000000000000000000000000000000000000000000000000000000000000000000000000000000000000000
310
00000000000000000000000000000000000000000000000000000000000000000000000000000000000000000000000000000000000000000000000000000000000000000000000000000000000000000000000000000000000000000000000000000000000000000000000000000000000000000000000000000000000000
310
00000000000000000000000000000000000000000000000000000000000000000000000000000000000000000000000000000000000000000000000000000000000000000000000000000000000000000000000000000000000000000000000000000000000000000000000000000000000000000000000000000000000000
310
00000000000000000000000000000000000000000000000000000000000000000000000000000000000000000000000000000000000000000000000000000000000000000000000000000000000000000000000000000000000000000000000000000000000000000000000000000000000000000000000000000000000000
310
00000000000000000000000000000000000000000000000000000000000000000000000000000000000000000000000000000000000000000000000000000000000000000000000000000000000000000000000000000000000000000000000000000000000000000000000000000000000000000000000000000000000000
310
00000000000000000000000000000000000000000000000000000000000000000000000000000000000000000000000000000000000000000000000000000000000000000000000000000000000000000000000000000000000000000000000000000000000000000000000000000000000000000000000000000000000000
310
00000000000000000000000000000000000000000000000000000000000000000000000000000000000000000000000000000000000000000000000000000000000000000000000000000000000000000000000000000000000000000000000000000000000000000000000000000000000000000000000000000000000000
310
00000000000000000000000000000000000000000000000000000000000000000000000000000000000000000000000000000000000000000000000000000000000000000000000000000000000000000000000000000000000000000000000000000000000000000000000000000000000000000000000000000000000000
310
00000000000000000000000000000000000000000000000000000000000000000000000000000000000000000000000000000000000000000000000000000000000000000000000000000000000000000000000000000000000000000000000000000000000000000000000000000000000000000000000000000000000000
310
00000000000000000000000000000000000000000000000000000000000000000000000000000000000000000000000000000000000000000000000000000000000000000000000000000000000000000000000000000000000000000000000000000000000000000000000000000000000000000000000000000000000000
310
00000000000000000000000000000000000000000000000000000000000000000000000000000000000000000000000000000000000000000000000000000000000000000000000000000000000000000000000000000000000000000000000000000000000000000000000000000000000000000000000000000000000000
310
000000000000000000000000000000000000000000000000000000000000000000000000000000000000000000000000000000000000000000000000000000000000000000000000000000000000000000000000000000000000000000000000000000000000000000000000
  0
ENDSEC
  0
EOF
