  0
SECTION
  2
HEADER
  9
$ACADVER
  1
AC1015
  9
$ACADMAINTVER
 70
     6
  9
$DWGCODEPAGE
  3
ANSI_1252
  9
$INSBASE
 10
0.0
 20
0.0
 30
0.0
  9
$EXTMIN
 10
-0.066
 20
0.215085
 30
0.0
  9
$EXTMAX
 10
717.3901
 20
465.784915
 30
0.0
  9
$LIMMIN
 10
0.0
 20
0.0
  9
$LIMMAX
 10
12.0
 20
9.0
  9
$ORTHOMODE
 70
     0
  9
$REGENMODE
 70
     1
  9
$FILLMODE
 70
     1
  9
$QTEXTMODE
 70
     0
  9
$MIRRTEXT
 70
     1
  9
$LTSCALE
 40
1.0
  9
$ATTMODE
 70
     1
  9
$TEXTSIZE
 40
0.2
  9
$TRACEWID
 40
0.05
  9
$TEXTSTYLE
  7
Standard
  9
$CLAYER
  8
0
  9
$CELTYPE
  6
ByBlock
  9
$CECOLOR
 62
   256
  9
$CELTSCALE
 40
1.0
  9
$DISPSILH
 70
     0
  9
$DIMSCALE
 40
1.0
  9
$DIMASZ
 40
0.18
  9
$DIMEXO
 40
0.0625
  9
$DIMDLI
 40
0.38
  9
$DIMRND
 40
0.0
  9
$DIMDLE
 40
0.0
  9
$DIMEXE
 40
0.18
  9
$DIMTP
 40
0.0
  9
$DIMTM
 40
0.0
  9
$DIMTXT
 40
0.18
  9
$DIMCEN
 40
0.09
  9
$DIMTSZ
 40
0.0
  9
$DIMTOL
 70
     0
  9
$DIMLIM
 70
     0
  9
$DIMTIH
 70
     1
  9
$DIMTOH
 70
     1
  9
$DIMSE1
 70
     0
  9
$DIMSE2
 70
     0
  9
$DIMTAD
 70
     0
  9
$DIMZIN
 70
     0
  9
$DIMBLK
  1

  9
$DIMASO
 70
     1
  9
$DIMSHO
 70
     1
  9
$DIMPOST
  1

  9
$DIMAPOST
  1

  9
$DIMALT
 70
     0
  9
$DIMALTD
 70
     2
  9
$DIMALTF
 40
25.4
  9
$DIMLFAC
 40
1.0
  9
$DIMTOFL
 70
     0
  9
$DIMTVP
 40
0.0
  9
$DIMTIX
 70
     0
  9
$DIMSOXD
 70
     0
  9
$DIMSAH
 70
     0
  9
$DIMBLK1
  1

  9
$DIMBLK2
  1

  9
$DIMSTYLE
  2
Standard
  9
$DIMCLRD
 70
     0
  9
$DIMCLRE
 70
     0
  9
$DIMCLRT
 70
     0
  9
$DIMTFAC
 40
1.0
  9
$DIMGAP
 40
0.09
  9
$DIMJUST
 70
     0
  9
$DIMSD1
 70
     0
  9
$DIMSD2
 70
     0
  9
$DIMTOLJ
 70
     1
  9
$DIMTZIN
 70
     0
  9
$DIMALTZ
 70
     0
  9
$DIMALTTZ
 70
     0
  9
$DIMUPT
 70
     0
  9
$DIMDEC
 70
     4
  9
$DIMTDEC
 70
     4
  9
$DIMALTU
 70
     2
  9
$DIMALTTD
 70
     2
  9
$DIMTXSTY
  7
Standard
  9
$DIMAUNIT
 70
     0
  9
$DIMADEC
 70
     0
  9
$DIMALTRND
 40
0.0
  9
$DIMAZIN
 70
     0
  9
$DIMDSEP
 70
    46
  9
$DIMATFIT
 70
     3
  9
$DIMFRAC
 70
     0
  9
$DIMLDRBLK
  1

  9
$DIMLUNIT
 70
     2
  9
$DIMLWD
 70
    -2
  9
$DIMLWE
 70
    -2
  9
$DIMTMOVE
 70
     2
  9
$LUNITS
 70
     2
  9
$LUPREC
 70
     4
  9
$SKETCHINC
 40
0.1
  9
$FILLETRAD
 40
0.5
  9
$AUNITS
 70
     0
  9
$AUPREC
 70
     0
  9
$MENU
  1
.
  9
$ELEVATION
 40
0.0
  9
$PELEVATION
 40
0.0
  9
$THICKNESS
 40
0.0
  9
$LIMCHECK
 70
     0
  9
$CHAMFERA
 40
0.5
  9
$CHAMFERB
 40
0.5
  9
$CHAMFERC
 40
1.0
  9
$CHAMFERD
 40
0.0
  9
$SKPOLY
 70
     0
  9
$TDCREATE
 40
2456467.330129294
  9
$TDUCREATE
 40
2456467.246795961
  9
$TDUPDATE
 40
2456467.351740266
  9
$TDUUPDATE
 40
2456467.268406933
  9
$TDINDWG
 40
0.0216102546
  9
$TDUSRTIMER
 40
0.0216102546
  9
$USRTIMER
 70
     1
  9
$ANGBASE
 50
0.0
  9
$ANGDIR
 70
     0
  9
$PDMODE
 70
     0
  9
$PDSIZE
 40
0.0
  9
$PLINEWID
 40
0.0
  9
$SPLFRAME
 70
     0
  9
$SPLINETYPE
 70
     6
  9
$SPLINESEGS
 70
     8
  9
$HANDSEED
  5
9B2
  9
$SURFTAB1
 70
     6
  9
$SURFTAB2
 70
     6
  9
$SURFTYPE
 70
     6
  9
$SURFU
 70
     6
  9
$SURFV
 70
     6
  9
$UCSBASE
  2

  9
$UCSNAME
  2

  9
$UCSORG
 10
0.0
 20
0.0
 30
0.0
  9
$UCSXDIR
 10
1.0
 20
0.0
 30
0.0
  9
$UCSYDIR
 10
0.0
 20
1.0
 30
0.0
  9
$UCSORTHOREF
  2

  9
$UCSORTHOVIEW
 70
     0
  9
$UCSORGTOP
 10
0.0
 20
0.0
 30
0.0
  9
$UCSORGBOTTOM
 10
0.0
 20
0.0
 30
0.0
  9
$UCSORGLEFT
 10
0.0
 20
0.0
 30
0.0
  9
$UCSORGRIGHT
 10
0.0
 20
0.0
 30
0.0
  9
$UCSORGFRONT
 10
0.0
 20
0.0
 30
0.0
  9
$UCSORGBACK
 10
0.0
 20
0.0
 30
0.0
  9
$PUCSBASE
  2

  9
$PUCSNAME
  2

  9
$PUCSORG
 10
0.0
 20
0.0
 30
0.0
  9
$PUCSXDIR
 10
1.0
 20
0.0
 30
0.0
  9
$PUCSYDIR
 10
0.0
 20
1.0
 30
0.0
  9
$PUCSORTHOREF
  2

  9
$PUCSORTHOVIEW
 70
     0
  9
$PUCSORGTOP
 10
0.0
 20
0.0
 30
0.0
  9
$PUCSORGBOTTOM
 10
0.0
 20
0.0
 30
0.0
  9
$PUCSORGLEFT
 10
0.0
 20
0.0
 30
0.0
  9
$PUCSORGRIGHT
 10
0.0
 20
0.0
 30
0.0
  9
$PUCSORGFRONT
 10
0.0
 20
0.0
 30
0.0
  9
$PUCSORGBACK
 10
0.0
 20
0.0
 30
0.0
  9
$USERI1
 70
     0
  9
$USERI2
 70
     0
  9
$USERI3
 70
     0
  9
$USERI4
 70
     0
  9
$USERI5
 70
     0
  9
$USERR1
 40
0.0
  9
$USERR2
 40
0.0
  9
$USERR3
 40
0.0
  9
$USERR4
 40
0.0
  9
$USERR5
 40
0.0
  9
$WORLDVIEW
 70
     1
  9
$SHADEDGE
 70
     3
  9
$SHADEDIF
 70
    70
  9
$TILEMODE
 70
     1
  9
$MAXACTVP
 70
    64
  9
$PINSBASE
 10
0.0
 20
0.0
 30
0.0
  9
$PLIMCHECK
 70
     0
  9
$PEXTMIN
 10
1.000000000000E+20
 20
1.000000000000E+20
 30
1.000000000000E+20
  9
$PEXTMAX
 10
-1.000000000000E+20
 20
-1.000000000000E+20
 30
-1.000000000000E+20
  9
$PLIMMIN
 10
0.0
 20
0.0
  9
$PLIMMAX
 10
12.0
 20
9.0
  9
$UNITMODE
 70
     0
  9
$VISRETAIN
 70
     1
  9
$PLINEGEN
 70
     0
  9
$PSLTSCALE
 70
     1
  9
$TREEDEPTH
 70
  3020
  9
$CMLSTYLE
  2
Standard
  9
$CMLJUST
 70
     0
  9
$CMLSCALE
 40
1.0
  9
$PROXYGRAPHICS
 70
     1
  9
$MEASUREMENT
 70
     0
  9
$CELWEIGHT
370
    -1
  9
$ENDCAPS
280
     0
  9
$JOINSTYLE
280
     0
  9
$LWDISPLAY
290
     0
  9
$INSUNITS
 70
     0
  9
$HYPERLINKBASE
  1

  9
$STYLESHEET
  1

  9
$XEDIT
290
     1
  9
$CEPSNTYPE
380
     0
  9
$PSTYLEMODE
290
     1
  9
$FINGERPRINTGUID
  2
{2EDFDDBF-98DA-4552-A050-572AAF6A1522}
  9
$VERSIONGUID
  2
{FAEB1C32-E019-11D5-929B-00C0DF256EC4}
  9
$EXTNAMES
290
     1
  9
$PSVPSCALE
 40
0.0
  9
$OLESTARTUP
290
     0
  0
ENDSEC
  0
SECTION
  2
CLASSES
  0
CLASS
  1
ACDBDICTIONARYWDFLT
  2
AcDbDictionaryWithDefault
  3
ObjectDBX Classes
 90
        0
280
     0
281
     0
  0
CLASS
  1
SCALE
  2
AcDbScale
  3
ObjectDBX Classes
 90
     1153
280
     0
281
     0
  0
CLASS
  1
DICTIONARYVAR
  2
AcDbDictionaryVar
  3
ObjectDBX Classes
 90
        0
280
     0
281
     0
  0
CLASS
  1
ACDBPLACEHOLDER
  2
AcDbPlaceHolder
  3
ObjectDBX Classes
 90
        0
280
     0
281
     0
  0
CLASS
  1
LAYOUT
  2
AcDbLayout
  3
ObjectDBX Classes
 90
        0
280
     0
281
     0
  0
ENDSEC
  0
SECTION
  2
TABLES
  0
TABLE
  2
VPORT
  5
8
330
0
100
AcDbSymbolTable
 70
     1
  0
VPORT
  5
61C
330
8
100
AcDbSymbolTableRecord
100
AcDbViewportTableRecord
  2
*Active
 70
     0
 10
0.0
 20
0.0
 11
1.0
 21
1.0
 12
358.66205
 22
232.8924575
 13
0.0
 23
0.0
 14
0.5
 24
0.5
 15
0.5
 25
0.5
 16
0.0
 26
0.0
 36
1.0
 17
0.0
 27
0.0
 37
0.0
 40
475.1006133
 41
1.863448275862
 42
50.0
 43
0.0
 44
0.0
 50
0.0
 51
0.0
 71
    16
 72
   100
 73
     1
 74
     3
 75
     0
 76
     0
 77
     0
 78
     0
281
     0
 65
     1
110
0.0
120
0.0
130
0.0
111
1.0
121
0.0
131
0.0
112
0.0
122
1.0
132
0.0
 79
     0
146
0.0
  0
ENDTAB
  0
TABLE
  2
LTYPE
  5
5
330
0
100
AcDbSymbolTable
 70
     1
  0
LTYPE
  5
14
330
5
100
AcDbSymbolTableRecord
100
AcDbLinetypeTableRecord
  2
ByBlock
 70
     0
  3

 72
    65
 73
     0
 40
0.0
  0
LTYPE
  5
15
330
5
100
AcDbSymbolTableRecord
100
AcDbLinetypeTableRecord
  2
ByLayer
 70
     0
  3

 72
    65
 73
     0
 40
0.0
  0
LTYPE
  5
16
330
5
100
AcDbSymbolTableRecord
100
AcDbLinetypeTableRecord
  2
Continuous
 70
     0
  3
Solid line
 72
    65
 73
     0
 40
0.0
  0
ENDTAB
  0
TABLE
  2
LAYER
  5
2
330
0
100
AcDbSymbolTable
 70
     1
  0
LAYER
  5
10
330
2
100
AcDbSymbolTableRecord
100
AcDbLayerTableRecord
  2
0
 70
     0
 62
     7
  6
Continuous
370
    -3
390
F
  0
ENDTAB
  0
TABLE
  2
STYLE
  5
3
330
0
100
AcDbSymbolTable
 70
     1
  0
STYLE
  5
11
330
3
100
AcDbSymbolTableRecord
100
AcDbTextStyleTableRecord
  2
Standard
 70
     0
 40
0.0
 41
1.0
 50
0.0
 71
     0
 42
0.2
  3
txt
  4

  0
ENDTAB
  0
TABLE
  2
VIEW
  5
6
330
0
100
AcDbSymbolTable
 70
     0
  0
ENDTAB
  0
TABLE
  2
UCS
  5
7
330
0
100
AcDbSymbolTable
 70
     0
  0
ENDTAB
  0
TABLE
  2
APPID
  5
9
330
0
100
AcDbSymbolTable
 70
     1
  0
APPID
  5
12
330
9
100
AcDbSymbolTableRecord
100
AcDbRegAppTableRecord
  2
ACAD
 70
     0
  0
ENDTAB
  0
TABLE
  2
DIMSTYLE
  5
A
330
0
100
AcDbSymbolTable
 70
     1
100
AcDbDimStyleTable
  0
DIMSTYLE
105
20
330
A
100
AcDbSymbolTableRecord
100
AcDbDimStyleTableRecord
  2
Standard
 70
     0
340
11
  0
ENDTAB
  0
TABLE
  2
BLOCK_RECORD
  5
1
330
0
100
AcDbSymbolTable
 70
     2
  0
BLOCK_RECORD
  5
1D
330
1
100
AcDbSymbolTableRecord
100
AcDbBlockTableRecord
  2
*Model_Space
340
1E
  0
BLOCK_RECORD
  5
1B
330
1
100
AcDbSymbolTableRecord
100
AcDbBlockTableRecord
  2
*Paper_Space
340
1C
  0
ENDTAB
  0
ENDSEC
  0
SECTION
  2
BLOCKS
  0
BLOCK
  5
61F
330
1D
100
AcDbEntity
  8
0
100
AcDbBlockBegin
  2
*Model_Space
 70
     0
 10
0.0
 20
0.0
 30
0.0
  3
*Model_Space
  1
*Model_Space
  0
ENDBLK
  5
620
330
1D
100
AcDbEntity
  8
0
100
AcDbBlockEnd
  0
BLOCK
  5
61D
330
1B
100
AcDbEntity
 67
     1
  8
0
100
AcDbBlockBegin
  2
*Paper_Space
 70
     0
 10
0.0
 20
0.0
 30
0.0
  3
*Paper_Space
  1
*Paper_Space
  0
ENDBLK
  5
61E
330
1B
100
AcDbEntity
 67
     1
  8
0
100
AcDbBlockEnd
  0
ENDSEC
  0
SECTION
  2
ENTITIES
  0
LINE
  5
81
330
1D
100
AcDbEntity
  8
0
100
AcDbLine
 10
21.996
 20
330.408915
 30
0.0
 11
24.54
 21
330.046915
 31
0.0
  0
LINE
  5
82
330
1D
100
AcDbEntity
  8
0
100
AcDbLine
 10
19.546
 20
331.047915
 30
0.0
 11
21.996
 21
330.408915
 31
0.0
  0
LINE
  5
83
330
1D
100
AcDbEntity
  8
0
100
AcDbLine
 10
17.228
 20
331.992915
 30
0.0
 11
19.546
 21
331.047915
 31
0.0
  0
LINE
  5
85
330
1D
100
AcDbEntity
  8
0
100
AcDbLine
 10
24.54
 20
330.046915
 30
0.0
 11
27.134
 21
329.934915
 31
0.0
  0
LINE
  5
87
330
1D
100
AcDbEntity
  8
0
100
AcDbLine
 10
13.347
 20
334.687915
 30
0.0
 11
15.182
 21
333.194915
 31
0.0
  0
LINE
  5
88
330
1D
100
AcDbEntity
  8
0
100
AcDbLine
 10
15.182
 20
333.194915
 30
0.0
 11
17.228
 21
331.992915
 31
0.0
  0
LINE
  5
89
330
1D
100
AcDbEntity
  8
0
100
AcDbLine
 10
11.77
 20
336.447915
 30
0.0
 11
13.347
 21
334.687915
 31
0.0
  0
LINE
  5
8F
330
1D
100
AcDbEntity
  8
0
100
AcDbLine
 10
27.134
 20
329.934915
 30
0.0
 11
138.338544168668
 21
329.934915
 31
0.0
  0
LINE
  5
BA
330
1D
100
AcDbEntity
  8
0
100
AcDbLine
 10
133.758
 20
0.465485
 30
0.0
 11
136.843
 21
0.430693
 31
0.0
  0
LINE
  5
BB
330
1D
100
AcDbEntity
  8
0
100
AcDbLine
 10
136.843
 20
0.430693
 30
0.0
 11
179.049
 21
0.215085
 31
0.0
  0
LINE
  5
105
330
1D
100
AcDbEntity
  8
0
100
AcDbLine
 10
138.3378
 20
288.633915
 30
0.0
 11
138.3378
 21
257.528915
 31
0.0
  0
LINE
  5
106
330
1D
100
AcDbEntity
  8
0
100
AcDbLine
 10
138.3378
 20
257.528915
 30
0.0
 11
138.3378
 21
288.633915
 31
0.0
  0
LINE
  5
107
330
1D
100
AcDbEntity
  8
0
100
AcDbLine
 10
138.3372
 20
243.539915
 30
0.0
 11
138.3378
 21
257.528915
 31
0.0
  0
LINE
  5
108
330
1D
100
AcDbEntity
  8
0
100
AcDbLine
 10
138.3372
 20
243.539915
 30
0.0
 11
138.3378
 21
226.421915
 31
0.0
  0
LINE
  5
109
330
1D
100
AcDbEntity
  8
0
100
AcDbLine
 10
138.3372
 20
293.457915
 30
0.0
 11
138.3378
 21
288.633915
 31
0.0
  0
LINE
  5
10A
330
1D
100
AcDbEntity
  8
0
100
AcDbLine
 10
138.3372
 20
293.457915
 30
0.0
 11
138.3378
 21
319.738915
 31
0.0
  0
LINE
  5
118
330
1D
100
AcDbEntity
  8
0
100
AcDbLine
 10
179.5302
 20
226.421915
 30
0.0
 11
179.5307
 21
243.539915
 31
0.0
  0
LINE
  5
145
330
1D
100
AcDbEntity
  8
0
100
AcDbLine
 10
179.5302
 20
288.633915
 30
0.0
 11
179.5302
 21
257.528915
 31
0.0
  0
LINE
  5
146
330
1D
100
AcDbEntity
  8
0
100
AcDbLine
 10
179.5302
 20
288.633915
 30
0.0
 11
179.5307
 21
293.457915
 31
0.0
  0
LINE
  5
147
330
1D
100
AcDbEntity
  8
0
100
AcDbLine
 10
179.5302
 20
257.528915
 30
0.0
 11
179.5307
 21
243.539915
 31
0.0
  0
LINE
  5
148
330
1D
100
AcDbEntity
  8
0
100
AcDbLine
 10
179.5302
 20
257.528915
 30
0.0
 11
179.5302
 21
288.633915
 31
0.0
  0
LINE
  5
154
330
1D
100
AcDbEntity
  8
0
100
AcDbLine
 10
259.512
 20
305.271915
 30
0.0
 11
264.182020359314
 21
305.256910209581
 31
0.0
  0
LINE
  5
15F
330
1D
100
AcDbEntity
  8
0
100
AcDbLine
 10
270.356
 20
305.271915
 30
0.0
 11
270.601
 21
305.339915
 31
0.0
  0
LINE
  5
161
330
1D
100
AcDbEntity
  8
0
100
AcDbLine
 10
264.180529411852
 20
305.256915
 30
0.0
 11
270.356
 21
305.271915
 31
0.0
  0
LINE
  5
164
330
1D
100
AcDbEntity
  8
0
100
AcDbLine
 10
179.5302
 20
319.738915
 30
0.0
 11
179.5307
 21
293.457915
 31
0.0
  0
LINE
  5
165
330
1D
100
AcDbEntity
  8
0
100
AcDbLine
 10
138.3378
 20
319.738915
 30
0.0
 11
138.3386
 21
328.365915
 31
0.0
  0
LINE
  5
166
330
1D
100
AcDbEntity
  8
0
100
AcDbLine
 10
259.018
 20
305.763915
 30
0.0
 11
259.087
 21
305.518915
 31
0.0
  0
LINE
  5
17B
330
1D
100
AcDbEntity
  8
0
100
AcDbLine
 10
259.267
 20
305.339915
 30
0.0
 11
259.512
 21
305.271915
 31
0.0
  0
LINE
  5
17F
330
1D
100
AcDbEntity
  8
0
100
AcDbLine
 10
259.087
 20
305.518915
 30
0.0
 11
259.267
 21
305.339915
 31
0.0
  0
LINE
  5
1DD
330
1D
100
AcDbEntity
  8
0
100
AcDbLine
 10
270.829940100558
 20
309.447964916051
 30
0.0
 11
271.233
 21
328.237915
 31
0.0
  0
LINE
  5
1DE
330
1D
100
AcDbEntity
  8
0
100
AcDbLine
 10
270.781
 20
305.518915
 30
0.0
 11
270.85
 21
305.763915
 31
0.0
  0
LINE
  5
1DF
330
1D
100
AcDbEntity
  8
0
100
AcDbLine
 10
270.601
 20
305.339915
 30
0.0
 11
270.781
 21
305.518915
 31
0.0
  0
LINE
  5
1E0
330
1D
100
AcDbEntity
  8
0
100
AcDbLine
 10
179.5294
 20
328.365915
 30
0.0
 11
179.5302
 21
319.738915
 31
0.0
  0
LINE
  5
1E1
330
1D
100
AcDbEntity
  8
0
100
AcDbLine
 10
179.5294
 20
328.365915
 30
0.0
 11
179.5302
 21
350.847915
 31
0.0
  0
LINE
  5
1E3
330
1D
100
AcDbEntity
  8
0
100
AcDbLine
 10
179.529455831332
 20
329.934915
 30
0.0
 11
290.734
 21
329.934915
 31
0.0
  0
LINE
  5
1E5
330
1D
100
AcDbEntity
  8
0
100
AcDbLine
 10
244.532488607595
 20
329.934915
 30
0.0
 11
244.6714
 21
329.779915
 31
0.0
  0
LINE
  5
1F0
330
1D
100
AcDbEntity
  8
0
100
AcDbLine
 10
244.6714
 20
329.779915
 30
0.0
 11
257.2371
 21
329.604915
 31
0.0
  0
LINE
  5
1F2
330
1D
100
AcDbEntity
  8
0
100
AcDbLine
 10
257.2371
 20
329.604915
 30
0.0
 11
257.7639
 21
329.496915
 31
0.0
  0
LINE
  5
1F3
330
1D
100
AcDbEntity
  8
0
100
AcDbLine
 10
257.7639
 20
329.496915
 30
0.0
 11
258.2114
 21
329.198915
 31
0.0
  0
LINE
  5
1F4
330
1D
100
AcDbEntity
  8
0
100
AcDbLine
 10
258.2114
 20
329.198915
 30
0.0
 11
258.5137
 21
328.754915
 31
0.0
  0
LINE
  5
1F5
330
1D
100
AcDbEntity
  8
0
100
AcDbLine
 10
258.695233729917
 20
326.025963857726
 30
0.0
 11
259.018
 21
305.763915
 31
0.0
  0
LINE
  5
1F8
330
1D
100
AcDbEntity
  8
0
100
AcDbLine
 10
271.228
 20
328.242915
 30
0.0
 11
271.354
 21
328.754915
 31
0.0
  0
LINE
  5
1FD
330
1D
100
AcDbEntity
  8
0
100
AcDbLine
 10
290.734
 20
329.934915
 30
0.0
 11
293.516
 21
330.064915
 31
0.0
  0
LINE
  5
1FE
330
1D
100
AcDbEntity
  8
0
100
AcDbLine
 10
285.297
 20
329.829915
 30
0.0
 11
285.304358056266
 21
329.934915
 31
0.0
  0
LINE
  5
204
330
1D
100
AcDbEntity
  8
0
100
AcDbLine
 10
296.238
 20
330.483915
 30
0.0
 11
298.845
 21
331.228915
 31
0.0
  0
LINE
  5
205
330
1D
100
AcDbEntity
  8
0
100
AcDbLine
 10
298.845
 20
331.228915
 30
0.0
 11
301.286
 21
332.329915
 31
0.0
  0
LINE
  5
206
330
1D
100
AcDbEntity
  8
0
100
AcDbLine
 10
293.516
 20
330.064915
 30
0.0
 11
296.238
 21
330.483915
 31
0.0
  0
LINE
  5
20A
330
1D
100
AcDbEntity
  8
0
100
AcDbLine
 10
305.031
 20
335.197915
 30
0.0
 11
306.524
 21
337.032915
 31
0.0
  0
LINE
  5
20B
330
1D
100
AcDbEntity
  8
0
100
AcDbLine
 10
303.271
 20
333.620915
 30
0.0
 11
305.031
 21
335.197915
 31
0.0
  0
LINE
  5
20D
330
1D
100
AcDbEntity
  8
0
100
AcDbLine
 10
306.524
 20
337.032915
 30
0.0
 11
307.726
 21
339.078915
 31
0.0
  0
LINE
  5
20E
330
1D
100
AcDbEntity
  8
0
100
AcDbLine
 10
301.286
 20
332.329915
 30
0.0
 11
303.271
 21
333.620915
 31
0.0
  0
LINE
  5
211
330
1D
100
AcDbEntity
  8
0
100
AcDbLine
 10
272.631
 20
329.604915
 30
0.0
 11
285.297
 21
329.829915
 31
0.0
  0
LINE
  5
212
330
1D
100
AcDbEntity
  8
0
100
AcDbLine
 10
272.104
 20
329.496915
 30
0.0
 11
272.631
 21
329.604915
 31
0.0
  0
LINE
  5
213
330
1D
100
AcDbEntity
  8
0
100
AcDbLine
 10
271.657
 20
329.198915
 30
0.0
 11
272.104
 21
329.496915
 31
0.0
  0
LINE
  5
214
330
1D
100
AcDbEntity
  8
0
100
AcDbLine
 10
271.354
 20
328.754915
 30
0.0
 11
271.657
 21
329.198915
 31
0.0
  0
LINE
  5
215
330
1D
100
AcDbEntity
  8
0
100
AcDbLine
 10
258.5137
 20
328.754915
 30
0.0
 11
258.6261
 21
328.228915
 31
0.0
  0
LINE
  5
218
330
1D
100
AcDbEntity
  8
0
100
AcDbLine
 10
10.479
 20
338.432915
 30
0.0
 11
11.77
 21
336.447915
 31
0.0
  0
LINE
  5
21F
330
1D
100
AcDbEntity
  8
0
100
AcDbLine
 10
307.726
 20
339.078915
 30
0.0
 11
308.671
 21
341.396915
 31
0.0
  0
LINE
  5
220
330
1D
100
AcDbEntity
  8
0
100
AcDbLine
 10
9.378
 20
340.873915
 30
0.0
 11
10.479
 21
338.432915
 31
0.0
  0
LINE
  5
227
330
1D
100
AcDbEntity
  8
0
100
AcDbLine
 10
308.671
 20
341.396915
 30
0.0
 11
309.31
 21
343.846915
 31
0.0
  0
LINE
  5
25E
330
1D
100
AcDbEntity
  8
0
100
AcDbLine
 10
8.633
 20
343.480915
 30
0.0
 11
9.378
 21
340.873915
 31
0.0
  0
LINE
  5
260
330
1D
100
AcDbEntity
  8
0
100
AcDbLine
 10
309.31
 20
343.846915
 30
0.0
 11
309.672
 21
346.390915
 31
0.0
  0
LINE
  5
262
330
1D
100
AcDbEntity
  8
0
100
AcDbLine
 10
309.672
 20
346.390915
 30
0.0
 11
309.784
 21
348.984915
 31
0.0
  0
LINE
  5
263
330
1D
100
AcDbEntity
  8
0
100
AcDbLine
 10
8.214
 20
346.202915
 30
0.0
 11
8.633
 21
343.480915
 31
0.0
  0
LINE
  5
2B3
330
1D
100
AcDbEntity
  8
0
100
AcDbLine
 10
309.784
 20
348.984915
 30
0.0
 11
309.784
 21
463.784915
 31
0.0
  0
LINE
  5
2B4
330
1D
100
AcDbEntity
  8
0
100
AcDbLine
 10
8.084
 20
348.984915
 30
0.0
 11
8.084
 21
463.784915
 31
0.0
  0
LINE
  5
2B5
330
1D
100
AcDbEntity
  8
0
100
AcDbLine
 10
8.084
 20
348.984915
 30
0.0
 11
8.214
 21
346.202915
 31
0.0
  0
LINE
  5
2B9
330
1D
100
AcDbEntity
  8
0
100
AcDbLine
 10
179.5302
 20
350.847915
 30
0.0
 11
179.5302
 21
381.952915
 31
0.0
  0
LINE
  5
2BA
330
1D
100
AcDbEntity
  8
0
100
AcDbLine
 10
138.3378
 20
350.847915
 30
0.0
 11
138.3378
 21
381.952915
 31
0.0
  0
LINE
  5
2BB
330
1D
100
AcDbEntity
  8
0
100
AcDbLine
 10
138.3378
 20
350.847915
 30
0.0
 11
138.3386
 21
328.365915
 31
0.0
  0
LINE
  5
2DA
330
1D
100
AcDbEntity
  8
0
100
AcDbLine
 10
138.3378
 20
381.952915
 30
0.0
 11
138.3378
 21
409.172915
 31
0.0
  0
LINE
  5
2DB
330
1D
100
AcDbEntity
  8
0
100
AcDbLine
 10
138.3378
 20
381.952915
 30
0.0
 11
138.3378
 21
350.847915
 31
0.0
  0
LINE
  5
2DC
330
1D
100
AcDbEntity
  8
0
100
AcDbLine
 10
138.3378
 20
415.535915
 30
0.0
 11
138.3378
 21
416.168915
 31
0.0
  0
LINE
  5
2DD
330
1D
100
AcDbEntity
  8
0
100
AcDbLine
 10
138.3378
 20
415.535915
 30
0.0
 11
138.3378
 21
414.910915
 31
0.0
  0
LINE
  5
2DE
330
1D
100
AcDbEntity
  8
0
100
AcDbLine
 10
138.3378
 20
416.168915
 30
0.0
 11
138.3378
 21
416.807915
 31
0.0
  0
LINE
  5
2DF
330
1D
100
AcDbEntity
  8
0
100
AcDbLine
 10
138.3378
 20
416.168915
 30
0.0
 11
138.3378
 21
415.535915
 31
0.0
  0
LINE
  5
2E0
330
1D
100
AcDbEntity
  8
0
100
AcDbLine
 10
138.3378
 20
418.960915
 30
0.0
 11
138.348
 21
419.340915
 31
0.0
  0
LINE
  5
2E1
330
1D
100
AcDbEntity
  8
0
100
AcDbLine
 10
138.3378
 20
418.960915
 30
0.0
 11
138.3378
 21
418.103915
 31
0.0
  0
LINE
  5
2E2
330
1D
100
AcDbEntity
  8
0
100
AcDbLine
 10
138.3378
 20
418.103915
 30
0.0
 11
138.3378
 21
418.960915
 31
0.0
  0
LINE
  5
2E3
330
1D
100
AcDbEntity
  8
0
100
AcDbLine
 10
138.3378
 20
418.103915
 30
0.0
 11
138.3378
 21
417.452915
 31
0.0
  0
LINE
  5
2E4
330
1D
100
AcDbEntity
  8
0
100
AcDbLine
 10
138.3378
 20
421.536915
 30
0.0
 11
138.3378
 21
420.680915
 31
0.0
  0
LINE
  5
2E5
330
1D
100
AcDbEntity
  8
0
100
AcDbLine
 10
138.3378
 20
422.382915
 30
0.0
 11
138.3378
 21
423.214915
 31
0.0
  0
LINE
  5
2E6
330
1D
100
AcDbEntity
  8
0
100
AcDbLine
 10
138.3377
 20
422.075915
 30
0.0
 11
138.3378
 21
421.536915
 31
0.0
  0
LINE
  5
2E7
330
1D
100
AcDbEntity
  8
0
100
AcDbLine
 10
138.3377
 20
422.075915
 30
0.0
 11
138.3378
 21
422.382915
 31
0.0
  0
LINE
  5
2E8
330
1D
100
AcDbEntity
  8
0
100
AcDbLine
 10
138.3378
 20
420.483915
 30
0.0
 11
138.3378
 21
420.680915
 31
0.0
  0
LINE
  5
2E9
330
1D
100
AcDbEntity
  8
0
100
AcDbLine
 10
138.3378
 20
420.483915
 30
0.0
 11
138.3378
 21
419.820915
 31
0.0
  0
LINE
  5
2EA
330
1D
100
AcDbEntity
  8
0
100
AcDbLine
 10
138.3378
 20
419.820915
 30
0.0
 11
138.3378
 21
420.483915
 31
0.0
  0
LINE
  5
2EB
330
1D
100
AcDbEntity
  8
0
100
AcDbLine
 10
138.3378
 20
419.820915
 30
0.0
 11
138.348
 21
419.340915
 31
0.0
  0
LINE
  5
2EC
330
1D
100
AcDbEntity
  8
0
100
AcDbLine
 10
138.3378
 20
417.452915
 30
0.0
 11
138.3378
 21
418.103915
 31
0.0
  0
LINE
  5
2ED
330
1D
100
AcDbEntity
  8
0
100
AcDbLine
 10
138.3378
 20
417.452915
 30
0.0
 11
138.3378
 21
416.807915
 31
0.0
  0
LINE
  5
2EE
330
1D
100
AcDbEntity
  8
0
100
AcDbLine
 10
138.3378
 20
416.807915
 30
0.0
 11
138.3378
 21
417.452915
 31
0.0
  0
LINE
  5
2EF
330
1D
100
AcDbEntity
  8
0
100
AcDbLine
 10
138.3378
 20
416.807915
 30
0.0
 11
138.3378
 21
416.168915
 31
0.0
  0
LINE
  5
2F0
330
1D
100
AcDbEntity
  8
0
100
AcDbLine
 10
138.3378
 20
413.673915
 30
0.0
 11
138.3378
 21
414.289915
 31
0.0
  0
LINE
  5
2F1
330
1D
100
AcDbEntity
  8
0
100
AcDbLine
 10
138.3378
 20
413.673915
 30
0.0
 11
138.3378
 21
413.366915
 31
0.0
  0
LINE
  5
2F2
330
1D
100
AcDbEntity
  8
0
100
AcDbLine
 10
138.3378
 20
413.366915
 30
0.0
 11
138.3378
 21
413.673915
 31
0.0
  0
LINE
  5
2F3
330
1D
100
AcDbEntity
  8
0
100
AcDbLine
 10
138.3378
 20
413.366915
 30
0.0
 11
138.3378
 21
413.059915
 31
0.0
  0
LINE
  5
2F4
330
1D
100
AcDbEntity
  8
0
100
AcDbLine
 10
138.3378
 20
414.289915
 30
0.0
 11
138.3378
 21
414.910915
 31
0.0
  0
LINE
  5
2F5
330
1D
100
AcDbEntity
  8
0
100
AcDbLine
 10
138.3378
 20
414.289915
 30
0.0
 11
138.3378
 21
413.673915
 31
0.0
  0
LINE
  5
2F6
330
1D
100
AcDbEntity
  8
0
100
AcDbLine
 10
138.3378
 20
413.059915
 30
0.0
 11
138.3419
 21
410.305915
 31
0.0
  0
LINE
  5
2F7
330
1D
100
AcDbEntity
  8
0
100
AcDbLine
 10
138.3378
 20
413.059915
 30
0.0
 11
138.3378
 21
413.366915
 31
0.0
  0
LINE
  5
2F8
330
1D
100
AcDbEntity
  8
0
100
AcDbLine
 10
138.3378
 20
420.680915
 30
0.0
 11
138.3378
 21
421.536915
 31
0.0
  0
LINE
  5
2F9
330
1D
100
AcDbEntity
  8
0
100
AcDbLine
 10
138.3378
 20
420.680915
 30
0.0
 11
138.3378
 21
420.483915
 31
0.0
  0
LINE
  5
2FA
330
1D
100
AcDbEntity
  8
0
100
AcDbLine
 10
138.3378
 20
409.172915
 30
0.0
 11
138.3419
 21
410.305915
 31
0.0
  0
LINE
  5
2FB
330
1D
100
AcDbEntity
  8
0
100
AcDbLine
 10
138.3378
 20
409.172915
 30
0.0
 11
138.3378
 21
381.952915
 31
0.0
  0
LINE
  5
2FC
330
1D
100
AcDbEntity
  8
0
100
AcDbLine
 10
179.5302
 20
381.952915
 30
0.0
 11
179.5302
 21
409.172915
 31
0.0
  0
LINE
  5
2FD
330
1D
100
AcDbEntity
  8
0
100
AcDbLine
 10
179.5302
 20
381.952915
 30
0.0
 11
179.5302
 21
350.847915
 31
0.0
  0
LINE
  5
2FE
330
1D
100
AcDbEntity
  8
0
100
AcDbLine
 10
179.5302
 20
414.910915
 30
0.0
 11
179.5302
 21
415.535915
 31
0.0
  0
LINE
  5
2FF
330
1D
100
AcDbEntity
  8
0
100
AcDbLine
 10
179.5302
 20
414.910915
 30
0.0
 11
179.5302
 21
414.289915
 31
0.0
  0
LINE
  5
300
330
1D
100
AcDbEntity
  8
0
100
AcDbLine
 10
179.5302
 20
414.289915
 30
0.0
 11
179.5302
 21
414.910915
 31
0.0
  0
LINE
  5
301
330
1D
100
AcDbEntity
  8
0
100
AcDbLine
 10
179.5302
 20
414.289915
 30
0.0
 11
179.5302
 21
413.673915
 31
0.0
  0
LINE
  5
302
330
1D
100
AcDbEntity
  8
0
100
AcDbLine
 10
179.5302
 20
413.673915
 30
0.0
 11
179.5302
 21
414.289915
 31
0.0
  0
LINE
  5
303
330
1D
100
AcDbEntity
  8
0
100
AcDbLine
 10
179.5302
 20
413.673915
 30
0.0
 11
179.5302
 21
413.366915
 31
0.0
  0
LINE
  5
304
330
1D
100
AcDbEntity
  8
0
100
AcDbLine
 10
179.5302
 20
413.366915
 30
0.0
 11
179.5302
 21
413.673915
 31
0.0
  0
LINE
  5
305
330
1D
100
AcDbEntity
  8
0
100
AcDbLine
 10
179.5302
 20
413.366915
 30
0.0
 11
179.5302
 21
413.059915
 31
0.0
  0
LINE
  5
306
330
1D
100
AcDbEntity
  8
0
100
AcDbLine
 10
179.5302
 20
413.059915
 30
0.0
 11
179.5302
 21
413.366915
 31
0.0
  0
LINE
  5
307
330
1D
100
AcDbEntity
  8
0
100
AcDbLine
 10
179.5302
 20
418.960915
 30
0.0
 11
179.5302
 21
418.103915
 31
0.0
  0
LINE
  5
308
330
1D
100
AcDbEntity
  8
0
100
AcDbLine
 10
179.5302
 20
418.103915
 30
0.0
 11
179.5302
 21
418.960915
 31
0.0
  0
LINE
  5
309
330
1D
100
AcDbEntity
  8
0
100
AcDbLine
 10
179.5302
 20
418.103915
 30
0.0
 11
179.5302
 21
417.452915
 31
0.0
  0
LINE
  5
30A
330
1D
100
AcDbEntity
  8
0
100
AcDbLine
 10
179.5302
 20
417.452915
 30
0.0
 11
179.5302
 21
418.103915
 31
0.0
  0
LINE
  5
30B
330
1D
100
AcDbEntity
  8
0
100
AcDbLine
 10
179.5302
 20
417.452915
 30
0.0
 11
179.5302
 21
416.807915
 31
0.0
  0
LINE
  5
30C
330
1D
100
AcDbEntity
  8
0
100
AcDbLine
 10
179.5302
 20
416.807915
 30
0.0
 11
179.5302
 21
417.452915
 31
0.0
  0
LINE
  5
30D
330
1D
100
AcDbEntity
  8
0
100
AcDbLine
 10
179.5302
 20
416.807915
 30
0.0
 11
179.5302
 21
416.168915
 31
0.0
  0
LINE
  5
30E
330
1D
100
AcDbEntity
  8
0
100
AcDbLine
 10
179.5302
 20
416.168915
 30
0.0
 11
179.5302
 21
416.807915
 31
0.0
  0
LINE
  5
30F
330
1D
100
AcDbEntity
  8
0
100
AcDbLine
 10
179.5302
 20
416.168915
 30
0.0
 11
179.5302
 21
415.535915
 31
0.0
  0
LINE
  5
310
330
1D
100
AcDbEntity
  8
0
100
AcDbLine
 10
179.5302
 20
415.535915
 30
0.0
 11
179.5302
 21
416.168915
 31
0.0
  0
LINE
  5
311
330
1D
100
AcDbEntity
  8
0
100
AcDbLine
 10
179.5302
 20
415.535915
 30
0.0
 11
179.5302
 21
414.910915
 31
0.0
  0
LINE
  5
312
330
1D
100
AcDbEntity
  8
0
100
AcDbLine
 10
179.5262
 20
410.305915
 30
0.0
 11
179.5302
 21
409.172915
 31
0.0
  0
LINE
  5
313
330
1D
100
AcDbEntity
  8
0
100
AcDbLine
 10
179.5262
 20
410.305915
 30
0.0
 11
179.5302
 21
413.059915
 31
0.0
  0
LINE
  5
314
330
1D
100
AcDbEntity
  8
0
100
AcDbLine
 10
179.5302
 20
409.172915
 30
0.0
 11
179.5302
 21
381.952915
 31
0.0
  0
LINE
  5
315
330
1D
100
AcDbEntity
  8
0
100
AcDbLine
 10
179.5302
 20
420.680915
 30
0.0
 11
179.5302
 21
421.536915
 31
0.0
  0
LINE
  5
316
330
1D
100
AcDbEntity
  8
0
100
AcDbLine
 10
179.5302
 20
420.680915
 30
0.0
 11
179.5302
 21
420.483915
 31
0.0
  0
LINE
  5
317
330
1D
100
AcDbEntity
  8
0
100
AcDbLine
 10
179.5302
 20
420.483915
 30
0.0
 11
179.5302
 21
420.680915
 31
0.0
  0
LINE
  5
318
330
1D
100
AcDbEntity
  8
0
100
AcDbLine
 10
179.5302
 20
420.483915
 30
0.0
 11
179.5302
 21
419.820915
 31
0.0
  0
LINE
  5
319
330
1D
100
AcDbEntity
  8
0
100
AcDbLine
 10
179.5302
 20
419.820915
 30
0.0
 11
179.5302
 21
420.483915
 31
0.0
  0
LINE
  5
31A
330
1D
100
AcDbEntity
  8
0
100
AcDbLine
 10
179.52
 20
419.340915
 30
0.0
 11
179.5302
 21
419.820915
 31
0.0
  0
LINE
  5
31B
330
1D
100
AcDbEntity
  8
0
100
AcDbLine
 10
179.52
 20
419.340915
 30
0.0
 11
179.5302
 21
418.960915
 31
0.0
  0
LINE
  5
31C
330
1D
100
AcDbEntity
  8
0
100
AcDbLine
 10
179.5302
 20
421.536915
 30
0.0
 11
179.5304
 21
422.075915
 31
0.0
  0
LINE
  5
31D
330
1D
100
AcDbEntity
  8
0
100
AcDbLine
 10
179.5302
 20
421.536915
 30
0.0
 11
179.5302
 21
420.680915
 31
0.0
  0
LINE
  5
31E
330
1D
100
AcDbEntity
  8
0
100
AcDbLine
 10
179.5302
 20
422.382915
 30
0.0
 11
179.5302
 21
423.214915
 31
0.0
  0
LINE
  5
31F
330
1D
100
AcDbEntity
  8
0
100
AcDbLine
 10
179.5302
 20
422.382915
 30
0.0
 11
179.5304
 21
422.075915
 31
0.0
  0
LINE
  5
320
330
1D
100
AcDbEntity
  8
0
100
AcDbLine
 10
138.3378
 20
414.910915
 30
0.0
 11
138.3378
 21
415.535915
 31
0.0
  0
LINE
  5
321
330
1D
100
AcDbEntity
  8
0
100
AcDbLine
 10
138.3378
 20
414.910915
 30
0.0
 11
138.3378
 21
414.289915
 31
0.0
  0
LINE
  5
390
330
1D
100
AcDbEntity
  8
0
100
AcDbLine
 10
138.3378
 20
424.825915
 30
0.0
 11
138.3378
 21
425.633915
 31
0.0
  0
LINE
  5
391
330
1D
100
AcDbEntity
  8
0
100
AcDbLine
 10
138.3378
 20
424.825915
 30
0.0
 11
138.3378
 21
427.413915
 31
0.0
  0
LINE
  5
392
330
1D
100
AcDbEntity
  8
0
100
AcDbLine
 10
138.3378
 20
424.825915
 30
0.0
 11
138.3378
 21
424.030915
 31
0.0
  0
LINE
  5
393
330
1D
100
AcDbEntity
  8
0
100
AcDbLine
 10
138.3378
 20
424.030915
 30
0.0
 11
138.3378
 21
424.825915
 31
0.0
  0
LINE
  5
394
330
1D
100
AcDbEntity
  8
0
100
AcDbLine
 10
138.3378
 20
424.030915
 30
0.0
 11
138.3378
 21
423.214915
 31
0.0
  0
LINE
  5
395
330
1D
100
AcDbEntity
  8
0
100
AcDbLine
 10
179.5302
 20
423.214915
 30
0.0
 11
179.5302
 21
424.030915
 31
0.0
  0
LINE
  5
396
330
1D
100
AcDbEntity
  8
0
100
AcDbLine
 10
179.5302
 20
423.214915
 30
0.0
 11
179.5302
 21
422.382915
 31
0.0
  0
LINE
  5
397
330
1D
100
AcDbEntity
  8
0
100
AcDbLine
 10
179.5302
 20
424.825915
 30
0.0
 11
179.5302
 21
427.413915
 31
0.0
  0
LINE
  5
398
330
1D
100
AcDbEntity
  8
0
100
AcDbLine
 10
179.5302
 20
424.825915
 30
0.0
 11
179.5302
 21
424.030915
 31
0.0
  0
LINE
  5
399
330
1D
100
AcDbEntity
  8
0
100
AcDbLine
 10
179.5302
 20
424.825915
 30
0.0
 11
179.5302
 21
425.633915
 31
0.0
  0
LINE
  5
39A
330
1D
100
AcDbEntity
  8
0
100
AcDbLine
 10
179.5302
 20
424.030915
 30
0.0
 11
179.5302
 21
424.825915
 31
0.0
  0
LINE
  5
39B
330
1D
100
AcDbEntity
  8
0
100
AcDbLine
 10
179.5302
 20
424.030915
 30
0.0
 11
179.5302
 21
423.214915
 31
0.0
  0
LINE
  5
39C
330
1D
100
AcDbEntity
  8
0
100
AcDbLine
 10
138.3378
 20
423.214915
 30
0.0
 11
138.3378
 21
424.030915
 31
0.0
  0
LINE
  5
39D
330
1D
100
AcDbEntity
  8
0
100
AcDbLine
 10
138.3378
 20
423.214915
 30
0.0
 11
138.3378
 21
422.382915
 31
0.0
  0
LINE
  5
39E
330
1D
100
AcDbEntity
  8
0
100
AcDbLine
 10
637.758
 20
422.472915
 30
0.0
 11
637.902
 21
421.362915
 31
0.0
  0
LINE
  5
39F
330
1D
100
AcDbEntity
  8
0
100
AcDbLine
 10
637.758
 20
422.472915
 30
0.0
 11
637.758
 21
465.784915
 31
0.0
  0
LINE
  5
3B9
330
1D
100
AcDbEntity
  8
0
100
AcDbLine
 10
639.697
 20
417.806915
 30
0.0
 11
641.076305279607
 21
416.646301069344
 31
0.0
  0
LINE
  5
3BA
330
1D
100
AcDbEntity
  8
0
100
AcDbLine
 10
638.608
 20
419.354915
 30
0.0
 11
639.697
 21
417.806915
 31
0.0
  0
LINE
  5
3BB
330
1D
100
AcDbEntity
  8
0
100
AcDbLine
 10
637.902
 20
421.362915
 30
0.0
 11
638.608
 21
419.354915
 31
0.0
  0
LINE
  5
3BC
330
1D
100
AcDbEntity
  8
0
100
AcDbLine
 10
138.3378
 20
427.174915
 30
0.0
 11
138.3378
 21
426.415915
 31
0.0
  0
LINE
  5
3BD
330
1D
100
AcDbEntity
  8
0
100
AcDbLine
 10
138.3378
 20
425.633915
 30
0.0
 11
138.3378
 21
426.415915
 31
0.0
  0
LINE
  5
3BE
330
1D
100
AcDbEntity
  8
0
100
AcDbLine
 10
138.3378
 20
425.633915
 30
0.0
 11
138.3378
 21
424.825915
 31
0.0
  0
LINE
  5
3BF
330
1D
100
AcDbEntity
  8
0
100
AcDbLine
 10
179.5302
 20
427.174915
 30
0.0
 11
179.5302
 21
426.415915
 31
0.0
  0
LINE
  5
3C0
330
1D
100
AcDbEntity
  8
0
100
AcDbLine
 10
179.5302
 20
426.415915
 30
0.0
 11
179.5302
 21
427.174915
 31
0.0
  0
LINE
  5
3C1
330
1D
100
AcDbEntity
  8
0
100
AcDbLine
 10
179.5302
 20
426.415915
 30
0.0
 11
179.5302
 21
425.633915
 31
0.0
  0
LINE
  5
3C2
330
1D
100
AcDbEntity
  8
0
100
AcDbLine
 10
179.5302
 20
425.633915
 30
0.0
 11
179.5302
 21
424.825915
 31
0.0
  0
LINE
  5
3C3
330
1D
100
AcDbEntity
  8
0
100
AcDbLine
 10
179.5302
 20
425.633915
 30
0.0
 11
179.5302
 21
426.415915
 31
0.0
  0
LINE
  5
3C4
330
1D
100
AcDbEntity
  8
0
100
AcDbLine
 10
138.3378
 20
426.415915
 30
0.0
 11
138.3378
 21
427.174915
 31
0.0
  0
LINE
  5
3C5
330
1D
100
AcDbEntity
  8
0
100
AcDbLine
 10
138.3378
 20
426.415915
 30
0.0
 11
138.3378
 21
425.633915
 31
0.0
  0
LINE
  5
3C6
330
1D
100
AcDbEntity
  8
0
100
AcDbLine
 10
641.613
 20
424.956915
 30
0.0
 11
641.613
 21
422.765915
 31
0.0
  0
LINE
  5
3C7
330
1D
100
AcDbEntity
  8
0
100
AcDbLine
 10
641.613
 20
424.956915
 30
0.0
 11
641.888
 21
427.327915
 31
0.0
  0
LINE
  5
3CE
330
1D
100
AcDbEntity
  8
0
100
AcDbLine
 10
641.613
 20
422.765915
 30
0.0
 11
641.613
 21
424.956915
 31
0.0
  0
LINE
  5
3CF
330
1D
100
AcDbEntity
  8
0
100
AcDbLine
 10
8.084
 20
463.784915
 30
0.0
 11
8.285
 21
464.534915
 31
0.0
  0
LINE
  5
3D0
330
1D
100
AcDbEntity
  8
0
100
AcDbLine
 10
8.084
 20
463.784915
 30
0.0
 11
8.084
 21
348.984915
 31
0.0
  0
LINE
  5
3D4
330
1D
100
AcDbEntity
  8
0
100
AcDbLine
 10
8.285
 20
464.534915
 30
0.0
 11
8.834
 21
465.083915
 31
0.0
  0
LINE
  5
3D5
330
1D
100
AcDbEntity
  8
0
100
AcDbLine
 10
8.834
 20
465.083915
 30
0.0
 11
9.584
 21
465.284915
 31
0.0
  0
LINE
  5
3D8
330
1D
100
AcDbEntity
  8
0
100
AcDbLine
 10
138.3377
 20
439.432915
 30
0.0
 11
138.3378
 21
438.889915
 31
0.0
  0
LINE
  5
3D9
330
1D
100
AcDbEntity
  8
0
100
AcDbLine
 10
138.3377
 20
440.056915
 30
0.0
 11
138.3377
 21
440.663915
 31
0.0
  0
LINE
  5
3DA
330
1D
100
AcDbEntity
  8
0
100
AcDbLine
 10
138.3377
 20
440.663915
 30
0.0
 11
138.3377
 21
441.874915
 31
0.0
  0
LINE
  5
3DB
330
1D
100
AcDbEntity
  8
0
100
AcDbLine
 10
138.3377
 20
440.663915
 30
0.0
 11
138.3377
 21
440.056915
 31
0.0
  0
LINE
  5
3DC
330
1D
100
AcDbEntity
  8
0
100
AcDbLine
 10
138.3372
 20
438.510915
 30
0.0
 11
138.3377
 21
438.126915
 31
0.0
  0
LINE
  5
3DD
330
1D
100
AcDbEntity
  8
0
100
AcDbLine
 10
138.3372
 20
438.510915
 30
0.0
 11
138.3377
 21
439.432915
 31
0.0
  0
LINE
  5
3DE
330
1D
100
AcDbEntity
  8
0
100
AcDbLine
 10
138.3377
 20
438.126915
 30
0.0
 11
138.3378
 21
437.168915
 31
0.0
  0
LINE
  5
3DF
330
1D
100
AcDbEntity
  8
0
100
AcDbLine
 10
138.3377
 20
438.126915
 30
0.0
 11
138.3378
 21
438.889915
 31
0.0
  0
LINE
  5
3E0
330
1D
100
AcDbEntity
  8
0
100
AcDbLine
 10
138.3375
 20
436.447915
 30
0.0
 11
138.3378
 21
437.168915
 31
0.0
  0
LINE
  5
3E1
330
1D
100
AcDbEntity
  8
0
100
AcDbLine
 10
138.3375
 20
436.447915
 30
0.0
 11
138.3378
 21
436.163915
 31
0.0
  0
LINE
  5
3E2
330
1D
100
AcDbEntity
  8
0
100
AcDbLine
 10
138.3378
 20
427.413915
 30
0.0
 11
138.3378
 21
433.618915
 31
0.0
  0
LINE
  5
3E3
330
1D
100
AcDbEntity
  8
0
100
AcDbLine
 10
138.3378
 20
427.413915
 30
0.0
 11
138.3378
 21
424.825915
 31
0.0
  0
LINE
  5
3E4
330
1D
100
AcDbEntity
  8
0
100
AcDbLine
 10
138.3378
 20
427.911915
 30
0.0
 11
138.3378
 21
428.649915
 31
0.0
  0
LINE
  5
3E5
330
1D
100
AcDbEntity
  8
0
100
AcDbLine
 10
138.3378
 20
429.584915
 30
0.0
 11
138.3378
 21
430.209915
 31
0.0
  0
LINE
  5
3E6
330
1D
100
AcDbEntity
  8
0
100
AcDbLine
 10
138.3378
 20
429.584915
 30
0.0
 11
138.3378
 21
428.649915
 31
0.0
  0
LINE
  5
3E7
330
1D
100
AcDbEntity
  8
0
100
AcDbLine
 10
138.3378
 20
428.649915
 30
0.0
 11
138.3378
 21
429.584915
 31
0.0
  0
LINE
  5
3E8
330
1D
100
AcDbEntity
  8
0
100
AcDbLine
 10
138.3378
 20
428.649915
 30
0.0
 11
138.3881
 21
428.895915
 31
0.0
  0
LINE
  5
3E9
330
1D
100
AcDbEntity
  8
0
100
AcDbLine
 10
138.3378
 20
428.649915
 30
0.0
 11
138.3378
 21
427.911915
 31
0.0
  0
LINE
  5
3EA
330
1D
100
AcDbEntity
  8
0
100
AcDbLine
 10
179.5302
 20
428.649915
 30
0.0
 11
179.5302
 21
429.584915
 31
0.0
  0
LINE
  5
3EB
330
1D
100
AcDbEntity
  8
0
100
AcDbLine
 10
179.5302
 20
428.649915
 30
0.0
 11
179.5302
 21
427.911915
 31
0.0
  0
LINE
  5
3EC
330
1D
100
AcDbEntity
  8
0
100
AcDbLine
 10
179.5302
 20
427.911915
 30
0.0
 11
179.5302
 21
428.649915
 31
0.0
  0
LINE
  5
3ED
330
1D
100
AcDbEntity
  8
0
100
AcDbLine
 10
179.5302
 20
427.413915
 30
0.0
 11
179.5302
 21
433.618915
 31
0.0
  0
LINE
  5
3EE
330
1D
100
AcDbEntity
  8
0
100
AcDbLine
 10
179.5302
 20
427.413915
 30
0.0
 11
179.5302
 21
424.825915
 31
0.0
  0
LINE
  5
3EF
330
1D
100
AcDbEntity
  8
0
100
AcDbLine
 10
179.46377442841
 20
430.457192859238
 30
0.0
 11
179.5302
 21
430.825915
 31
0.0
  0
LINE
  5
3F0
330
1D
100
AcDbEntity
  8
0
100
AcDbLine
 10
179.4799
 20
428.895915
 30
0.0
 11
179.5269
 21
428.680915
 31
0.0
  0
LINE
  5
3F1
330
1D
100
AcDbEntity
  8
0
100
AcDbLine
 10
179.4799
 20
428.895915
 30
0.0
 11
179.5302
 21
428.649915
 31
0.0
  0
LINE
  5
3F2
330
1D
100
AcDbEntity
  8
0
100
AcDbLine
 10
179.5302
 20
430.209915
 30
0.0
 11
179.5302
 21
430.825915
 31
0.0
  0
LINE
  5
3F3
330
1D
100
AcDbEntity
  8
0
100
AcDbLine
 10
179.5302
 20
430.209915
 30
0.0
 11
179.5302
 21
429.584915
 31
0.0
  0
LINE
  5
3F4
330
1D
100
AcDbEntity
  8
0
100
AcDbLine
 10
179.5302
 20
429.584915
 30
0.0
 11
179.5302
 21
430.209915
 31
0.0
  0
LINE
  5
3F5
330
1D
100
AcDbEntity
  8
0
100
AcDbLine
 10
179.5302
 20
429.584915
 30
0.0
 11
179.5302
 21
428.649915
 31
0.0
  0
LINE
  5
3F6
330
1D
100
AcDbEntity
  8
0
100
AcDbLine
 10
179.5074
 20
430.544915
 30
0.0
 11
179.5258
 21
431.326915
 31
0.0
  0
LINE
  5
3F7
330
1D
100
AcDbEntity
  8
0
100
AcDbLine
 10
179.5074
 20
430.544915
 30
0.0
 11
179.5302
 21
430.825915
 31
0.0
  0
LINE
  5
3F8
330
1D
100
AcDbEntity
  8
0
100
AcDbLine
 10
179.5074
 20
430.544915
 30
0.0
 11
179.5302
 21
431.881915
 31
0.0
  0
LINE
  5
3F9
330
1D
100
AcDbEntity
  8
0
100
AcDbLine
 10
179.465742531901
 20
430.367024485315
 30
0.0
 11
179.5074
 21
430.544915
 31
0.0
  0
LINE
  5
3FA
330
1D
100
AcDbEntity
  8
0
100
AcDbLine
 10
138.3411
 20
428.680915
 30
0.0
 11
138.3881
 21
428.895915
 31
0.0
  0
LINE
  5
3FB
330
1D
100
AcDbEntity
  8
0
100
AcDbLine
 10
138.3378
 20
430.209915
 30
0.0
 11
138.3378
 21
430.825915
 31
0.0
  0
LINE
  5
3FC
330
1D
100
AcDbEntity
  8
0
100
AcDbLine
 10
138.3378
 20
430.209915
 30
0.0
 11
138.3378
 21
429.584915
 31
0.0
  0
LINE
  5
3FD
330
1D
100
AcDbEntity
  8
0
100
AcDbLine
 10
138.3378
 20
433.618915
 30
0.0
 11
138.3378
 21
434.430915
 31
0.0
  0
LINE
  5
3FE
330
1D
100
AcDbEntity
  8
0
100
AcDbLine
 10
138.3378
 20
433.618915
 30
0.0
 11
138.3378
 21
432.759915
 31
0.0
  0
LINE
  5
3FF
330
1D
100
AcDbEntity
  8
0
100
AcDbLine
 10
138.3378
 20
433.618915
 30
0.0
 11
138.3378
 21
438.889915
 31
0.0
  0
LINE
  5
400
330
1D
100
AcDbEntity
  8
0
100
AcDbLine
 10
138.3378
 20
433.618915
 30
0.0
 11
138.3378
 21
427.413915
 31
0.0
  0
LINE
  5
401
330
1D
100
AcDbEntity
  8
0
100
AcDbLine
 10
138.3378
 20
432.759915
 30
0.0
 11
138.3378
 21
433.618915
 31
0.0
  0
LINE
  5
402
330
1D
100
AcDbEntity
  8
0
100
AcDbLine
 10
138.3378
 20
432.759915
 30
0.0
 11
138.3378
 21
431.881915
 31
0.0
  0
LINE
  5
403
330
1D
100
AcDbEntity
  8
0
100
AcDbLine
 10
138.3378
 20
438.889915
 30
0.0
 11
138.3378
 21
443.050915
 31
0.0
  0
LINE
  5
404
330
1D
100
AcDbEntity
  8
0
100
AcDbLine
 10
138.3378
 20
438.889915
 30
0.0
 11
138.3378
 21
433.618915
 31
0.0
  0
LINE
  5
405
330
1D
100
AcDbEntity
  8
0
100
AcDbLine
 10
138.3378
 20
437.168915
 30
0.0
 11
138.3378
 21
436.163915
 31
0.0
  0
LINE
  5
406
330
1D
100
AcDbEntity
  8
0
100
AcDbLine
 10
138.3378
 20
436.163915
 30
0.0
 11
138.3378
 21
437.168915
 31
0.0
  0
LINE
  5
407
330
1D
100
AcDbEntity
  8
0
100
AcDbLine
 10
138.3378
 20
436.163915
 30
0.0
 11
138.3378
 21
435.223915
 31
0.0
  0
LINE
  5
408
330
1D
100
AcDbEntity
  8
0
100
AcDbLine
 10
138.3378
 20
435.223915
 30
0.0
 11
138.3378
 21
436.163915
 31
0.0
  0
LINE
  5
409
330
1D
100
AcDbEntity
  8
0
100
AcDbLine
 10
138.3378
 20
435.223915
 30
0.0
 11
138.3378
 21
434.430915
 31
0.0
  0
LINE
  5
40A
330
1D
100
AcDbEntity
  8
0
100
AcDbLine
 10
138.3378
 20
434.430915
 30
0.0
 11
138.3378
 21
435.223915
 31
0.0
  0
LINE
  5
40B
330
1D
100
AcDbEntity
  8
0
100
AcDbLine
 10
138.3378
 20
434.430915
 30
0.0
 11
138.3378
 21
433.618915
 31
0.0
  0
LINE
  5
40C
330
1D
100
AcDbEntity
  8
0
100
AcDbLine
 10
138.3378
 20
431.881915
 30
0.0
 11
138.3378
 21
432.759915
 31
0.0
  0
LINE
  5
40D
330
1D
100
AcDbEntity
  8
0
100
AcDbLine
 10
138.3378
 20
431.881915
 30
0.0
 11
138.3606
 21
430.544915
 31
0.0
  0
LINE
  5
40E
330
1D
100
AcDbEntity
  8
0
100
AcDbLine
 10
138.3378
 20
431.881915
 30
0.0
 11
138.3422
 21
431.326915
 31
0.0
  0
LINE
  5
40F
330
1D
100
AcDbEntity
  8
0
100
AcDbLine
 10
138.3378
 20
431.881915
 30
0.0
 11
138.3378
 21
430.825915
 31
0.0
  0
LINE
  5
410
330
1D
100
AcDbEntity
  8
0
100
AcDbLine
 10
179.5258
 20
431.326915
 30
0.0
 11
179.5302
 21
431.881915
 31
0.0
  0
LINE
  5
411
330
1D
100
AcDbEntity
  8
0
100
AcDbLine
 10
179.5302
 20
430.825915
 30
0.0
 11
179.5302
 21
431.881915
 31
0.0
  0
LINE
  5
412
330
1D
100
AcDbEntity
  8
0
100
AcDbLine
 10
179.5302
 20
430.825915
 30
0.0
 11
179.5302
 21
430.209915
 31
0.0
  0
LINE
  5
413
330
1D
100
AcDbEntity
  8
0
100
AcDbLine
 10
179.5302
 20
431.881915
 30
0.0
 11
179.5302
 21
432.759915
 31
0.0
  0
LINE
  5
414
330
1D
100
AcDbEntity
  8
0
100
AcDbLine
 10
179.5302
 20
431.881915
 30
0.0
 11
179.5302
 21
430.825915
 31
0.0
  0
LINE
  5
415
330
1D
100
AcDbEntity
  8
0
100
AcDbLine
 10
179.5302
 20
432.759915
 30
0.0
 11
179.5302
 21
433.618915
 31
0.0
  0
LINE
  5
416
330
1D
100
AcDbEntity
  8
0
100
AcDbLine
 10
179.5302
 20
432.759915
 30
0.0
 11
179.5302
 21
431.881915
 31
0.0
  0
LINE
  5
417
330
1D
100
AcDbEntity
  8
0
100
AcDbLine
 10
179.5302
 20
437.168915
 30
0.0
 11
179.5302
 21
438.126915
 31
0.0
  0
LINE
  5
418
330
1D
100
AcDbEntity
  8
0
100
AcDbLine
 10
179.5302
 20
437.168915
 30
0.0
 11
179.5305
 21
436.447915
 31
0.0
  0
LINE
  5
419
330
1D
100
AcDbEntity
  8
0
100
AcDbLine
 10
179.5302
 20
437.168915
 30
0.0
 11
179.5302
 21
436.163915
 31
0.0
  0
LINE
  5
41A
330
1D
100
AcDbEntity
  8
0
100
AcDbLine
 10
179.5302
 20
438.126915
 30
0.0
 11
179.5302
 21
438.889915
 31
0.0
  0
LINE
  5
41B
330
1D
100
AcDbEntity
  8
0
100
AcDbLine
 10
179.5302
 20
438.126915
 30
0.0
 11
179.5302
 21
437.168915
 31
0.0
  0
LINE
  5
41C
330
1D
100
AcDbEntity
  8
0
100
AcDbLine
 10
179.5302
 20
438.126915
 30
0.0
 11
179.5308
 21
438.510915
 31
0.0
  0
LINE
  5
41D
330
1D
100
AcDbEntity
  8
0
100
AcDbLine
 10
179.5302
 20
436.163915
 30
0.0
 11
179.5302
 21
437.168915
 31
0.0
  0
LINE
  5
41E
330
1D
100
AcDbEntity
  8
0
100
AcDbLine
 10
179.5302
 20
436.163915
 30
0.0
 11
179.5305
 21
436.447915
 31
0.0
  0
LINE
  5
41F
330
1D
100
AcDbEntity
  8
0
100
AcDbLine
 10
179.5302
 20
436.163915
 30
0.0
 11
179.5302
 21
435.223915
 31
0.0
  0
LINE
  5
420
330
1D
100
AcDbEntity
  8
0
100
AcDbLine
 10
179.5302
 20
435.223915
 30
0.0
 11
179.5302
 21
436.163915
 31
0.0
  0
LINE
  5
421
330
1D
100
AcDbEntity
  8
0
100
AcDbLine
 10
179.5302
 20
435.223915
 30
0.0
 11
179.5302
 21
434.430915
 31
0.0
  0
LINE
  5
422
330
1D
100
AcDbEntity
  8
0
100
AcDbLine
 10
179.5302
 20
434.430915
 30
0.0
 11
179.5302
 21
435.223915
 31
0.0
  0
LINE
  5
423
330
1D
100
AcDbEntity
  8
0
100
AcDbLine
 10
179.5302
 20
434.430915
 30
0.0
 11
179.5302
 21
433.618915
 31
0.0
  0
LINE
  5
424
330
1D
100
AcDbEntity
  8
0
100
AcDbLine
 10
179.5302
 20
438.889915
 30
0.0
 11
179.5302
 21
443.050915
 31
0.0
  0
LINE
  5
425
330
1D
100
AcDbEntity
  8
0
100
AcDbLine
 10
179.5302
 20
438.889915
 30
0.0
 11
179.5302
 21
433.618915
 31
0.0
  0
LINE
  5
426
330
1D
100
AcDbEntity
  8
0
100
AcDbLine
 10
179.5302
 20
438.889915
 30
0.0
 11
179.5303
 21
439.432915
 31
0.0
  0
LINE
  5
427
330
1D
100
AcDbEntity
  8
0
100
AcDbLine
 10
179.5302
 20
438.889915
 30
0.0
 11
179.5302
 21
438.126915
 31
0.0
  0
LINE
  5
428
330
1D
100
AcDbEntity
  8
0
100
AcDbLine
 10
179.5303
 20
439.432915
 30
0.0
 11
179.5308
 21
438.510915
 31
0.0
  0
LINE
  5
429
330
1D
100
AcDbEntity
  8
0
100
AcDbLine
 10
179.5303
 20
440.056915
 30
0.0
 11
179.5303
 21
440.663915
 31
0.0
  0
LINE
  5
42A
330
1D
100
AcDbEntity
  8
0
100
AcDbLine
 10
179.5303
 20
441.874915
 30
0.0
 11
179.5303
 21
440.663915
 31
0.0
  0
LINE
  5
42B
330
1D
100
AcDbEntity
  8
0
100
AcDbLine
 10
179.5303
 20
441.874915
 30
0.0
 11
179.5303
 21
442.668915
 31
0.0
  0
LINE
  5
42C
330
1D
100
AcDbEntity
  8
0
100
AcDbLine
 10
179.5303
 20
440.663915
 30
0.0
 11
179.5303
 21
440.056915
 31
0.0
  0
LINE
  5
42D
330
1D
100
AcDbEntity
  8
0
100
AcDbLine
 10
179.5303
 20
440.663915
 30
0.0
 11
179.5303
 21
441.874915
 31
0.0
  0
LINE
  5
42E
330
1D
100
AcDbEntity
  8
0
100
AcDbLine
 10
179.5302
 20
433.618915
 30
0.0
 11
179.5302
 21
438.889915
 31
0.0
  0
LINE
  5
42F
330
1D
100
AcDbEntity
  8
0
100
AcDbLine
 10
179.5302
 20
433.618915
 30
0.0
 11
179.5302
 21
434.430915
 31
0.0
  0
LINE
  5
430
330
1D
100
AcDbEntity
  8
0
100
AcDbLine
 10
179.5302
 20
433.618915
 30
0.0
 11
179.5302
 21
427.413915
 31
0.0
  0
LINE
  5
431
330
1D
100
AcDbEntity
  8
0
100
AcDbLine
 10
179.5302
 20
433.618915
 30
0.0
 11
179.5302
 21
432.759915
 31
0.0
  0
LINE
  5
432
330
1D
100
AcDbEntity
  8
0
100
AcDbLine
 10
138.3422
 20
431.326915
 30
0.0
 11
138.3606
 21
430.544915
 31
0.0
  0
LINE
  5
433
330
1D
100
AcDbEntity
  8
0
100
AcDbLine
 10
138.3378
 20
430.825915
 30
0.0
 11
138.404230574311
 21
430.457422058179
 31
0.0
  0
LINE
  5
434
330
1D
100
AcDbEntity
  8
0
100
AcDbLine
 10
138.3378
 20
430.825915
 30
0.0
 11
138.3606
 21
430.544915
 31
0.0
  0
LINE
  5
435
330
1D
100
AcDbEntity
  8
0
100
AcDbLine
 10
138.3378
 20
430.825915
 30
0.0
 11
138.3378
 21
431.881915
 31
0.0
  0
LINE
  5
436
330
1D
100
AcDbEntity
  8
0
100
AcDbLine
 10
138.3378
 20
430.825915
 30
0.0
 11
138.3378
 21
430.209915
 31
0.0
  0
LINE
  5
437
330
1D
100
AcDbEntity
  8
0
100
AcDbLine
 10
138.3606
 20
430.544915
 30
0.0
 11
138.402260410942
 21
430.367159311226
 31
0.0
  0
LINE
  5
438
330
1D
100
AcDbEntity
  8
0
100
AcDbLine
 10
138.3377
 20
441.874915
 30
0.0
 11
138.3377
 21
440.663915
 31
0.0
  0
LINE
  5
439
330
1D
100
AcDbEntity
  8
0
100
AcDbLine
 10
138.3377
 20
441.874915
 30
0.0
 11
138.3377
 21
442.668915
 31
0.0
  0
LINE
  5
43A
330
1D
100
AcDbEntity
  8
0
100
AcDbLine
 10
138.3377
 20
442.668915
 30
0.0
 11
138.3377
 21
441.874915
 31
0.0
  0
LINE
  5
43B
330
1D
100
AcDbEntity
  8
0
100
AcDbLine
 10
138.3377
 20
442.668915
 30
0.0
 11
138.3378
 21
443.050915
 31
0.0
  0
LINE
  5
43C
330
1D
100
AcDbEntity
  8
0
100
AcDbLine
 10
179.5303
 20
442.668915
 30
0.0
 11
179.5303
 21
441.874915
 31
0.0
  0
LINE
  5
43D
330
1D
100
AcDbEntity
  8
0
100
AcDbLine
 10
179.5299
 20
445.325915
 30
0.0
 11
179.5303
 21
444.858915
 31
0.0
  0
LINE
  5
43E
330
1D
100
AcDbEntity
  8
0
100
AcDbLine
 10
179.5302
 20
443.050915
 30
0.0
 11
179.5303
 21
444.858915
 31
0.0
  0
LINE
  5
43F
330
1D
100
AcDbEntity
  8
0
100
AcDbLine
 10
179.5302
 20
443.050915
 30
0.0
 11
179.5302
 21
438.889915
 31
0.0
  0
LINE
  5
440
330
1D
100
AcDbEntity
  8
0
100
AcDbLine
 10
179.5302
 20
443.050915
 30
0.0
 11
179.5303
 21
442.668915
 31
0.0
  0
LINE
  5
441
330
1D
100
AcDbEntity
  8
0
100
AcDbLine
 10
138.3378
 20
443.050915
 30
0.0
 11
138.3378
 21
438.889915
 31
0.0
  0
LINE
  5
442
330
1D
100
AcDbEntity
  8
0
100
AcDbLine
 10
138.3575
 20
446.917915
 30
0.0
 11
138.4412
 21
453.625915
 31
0.0
  0
LINE
  5
443
330
1D
100
AcDbEntity
  8
0
100
AcDbLine
 10
179.5105
 20
446.917915
 30
0.0
 11
179.5299
 21
445.325915
 31
0.0
  0
LINE
  5
444
330
1D
100
AcDbEntity
  8
0
100
AcDbLine
 10
179.4268
 20
453.625915
 30
0.0
 11
179.5105
 21
446.917915
 31
0.0
  0
LINE
  5
445
330
1D
100
AcDbEntity
  8
0
100
AcDbLine
 10
138.4412
 20
453.625915
 30
0.0
 11
138.6219
 21
463.818915
 31
0.0
  0
LINE
  5
446
330
1D
100
AcDbEntity
  8
0
100
AcDbLine
 10
138.3381
 20
445.325915
 30
0.0
 11
138.3575
 21
446.917915
 31
0.0
  0
LINE
  5
447
330
1D
100
AcDbEntity
  8
0
100
AcDbLine
 10
138.3377
 20
444.858915
 30
0.0
 11
138.3381
 21
445.325915
 31
0.0
  0
LINE
  5
448
330
1D
100
AcDbEntity
  8
0
100
AcDbLine
 10
138.3377
 20
444.858915
 30
0.0
 11
138.3378
 21
443.050915
 31
0.0
  0
LINE
  5
449
330
1D
100
AcDbEntity
  8
0
100
AcDbLine
 10
179.5303
 20
441.980524492914
 30
0.0
 11
204.9949
 21
456.558915
 31
0.0
  0
LINE
  5
44A
330
1D
100
AcDbEntity
  8
0
100
AcDbLine
 10
204.9949
 20
456.558915
 30
0.0
 11
206.6759
 21
457.628915
 31
0.0
  0
LINE
  5
44B
330
1D
100
AcDbEntity
  8
0
100
AcDbLine
 10
206.6759
 20
457.628915
 30
0.0
 11
207.3381
 21
458.597915
 31
0.0
  0
LINE
  5
44C
330
1D
100
AcDbEntity
  8
0
100
AcDbLine
 10
207.3381
 20
458.597915
 30
0.0
 11
207.7966
 21
459.616915
 31
0.0
  0
LINE
  5
44D
330
1D
100
AcDbEntity
  8
0
100
AcDbLine
 10
112.8731
 20
456.558915
 30
0.0
 11
138.3377
 21
441.980524492914
 31
0.0
  0
LINE
  5
44E
330
1D
100
AcDbEntity
  8
0
100
AcDbLine
 10
111.1921
 20
457.628915
 30
0.0
 11
112.8731
 21
456.558915
 31
0.0
  0
LINE
  5
44F
330
1D
100
AcDbEntity
  8
0
100
AcDbLine
 10
207.934
 20
460.784915
 30
0.0
 11
207.934
 21
465.784915
 31
0.0
  0
LINE
  5
450
330
1D
100
AcDbEntity
  8
0
100
AcDbLine
 10
207.7966
 20
459.616915
 30
0.0
 11
207.934
 21
460.784915
 31
0.0
  0
LINE
  5
451
330
1D
100
AcDbEntity
  8
0
100
AcDbLine
 10
110.5299
 20
458.597915
 30
0.0
 11
111.1921
 21
457.628915
 31
0.0
  0
LINE
  5
452
330
1D
100
AcDbEntity
  8
0
100
AcDbLine
 10
110.0714
 20
459.616915
 30
0.0
 11
110.5299
 21
458.597915
 31
0.0
  0
LINE
  5
453
330
1D
100
AcDbEntity
  8
0
100
AcDbLine
 10
9.584
 20
465.284915
 30
0.0
 11
109.934
 21
465.284915
 31
0.0
  0
LINE
  5
455
330
1D
100
AcDbEntity
  8
0
100
AcDbLine
 10
138.6124
 20
463.283915
 30
0.0
 11
138.6219
 21
463.818915
 31
0.0
  0
LINE
  5
456
330
1D
100
AcDbEntity
  8
0
100
AcDbLine
 10
179.1405
 20
464.420915
 30
0.0
 11
179.2461
 21
463.818915
 31
0.0
  0
LINE
  5
457
330
1D
100
AcDbEntity
  8
0
100
AcDbLine
 10
179.2461
 20
463.818915
 30
0.0
 11
179.4268
 21
453.625915
 31
0.0
  0
LINE
  5
458
330
1D
100
AcDbEntity
  8
0
100
AcDbLine
 10
179.2461
 20
463.818915
 30
0.0
 11
179.2556
 21
463.283915
 31
0.0
  0
LINE
  5
45A
330
1D
100
AcDbEntity
  8
0
100
AcDbLine
 10
178.953888881473
 20
464.669965094698
 30
0.0
 11
179.1405
 21
464.420915
 31
0.0
  0
LINE
  5
45B
330
1D
100
AcDbEntity
  8
0
100
AcDbLine
 10
178.8509
 20
464.969915
 30
0.0
 11
179.2461
 21
463.818915
 31
0.0
  0
LINE
  5
45C
330
1D
100
AcDbEntity
  8
0
100
AcDbLine
 10
178.8509
 20
464.969915
 30
0.0
 11
179.1405
 21
464.420915
 31
0.0
  0
LINE
  5
45D
330
1D
100
AcDbEntity
  8
0
100
AcDbLine
 10
207.934
 20
465.284915
 30
0.0
 11
308.284
 21
465.284915
 31
0.0
  0
LINE
  5
45E
330
1D
100
AcDbEntity
  8
0
100
AcDbLine
 10
139.34128567258
 20
465.24006972715
 30
0.0
 11
139.4678
 21
465.408915
 31
0.0
  0
LINE
  5
45F
330
1D
100
AcDbEntity
  8
0
100
AcDbLine
 10
139.0171
 20
464.969915
 30
0.0
 11
139.4678
 21
465.408915
 31
0.0
  0
LINE
  5
460
330
1D
100
AcDbEntity
  8
0
100
AcDbLine
 10
138.7275
 20
464.420915
 30
0.0
 11
139.0171
 21
464.969915
 31
0.0
  0
LINE
  5
461
330
1D
100
AcDbEntity
  8
0
100
AcDbLine
 10
138.7275
 20
464.420915
 30
0.0
 11
138.914111118527
 21
464.669965094698
 31
0.0
  0
LINE
  5
462
330
1D
100
AcDbEntity
  8
0
100
AcDbLine
 10
138.6219
 20
463.818915
 30
0.0
 11
139.0171
 21
464.969915
 31
0.0
  0
LINE
  5
463
330
1D
100
AcDbEntity
  8
0
100
AcDbLine
 10
138.6219
 20
463.818915
 30
0.0
 11
138.7275
 21
464.420915
 31
0.0
  0
LINE
  5
464
330
1D
100
AcDbEntity
  8
0
100
AcDbLine
 10
109.934
 20
460.784915
 30
0.0
 11
109.934
 21
465.784915
 31
0.0
  0
LINE
  5
465
330
1D
100
AcDbEntity
  8
0
100
AcDbLine
 10
109.934
 20
460.784915
 30
0.0
 11
110.0714
 21
459.616915
 31
0.0
  0
LINE
  5
46B
330
1D
100
AcDbEntity
  8
0
100
AcDbLine
 10
308.284
 20
465.284915
 30
0.0
 11
309.034
 21
465.083915
 31
0.0
  0
LINE
  5
471
330
1D
100
AcDbEntity
  8
0
100
AcDbLine
 10
309.034
 20
465.083915
 30
0.0
 11
309.583
 21
464.534915
 31
0.0
  0
LINE
  5
472
330
1D
100
AcDbEntity
  8
0
100
AcDbLine
 10
309.583
 20
464.534915
 30
0.0
 11
309.784
 21
463.784915
 31
0.0
  0
LINE
  5
47F
330
1D
100
AcDbEntity
  8
0
100
AcDbLine
 10
178.277358480806
 20
465.447866265995
 30
0.0
 11
178.4002
 21
465.408915
 31
0.0
  0
LINE
  5
480
330
1D
100
AcDbEntity
  8
0
100
AcDbLine
 10
178.4002
 20
465.408915
 30
0.0
 11
178.8509
 21
464.969915
 31
0.0
  0
LINE
  5
481
330
1D
100
AcDbEntity
  8
0
100
AcDbLine
 10
178.4002
 20
465.408915
 30
0.0
 11
178.52671432742
 21
465.24006972715
 31
0.0
  0
LINE
  5
482
330
1D
100
AcDbEntity
  8
0
100
AcDbLine
 10
139.4678
 20
465.408915
 30
0.0
 11
139.590641519194
 21
465.447866265995
 31
0.0
  0
LINE
  5
483
330
1D
100
AcDbEntity
  8
0
100
AcDbLine
 10
139.4678
 20
465.408915
 30
0.0
 11
139.7371
 21
465.569915
 31
0.0
  0
LINE
  5
484
330
1D
100
AcDbEntity
  8
0
100
AcDbLine
 10
178.1309
 20
465.569915
 30
0.0
 11
178.4002
 21
465.408915
 31
0.0
  0
LINE
  5
485
330
1D
100
AcDbEntity
  8
0
100
AcDbLine
 10
139.7371
 20
465.569915
 30
0.0
 11
140.6536
 21
465.784915
 31
0.0
  0
LINE
  5
486
330
1D
100
AcDbEntity
  8
0
100
AcDbLine
 10
158.934
 20
465.784915
 30
0.0
 11
177.2144
 21
465.784915
 31
0.0
  0
LINE
  5
487
330
1D
100
AcDbEntity
  8
0
100
AcDbLine
 10
140.6536
 20
465.784915
 30
0.0
 11
158.934
 21
465.784915
 31
0.0
  0
LINE
  5
488
330
1D
100
AcDbEntity
  8
0
100
AcDbLine
 10
207.934
 20
465.784915
 30
0.0
 11
207.934
 21
460.784915
 31
0.0
  0
LINE
  5
489
330
1D
100
AcDbEntity
  8
0
100
AcDbLine
 10
177.2144
 20
465.784915
 30
0.0
 11
207.934
 21
465.784915
 31
0.0
  0
LINE
  5
48A
330
1D
100
AcDbEntity
  8
0
100
AcDbLine
 10
177.2144
 20
465.784915
 30
0.0
 11
178.1309
 21
465.569915
 31
0.0
  0
LINE
  5
48B
330
1D
100
AcDbEntity
  8
0
100
AcDbLine
 10
109.934
 20
465.784915
 30
0.0
 11
140.6536
 21
465.784915
 31
0.0
  0
LINE
  5
48C
330
1D
100
AcDbEntity
  8
0
100
AcDbLine
 10
109.934
 20
465.784915
 30
0.0
 11
109.934
 21
460.784915
 31
0.0
  0
LINE
  5
4A0
330
1D
100
AcDbEntity
  8
0
100
AcDbLine
 10
637.758
 20
437.259915
 30
0.0
 11
637.758
 21
465.784915
 31
0.0
  0
LINE
  5
4A1
330
1D
100
AcDbEntity
  8
0
100
AcDbLine
 10
637.758
 20
465.784915
 30
0.0
 11
637.758
 21
437.259915
 31
0.0
  0
LINE
  5
4A2
330
1D
100
AcDbEntity
  8
0
100
AcDbLine
 10
637.758
 20
465.784915
 30
0.0
 11
637.758
 21
422.472915
 31
0.0
  0
LINE
  5
4A3
330
1D
100
AcDbEntity
  8
0
100
AcDbLine
 10
637.758
 20
465.784915
 30
0.0
 11
656.258
 21
465.784915
 31
0.0
  0
LINE
  5
5F2
330
1D
100
AcDbEntity
  8
0
100
AcDbLine
 10
674.758
 20
422.472915
 30
0.0
 11
674.758
 21
465.784915
 31
0.0
  0
LINE
  5
5F3
330
1D
100
AcDbEntity
  8
0
100
AcDbLine
 10
674.615
 20
421.362915
 30
0.0
 11
674.758
 21
422.472915
 31
0.0
  0
LINE
  5
5F4
330
1D
100
AcDbEntity
  8
0
100
AcDbLine
 10
673.909
 20
419.354915
 30
0.0
 11
674.615
 21
421.362915
 31
0.0
  0
LINE
  5
5F5
330
1D
100
AcDbEntity
  8
0
100
AcDbLine
 10
672.82
 20
417.806915
 30
0.0
 11
673.909
 21
419.354915
 31
0.0
  0
LINE
  5
5F6
330
1D
100
AcDbEntity
  8
0
100
AcDbLine
 10
672.606256401514
 20
417.627135650525
 30
0.0
 11
672.82
 21
417.806915
 31
0.0
  0
LINE
  5
5F9
330
1D
100
AcDbEntity
  8
0
100
AcDbLine
 10
644.502
 20
432.684915
 30
0.0
 11
645.353
 21
434.024915
 31
0.0
  0
LINE
  5
5FB
330
1D
100
AcDbEntity
  8
0
100
AcDbLine
 10
645.353
 20
434.024915
 30
0.0
 11
646.076
 21
434.894915
 31
0.0
  0
LINE
  5
5FC
330
1D
100
AcDbEntity
  8
0
100
AcDbLine
 10
646.076
 20
434.894915
 30
0.0
 11
647.868
 21
436.855915
 31
0.0
  0
LINE
  5
5FD
330
1D
100
AcDbEntity
  8
0
100
AcDbLine
 10
667.329
 20
435.378915
 30
0.0
 11
667.523088269875
 21
435.157243995064
 31
0.0
  0
LINE
  5
5FF
330
1D
100
AcDbEntity
  8
0
100
AcDbLine
 10
647.868
 20
436.855915
 30
0.0
 11
651.578
 21
438.904915
 31
0.0
  0
LINE
  5
600
330
1D
100
AcDbEntity
  8
0
100
AcDbLine
 10
664.656
 20
437.709915
 30
0.0
 11
665.872
 21
436.767915
 31
0.0
  0
LINE
  5
601
330
1D
100
AcDbEntity
  8
0
100
AcDbLine
 10
665.872
 20
436.767915
 30
0.0
 11
667.329
 21
435.378915
 31
0.0
  0
LINE
  5
608
330
1D
100
AcDbEntity
  8
0
100
AcDbLine
 10
668.483
 20
434.060915
 30
0.0
 11
668.859
 21
433.484915
 31
0.0
  0
LINE
  5
60B
330
1D
100
AcDbEntity
  8
0
100
AcDbLine
 10
668.041788374979
 20
434.564829143655
 30
0.0
 11
668.483
 21
434.060915
 31
0.0
  0
LINE
  5
60C
330
1D
100
AcDbEntity
  8
0
100
AcDbLine
 10
670.419
 20
430.523915
 30
0.0
 11
670.847
 21
428.600915
 31
0.0
  0
LINE
  5
60E
330
1D
100
AcDbEntity
  8
0
100
AcDbLine
 10
651.578
 20
438.904915
 30
0.0
 11
652.432
 21
439.165915
 31
0.0
  0
LINE
  5
611
330
1D
100
AcDbEntity
  8
0
100
AcDbLine
 10
652.432
 20
439.165915
 30
0.0
 11
654.217
 21
439.677915
 31
0.0
  0
LINE
  5
612
330
1D
100
AcDbEntity
  8
0
100
AcDbLine
 10
654.217
 20
439.677915
 30
0.0
 11
656.934
 21
439.930915
 31
0.0
  0
LINE
  5
613
330
1D
100
AcDbEntity
  8
0
100
AcDbLine
 10
662.185
 20
438.838915
 30
0.0
 11
664.656
 21
437.709915
 31
0.0
  0
LINE
  5
615
330
1D
100
AcDbEntity
  8
0
100
AcDbLine
 10
659.651
 20
439.677915
 30
0.0
 11
662.185
 21
438.838915
 31
0.0
  0
LINE
  5
617
330
1D
100
AcDbEntity
  8
0
100
AcDbLine
 10
656.934
 20
439.930915
 30
0.0
 11
659.651
 21
439.677915
 31
0.0
  0
LINE
  5
618
330
1D
100
AcDbEntity
  8
0
100
AcDbLine
 10
674.758
 20
465.784915
 30
0.0
 11
674.758
 21
422.472915
 31
0.0
  0
LINE
  5
619
330
1D
100
AcDbEntity
  8
0
100
AcDbLine
 10
656.258
 20
465.784915
 30
0.0
 11
674.758
 21
465.784915
 31
0.0
  0
LINE
  5
6E8
330
1D
100
AcDbEntity
  8
0
100
AcDbLine
 10
609.8609
 20
283.930808913928
 30
0.0
 11
612.2303
 21
282.301258913928
 31
0.0
  0
LINE
  5
6E9
330
1D
100
AcDbEntity
  8
0
100
AcDbLine
 10
607.7257
 20
285.727308913928
 30
0.0
 11
609.8609
 21
283.930808913928
 31
0.0
  0
LINE
  5
6EA
330
1D
100
AcDbEntity
  8
0
100
AcDbLine
 10
607.1453
 20
286.250708913928
 30
0.0
 11
607.7257
 21
285.727308913928
 31
0.0
  0
LINE
  5
6EB
330
1D
100
AcDbEntity
  8
0
100
AcDbLine
 10
605.243
 20
288.209008913928
 30
0.0
 11
607.1453
 21
286.250708913928
 31
0.0
  0
LINE
  5
6EC
330
1D
100
AcDbEntity
  8
0
100
AcDbLine
 10
623.1456
 20
277.598548913928
 30
0.0
 11
626.076
 21
276.806848913928
 31
0.0
  0
LINE
  5
6ED
330
1D
100
AcDbEntity
  8
0
100
AcDbLine
 10
620.2566
 20
278.531058913928
 30
0.0
 11
623.1456
 21
277.598548913928
 31
0.0
  0
LINE
  5
6EE
330
1D
100
AcDbEntity
  8
0
100
AcDbLine
 10
626.076
 20
276.806848913928
 30
0.0
 11
632.0273
 21
275.563798913928
 31
0.0
  0
LINE
  5
6EF
330
1D
100
AcDbEntity
  8
0
100
AcDbLine
 10
617.485
 20
279.600518913928
 30
0.0
 11
620.2566
 21
278.531058913928
 31
0.0
  0
LINE
  5
6F0
330
1D
100
AcDbEntity
  8
0
100
AcDbLine
 10
614.784
 20
280.858468913928
 30
0.0
 11
617.485
 21
279.600518913928
 31
0.0
  0
LINE
  5
6F1
330
1D
100
AcDbEntity
  8
0
100
AcDbLine
 10
612.2303
 20
282.301258913928
 30
0.0
 11
614.784
 21
280.858468913928
 31
0.0
  0
LINE
  5
6F2
330
1D
100
AcDbEntity
  8
0
100
AcDbLine
 10
602.05
 20
292.737708913928
 30
0.0
 11
603.5916
 21
290.279008913928
 31
0.0
  0
LINE
  5
6F3
330
1D
100
AcDbEntity
  8
0
100
AcDbLine
 10
603.5916
 20
290.279008913928
 30
0.0
 11
605.243
 21
288.209008913928
 31
0.0
  0
LINE
  5
6F4
330
1D
100
AcDbEntity
  8
0
100
AcDbLine
 10
638.0463
 20
274.684811913928
 30
0.0
 11
642.5289
 21
274.223575913928
 31
0.0
  0
LINE
  5
6F5
330
1D
100
AcDbEntity
  8
0
100
AcDbLine
 10
632.0273
 20
275.563798913928
 30
0.0
 11
638.0463
 21
274.684811913928
 31
0.0
  0
LINE
  5
6F6
330
1D
100
AcDbEntity
  8
0
100
AcDbLine
 10
651.6845
 20
273.696545913928
 30
0.0
 11
656.2581
 21
273.618925913928
 31
0.0
  0
LINE
  5
6F7
330
1D
100
AcDbEntity
  8
0
100
AcDbLine
 10
642.6904
 20
274.209374913928
 30
0.0
 11
647.1154
 21
273.891196913928
 31
0.0
  0
LINE
  5
6F8
330
1D
100
AcDbEntity
  8
0
100
AcDbLine
 10
647.1154
 20
273.891196913928
 30
0.0
 11
651.6845
 21
273.696545913928
 31
0.0
  0
LINE
  5
6F9
330
1D
100
AcDbEntity
  8
0
100
AcDbLine
 10
642.5289
 20
274.223575913928
 30
0.0
 11
642.6904
 21
274.209374913928
 31
0.0
  0
LINE
  5
6FA
330
1D
100
AcDbEntity
  8
0
100
AcDbLine
 10
600.1978
 20
296.343208913928
 30
0.0
 11
600.4311
 21
295.769508913928
 31
0.0
  0
LINE
  5
6FB
330
1D
100
AcDbEntity
  8
0
100
AcDbLine
 10
600.4311
 20
295.769508913928
 30
0.0
 11
602.05
 21
292.737708913928
 31
0.0
  0
LINE
  5
6FC
330
1D
100
AcDbEntity
  8
0
100
AcDbLine
 10
598.8343
 20
299.757408913928
 30
0.0
 11
600.1978
 21
296.343208913928
 31
0.0
  0
LINE
  5
6FD
330
1D
100
AcDbEntity
  8
0
100
AcDbLine
 10
597.7783
 20
303.215708913928
 30
0.0
 11
598.8343
 21
299.757408913928
 31
0.0
  0
LINE
  5
6FE
330
1D
100
AcDbEntity
  8
0
100
AcDbLine
 10
596.9691
 20
306.717708913928
 30
0.0
 11
597.7783
 21
303.215708913928
 31
0.0
  0
LINE
  5
6FF
330
1D
100
AcDbEntity
  8
0
100
AcDbLine
 10
595.1259
 20
326.323908913928
 30
0.0
 11
595.2813
 21
331.248408913928
 31
0.0
  0
LINE
  5
700
330
1D
100
AcDbEntity
  8
0
100
AcDbLine
 10
595.1259
 20
326.323908913928
 30
0.0
 11
595.2764
 21
321.407008913928
 31
0.0
  0
LINE
  5
701
330
1D
100
AcDbEntity
  8
0
100
AcDbLine
 10
595.6662
 20
316.101508913928
 30
0.0
 11
596.1035
 21
312.112108913928
 31
0.0
  0
LINE
  5
702
330
1D
100
AcDbEntity
  8
0
100
AcDbLine
 10
595.2764
 20
321.407008913928
 30
0.0
 11
595.6662
 21
316.101508913928
 31
0.0
  0
LINE
  5
703
330
1D
100
AcDbEntity
  8
0
100
AcDbLine
 10
596.1035
 20
312.112108913928
 30
0.0
 11
596.3735
 21
310.237008913928
 31
0.0
  0
LINE
  5
704
330
1D
100
AcDbEntity
  8
0
100
AcDbLine
 10
596.3735
 20
310.237008913928
 30
0.0
 11
596.9691
 21
306.717708913928
 31
0.0
  0
LINE
  5
705
330
1D
100
AcDbEntity
  8
0
100
AcDbLine
 10
595.2813
 20
331.248408913928
 30
0.0
 11
595.7786
 21
336.210208913928
 31
0.0
  0
LINE
  5
706
330
1D
100
AcDbEntity
  8
0
100
AcDbLine
 10
595.7786
 20
336.210208913928
 30
0.0
 11
596.6432
 21
341.246208913928
 31
0.0
  0
LINE
  5
707
330
1D
100
AcDbEntity
  8
0
100
AcDbLine
 10
596.6432
 20
341.246208913928
 30
0.0
 11
597.8994
 21
346.265008913928
 31
0.0
  0
LINE
  5
708
330
1D
100
AcDbEntity
  8
0
100
AcDbLine
 10
597.8994
 20
346.265008913928
 30
0.0
 11
597.9616
 21
346.477208913928
 31
0.0
  0
LINE
  5
709
330
1D
100
AcDbEntity
  8
0
100
AcDbLine
 10
597.9616
 20
346.477208913928
 30
0.0
 11
598.757
 21
348.960108913928
 31
0.0
  0
LINE
  5
70A
330
1D
100
AcDbEntity
  8
0
100
AcDbLine
 10
598.757
 20
348.960108913928
 30
0.0
 11
599.6313
 21
351.218108913928
 31
0.0
  0
LINE
  5
70B
330
1D
100
AcDbEntity
  8
0
100
AcDbLine
 10
599.6313
 20
351.218108913928
 30
0.0
 11
600.8272
 21
353.959508913928
 31
0.0
  0
LINE
  5
70C
330
1D
100
AcDbEntity
  8
0
100
AcDbLine
 10
600.8272
 20
353.959508913928
 30
0.0
 11
602.0242
 21
356.193508913928
 31
0.0
  0
LINE
  5
70D
330
1D
100
AcDbEntity
  8
0
100
AcDbLine
 10
605.2077
 20
360.723008913928
 30
0.0
 11
607.2439
 21
362.881208913928
 31
0.0
  0
LINE
  5
70E
330
1D
100
AcDbEntity
  8
0
100
AcDbLine
 10
609.4058
 20
364.792108913928
 30
0.0
 11
611.6356
 21
366.304008913928
 31
0.0
  0
LINE
  5
70F
330
1D
100
AcDbEntity
  8
0
100
AcDbLine
 10
607.2439
 20
362.881208913928
 30
0.0
 11
609.4058
 21
364.792108913928
 31
0.0
  0
LINE
  5
710
330
1D
100
AcDbEntity
  8
0
100
AcDbLine
 10
603.5042
 20
358.510308913928
 30
0.0
 11
605.2077
 21
360.723008913928
 31
0.0
  0
LINE
  5
711
330
1D
100
AcDbEntity
  8
0
100
AcDbLine
 10
602.0242
 20
356.193508913928
 30
0.0
 11
603.5042
 21
358.510308913928
 31
0.0
  0
LINE
  5
712
330
1D
100
AcDbEntity
  8
0
100
AcDbLine
 10
611.6356
 20
366.304008913928
 30
0.0
 11
613.7388
 21
367.645708913928
 31
0.0
  0
LINE
  5
713
330
1D
100
AcDbEntity
  8
0
100
AcDbLine
 10
613.7388
 20
367.645708913928
 30
0.0
 11
615.8046
 21
368.711608913928
 31
0.0
  0
LINE
  5
714
330
1D
100
AcDbEntity
  8
0
100
AcDbLine
 10
615.8046
 20
368.711608913928
 30
0.0
 11
615.862563078137
 21
368.737712236998
 31
0.0
  0
LINE
  5
715
330
1D
100
AcDbEntity
  8
0
100
AcDbLine
 10
625.021
 20
372.460308913928
 30
0.0
 11
629.8318
 21
373.794508913928
 31
0.0
  0
LINE
  5
716
330
1D
100
AcDbEntity
  8
0
100
AcDbLine
 10
620.3398
 20
370.754008913928
 30
0.0
 11
625.021
 21
372.460308913928
 31
0.0
  0
LINE
  5
717
330
1D
100
AcDbEntity
  8
0
100
AcDbLine
 10
629.8318
 20
373.794508913928
 30
0.0
 11
633.6903
 21
374.681808913928
 31
0.0
  0
LINE
  5
718
330
1D
100
AcDbEntity
  8
0
100
AcDbLine
 10
632.757320170822
 20
375.153529173767
 30
0.0
 11
632.8238
 21
375.204808913928
 31
0.0
  0
LINE
  5
719
330
1D
100
AcDbEntity
  8
0
100
AcDbLine
 10
632.811123653288
 20
375.19503091399
 30
0.0
 11
633.686942463179
 21
375.962705393304
 31
0.0
  0
LINE
  5
71A
330
1D
100
AcDbEntity
  8
0
100
AcDbLine
 10
631.4115
 20
374.279808913928
 30
0.0
 11
632.757320170822
 21
375.153529173767
 31
0.0
  0
LINE
  5
71B
330
1D
100
AcDbEntity
  8
0
100
AcDbLine
 10
631.027613632953
 20
374.069498012417
 30
0.0
 11
631.4115
 21
374.279808913928
 31
0.0
  0
LINE
  5
71C
330
1D
100
AcDbEntity
  8
0
100
AcDbLine
 10
615.862563078137
 20
368.737712236998
 30
0.0
 11
620.3398
 21
370.754008913928
 31
0.0
  0
LINE
  5
71D
330
1D
100
AcDbEntity
  8
0
100
AcDbLine
 10
633.686942463177
 20
375.962705393302
 30
0.0
 11
635.099519316782
 21
377.545124045463
 31
0.0
  0
LINE
  5
71E
330
1D
100
AcDbEntity
  8
0
100
AcDbLine
 10
633.6903
 20
374.681808913928
 30
0.0
 11
640.811
 21
376.116808913928
 31
0.0
  0
LINE
  5
71F
330
1D
100
AcDbEntity
  8
0
100
AcDbLine
 10
635.099519316782
 20
377.545124045463
 30
0.0
 11
635.9475
 21
378.772808913928
 31
0.0
  0
LINE
  5
720
330
1D
100
AcDbEntity
  8
0
100
AcDbLine
 10
637.0439
 20
381.208808913928
 30
0.0
 11
637.7376
 21
383.294808913928
 31
0.0
  0
LINE
  5
721
330
1D
100
AcDbEntity
  8
0
100
AcDbLine
 10
637.7376
 20
383.294808913928
 30
0.0
 11
637.901518390147
 21
384.145459070281
 31
0.0
  0
LINE
  5
722
330
1D
100
AcDbEntity
  8
0
100
AcDbLine
 10
637.901518390147
 20
384.145459070281
 30
0.0
 11
638.6393
 21
388.490808913928
 31
0.0
  0
LINE
  5
723
330
1D
100
AcDbEntity
  8
0
100
AcDbLine
 10
638.6393
 20
388.490808913928
 30
0.0
 11
639.2969
 21
394.599808913928
 31
0.0
  0
LINE
  5
724
330
1D
100
AcDbEntity
  8
0
100
AcDbLine
 10
640.0795
 20
403.020808913928
 30
0.0
 11
642.1499
 21
427.858808913928
 31
0.0
  0
LINE
  5
725
330
1D
100
AcDbEntity
  8
0
100
AcDbLine
 10
639.2969
 20
394.599808913928
 30
0.0
 11
640.0795
 21
403.020808913928
 31
0.0
  0
LINE
  5
726
330
1D
100
AcDbEntity
  8
0
100
AcDbLine
 10
643.957324670376
 20
431.59816258426
 30
0.0
 11
644.6769
 21
432.867808913928
 31
0.0
  0
LINE
  5
727
330
1D
100
AcDbEntity
  8
0
100
AcDbLine
 10
644.6769
 20
432.867808913928
 30
0.0
 11
647.1918
 21
435.139808913928
 31
0.0
  0
LINE
  5
728
330
1D
100
AcDbEntity
  8
0
100
AcDbLine
 10
642.1499
 20
427.858808913928
 30
0.0
 11
643.957324670376
 21
431.59816258426
 31
0.0
  0
LINE
  5
72B
330
1D
100
AcDbEntity
  8
0
100
AcDbLine
 10
647.20850195636
 20
435.154897722568
 30
0.0
 11
648.6344
 21
436.146808913928
 31
0.0
  0
LINE
  5
72D
330
1D
100
AcDbEntity
  8
0
100
AcDbLine
 10
648.6344
 20
436.146808913928
 30
0.0
 11
650.674
 21
437.121808913928
 31
0.0
  0
LINE
  5
72E
330
1D
100
AcDbEntity
  8
0
100
AcDbLine
 10
650.674
 20
437.121808913928
 30
0.0
 11
653.5415
 21
437.879808913928
 31
0.0
  0
LINE
  5
733
330
1D
100
AcDbEntity
  8
0
100
AcDbLine
 10
653.5415
 20
437.879808913928
 30
0.0
 11
656.2581
 21
438.104808913928
 31
0.0
  0
LINE
  5
734
330
1D
100
AcDbEntity
  8
0
100
AcDbLine
 10
640.811
 20
376.116808913928
 30
0.0
 11
645.380910229116
 21
376.8525984016
 31
0.0
  0
LINE
  5
735
330
1D
100
AcDbEntity
  8
0
100
AcDbLine
 10
645.380910229116
 20
376.8525984016
 30
0.0
 11
651.564918271008
 21
377.335038745293
 31
0.0
  0
LINE
  5
736
330
1D
100
AcDbEntity
  8
0
100
AcDbLine
 10
651.564918271008
 20
377.335038745293
 30
0.0
 11
656.258
 21
377.426367413928
 31
0.0
  0
LINE
  5
737
330
1D
100
AcDbEntity
  8
0
100
AcDbLine
 10
635.9475
 20
378.772808913928
 30
0.0
 11
636.1607
 21
379.150808913928
 31
0.0
  0
LINE
  5
738
330
1D
100
AcDbEntity
  8
0
100
AcDbLine
 10
636.1607
 20
379.150808913928
 30
0.0
 11
637.0439
 21
381.208808913928
 31
0.0
  0
LINE
  5
739
330
1D
100
AcDbEntity
  8
0
100
AcDbLine
 10
710.4918
 20
356.193508913928
 30
0.0
 11
709.0118
 21
358.510308913928
 31
0.0
  0
LINE
  5
73A
330
1D
100
AcDbEntity
  8
0
100
AcDbLine
 10
680.4887
 20
275.563798913928
 30
0.0
 11
674.4697
 21
274.684811913928
 31
0.0
  0
LINE
  5
73B
330
1D
100
AcDbEntity
  8
0
100
AcDbLine
 10
716.8498
 20
316.101508913928
 30
0.0
 11
716.4125
 21
312.112108913928
 31
0.0
  0
LINE
  5
73C
330
1D
100
AcDbEntity
  8
0
100
AcDbLine
 10
697.732
 20
280.858468913928
 30
0.0
 11
695.031
 21
279.600518913928
 31
0.0
  0
LINE
  5
73D
330
1D
100
AcDbEntity
  8
0
100
AcDbLine
 10
712.0849
 20
295.769508913928
 30
0.0
 11
710.466
 21
292.737708913928
 31
0.0
  0
LINE
  5
73E
330
1D
100
AcDbEntity
  8
0
100
AcDbLine
 10
707.273
 20
288.209008913928
 30
0.0
 11
705.3707
 21
286.250708913928
 31
0.0
  0
LINE
  5
73F
330
1D
100
AcDbEntity
  8
0
100
AcDbLine
 10
710.466
 20
292.737708913928
 30
0.0
 11
708.9244
 21
290.279008913928
 31
0.0
  0
LINE
  5
740
330
1D
100
AcDbEntity
  8
0
100
AcDbLine
 10
708.9244
 20
290.279008913928
 30
0.0
 11
707.273
 21
288.209008913928
 31
0.0
  0
LINE
  5
741
330
1D
100
AcDbEntity
  8
0
100
AcDbLine
 10
704.7903
 20
285.727308913928
 30
0.0
 11
702.6551
 21
283.930808913928
 31
0.0
  0
LINE
  5
742
330
1D
100
AcDbEntity
  8
0
100
AcDbLine
 10
702.6551
 20
283.930808913928
 30
0.0
 11
700.2857
 21
282.301258913928
 31
0.0
  0
LINE
  5
743
330
1D
100
AcDbEntity
  8
0
100
AcDbLine
 10
700.2857
 20
282.301258913928
 30
0.0
 11
697.732
 21
280.858468913928
 31
0.0
  0
LINE
  5
744
330
1D
100
AcDbEntity
  8
0
100
AcDbLine
 10
705.3707
 20
286.250708913928
 30
0.0
 11
704.7903
 21
285.727308913928
 31
0.0
  0
LINE
  5
745
330
1D
100
AcDbEntity
  8
0
100
AcDbLine
 10
715.5469
 20
306.717708913928
 30
0.0
 11
714.7377
 21
303.215708913928
 31
0.0
  0
LINE
  5
746
330
1D
100
AcDbEntity
  8
0
100
AcDbLine
 10
712.3182
 20
296.343208913928
 30
0.0
 11
712.0849
 21
295.769508913928
 31
0.0
  0
LINE
  5
747
330
1D
100
AcDbEntity
  8
0
100
AcDbLine
 10
713.6817
 20
299.757408913928
 30
0.0
 11
712.3182
 21
296.343208913928
 31
0.0
  0
LINE
  5
748
330
1D
100
AcDbEntity
  8
0
100
AcDbLine
 10
714.7377
 20
303.215708913928
 30
0.0
 11
713.6817
 21
299.757408913928
 31
0.0
  0
LINE
  5
749
330
1D
100
AcDbEntity
  8
0
100
AcDbLine
 10
716.4125
 20
312.112108913928
 30
0.0
 11
716.1425
 21
310.237008913928
 31
0.0
  0
LINE
  5
74A
330
1D
100
AcDbEntity
  8
0
100
AcDbLine
 10
716.1425
 20
310.237008913928
 30
0.0
 11
715.5469
 21
306.717708913928
 31
0.0
  0
LINE
  5
74B
330
1D
100
AcDbEntity
  8
0
100
AcDbLine
 10
689.3704
 20
277.598548913928
 30
0.0
 11
686.44
 21
276.806848913928
 31
0.0
  0
LINE
  5
74C
330
1D
100
AcDbEntity
  8
0
100
AcDbLine
 10
692.2594
 20
278.531058913928
 30
0.0
 11
689.3704
 21
277.598548913928
 31
0.0
  0
LINE
  5
74D
330
1D
100
AcDbEntity
  8
0
100
AcDbLine
 10
686.44
 20
276.806848913928
 30
0.0
 11
680.4887
 21
275.563798913928
 31
0.0
  0
LINE
  5
74E
330
1D
100
AcDbEntity
  8
0
100
AcDbLine
 10
695.031
 20
279.600518913928
 30
0.0
 11
692.2594
 21
278.531058913928
 31
0.0
  0
LINE
  5
74F
330
1D
100
AcDbEntity
  8
0
100
AcDbLine
 10
716.7374
 20
336.210208913928
 30
0.0
 11
715.8728
 21
341.246208913928
 31
0.0
  0
LINE
  5
750
330
1D
100
AcDbEntity
  8
0
100
AcDbLine
 10
717.3901
 20
326.323908913928
 30
0.0
 11
717.2347
 21
331.248408913928
 31
0.0
  0
LINE
  5
751
330
1D
100
AcDbEntity
  8
0
100
AcDbLine
 10
717.3901
 20
326.323908913928
 30
0.0
 11
717.2396
 21
321.407008913928
 31
0.0
  0
LINE
  5
752
330
1D
100
AcDbEntity
  8
0
100
AcDbLine
 10
717.2396
 20
321.407008913928
 30
0.0
 11
716.8498
 21
316.101508913928
 31
0.0
  0
LINE
  5
753
330
1D
100
AcDbEntity
  8
0
100
AcDbLine
 10
717.2347
 20
331.248408913928
 30
0.0
 11
716.7374
 21
336.210208913928
 31
0.0
  0
LINE
  5
754
330
1D
100
AcDbEntity
  8
0
100
AcDbLine
 10
714.5544
 20
346.477208913928
 30
0.0
 11
713.759
 21
348.960108913928
 31
0.0
  0
LINE
  5
755
330
1D
100
AcDbEntity
  8
0
100
AcDbLine
 10
715.8728
 20
341.246208913928
 30
0.0
 11
714.6166
 21
346.265008913928
 31
0.0
  0
LINE
  5
756
330
1D
100
AcDbEntity
  8
0
100
AcDbLine
 10
714.6166
 20
346.265008913928
 30
0.0
 11
714.5544
 21
346.477208913928
 31
0.0
  0
LINE
  5
757
330
1D
100
AcDbEntity
  8
0
100
AcDbLine
 10
713.759
 20
348.960108913928
 30
0.0
 11
712.8847
 21
351.218108913928
 31
0.0
  0
LINE
  5
758
330
1D
100
AcDbEntity
  8
0
100
AcDbLine
 10
712.8847
 20
351.218108913928
 30
0.0
 11
711.6888
 21
353.959508913928
 31
0.0
  0
LINE
  5
759
330
1D
100
AcDbEntity
  8
0
100
AcDbLine
 10
711.6888
 20
353.959508913928
 30
0.0
 11
710.4918
 21
356.193508913928
 31
0.0
  0
LINE
  5
75A
330
1D
100
AcDbEntity
  8
0
100
AcDbLine
 10
674.4697
 20
274.684811913928
 30
0.0
 11
669.9871
 21
274.223575913928
 31
0.0
  0
LINE
  5
75B
330
1D
100
AcDbEntity
  8
0
100
AcDbLine
 10
660.8315
 20
273.696545913928
 30
0.0
 11
656.2579
 21
273.618925913928
 31
0.0
  0
LINE
  5
75C
330
1D
100
AcDbEntity
  8
0
100
AcDbLine
 10
669.8256
 20
274.209374913928
 30
0.0
 11
665.4006
 21
273.891196913928
 31
0.0
  0
LINE
  5
75D
330
1D
100
AcDbEntity
  8
0
100
AcDbLine
 10
665.4006
 20
273.891196913928
 30
0.0
 11
660.8315
 21
273.696545913928
 31
0.0
  0
LINE
  5
75E
330
1D
100
AcDbEntity
  8
0
100
AcDbLine
 10
669.9871
 20
274.223575913928
 30
0.0
 11
669.8256
 21
274.209374913928
 31
0.0
  0
LINE
  5
75F
330
1D
100
AcDbEntity
  8
0
100
AcDbLine
 10
678.8257
 20
374.681808913928
 30
0.0
 11
671.705
 21
376.116808913928
 31
0.0
  0
LINE
  5
760
330
1D
100
AcDbEntity
  8
0
100
AcDbLine
 10
676.3553
 20
379.150808913928
 30
0.0
 11
675.4721
 21
381.208808913928
 31
0.0
  0
LINE
  5
761
330
1D
100
AcDbEntity
  8
0
100
AcDbLine
 10
696.653436921863
 20
368.737712236998
 30
0.0
 11
692.1762
 21
370.754008913928
 31
0.0
  0
LINE
  5
762
330
1D
100
AcDbEntity
  8
0
100
AcDbLine
 10
707.3083
 20
360.723008913928
 30
0.0
 11
705.2721
 21
362.881208913928
 31
0.0
  0
LINE
  5
763
330
1D
100
AcDbEntity
  8
0
100
AcDbLine
 10
709.0118
 20
358.510308913928
 30
0.0
 11
707.3083
 21
360.723008913928
 31
0.0
  0
LINE
  5
764
330
1D
100
AcDbEntity
  8
0
100
AcDbLine
 10
698.7772
 20
367.645708913928
 30
0.0
 11
696.7114
 21
368.711608913928
 31
0.0
  0
LINE
  5
765
330
1D
100
AcDbEntity
  8
0
100
AcDbLine
 10
703.1102
 20
364.792108913928
 30
0.0
 11
700.8804
 21
366.304008913928
 31
0.0
  0
LINE
  5
766
330
1D
100
AcDbEntity
  8
0
100
AcDbLine
 10
705.2721
 20
362.881208913928
 30
0.0
 11
703.1102
 21
364.792108913928
 31
0.0
  0
LINE
  5
767
330
1D
100
AcDbEntity
  8
0
100
AcDbLine
 10
700.8804
 20
366.304008913928
 30
0.0
 11
698.7772
 21
367.645708913928
 31
0.0
  0
LINE
  5
768
330
1D
100
AcDbEntity
  8
0
100
AcDbLine
 10
696.7114
 20
368.711608913928
 30
0.0
 11
696.653436921863
 21
368.737712236998
 31
0.0
  0
LINE
  5
769
330
1D
100
AcDbEntity
  8
0
100
AcDbLine
 10
677.416480683218
 20
377.545124045463
 30
0.0
 11
676.5685
 21
378.772808913928
 31
0.0
  0
LINE
  5
76A
330
1D
100
AcDbEntity
  8
0
100
AcDbLine
 10
687.495
 20
372.460308913928
 30
0.0
 11
682.6842
 21
373.794508913928
 31
0.0
  0
LINE
  5
76B
330
1D
100
AcDbEntity
  8
0
100
AcDbLine
 10
692.1762
 20
370.754008913928
 30
0.0
 11
687.495
 21
372.460308913928
 31
0.0
  0
LINE
  5
76C
330
1D
100
AcDbEntity
  8
0
100
AcDbLine
 10
682.6842
 20
373.794508913928
 30
0.0
 11
678.8257
 21
374.681808913928
 31
0.0
  0
LINE
  5
76D
330
1D
100
AcDbEntity
  8
0
100
AcDbLine
 10
679.758679829178
 20
375.153529173767
 30
0.0
 11
679.6922
 21
375.204808913928
 31
0.0
  0
LINE
  5
76E
330
1D
100
AcDbEntity
  8
0
100
AcDbLine
 10
681.488386367047
 20
374.069498012417
 30
0.0
 11
681.1045
 21
374.279808913928
 31
0.0
  0
LINE
  5
76F
330
1D
100
AcDbEntity
  8
0
100
AcDbLine
 10
681.1045
 20
374.279808913928
 30
0.0
 11
679.758679829178
 21
375.153529173767
 31
0.0
  0
LINE
  5
770
330
1D
100
AcDbEntity
  8
0
100
AcDbLine
 10
679.704876346712
 20
375.19503091399
 30
0.0
 11
678.829057536821
 21
375.962705393304
 31
0.0
  0
LINE
  5
771
330
1D
100
AcDbEntity
  8
0
100
AcDbLine
 10
678.829057536823
 20
375.962705393302
 30
0.0
 11
677.416480683218
 21
377.545124045463
 31
0.0
  0
LINE
  5
772
330
1D
100
AcDbEntity
  8
0
100
AcDbLine
 10
676.5685
 20
378.772808913928
 30
0.0
 11
676.3553
 21
379.150808913928
 31
0.0
  0
LINE
  5
773
330
1D
100
AcDbEntity
  8
0
100
AcDbLine
 10
673.2191
 20
394.599808913928
 30
0.0
 11
672.4365
 21
403.020808913928
 31
0.0
  0
LINE
  5
774
330
1D
100
AcDbEntity
  8
0
100
AcDbLine
 10
671.705
 20
376.116808913928
 30
0.0
 11
667.135089770884
 21
376.8525984016
 31
0.0
  0
LINE
  5
775
330
1D
100
AcDbEntity
  8
0
100
AcDbLine
 10
667.135089770884
 20
376.8525984016
 30
0.0
 11
660.951081728992
 21
377.335038745293
 31
0.0
  0
LINE
  5
776
330
1D
100
AcDbEntity
  8
0
100
AcDbLine
 10
660.951081728992
 20
377.335038745293
 30
0.0
 11
656.258
 21
377.426367413928
 31
0.0
  0
LINE
  5
777
330
1D
100
AcDbEntity
  8
0
100
AcDbLine
 10
675.4721
 20
381.208808913928
 30
0.0
 11
674.7784
 21
383.294808913928
 31
0.0
  0
LINE
  5
778
330
1D
100
AcDbEntity
  8
0
100
AcDbLine
 10
674.614481609853
 20
384.145459070281
 30
0.0
 11
673.8767
 21
388.490808913928
 31
0.0
  0
LINE
  5
779
330
1D
100
AcDbEntity
  8
0
100
AcDbLine
 10
673.8767
 20
388.490808913928
 30
0.0
 11
673.2191
 21
394.599808913928
 31
0.0
  0
LINE
  5
77A
330
1D
100
AcDbEntity
  8
0
100
AcDbLine
 10
674.7784
 20
383.294808913928
 30
0.0
 11
674.614481609853
 21
384.145459070281
 31
0.0
  0
LINE
  5
77B
330
1D
100
AcDbEntity
  8
0
100
AcDbLine
 10
672.4365
 20
403.020808913928
 30
0.0
 11
670.3661
 21
427.858808913928
 31
0.0
  0
LINE
  5
77D
330
1D
100
AcDbEntity
  8
0
100
AcDbLine
 10
665.30749804364
 20
435.154897722568
 30
0.0
 11
663.8816
 21
436.146808913928
 31
0.0
  0
LINE
  5
77E
330
1D
100
AcDbEntity
  8
0
100
AcDbLine
 10
668.558675329624
 20
431.59816258426
 30
0.0
 11
667.8391
 21
432.867808913928
 31
0.0
  0
LINE
  5
77F
330
1D
100
AcDbEntity
  8
0
100
AcDbLine
 10
667.8391
 20
432.867808913928
 30
0.0
 11
665.3242
 21
435.139808913928
 31
0.0
  0
LINE
  5
782
330
1D
100
AcDbEntity
  8
0
100
AcDbLine
 10
670.3661
 20
427.858808913928
 30
0.0
 11
668.558675329624
 21
431.59816258426
 31
0.0
  0
LINE
  5
783
330
1D
100
AcDbEntity
  8
0
100
AcDbLine
 10
663.8816
 20
436.146808913928
 30
0.0
 11
661.842
 21
437.121808913928
 31
0.0
  0
LINE
  5
784
330
1D
100
AcDbEntity
  8
0
100
AcDbLine
 10
661.842
 20
437.121808913928
 30
0.0
 11
658.9745
 21
437.879808913928
 31
0.0
  0
LINE
  5
789
330
1D
100
AcDbEntity
  8
0
100
AcDbLine
 10
658.9745
 20
437.879808913928
 30
0.0
 11
656.2579
 21
438.104808913928
 31
0.0
  0
LINE
  5
78A
330
1D
100
AcDbEntity
  8
0
100
AcDbLine
 10
641.888
 20
427.327915
 30
0.0
 11
643.149119160508
 21
430.875107351843
 31
0.0
  0
LINE
  5
78B
330
1D
100
AcDbEntity
  8
0
100
AcDbLine
 10
643.149119160508
 20
430.875107351843
 30
0.0
 11
644.502
 21
432.684915
 31
0.0
  0
LINE
  5
78C
330
1D
100
AcDbEntity
  8
0
100
AcDbLine
 10
667.329
 20
435.378915
 30
0.0
 11
668.041788374979
 21
434.564829143655
 31
0.0
  0
LINE
  5
78D
330
1D
100
AcDbEntity
  8
0
100
AcDbLine
 10
668.859
 20
433.484915
 30
0.0
 11
669.905691697808
 21
431.677511294799
 31
0.0
  0
LINE
  5
78E
330
1D
100
AcDbEntity
  8
0
100
AcDbLine
 10
669.905691697808
 20
431.677511294799
 30
0.0
 11
670.419
 21
430.523915
 31
0.0
  0
LINE
  5
78F
330
1D
100
AcDbEntity
  8
0
100
AcDbLine
 10
670.847
 20
428.600915
 30
0.0
 11
670.724826836935
 21
425.479637941479
 31
0.0
  0
LINE
  5
790
330
1D
100
AcDbEntity
  8
0
100
AcDbLine
 10
672.606256401514
 20
417.627135650525
 30
0.0
 11
671.32450659429
 21
416.960625980263
 31
0.0
  0
LINE
  5
791
330
1D
100
AcDbEntity
  8
0
100
AcDbLine
 10
258.6261
 20
328.228915
 30
0.0
 11
258.695233729917
 21
326.025963857726
 31
0.0
  0
LINE
  5
792
330
1D
100
AcDbEntity
  8
0
100
AcDbLine
 10
270.829940100558
 20
309.447964916051
 30
0.0
 11
270.85
 21
305.763915
 31
0.0
  0
LINE
  5
8A3
330
1D
100
AcDbEntity
  8
0
100
AcDbLine
 10
240.5651
 20
187.795124
 30
0.0
 11
233.923602830546
 21
188.289096540484
 31
0.0
  0
LINE
  5
8A4
330
1D
100
AcDbEntity
  8
0
100
AcDbLine
 10
245.3659
 20
3.539104
 30
0.0
 11
224.4043
 21
1.858684
 31
0.0
  0
LINE
  5
8A5
330
1D
100
AcDbEntity
  8
0
100
AcDbLine
 10
138.337
 20
242.231124
 30
0.0
 11
138.338
 21
224.907124
 31
0.0
  0
LINE
  5
8A6
330
1D
100
AcDbEntity
  8
0
100
AcDbLine
 10
179.53
 20
224.907124
 30
0.0
 11
179.531
 21
242.231124
 31
0.0
  0
LINE
  5
8A7
330
1D
100
AcDbEntity
  8
0
100
AcDbLine
 10
97.0826
 20
1.703504
 30
0.0
 11
133.758
 21
0.465485
 31
0.0
  0
LINE
  5
8A8
330
1D
100
AcDbEntity
  8
0
100
AcDbLine
 10
97.0826
 20
1.703504
 30
0.0
 11
133.758
 21
0.465485
 31
0.0
  0
LINE
  5
8A9
330
1D
100
AcDbEntity
  8
0
100
AcDbLine
 10
117.931
 20
189.940124
 30
0.0
 11
118.083339418208
 21
189.94332779897
 31
0.0
  0
LINE
  5
8AA
330
1D
100
AcDbEntity
  8
0
100
AcDbLine
 10
117.931
 20
189.940124
 30
0.0
 11
118.067966130419
 21
189.942764152343
 31
0.0
  0
LINE
  5
8AB
330
1D
100
AcDbEntity
  8
0
100
AcDbLine
 10
117.931
 20
189.940124
 30
0.0
 11
118.083339418208
 21
189.94332779897
 31
0.0
  0
LINE
  5
8AC
330
1D
100
AcDbEntity
  8
0
100
AcDbLine
 10
100.922
 20
189.314124
 30
0.0
 11
118.596
 21
189.962124
 31
0.0
  0
LINE
  5
8AD
330
1D
100
AcDbEntity
  8
0
100
AcDbLine
 10
0.416303
 20
115.038124
 30
0.0
 11
0.718405
 21
119.532124
 31
0.0
  0
LINE
  5
8AE
330
1D
100
AcDbEntity
  8
0
100
AcDbLine
 10
54.4618
 20
5.917554
 30
0.0
 11
59.712
 21
5.036424
 31
0.0
  0
LINE
  5
8AF
330
1D
100
AcDbEntity
  8
0
100
AcDbLine
 10
1.560321308293
 20
63.222739374409
 30
0.0
 11
2.02751
 21
59.092524
 31
0.0
  0
LINE
  5
8B0
330
1D
100
AcDbEntity
  8
0
100
AcDbLine
 10
1.560321308293
 20
63.222739374409
 30
0.0
 11
2.02751
 21
59.092524
 31
0.0
  0
LINE
  5
8B1
330
1D
100
AcDbEntity
  8
0
100
AcDbLine
 10
2.02751
 20
59.092524
 30
0.0
 11
2.4282
 21
56.568324
 31
0.0
  0
LINE
  5
8B2
330
1D
100
AcDbEntity
  8
0
100
AcDbLine
 10
2.4282
 20
56.568324
 30
0.0
 11
2.89354
 21
53.606124
 31
0.0
  0
LINE
  5
8B3
330
1D
100
AcDbEntity
  8
0
100
AcDbLine
 10
2.89354
 20
53.606124
 30
0.0
 11
3.88571
 21
48.813324
 31
0.0
  0
LINE
  5
8B4
330
1D
100
AcDbEntity
  8
0
100
AcDbLine
 10
3.88571
 20
48.813324
 30
0.0
 11
4.38921
 21
46.253124
 31
0.0
  0
LINE
  5
8B5
330
1D
100
AcDbEntity
  8
0
100
AcDbLine
 10
16.1553
 20
22.607924
 30
0.0
 11
19.7487
 21
19.402724
 31
0.0
  0
LINE
  5
8B6
330
1D
100
AcDbEntity
  8
0
100
AcDbLine
 10
12.599
 20
27.218024
 30
0.0
 11
16.1553
 21
22.607924
 31
0.0
  0
LINE
  5
8B7
330
1D
100
AcDbEntity
  8
0
100
AcDbLine
 10
19.7487
 20
19.402724
 30
0.0
 11
22.6235
 21
17.076124
 31
0.0
  0
LINE
  5
8B8
330
1D
100
AcDbEntity
  8
0
100
AcDbLine
 10
6.82511
 20
38.539724
 30
0.0
 11
7.65721
 21
36.527624
 31
0.0
  0
LINE
  5
8B9
330
1D
100
AcDbEntity
  8
0
100
AcDbLine
 10
9.21966
 20
33.069424
 30
0.0
 11
11.9502
 21
28.189824
 31
0.0
  0
LINE
  5
8BA
330
1D
100
AcDbEntity
  8
0
100
AcDbLine
 10
11.9502
 20
28.189824
 30
0.0
 11
12.599
 21
27.218024
 31
0.0
  0
LINE
  5
8BB
330
1D
100
AcDbEntity
  8
0
100
AcDbLine
 10
7.65721
 20
36.527624
 30
0.0
 11
9.21966
 21
33.069424
 31
0.0
  0
LINE
  5
8BC
330
1D
100
AcDbEntity
  8
0
100
AcDbLine
 10
22.6235
 20
17.076124
 30
0.0
 11
27.5832
 21
13.976924
 31
0.0
  0
LINE
  5
8BD
330
1D
100
AcDbEntity
  8
0
100
AcDbLine
 10
27.5832
 20
13.976924
 30
0.0
 11
28.5054
 21
13.606424
 31
0.0
  0
LINE
  5
8BE
330
1D
100
AcDbEntity
  8
0
100
AcDbLine
 10
28.5054
 20
13.606424
 30
0.0
 11
34.7828
 21
10.849224
 31
0.0
  0
LINE
  5
8BF
330
1D
100
AcDbEntity
  8
0
100
AcDbLine
 10
50.1667
 20
6.654864
 30
0.0
 11
54.4618
 21
5.917554
 31
0.0
  0
LINE
  5
8C0
330
1D
100
AcDbEntity
  8
0
100
AcDbLine
 10
34.7828
 20
10.849224
 30
0.0
 11
39.3652
 21
9.272794
 31
0.0
  0
LINE
  5
8C1
330
1D
100
AcDbEntity
  8
0
100
AcDbLine
 10
39.3652
 20
9.272794
 30
0.0
 11
41.3506
 21
8.719434
 31
0.0
  0
LINE
  5
8C2
330
1D
100
AcDbEntity
  8
0
100
AcDbLine
 10
41.3506
 20
8.719434
 30
0.0
 11
50.1667
 21
6.654864
 31
0.0
  0
LINE
  5
8C3
330
1D
100
AcDbEntity
  8
0
100
AcDbLine
 10
6.82511
 20
38.539724
 30
0.0
 11
4.38921
 21
46.253124
 31
0.0
  0
LINE
  5
8C4
330
1D
100
AcDbEntity
  8
0
100
AcDbLine
 10
0.416303
 20
76.654824
 30
0.0
 11
0.718405
 21
72.210924
 31
0.0
  0
LINE
  5
8C5
330
1D
100
AcDbEntity
  8
0
100
AcDbLine
 10
0.797894780378
 20
71.310126083679
 30
0.0
 11
1.05867
 21
67.657624
 31
0.0
  0
LINE
  5
8C6
330
1D
100
AcDbEntity
  8
0
100
AcDbLine
 10
0.797894780378
 20
71.310126083679
 30
0.0
 11
1.05867
 21
67.657624
 31
0.0
  0
LINE
  5
8C7
330
1D
100
AcDbEntity
  8
0
100
AcDbLine
 10
1.05867
 20
67.657624
 30
0.0
 11
1.40953
 21
64.378924
 31
0.0
  0
LINE
  5
8C8
330
1D
100
AcDbEntity
  8
0
100
AcDbLine
 10
0.050601
 20
105.635124
 30
0.0
 11
0.131947849152
 21
107.72672979537
 31
0.0
  0
LINE
  5
8C9
330
1D
100
AcDbEntity
  8
0
100
AcDbLine
 10
0.050601
 20
86.057624
 30
0.0
 11
0.416303
 21
76.654824
 31
0.0
  0
LINE
  5
8CA
330
1D
100
AcDbEntity
  8
0
100
AcDbLine
 10
0.050601
 20
105.635124
 30
0.0
 11
0.131947849152
 21
107.72672979537
 31
0.0
  0
LINE
  5
8CB
330
1D
100
AcDbEntity
  8
0
100
AcDbLine
 10
0.133894147712
 20
107.77677339741
 30
0.0
 11
0.416303
 21
115.038124
 31
0.0
  0
LINE
  5
8CC
330
1D
100
AcDbEntity
  8
0
100
AcDbLine
 10
0.133894147712
 20
107.77677339741
 30
0.0
 11
0.416303
 21
115.038124
 31
0.0
  0
LINE
  5
8CD
330
1D
100
AcDbEntity
  8
0
100
AcDbLine
 10
0.050601
 20
86.057624
 30
0.0
 11
0.416303
 21
76.654824
 31
0.0
  0
LINE
  5
8CE
330
1D
100
AcDbEntity
  8
0
100
AcDbLine
 10
-0.066
 20
95.846124
 30
0.0
 11
0.050601
 21
105.635124
 31
0.0
  0
LINE
  5
8CF
330
1D
100
AcDbEntity
  8
0
100
AcDbLine
 10
-0.066
 20
95.846124
 30
0.0
 11
0.050601
 21
86.057624
 31
0.0
  0
LINE
  5
8D0
330
1D
100
AcDbEntity
  8
0
100
AcDbLine
 10
1.560321308293
 20
63.222739374409
 30
0.0
 11
1.40953
 21
64.378924
 31
0.0
  0
LINE
  5
8D1
330
1D
100
AcDbEntity
  8
0
100
AcDbLine
 10
0.797894780378
 20
71.310126083679
 30
0.0
 11
0.718405
 21
72.210924
 31
0.0
  0
LINE
  5
8D2
330
1D
100
AcDbEntity
  8
0
100
AcDbLine
 10
72.5021
 20
3.539104
 30
0.0
 11
93.4637
 21
1.858684
 31
0.0
  0
LINE
  5
8D3
330
1D
100
AcDbEntity
  8
0
100
AcDbLine
 10
59.712
 20
5.036424
 30
0.0
 11
72.5021
 21
3.539104
 31
0.0
  0
LINE
  5
8D4
330
1D
100
AcDbEntity
  8
0
100
AcDbLine
 10
93.4637
 20
1.858684
 30
0.0
 11
97.0826
 21
1.703504
 31
0.0
  0
LINE
  5
8D5
330
1D
100
AcDbEntity
  8
0
100
AcDbLine
 10
57.0663
 20
185.417124
 30
0.0
 11
61.78225566833
 21
186.07056408202
 31
0.0
  0
LINE
  5
8D6
330
1D
100
AcDbEntity
  8
0
100
AcDbLine
 10
25.247
 20
175.705124
 30
0.0
 11
28.7757
 21
177.570124
 31
0.0
  0
LINE
  5
8D7
330
1D
100
AcDbEntity
  8
0
100
AcDbLine
 10
0.718405
 20
119.532124
 30
0.0
 11
1.27809
 21
126.286124
 31
0.0
  0
LINE
  5
8D8
330
1D
100
AcDbEntity
  8
0
100
AcDbLine
 10
2.4282
 20
135.175124
 30
0.0
 11
2.89354
 21
138.086124
 31
0.0
  0
LINE
  5
8D9
330
1D
100
AcDbEntity
  8
0
100
AcDbLine
 10
2.02751
 20
132.600124
 30
0.0
 11
2.4282
 21
135.175124
 31
0.0
  0
LINE
  5
8DA
330
1D
100
AcDbEntity
  8
0
100
AcDbLine
 10
1.27809
 20
126.286124
 30
0.0
 11
2.02751
 21
132.600124
 31
0.0
  0
LINE
  5
8DB
330
1D
100
AcDbEntity
  8
0
100
AcDbLine
 10
2.89354
 20
138.086124
 30
0.0
 11
3.88571
 21
142.930124
 31
0.0
  0
LINE
  5
8DC
330
1D
100
AcDbEntity
  8
0
100
AcDbLine
 10
7.55545
 20
154.932124
 30
0.0
 11
7.75791
 21
155.449124
 31
0.0
  0
LINE
  5
8DD
330
1D
100
AcDbEntity
  8
0
100
AcDbLine
 10
5.64744
 20
149.634124
 30
0.0
 11
7.55545
 21
154.932124
 31
0.0
  0
LINE
  5
8DE
330
1D
100
AcDbEntity
  8
0
100
AcDbLine
 10
7.75791
 20
155.449124
 30
0.0
 11
9.9966
 21
160.129124
 31
0.0
  0
LINE
  5
8DF
330
1D
100
AcDbEntity
  8
0
100
AcDbLine
 10
5.47254
 20
149.014124
 30
0.0
 11
5.64744
 21
149.634124
 31
0.0
  0
LINE
  5
8E0
330
1D
100
AcDbEntity
  8
0
100
AcDbLine
 10
3.88571
 20
142.930124
 30
0.0
 11
5.47254
 21
149.014124
 31
0.0
  0
LINE
  5
8E1
330
1D
100
AcDbEntity
  8
0
100
AcDbLine
 10
11.7828
 20
163.023124
 30
0.0
 11
13.5986
 21
165.627124
 31
0.0
  0
LINE
  5
8E2
330
1D
100
AcDbEntity
  8
0
100
AcDbLine
 10
13.5986
 20
165.627124
 30
0.0
 11
14.7116
 21
167.004124
 31
0.0
  0
LINE
  5
8E3
330
1D
100
AcDbEntity
  8
0
100
AcDbLine
 10
14.7116
 20
167.004124
 30
0.0
 11
18.1099
 21
170.519124
 31
0.0
  0
LINE
  5
8E4
330
1D
100
AcDbEntity
  8
0
100
AcDbLine
 10
18.1099
 20
170.519124
 30
0.0
 11
22.386
 21
173.804124
 31
0.0
  0
LINE
  5
8E5
330
1D
100
AcDbEntity
  8
0
100
AcDbLine
 10
22.386
 20
173.804124
 30
0.0
 11
25.247
 21
175.705124
 31
0.0
  0
LINE
  5
8E6
330
1D
100
AcDbEntity
  8
0
100
AcDbLine
 10
9.9966
 20
160.129124
 30
0.0
 11
11.7828
 21
163.023124
 31
0.0
  0
LINE
  5
8E7
330
1D
100
AcDbEntity
  8
0
100
AcDbLine
 10
40.8079
 20
182.000124
 30
0.0
 11
45.227
 21
183.129124
 31
0.0
  0
LINE
  5
8E8
330
1D
100
AcDbEntity
  8
0
100
AcDbLine
 10
36.8106
 20
180.784124
 30
0.0
 11
40.8079
 21
182.000124
 31
0.0
  0
LINE
  5
8E9
330
1D
100
AcDbEntity
  8
0
100
AcDbLine
 10
32.7115
 20
179.293124
 30
0.0
 11
36.8106
 21
180.784124
 31
0.0
  0
LINE
  5
8EA
330
1D
100
AcDbEntity
  8
0
100
AcDbLine
 10
45.227
 20
183.129124
 30
0.0
 11
48.8978
 21
183.947124
 31
0.0
  0
LINE
  5
8EB
330
1D
100
AcDbEntity
  8
0
100
AcDbLine
 10
48.8978
 20
183.947124
 30
0.0
 11
54.6261
 21
185.012124
 31
0.0
  0
LINE
  5
8EC
330
1D
100
AcDbEntity
  8
0
100
AcDbLine
 10
28.7757
 20
177.570124
 30
0.0
 11
32.7115
 21
179.293124
 31
0.0
  0
LINE
  5
8ED
330
1D
100
AcDbEntity
  8
0
100
AcDbLine
 10
54.6261
 20
185.012124
 30
0.0
 11
57.0663
 21
185.417124
 31
0.0
  0
LINE
  5
8EE
330
1D
100
AcDbEntity
  8
0
100
AcDbLine
 10
63.598
 20
186.339124
 30
0.0
 11
65.2866
 21
186.556124
 31
0.0
  0
LINE
  5
8EF
330
1D
100
AcDbEntity
  8
0
100
AcDbLine
 10
61.78225566833
 20
186.07056408202
 30
0.0
 11
63.598
 21
186.339124
 31
0.0
  0
LINE
  5
8F0
330
1D
100
AcDbEntity
  8
0
100
AcDbLine
 10
73.0024
 20
187.392124
 30
0.0
 11
77.3029
 21
187.795124
 31
0.0
  0
LINE
  5
8F1
330
1D
100
AcDbEntity
  8
0
100
AcDbLine
 10
68.43928261283
 20
186.881196922388
 30
0.0
 11
73.0024
 21
187.392124
 31
0.0
  0
LINE
  5
8F2
330
1D
100
AcDbEntity
  8
0
100
AcDbLine
 10
86.3235
 20
188.484124
 30
0.0
 11
89.1749
 21
188.678124
 31
0.0
  0
LINE
  5
8F3
330
1D
100
AcDbEntity
  8
0
100
AcDbLine
 10
83.944397169454
 20
188.289096540484
 30
0.0
 11
86.3235
 21
188.484124
 31
0.0
  0
LINE
  5
8F4
330
1D
100
AcDbEntity
  8
0
100
AcDbLine
 10
98.844280455685
 20
189.201634140359
 30
0.0
 11
100.022
 21
189.269124
 31
0.0
  0
LINE
  5
8F5
330
1D
100
AcDbEntity
  8
0
100
AcDbLine
 10
100.022
 20
189.269124
 30
0.0
 11
100.922
 21
189.314124
 31
0.0
  0
LINE
  5
8F6
330
1D
100
AcDbEntity
  8
0
100
AcDbLine
 10
98.844280455685
 20
189.201634140359
 30
0.0
 11
100.022
 21
189.269124
 31
0.0
  0
LINE
  5
8F7
330
1D
100
AcDbEntity
  8
0
100
AcDbLine
 10
89.1749
 20
188.678124
 30
0.0
 11
100.922
 21
189.314124
 31
0.0
  0
LINE
  5
8F8
330
1D
100
AcDbEntity
  8
0
100
AcDbLine
 10
77.3029
 20
187.795124
 30
0.0
 11
83.944397169454
 21
188.289096540484
 31
0.0
  0
LINE
  5
8F9
330
1D
100
AcDbEntity
  8
0
100
AcDbLine
 10
65.2866
 20
186.556124
 30
0.0
 11
68.43928261283
 21
186.881196922388
 31
0.0
  0
LINE
  5
8FA
330
1D
100
AcDbEntity
  8
0
100
AcDbLine
 10
136.12
 20
115.861124
 30
0.0
 11
136.451
 21
118.921124
 31
0.0
  0
LINE
  5
8FB
330
1D
100
AcDbEntity
  8
0
100
AcDbLine
 10
136.388
 20
118.246124
 30
0.0
 11
136.451
 21
118.921124
 31
0.0
  0
LINE
  5
8FC
330
1D
100
AcDbEntity
  8
0
100
AcDbLine
 10
181.417
 20
118.921124
 30
0.0
 11
181.748
 21
115.861124
 31
0.0
  0
LINE
  5
8FD
330
1D
100
AcDbEntity
  8
0
100
AcDbLine
 10
181.417
 20
118.921124
 30
0.0
 11
181.48
 21
118.246124
 31
0.0
  0
LINE
  5
900
330
1D
100
AcDbEntity
  8
0
100
AcDbLine
 10
158.934
 20
63.782424
 30
0.0
 11
184.592
 21
63.782424
 31
0.0
  0
LINE
  5
901
330
1D
100
AcDbEntity
  8
0
100
AcDbLine
 10
133.276
 20
63.782424
 30
0.0
 11
158.934
 21
63.782424
 31
0.0
  0
LINE
  5
902
330
1D
100
AcDbEntity
  8
0
100
AcDbLine
 10
132.315
 20
79.856924
 30
0.0
 11
132.944
 21
90.318024
 31
0.0
  0
LINE
  5
903
330
1D
100
AcDbEntity
  8
0
100
AcDbLine
 10
132.134
 20
64.890624
 30
0.0
 11
132.487
 21
64.301624
 31
0.0
  0
LINE
  5
904
330
1D
100
AcDbEntity
  8
0
100
AcDbLine
 10
132.487
 20
64.301624
 30
0.0
 11
133.276
 21
63.782424
 31
0.0
  0
LINE
  5
905
330
1D
100
AcDbEntity
  8
0
100
AcDbLine
 10
132.035950097892
 20
65.500494391112
 30
0.0
 11
132.134
 21
64.890624
 31
0.0
  0
LINE
  5
906
330
1D
100
AcDbEntity
  8
0
100
AcDbLine
 10
132.016
 20
69.113624
 30
0.0
 11
132.315
 21
79.856924
 31
0.0
  0
LINE
  5
907
330
1D
100
AcDbEntity
  8
0
100
AcDbLine
 10
132.010396431173
 20
68.732497862352
 30
0.0
 11
132.016
 21
69.113624
 31
0.0
  0
LINE
  5
908
330
1D
100
AcDbEntity
  8
0
100
AcDbLine
 10
132.035950097892
 20
65.500494391112
 30
0.0
 11
132.010396431173
 21
68.732497862352
 31
0.0
  0
LINE
  5
909
330
1D
100
AcDbEntity
  8
0
100
AcDbLine
 10
134.237
 20
103.367124
 30
0.0
 11
134.284416683775
 21
103.566179238486
 31
0.0
  0
LINE
  5
90A
330
1D
100
AcDbEntity
  8
0
100
AcDbLine
 10
134.237
 20
103.367124
 30
0.0
 11
134.32124195896
 21
103.803560627758
 31
0.0
  0
LINE
  5
90B
330
1D
100
AcDbEntity
  8
0
100
AcDbLine
 10
134.263
 20
103.428124
 30
0.0
 11
134.393
 21
104.266124
 31
0.0
  0
LINE
  5
90C
330
1D
100
AcDbEntity
  8
0
100
AcDbLine
 10
132.944
 20
90.318024
 30
0.0
 11
133.471
 21
95.775424
 31
0.0
  0
LINE
  5
90D
330
1D
100
AcDbEntity
  8
0
100
AcDbLine
 10
133.471
 20
95.775424
 30
0.0
 11
134.196
 21
103.060124
 31
0.0
  0
LINE
  5
90E
330
1D
100
AcDbEntity
  8
0
100
AcDbLine
 10
134.196
 20
103.060124
 30
0.0
 11
134.237
 21
103.367124
 31
0.0
  0
LINE
  5
90F
330
1D
100
AcDbEntity
  8
0
100
AcDbLine
 10
134.237
 20
103.367124
 30
0.0
 11
134.278031032947
 21
103.525016350846
 31
0.0
  0
LINE
  5
910
330
1D
100
AcDbEntity
  8
0
100
AcDbLine
 10
134.62
 20
105.439124
 30
0.0
 11
134.872
 21
107.043124
 31
0.0
  0
LINE
  5
911
330
1D
100
AcDbEntity
  8
0
100
AcDbLine
 10
134.604
 20
105.446124
 30
0.0
 11
134.668330045489
 21
105.728280465343
 31
0.0
  0
LINE
  5
912
330
1D
100
AcDbEntity
  8
0
100
AcDbLine
 10
134.604
 20
105.446124
 30
0.0
 11
134.732281064543
 21
106.110896505474
 31
0.0
  0
LINE
  5
913
330
1D
100
AcDbEntity
  8
0
100
AcDbLine
 10
134.595
 20
105.410124
 30
0.0
 11
134.660400476202
 21
105.696276237414
 31
0.0
  0
LINE
  5
914
330
1D
100
AcDbEntity
  8
0
100
AcDbLine
 10
134.895
 20
107.142124
 30
0.0
 11
134.929048706484
 21
107.288148363223
 31
0.0
  0
LINE
  5
915
330
1D
100
AcDbEntity
  8
0
100
AcDbLine
 10
134.872
 20
107.043124
 30
0.0
 11
134.972
 21
107.545124
 31
0.0
  0
LINE
  5
916
330
1D
100
AcDbEntity
  8
0
100
AcDbLine
 10
134.872
 20
107.043124
 30
0.0
 11
134.928869825306
 21
107.287078125268
 31
0.0
  0
LINE
  5
917
330
1D
100
AcDbEntity
  8
0
100
AcDbLine
 10
134.872
 20
107.043124
 30
0.0
 11
134.895
 21
107.142124
 31
0.0
  0
LINE
  5
918
330
1D
100
AcDbEntity
  8
0
100
AcDbLine
 10
134.393
 20
104.266124
 30
0.0
 11
134.595
 21
105.410124
 31
0.0
  0
LINE
  5
919
330
1D
100
AcDbEntity
  8
0
100
AcDbLine
 10
135.196
 20
109.067124
 30
0.0
 11
135.270357555912
 21
109.469446441301
 31
0.0
  0
LINE
  5
91A
330
1D
100
AcDbEntity
  8
0
100
AcDbLine
 10
135.194
 20
108.952124
 30
0.0
 11
135.379
 21
110.282124
 31
0.0
  0
LINE
  5
91B
330
1D
100
AcDbEntity
  8
0
100
AcDbLine
 10
135.379
 20
110.282124
 30
0.0
 11
135.514
 21
111.120124
 31
0.0
  0
LINE
  5
91C
330
1D
100
AcDbEntity
  8
0
100
AcDbLine
 10
135.179
 20
108.913124
 30
0.0
 11
135.196
 21
109.067124
 31
0.0
  0
LINE
  5
91D
330
1D
100
AcDbEntity
  8
0
100
AcDbLine
 10
134.972
 20
107.545124
 30
0.0
 11
135.179
 21
108.913124
 31
0.0
  0
LINE
  5
91E
330
1D
100
AcDbEntity
  8
0
100
AcDbLine
 10
135.514
 20
111.120124
 30
0.0
 11
135.627
 21
112.017124
 31
0.0
  0
LINE
  5
91F
330
1D
100
AcDbEntity
  8
0
100
AcDbLine
 10
135.806
 20
113.291124
 30
0.0
 11
135.903
 21
114.120124
 31
0.0
  0
LINE
  5
920
330
1D
100
AcDbEntity
  8
0
100
AcDbLine
 10
136.064
 20
115.453124
 30
0.0
 11
136.125302844369
 21
115.910147274226
 31
0.0
  0
LINE
  5
921
330
1D
100
AcDbEntity
  8
0
100
AcDbLine
 10
135.903
 20
114.120124
 30
0.0
 11
136.064
 21
115.453124
 31
0.0
  0
LINE
  5
922
330
1D
100
AcDbEntity
  8
0
100
AcDbLine
 10
135.734
 20
112.790124
 30
0.0
 11
135.806
 21
113.291124
 31
0.0
  0
LINE
  5
923
330
1D
100
AcDbEntity
  8
0
100
AcDbLine
 10
135.627
 20
112.017124
 30
0.0
 11
135.734
 21
112.790124
 31
0.0
  0
LINE
  5
924
330
1D
100
AcDbEntity
  8
0
100
AcDbLine
 10
220.7854
 20
1.703504
 30
0.0
 11
184.11
 21
0.465485
 31
0.0
  0
LINE
  5
925
330
1D
100
AcDbEntity
  8
0
100
AcDbLine
 10
220.7854
 20
1.703504
 30
0.0
 11
184.11
 21
0.465485
 31
0.0
  0
LINE
  5
926
330
1D
100
AcDbEntity
  8
0
100
AcDbLine
 10
224.4043
 20
1.858684
 30
0.0
 11
220.7854
 21
1.703504
 31
0.0
  0
LWPOLYLINE
  5
927
330
1D
100
AcDbEntity
  8
0
100
AcDbPolyline
 90
        2
 70
     0
 43
0.0
 10
179.049
 20
0.308124
 10
184.11
 20
0.465485
  0
LINE
  5
928
330
1D
100
AcDbEntity
  8
0
100
AcDbLine
 10
184.924
 20
90.318024
 30
0.0
 11
185.553
 21
79.856924
 31
0.0
  0
LINE
  5
929
330
1D
100
AcDbEntity
  8
0
100
AcDbLine
 10
184.592
 20
63.782424
 30
0.0
 11
185.381
 21
64.301624
 31
0.0
  0
LINE
  5
92A
330
1D
100
AcDbEntity
  8
0
100
AcDbLine
 10
185.381
 20
64.301624
 30
0.0
 11
185.734
 21
64.890624
 31
0.0
  0
LINE
  5
92B
330
1D
100
AcDbEntity
  8
0
100
AcDbLine
 10
185.734
 20
64.890624
 30
0.0
 11
185.830116253152
 21
65.492112479328
 31
0.0
  0
LINE
  5
92C
330
1D
100
AcDbEntity
  8
0
100
AcDbLine
 10
185.852
 20
69.113624
 30
0.0
 11
185.857352288044
 21
68.741674887169
 31
0.0
  0
LINE
  5
92D
330
1D
100
AcDbEntity
  8
0
100
AcDbLine
 10
185.553
 20
79.856924
 30
0.0
 11
185.852
 21
69.113624
 31
0.0
  0
LINE
  5
92E
330
1D
100
AcDbEntity
  8
0
100
AcDbLine
 10
185.830116253152
 20
65.492112479328
 30
0.0
 11
185.857352288044
 21
68.741674887169
 31
0.0
  0
LINE
  5
92F
330
1D
100
AcDbEntity
  8
0
100
AcDbLine
 10
182.062
 20
113.291124
 30
0.0
 11
182.134
 21
112.790124
 31
0.0
  0
LINE
  5
930
330
1D
100
AcDbEntity
  8
0
100
AcDbLine
 10
182.134
 20
112.790124
 30
0.0
 11
182.241
 21
112.017124
 31
0.0
  0
LINE
  5
931
330
1D
100
AcDbEntity
  8
0
100
AcDbLine
 10
182.597642444088
 20
109.469446441302
 30
0.0
 11
182.672
 21
109.067124
 31
0.0
  0
LINE
  5
932
330
1D
100
AcDbEntity
  8
0
100
AcDbLine
 10
182.672
 20
109.067124
 30
0.0
 11
182.689
 21
108.913124
 31
0.0
  0
LINE
  5
933
330
1D
100
AcDbEntity
  8
0
100
AcDbLine
 10
182.354
 20
111.120124
 30
0.0
 11
182.489
 21
110.282124
 31
0.0
  0
LINE
  5
934
330
1D
100
AcDbEntity
  8
0
100
AcDbLine
 10
182.241
 20
112.017124
 30
0.0
 11
182.354
 21
111.120124
 31
0.0
  0
LINE
  5
935
330
1D
100
AcDbEntity
  8
0
100
AcDbLine
 10
181.965
 20
114.120124
 30
0.0
 11
182.062
 21
113.291124
 31
0.0
  0
LINE
  5
936
330
1D
100
AcDbEntity
  8
0
100
AcDbLine
 10
181.804
 20
115.453124
 30
0.0
 11
181.965
 21
114.120124
 31
0.0
  0
LINE
  5
937
330
1D
100
AcDbEntity
  8
0
100
AcDbLine
 10
181.742697155631
 20
115.910147274227
 30
0.0
 11
181.804
 21
115.453124
 31
0.0
  0
LINE
  5
938
330
1D
100
AcDbEntity
  8
0
100
AcDbLine
 10
182.689
 20
108.913124
 30
0.0
 11
182.896
 21
107.545124
 31
0.0
  0
LINE
  5
939
330
1D
100
AcDbEntity
  8
0
100
AcDbLine
 10
183.54675804104
 20
103.803560627758
 30
0.0
 11
183.631
 21
103.367124
 31
0.0
  0
LINE
  5
93A
330
1D
100
AcDbEntity
  8
0
100
AcDbLine
 10
183.135718935458
 20
106.110896505473
 30
0.0
 11
183.264
 21
105.446124
 31
0.0
  0
LINE
  5
93B
330
1D
100
AcDbEntity
  8
0
100
AcDbLine
 10
183.273
 20
105.410124
 30
0.0
 11
183.475
 21
104.266124
 31
0.0
  0
LINE
  5
93C
330
1D
100
AcDbEntity
  8
0
100
AcDbLine
 10
183.631
 20
103.367124
 30
0.0
 11
183.672
 21
103.060124
 31
0.0
  0
LINE
  5
93D
330
1D
100
AcDbEntity
  8
0
100
AcDbLine
 10
182.896
 20
107.545124
 30
0.0
 11
182.996
 21
107.043124
 31
0.0
  0
LINE
  5
93E
330
1D
100
AcDbEntity
  8
0
100
AcDbLine
 10
183.672
 20
103.060124
 30
0.0
 11
184.397
 21
95.775424
 31
0.0
  0
LINE
  5
93F
330
1D
100
AcDbEntity
  8
0
100
AcDbLine
 10
184.397
 20
95.775424
 30
0.0
 11
184.924
 21
90.318024
 31
0.0
  0
LINE
  5
940
330
1D
100
AcDbEntity
  8
0
100
AcDbLine
 10
183.135718935458
 20
106.110896505473
 30
0.0
 11
182.996
 21
107.043124
 31
0.0
  0
LINE
  5
941
330
1D
100
AcDbEntity
  8
0
100
AcDbLine
 10
182.489
 20
110.282124
 30
0.0
 11
182.597642444088
 21
109.469446441302
 31
0.0
  0
LINE
  5
942
330
1D
100
AcDbEntity
  8
0
100
AcDbLine
 10
183.475
 20
104.266124
 30
0.0
 11
183.54675804104
 21
103.803560627758
 31
0.0
  0
LINE
  5
943
330
1D
100
AcDbEntity
  8
0
100
AcDbLine
 10
122.137560230461
 20
190.028590750713
 30
0.0
 11
136.618
 21
190.333124
 31
0.0
  0
LINE
  5
944
330
1D
100
AcDbEntity
  8
0
100
AcDbLine
 10
136.451
 20
118.921124
 30
0.0
 11
136.829
 21
123.007124
 31
0.0
  0
LINE
  5
945
330
1D
100
AcDbEntity
  8
0
100
AcDbLine
 10
136.742
 20
190.334124
 30
0.0
 11
138.338
 21
190.344911671233
 31
0.0
  0
LINE
  5
946
330
1D
100
AcDbEntity
  8
0
100
AcDbLine
 10
136.618
 20
190.333124
 30
0.0
 11
136.742
 21
190.334124
 31
0.0
  0
LINE
  5
947
330
1D
100
AcDbEntity
  8
0
100
AcDbLine
 10
136.829
 20
123.007124
 30
0.0
 11
137.175
 21
127.494124
 31
0.0
  0
LINE
  5
948
330
1D
100
AcDbEntity
  8
0
100
AcDbLine
 10
137.175
 20
127.494124
 30
0.0
 11
137.713
 21
136.785124
 31
0.0
  0
LINE
  5
949
330
1D
100
AcDbEntity
  8
0
100
AcDbLine
 10
137.713
 20
136.785124
 30
0.0
 11
138.215
 21
151.477124
 31
0.0
  0
LINE
  5
94A
330
1D
100
AcDbEntity
  8
0
100
AcDbLine
 10
138.338
 20
224.907124
 30
0.0
 11
138.338
 21
193.439124
 31
0.0
  0
LINE
  5
94B
330
1D
100
AcDbEntity
  8
0
100
AcDbLine
 10
138.338
 20
193.439124
 30
0.0
 11
138.338
 21
224.907124
 31
0.0
  0
LINE
  5
94C
330
1D
100
AcDbEntity
  8
0
100
AcDbLine
 10
138.338
 20
193.439124
 30
0.0
 11
138.338
 21
161.974124
 31
0.0
  0
LINE
  5
94D
330
1D
100
AcDbEntity
  8
0
100
AcDbLine
 10
138.338
 20
161.974124
 30
0.0
 11
138.338
 21
193.439124
 31
0.0
  0
LINE
  5
94E
330
1D
100
AcDbEntity
  8
0
100
AcDbLine
 10
138.338
 20
161.974124
 30
0.0
 11
138.215
 21
151.477124
 31
0.0
  0
LINE
  5
94F
330
1D
100
AcDbEntity
  8
0
100
AcDbLine
 10
122.137560230461
 20
190.028590750713
 30
0.0
 11
118.596
 21
189.962124
 31
0.0
  0
LINE
  5
950
330
1D
100
AcDbEntity
  8
0
100
AcDbLine
 10
179.517
 20
172.641124
 30
0.0
 11
179.53
 21
193.439124
 31
0.0
  0
LINE
  5
951
330
1D
100
AcDbEntity
  8
0
100
AcDbLine
 10
179.53
 20
161.974124
 30
0.0
 11
179.53
 21
193.439124
 31
0.0
  0
LINE
  5
952
330
1D
100
AcDbEntity
  8
0
100
AcDbLine
 10
179.53
 20
193.439124
 30
0.0
 11
179.53
 21
161.974124
 31
0.0
  0
LINE
  5
953
330
1D
100
AcDbEntity
  8
0
100
AcDbLine
 10
180.155
 20
136.785124
 30
0.0
 11
180.693
 21
127.494124
 31
0.0
  0
LINE
  5
954
330
1D
100
AcDbEntity
  8
0
100
AcDbLine
 10
180.693
 20
127.494124
 30
0.0
 11
181.039
 21
123.007124
 31
0.0
  0
LINE
  5
955
330
1D
100
AcDbEntity
  8
0
100
AcDbLine
 10
181.039
 20
123.007124
 30
0.0
 11
181.417
 21
118.921124
 31
0.0
  0
LINE
  5
956
330
1D
100
AcDbEntity
  8
0
100
AcDbLine
 10
179.605
 20
153.650124
 30
0.0
 11
179.628
 21
152.577124
 31
0.0
  0
LINE
  5
957
330
1D
100
AcDbEntity
  8
0
100
AcDbLine
 10
179.653
 20
151.477124
 30
0.0
 11
180.155
 21
136.785124
 31
0.0
  0
LINE
  5
958
330
1D
100
AcDbEntity
  8
0
100
AcDbLine
 10
179.53
 20
161.974124
 30
0.0
 11
179.605
 21
153.650124
 31
0.0
  0
LINE
  5
959
330
1D
100
AcDbEntity
  8
0
100
AcDbLine
 10
179.628
 20
152.577124
 30
0.0
 11
179.653
 21
151.477124
 31
0.0
  0
LINE
  5
95A
330
1D
100
AcDbEntity
  8
0
100
AcDbLine
 10
179.503
 20
195.682124
 30
0.0
 11
179.53
 21
193.439124
 31
0.0
  0
LINE
  5
95B
330
1D
100
AcDbEntity
  8
0
100
AcDbLine
 10
179.53
 20
224.907124
 30
0.0
 11
179.53
 21
193.439124
 31
0.0
  0
LINE
  5
95C
330
1D
100
AcDbEntity
  8
0
100
AcDbLine
 10
179.525
 20
208.063124
 30
0.0
 11
179.53
 21
193.439124
 31
0.0
  0
LINE
  5
95D
330
1D
100
AcDbEntity
  8
0
100
AcDbLine
 10
179.53
 20
193.439124
 30
0.0
 11
179.53
 21
224.907124
 31
0.0
  0
LINE
  5
95E
330
1D
100
AcDbEntity
  8
0
100
AcDbLine
 10
199.937
 20
189.940124
 30
0.0
 11
199.784660581792
 21
189.94332779897
 31
0.0
  0
LINE
  5
95F
330
1D
100
AcDbEntity
  8
0
100
AcDbLine
 10
199.937
 20
189.940124
 30
0.0
 11
199.800033869581
 21
189.942764152343
 31
0.0
  0
LINE
  5
960
330
1D
100
AcDbEntity
  8
0
100
AcDbLine
 10
199.937
 20
189.940124
 30
0.0
 11
199.784660581792
 21
189.94332779897
 31
0.0
  0
LINE
  5
961
330
1D
100
AcDbEntity
  8
0
100
AcDbLine
 10
216.946
 20
189.314124
 30
0.0
 11
199.272
 21
189.962124
 31
0.0
  0
LINE
  5
962
330
1D
100
AcDbEntity
  8
0
100
AcDbLine
 10
231.5445
 20
188.484124
 30
0.0
 11
228.6931
 21
188.678124
 31
0.0
  0
LINE
  5
963
330
1D
100
AcDbEntity
  8
0
100
AcDbLine
 10
233.923602830546
 20
188.289096540484
 30
0.0
 11
231.5445
 21
188.484124
 31
0.0
  0
LINE
  5
964
330
1D
100
AcDbEntity
  8
0
100
AcDbLine
 10
219.023719544315
 20
189.201634140359
 30
0.0
 11
217.846
 21
189.269124
 31
0.0
  0
LINE
  5
965
330
1D
100
AcDbEntity
  8
0
100
AcDbLine
 10
217.846
 20
189.269124
 30
0.0
 11
216.946
 21
189.314124
 31
0.0
  0
LINE
  5
966
330
1D
100
AcDbEntity
  8
0
100
AcDbLine
 10
219.023719544315
 20
189.201634140359
 30
0.0
 11
217.846
 21
189.269124
 31
0.0
  0
LINE
  5
967
330
1D
100
AcDbEntity
  8
0
100
AcDbLine
 10
228.6931
 20
188.678124
 30
0.0
 11
216.946
 21
189.314124
 31
0.0
  0
LINE
  5
968
330
1D
100
AcDbEntity
  8
0
100
AcDbLine
 10
195.730439769539
 20
190.028590750713
 30
0.0
 11
181.25
 21
190.333124
 31
0.0
  0
LINE
  5
969
330
1D
100
AcDbEntity
  8
0
100
AcDbLine
 10
195.730439769539
 20
190.028590750713
 30
0.0
 11
199.272
 21
189.962124
 31
0.0
  0
LINE
  5
96A
330
1D
100
AcDbEntity
  8
0
100
AcDbLine
 10
317.451697
 20
115.038124
 30
0.0
 11
317.149595
 21
119.532124
 31
0.0
  0
LINE
  5
96B
330
1D
100
AcDbEntity
  8
0
100
AcDbLine
 10
295.2445
 20
17.076124
 30
0.0
 11
290.2848
 21
13.976924
 31
0.0
  0
LINE
  5
96C
330
1D
100
AcDbEntity
  8
0
100
AcDbLine
 10
263.4062
 20
5.917554
 30
0.0
 11
258.156
 21
5.036424
 31
0.0
  0
LINE
  5
96D
330
1D
100
AcDbEntity
  8
0
100
AcDbLine
 10
289.3626
 20
13.606424
 30
0.0
 11
283.0852
 21
10.849224
 31
0.0
  0
LINE
  5
96E
330
1D
100
AcDbEntity
  8
0
100
AcDbLine
 10
290.2848
 20
13.976924
 30
0.0
 11
289.3626
 21
13.606424
 31
0.0
  0
LINE
  5
96F
330
1D
100
AcDbEntity
  8
0
100
AcDbLine
 10
267.7013
 20
6.654864
 30
0.0
 11
263.4062
 21
5.917554
 31
0.0
  0
LINE
  5
970
330
1D
100
AcDbEntity
  8
0
100
AcDbLine
 10
283.0852
 20
10.849224
 30
0.0
 11
278.5028
 21
9.272794
 31
0.0
  0
LINE
  5
971
330
1D
100
AcDbEntity
  8
0
100
AcDbLine
 10
278.5028
 20
9.272794
 30
0.0
 11
276.5174
 21
8.719434
 31
0.0
  0
LINE
  5
972
330
1D
100
AcDbEntity
  8
0
100
AcDbLine
 10
276.5174
 20
8.719434
 30
0.0
 11
267.7013
 21
6.654864
 31
0.0
  0
LINE
  5
973
330
1D
100
AcDbEntity
  8
0
100
AcDbLine
 10
258.156
 20
5.036424
 30
0.0
 11
245.3659
 21
3.539104
 31
0.0
  0
LINE
  5
974
330
1D
100
AcDbEntity
  8
0
100
AcDbLine
 10
316.307678691707
 20
63.222739374409
 30
0.0
 11
315.84049
 21
59.092524
 31
0.0
  0
LINE
  5
975
330
1D
100
AcDbEntity
  8
0
100
AcDbLine
 10
316.307678691707
 20
63.222739374409
 30
0.0
 11
315.84049
 21
59.092524
 31
0.0
  0
LINE
  5
976
330
1D
100
AcDbEntity
  8
0
100
AcDbLine
 10
315.84049
 20
59.092524
 30
0.0
 11
315.4398
 21
56.568324
 31
0.0
  0
LINE
  5
977
330
1D
100
AcDbEntity
  8
0
100
AcDbLine
 10
315.4398
 20
56.568324
 30
0.0
 11
314.97446
 21
53.606124
 31
0.0
  0
LINE
  5
978
330
1D
100
AcDbEntity
  8
0
100
AcDbLine
 10
314.97446
 20
53.606124
 30
0.0
 11
313.98229
 21
48.813324
 31
0.0
  0
LINE
  5
979
330
1D
100
AcDbEntity
  8
0
100
AcDbLine
 10
313.98229
 20
48.813324
 30
0.0
 11
313.47879
 21
46.253124
 31
0.0
  0
LINE
  5
97A
330
1D
100
AcDbEntity
  8
0
100
AcDbLine
 10
301.7127
 20
22.607924
 30
0.0
 11
298.1193
 21
19.402724
 31
0.0
  0
LINE
  5
97B
330
1D
100
AcDbEntity
  8
0
100
AcDbLine
 10
305.269
 20
27.218024
 30
0.0
 11
301.7127
 21
22.607924
 31
0.0
  0
LINE
  5
97C
330
1D
100
AcDbEntity
  8
0
100
AcDbLine
 10
298.1193
 20
19.402724
 30
0.0
 11
295.2445
 21
17.076124
 31
0.0
  0
LINE
  5
97D
330
1D
100
AcDbEntity
  8
0
100
AcDbLine
 10
311.04289
 20
38.539724
 30
0.0
 11
310.21079
 21
36.527624
 31
0.0
  0
LINE
  5
97E
330
1D
100
AcDbEntity
  8
0
100
AcDbLine
 10
308.64834
 20
33.069424
 30
0.0
 11
305.9178
 21
28.189824
 31
0.0
  0
LINE
  5
97F
330
1D
100
AcDbEntity
  8
0
100
AcDbLine
 10
305.9178
 20
28.189824
 30
0.0
 11
305.269
 21
27.218024
 31
0.0
  0
LINE
  5
980
330
1D
100
AcDbEntity
  8
0
100
AcDbLine
 10
310.21079
 20
36.527624
 30
0.0
 11
308.64834
 21
33.069424
 31
0.0
  0
LINE
  5
981
330
1D
100
AcDbEntity
  8
0
100
AcDbLine
 10
311.04289
 20
38.539724
 30
0.0
 11
313.47879
 21
46.253124
 31
0.0
  0
LINE
  5
982
330
1D
100
AcDbEntity
  8
0
100
AcDbLine
 10
317.451697
 20
76.654824
 30
0.0
 11
317.149595
 21
72.210924
 31
0.0
  0
LINE
  5
983
330
1D
100
AcDbEntity
  8
0
100
AcDbLine
 10
317.070105219622
 20
71.310126083679
 30
0.0
 11
316.80933
 21
67.657624
 31
0.0
  0
LINE
  5
984
330
1D
100
AcDbEntity
  8
0
100
AcDbLine
 10
317.070105219622
 20
71.310126083679
 30
0.0
 11
316.80933
 21
67.657624
 31
0.0
  0
LINE
  5
985
330
1D
100
AcDbEntity
  8
0
100
AcDbLine
 10
316.80933
 20
67.657624
 30
0.0
 11
316.45847
 21
64.378924
 31
0.0
  0
LINE
  5
986
330
1D
100
AcDbEntity
  8
0
100
AcDbLine
 10
317.817399
 20
105.635124
 30
0.0
 11
317.736052150848
 21
107.72672979537
 31
0.0
  0
LINE
  5
987
330
1D
100
AcDbEntity
  8
0
100
AcDbLine
 10
317.817399
 20
86.057624
 30
0.0
 11
317.451697
 21
76.654824
 31
0.0
  0
LINE
  5
988
330
1D
100
AcDbEntity
  8
0
100
AcDbLine
 10
317.817399
 20
105.635124
 30
0.0
 11
317.736052150848
 21
107.72672979537
 31
0.0
  0
LINE
  5
989
330
1D
100
AcDbEntity
  8
0
100
AcDbLine
 10
317.734105852288
 20
107.77677339741
 30
0.0
 11
317.451697
 21
115.038124
 31
0.0
  0
LINE
  5
98A
330
1D
100
AcDbEntity
  8
0
100
AcDbLine
 10
317.734105852288
 20
107.77677339741
 30
0.0
 11
317.451697
 21
115.038124
 31
0.0
  0
LINE
  5
98B
330
1D
100
AcDbEntity
  8
0
100
AcDbLine
 10
317.817399
 20
86.057624
 30
0.0
 11
317.451697
 21
76.654824
 31
0.0
  0
LINE
  5
98C
330
1D
100
AcDbEntity
  8
0
100
AcDbLine
 10
317.934
 20
95.846124
 30
0.0
 11
317.817399
 21
105.635124
 31
0.0
  0
LINE
  5
98D
330
1D
100
AcDbEntity
  8
0
100
AcDbLine
 10
317.934
 20
95.846124
 30
0.0
 11
317.817399
 21
86.057624
 31
0.0
  0
LINE
  5
98E
330
1D
100
AcDbEntity
  8
0
100
AcDbLine
 10
316.307678691707
 20
63.222739374409
 30
0.0
 11
316.45847
 21
64.378924
 31
0.0
  0
LINE
  5
98F
330
1D
100
AcDbEntity
  8
0
100
AcDbLine
 10
317.070105219622
 20
71.310126083679
 30
0.0
 11
317.149595
 21
72.210924
 31
0.0
  0
LINE
  5
990
330
1D
100
AcDbEntity
  8
0
100
AcDbLine
 10
295.482
 20
173.804124
 30
0.0
 11
292.621
 21
175.705124
 31
0.0
  0
LINE
  5
991
330
1D
100
AcDbEntity
  8
0
100
AcDbLine
 10
260.8017
 20
185.417124
 30
0.0
 11
256.08574433167
 21
186.07056408202
 31
0.0
  0
LINE
  5
992
330
1D
100
AcDbEntity
  8
0
100
AcDbLine
 10
292.621
 20
175.705124
 30
0.0
 11
289.0923
 21
177.570124
 31
0.0
  0
LINE
  5
993
330
1D
100
AcDbEntity
  8
0
100
AcDbLine
 10
277.0601
 20
182.000124
 30
0.0
 11
272.641
 21
183.129124
 31
0.0
  0
LINE
  5
994
330
1D
100
AcDbEntity
  8
0
100
AcDbLine
 10
281.0574
 20
180.784124
 30
0.0
 11
277.0601
 21
182.000124
 31
0.0
  0
LINE
  5
995
330
1D
100
AcDbEntity
  8
0
100
AcDbLine
 10
285.1565
 20
179.293124
 30
0.0
 11
281.0574
 21
180.784124
 31
0.0
  0
LINE
  5
996
330
1D
100
AcDbEntity
  8
0
100
AcDbLine
 10
272.641
 20
183.129124
 30
0.0
 11
268.9702
 21
183.947124
 31
0.0
  0
LINE
  5
997
330
1D
100
AcDbEntity
  8
0
100
AcDbLine
 10
268.9702
 20
183.947124
 30
0.0
 11
263.2419
 21
185.012124
 31
0.0
  0
LINE
  5
998
330
1D
100
AcDbEntity
  8
0
100
AcDbLine
 10
289.0923
 20
177.570124
 30
0.0
 11
285.1565
 21
179.293124
 31
0.0
  0
LINE
  5
999
330
1D
100
AcDbEntity
  8
0
100
AcDbLine
 10
263.2419
 20
185.012124
 30
0.0
 11
260.8017
 21
185.417124
 31
0.0
  0
LINE
  5
99A
330
1D
100
AcDbEntity
  8
0
100
AcDbLine
 10
254.27
 20
186.339124
 30
0.0
 11
252.5814
 21
186.556124
 31
0.0
  0
LINE
  5
99B
330
1D
100
AcDbEntity
  8
0
100
AcDbLine
 10
256.08574433167
 20
186.07056408202
 30
0.0
 11
254.27
 21
186.339124
 31
0.0
  0
LINE
  5
99C
330
1D
100
AcDbEntity
  8
0
100
AcDbLine
 10
244.8656
 20
187.392124
 30
0.0
 11
240.5651
 21
187.795124
 31
0.0
  0
LINE
  5
99D
330
1D
100
AcDbEntity
  8
0
100
AcDbLine
 10
249.42871738717
 20
186.881196922388
 30
0.0
 11
244.8656
 21
187.392124
 31
0.0
  0
LINE
  5
99E
330
1D
100
AcDbEntity
  8
0
100
AcDbLine
 10
252.5814
 20
186.556124
 30
0.0
 11
249.42871738717
 21
186.881196922388
 31
0.0
  0
LINE
  5
99F
330
1D
100
AcDbEntity
  8
0
100
AcDbLine
 10
315.4398
 20
135.175124
 30
0.0
 11
314.97446
 21
138.086124
 31
0.0
  0
LINE
  5
9A0
330
1D
100
AcDbEntity
  8
0
100
AcDbLine
 10
315.84049
 20
132.600124
 30
0.0
 11
315.4398
 21
135.175124
 31
0.0
  0
LINE
  5
9A1
330
1D
100
AcDbEntity
  8
0
100
AcDbLine
 10
314.97446
 20
138.086124
 30
0.0
 11
313.98229
 21
142.930124
 31
0.0
  0
LINE
  5
9A2
330
1D
100
AcDbEntity
  8
0
100
AcDbLine
 10
310.31255
 20
154.932124
 30
0.0
 11
310.11009
 21
155.449124
 31
0.0
  0
LINE
  5
9A3
330
1D
100
AcDbEntity
  8
0
100
AcDbLine
 10
312.22056
 20
149.634124
 30
0.0
 11
310.31255
 21
154.932124
 31
0.0
  0
LINE
  5
9A4
330
1D
100
AcDbEntity
  8
0
100
AcDbLine
 10
310.11009
 20
155.449124
 30
0.0
 11
307.8714
 21
160.129124
 31
0.0
  0
LINE
  5
9A5
330
1D
100
AcDbEntity
  8
0
100
AcDbLine
 10
312.39546
 20
149.014124
 30
0.0
 11
312.22056
 21
149.634124
 31
0.0
  0
LINE
  5
9A6
330
1D
100
AcDbEntity
  8
0
100
AcDbLine
 10
313.98229
 20
142.930124
 30
0.0
 11
312.39546
 21
149.014124
 31
0.0
  0
LINE
  5
9A7
330
1D
100
AcDbEntity
  8
0
100
AcDbLine
 10
306.0852
 20
163.023124
 30
0.0
 11
304.2694
 21
165.627124
 31
0.0
  0
LINE
  5
9A8
330
1D
100
AcDbEntity
  8
0
100
AcDbLine
 10
304.2694
 20
165.627124
 30
0.0
 11
303.1564
 21
167.004124
 31
0.0
  0
LINE
  5
9A9
330
1D
100
AcDbEntity
  8
0
100
AcDbLine
 10
303.1564
 20
167.004124
 30
0.0
 11
299.7581
 21
170.519124
 31
0.0
  0
LINE
  5
9AA
330
1D
100
AcDbEntity
  8
0
100
AcDbLine
 10
299.7581
 20
170.519124
 30
0.0
 11
295.482
 21
173.804124
 31
0.0
  0
LINE
  5
9AB
330
1D
100
AcDbEntity
  8
0
100
AcDbLine
 10
307.8714
 20
160.129124
 30
0.0
 11
306.0852
 21
163.023124
 31
0.0
  0
LINE
  5
9AC
330
1D
100
AcDbEntity
  8
0
100
AcDbLine
 10
317.149595
 20
119.532124
 30
0.0
 11
316.58991
 21
126.286124
 31
0.0
  0
LINE
  5
9AD
330
1D
100
AcDbEntity
  8
0
100
AcDbLine
 10
316.58991
 20
126.286124
 30
0.0
 11
315.84049
 21
132.600124
 31
0.0
  0
ENDSEC
  0
SECTION
  2
OBJECTS
  0
DICTIONARY
  5
C
330
0
100
AcDbDictionary
281
     1
  3
ACAD_GROUP
350
D
  3
ACAD_LAYOUT
350
1A
  3
ACAD_MLEADERSTYLE
350
794
  3
ACAD_MLINESTYLE
350
17
  3
ACAD_PLOTSETTINGS
350
19
  3
ACAD_PLOTSTYLENAME
350
E
  3
ACAD_SCALELIST
350
621
  3
AcDbVariableDictionary
350
9AE
  3
DWGPROPS
350
9B1
  0
DICTIONARY
  5
D
102
{ACAD_REACTORS
330
C
102
}
330
C
100
AcDbDictionary
281
     1
  0
DICTIONARY
  5
1A
102
{ACAD_REACTORS
330
C
102
}
330
C
100
AcDbDictionary
281
     1
  3
Layout1
350
1C
  3
Model
350
1E
  0
DICTIONARY
  5
794
102
{ACAD_REACTORS
330
C
102
}
330
C
100
AcDbDictionary
281
     1
  0
DICTIONARY
  5
17
102
{ACAD_REACTORS
330
C
102
}
330
C
100
AcDbDictionary
281
     1
  3
Standard
350
18
  0
DICTIONARY
  5
19
102
{ACAD_REACTORS
330
C
102
}
330
C
100
AcDbDictionary
281
     1
  0
ACDBDICTIONARYWDFLT
  5
E
102
{ACAD_REACTORS
330
C
102
}
330
C
100
AcDbDictionary
281
     1
  3
Normal
350
F
100
AcDbDictionaryWithDefault
340
F
  0
DICTIONARY
  5
621
102
{ACAD_REACTORS
330
C
102
}
330
C
100
AcDbDictionary
281
     1
  3
A0
350
622
  3
A1
350
623
  3
A2
350
624
  3
A3
350
625
  3
A4
350
626
  3
A5
350
627
  3
A6
350
628
  3
A7
350
629
  3
A8
350
62A
  3
A9
350
62B
  3
B0
350
62C
  3
B1
350
62D
  3
B2
350
62E
  3
B3
350
62F
  3
B4
350
630
  3
B5
350
631
  3
B6
350
632
  3
B7
350
633
  3
B8
350
634
  3
B9
350
635
  3
C0
350
636
  3
C1
350
637
  3
C2
350
638
  3
C3
350
639
  3
C4
350
63A
  3
C5
350
63B
  3
C6
350
63C
  3
C7
350
63D
  3
C8
350
63E
  3
C9
350
63F
  3
D0
350
640
  3
D1
350
641
  3
D2
350
642
  0
DICTIONARY
  5
9AE
102
{ACAD_REACTORS
330
C
102
}
330
C
100
AcDbDictionary
281
     1
  3
CANNOSCALE
350
9AF
  0
XRECORD
  5
9B1
102
{ACAD_REACTORS
330
C
102
}
330
C
100
AcDbXrecord
280
     1
  1
DWGPROPS COOKIE
  2

  3

  4

  6

  7

  8
MARTIN
  9

300
=
301
=
302
=
303
=
304
=
305
=
306
=
307
=
308
=
309
=
 40
0.0
 41
2456467.246795961
 42
2456467.268406933
  1

 90
        0
  0
LAYOUT
  5
1C
102
{ACAD_REACTORS
330
1A
102
}
330
1A
100
AcDbPlotSettings
  1

  2
none_device
  4

  6

 40
0.0
 41
0.0
 42
0.0
 43
0.0
 44
0.0
 45
0.0
 46
0.0
 47
0.0
 48
0.0
 49
0.0
140
0.0
141
0.0
142
1.0
143
1.0
 70
   688
 72
     0
 73
     0
 74
     5
  7

 75
    16
147
1.0
148
0.0
149
0.0
100
AcDbLayout
  1
Layout1
 70
     1
 71
     1
 10
0.0
 20
0.0
 11
12.0
 21
9.0
 12
0.0
 22
0.0
 32
0.0
 14
1.000000000000E+20
 24
1.000000000000E+20
 34
1.000000000000E+20
 15
-1.000000000000E+20
 25
-1.000000000000E+20
 35
-1.000000000000E+20
146
0.0
 13
0.0
 23
0.0
 33
0.0
 16
1.0
 26
0.0
 36
0.0
 17
0.0
 27
1.0
 37
0.0
 76
     0
330
1B
  0
LAYOUT
  5
1E
102
{ACAD_REACTORS
330
1A
102
}
330
1A
100
AcDbPlotSettings
  1

  2
none_device
  4

  6

 40
0.0
 41
0.0
 42
0.0
 43
0.0
 44
0.0
 45
0.0
 46
0.0
 47
0.0
 48
0.0
 49
0.0
140
0.0
141
0.0
142
1.0
143
1.0
 70
  1712
 72
     0
 73
     0
 74
     0
  7

 75
     0
147
1.0
148
0.0
149
0.0
100
AcDbLayout
  1
Model
 70
     1
 71
     0
 10
0.0
 20
0.0
 11
12.0
 21
9.0
 12
0.0
 22
0.0
 32
0.0
 14
-0.066
 24
0.215085
 34
0.0
 15
717.3901
 25
465.784915
 35
0.0
146
0.0
 13
0.0
 23
0.0
 33
0.0
 16
1.0
 26
0.0
 36
0.0
 17
0.0
 27
1.0
 37
0.0
 76
     0
330
1D
331
61C
  0
MLINESTYLE
  5
18
102
{ACAD_REACTORS
330
17
102
}
330
17
100
AcDbMlineStyle
  2
Standard
 70
     0
  3

 62
   256
 51
90.0
 52
90.0
 71
     2
 49
0.5
 62
   256
  6
BYLAYER
 49
-0.5
 62
   256
  6
BYLAYER
  0
ACDBPLACEHOLDER
  5
F
102
{ACAD_REACTORS
330
E
102
}
330
E
  0
SCALE
  5
622
102
{ACAD_REACTORS
330
621
102
}
330
621
100
AcDbScale
 70
     0
300
1:1
140
1.0
141
1.0
290
     1
  0
SCALE
  5
623
102
{ACAD_REACTORS
330
621
102
}
330
621
100
AcDbScale
 70
     0
300
1:2
140
1.0
141
2.0
290
     0
  0
SCALE
  5
624
102
{ACAD_REACTORS
330
621
102
}
330
621
100
AcDbScale
 70
     0
300
1:4
140
1.0
141
4.0
290
     0
  0
SCALE
  5
625
102
{ACAD_REACTORS
330
621
102
}
330
621
100
AcDbScale
 70
     0
300
1:5
140
1.0
141
5.0
290
     0
  0
SCALE
  5
626
102
{ACAD_REACTORS
330
621
102
}
330
621
100
AcDbScale
 70
     0
300
1:8
140
1.0
141
8.0
290
     0
  0
SCALE
  5
627
102
{ACAD_REACTORS
330
621
102
}
330
621
100
AcDbScale
 70
     0
300
1:10
140
1.0
141
10.0
290
     0
  0
SCALE
  5
628
102
{ACAD_REACTORS
330
621
102
}
330
621
100
AcDbScale
 70
     0
300
1:16
140
1.0
141
16.0
290
     0
  0
SCALE
  5
629
102
{ACAD_REACTORS
330
621
102
}
330
621
100
AcDbScale
 70
     0
300
1:20
140
1.0
141
20.0
290
     0
  0
SCALE
  5
62A
102
{ACAD_REACTORS
330
621
102
}
330
621
100
AcDbScale
 70
     0
300
1:30
140
1.0
141
30.0
290
     0
  0
SCALE
  5
62B
102
{ACAD_REACTORS
330
621
102
}
330
621
100
AcDbScale
 70
     0
300
1:40
140
1.0
141
40.0
290
     0
  0
SCALE
  5
62C
102
{ACAD_REACTORS
330
621
102
}
330
621
100
AcDbScale
 70
     0
300
1:50
140
1.0
141
50.0
290
     0
  0
SCALE
  5
62D
102
{ACAD_REACTORS
330
621
102
}
330
621
100
AcDbScale
 70
     0
300
1:100
140
1.0
141
100.0
290
     0
  0
SCALE
  5
62E
102
{ACAD_REACTORS
330
621
102
}
330
621
100
AcDbScale
 70
     0
300
2:1
140
2.0
141
1.0
290
     0
  0
SCALE
  5
62F
102
{ACAD_REACTORS
330
621
102
}
330
621
100
AcDbScale
 70
     0
300
4:1
140
4.0
141
1.0
290
     0
  0
SCALE
  5
630
102
{ACAD_REACTORS
330
621
102
}
330
621
100
AcDbScale
 70
     0
300
8:1
140
8.0
141
1.0
290
     0
  0
SCALE
  5
631
102
{ACAD_REACTORS
330
621
102
}
330
621
100
AcDbScale
 70
     0
300
10:1
140
10.0
141
1.0
290
     0
  0
SCALE
  5
632
102
{ACAD_REACTORS
330
621
102
}
330
621
100
AcDbScale
 70
     0
300
100:1
140
100.0
141
1.0
290
     0
  0
SCALE
  5
633
102
{ACAD_REACTORS
330
621
102
}
330
621
100
AcDbScale
 70
     0
300
1/128" = 1'-0"
140
0.0078125
141
12.0
290
     0
  0
SCALE
  5
634
102
{ACAD_REACTORS
330
621
102
}
330
621
100
AcDbScale
 70
     0
300
1/64" = 1'-0"
140
0.015625
141
12.0
290
     0
  0
SCALE
  5
635
102
{ACAD_REACTORS
330
621
102
}
330
621
100
AcDbScale
 70
     0
300
1/32" = 1'-0"
140
0.03125
141
12.0
290
     0
  0
SCALE
  5
636
102
{ACAD_REACTORS
330
621
102
}
330
621
100
AcDbScale
 70
     0
300
1/16" = 1'-0"
140
0.0625
141
12.0
290
     0
  0
SCALE
  5
637
102
{ACAD_REACTORS
330
621
102
}
330
621
100
AcDbScale
 70
     0
300
3/32" = 1'-0"
140
0.09375
141
12.0
290
     0
  0
SCALE
  5
638
102
{ACAD_REACTORS
330
621
102
}
330
621
100
AcDbScale
 70
     0
300
1/8" = 1'-0"
140
0.125
141
12.0
290
     0
  0
SCALE
  5
639
102
{ACAD_REACTORS
330
621
102
}
330
621
100
AcDbScale
 70
     0
300
3/16" = 1'-0"
140
0.1875
141
12.0
290
     0
  0
SCALE
  5
63A
102
{ACAD_REACTORS
330
621
102
}
330
621
100
AcDbScale
 70
     0
300
1/4" = 1'-0"
140
0.25
141
12.0
290
     0
  0
SCALE
  5
63B
102
{ACAD_REACTORS
330
621
102
}
330
621
100
AcDbScale
 70
     0
300
3/8" = 1'-0"
140
0.375
141
12.0
290
     0
  0
SCALE
  5
63C
102
{ACAD_REACTORS
330
621
102
}
330
621
100
AcDbScale
 70
     0
300
1/2" = 1'-0"
140
0.5
141
12.0
290
     0
  0
SCALE
  5
63D
102
{ACAD_REACTORS
330
621
102
}
330
621
100
AcDbScale
 70
     0
300
3/4" = 1'-0"
140
0.75
141
12.0
290
     0
  0
SCALE
  5
63E
102
{ACAD_REACTORS
330
621
102
}
330
621
100
AcDbScale
 70
     0
300
1" = 1'-0"
140
1.0
141
12.0
290
     0
  0
SCALE
  5
63F
102
{ACAD_REACTORS
330
621
102
}
330
621
100
AcDbScale
 70
     0
300
1-1/2" = 1'-0"
140
1.5
141
12.0
290
     0
  0
SCALE
  5
640
102
{ACAD_REACTORS
330
621
102
}
330
621
100
AcDbScale
 70
     0
300
3" = 1'-0"
140
3.0
141
12.0
290
     0
  0
SCALE
  5
641
102
{ACAD_REACTORS
330
621
102
}
330
621
100
AcDbScale
 70
     0
300
6" = 1'-0"
140
6.0
141
12.0
290
     0
  0
SCALE
  5
642
102
{ACAD_REACTORS
330
621
102
}
330
621
100
AcDbScale
 70
     0
300
1'-0" = 1'-0"
140
12.0
141
12.0
290
     0
  0
DICTIONARYVAR
  5
9AF
102
{ACAD_REACTORS
330
9AE
102
}
330
9AE
100
DictionaryVariables
280
     0
  1
1:1
  0
ENDSEC
  0
SECTION
  2
THUMBNAILIMAGE
 90
    16364
310
28000000B40000005500000001000800000000000000000000000000000000000000000000000000FFFFFF000000FF0000FFFF0000FF0000FFFF0000FF000000FF00FF000000000080808000C0C0C0000000FF007F7FFF000000A5005252A50000007F003F3F7F0000004C0026264C000000260013132600003FFF007F9FFF
310
000029A5005267A500001F7F003F4F7F0000134C00262F4C000009260013172600007FFF007FBFFF000052A500527CA500003F7F003F5F7F0000264C0026394C0000132600131C260000BFFF007FDFFF00007CA5005291A500005F7F003F6F7F0000394C0026424C00001C26001321260000FFFF007FFFFF0000A5A50052A5
310
A500007F7F003F7F7F00004C4C00264C4C00002626001326260000FFBF007FFFDF0000A57C0052A59100007F5F003F7F6F00004C3900264C420000261C001326210000FF7F007FFFBF0000A5520052A57C00007F3F003F7F5F00004C2600264C39000026130013261C0000FF3F007FFF9F0000A5290052A56700007F1F003F
310
7F4F00004C1300264C2F00002609001326170000FF00007FFF7F0000A5000052A55200007F00003F7F3F00004C0000264C260000260000132613003FFF00009FFF7F0029A5000067A552001F7F00004F7F3F00134C00002F4C260009260000172613007FFF0000BFFF7F0052A500007CA552003F7F00005F7F3F00264C0000
310
394C2600132600001C261300BFFF0000DFFF7F007CA5000091A552005F7F00006F7F3F00394C0000424C26001C26000021261300FFFF0000FFFF7F00A5A50000A5A552007F7F00007F7F3F004C4C00004C4C26002626000026261300FFBF0000FFDF7F00A57C0000A59152007F5F00007F6F3F004C3900004C422600261C00
310
0026211300FF7F0000FFBF7F00A5520000A57C52007F3F00007F5F3F004C2600004C39260026130000261C1300FF3F0000FF9F7F00A5290000A56752007F1F00007F4F3F004C1300004C2F26002609000026171300FF000000FF7F7F00A5000000A55252007F0000007F3F3F004C0000004C2626002600000026131300FF00
310
3F00FF7F9F00A5002900A55267007F001F007F3F4F004C0013004C262F002600090026131700FF007F00FF7FBF00A5005200A5527C007F003F007F3F5F004C0026004C2639002600130026131C00FF00BF00FF7FDF00A5007C00A55291007F005F007F3F6F004C0039004C26420026001C0026132100FF00FF00FF7FFF00A5
310
00A500A552A5007F007F007F3F7F004C004C004C264C002600260026132600BF00FF00DF7FFF007C00A5009152A5005F007F006F3F7F0039004C0042264C001C002600211326007F00FF00BF7FFF005200A5007C52A5003F007F005F3F7F0026004C0039264C00130026001C1326003F00FF009F7FFF002900A5006752A500
310
1F007F004F3F7F0013004C002F264C000900260017132600000000002D2D2D005B5B5B0089898900B7B7B700B3B3B30000000000000000000000000000000000000000000000000000000000000000000000000000000000000000000000000000000000000000000000000000000000000000000000000000000000000000
310
00000000000000000000000000000000000000000000000000000000000000000000000000000000000000000000000000000000000000000000000000000000000000000000000000000000000000000000000000000000000000000000000000000000000000000000000000000000000000000000000000000000000000
310
00000000000000000000000000000000000000000000000000000000000000000000000000000000000000000000000000000000000000000000000000000000000000000000000000000000000000000000000000000000000000000000000000000000000000000000000000000000000000000000000000000000000000
310
00000000000000000000000000000000000000000000000000000000000000000000000000000000000000000000000000000000000000000000000000000000000000000000000000000000000000000000000000000000000000000000000000000000000000000000000000000000000000000000000000000000000000
310
00000000000000000000000000000000000000000000000000000000000000000000000000000000000000000000000000000000000000000000000000000000000000000000000000000000000000000000000000000000000000000000000000000000000000000000000000000000000000000000000000000000000000
310
00000000000000000000000000000000000000000000000000000000000000000000000000000000000000000000000000000000000000000000000000000000000000000000000000000000000000000000000000000000000000000000000000000000000000000000000000000000000000000000000000000000000000
310
00000000000000000000000000000000000000000000000000000000000000000000000000000000000000000000000000000000000000000000000000000000000000000000000000000000000000000000000000000000000000000000000000000000000000000000000000000000000000000000000000000000000000
310
00000000000000000000000000000000000000000000000000000000000000000000000000000000000000000000000000000000000000000000000000000000000000000000000000000000000000000000000000000000000000000000000000000000000000000000000000000000000000000000000000000000000000
310
00000000000000000000000000000000000000000000000000000000000000000000000000000000000000000000000000000000000000000000000000000000000000000000000000000000000000000000000000000000000000000000000000000000000000000000000000000000000000000000000000000000000000
310
00000000000000000000000000000000000000000000000000000000000000000000000000000000000000000000000000000000000000000000000000000000000000000000000000000000000000000000000000000000000000000000000000000000000000000000000000000000000000000000000000000000000000
310
00000000000000000000000000000000000000000000000000000000000000000000000000000000000000000000000000000000000000000000000000000000000000000000000000000000000000000000000000000000000000000000000000000000000000000000000000000000000000000000000000000000000000
310
00000000000000000000000000000000000000000000000000000000000000000000000000000000000000000000000000000000000000000000000000000000000000000000000000000000000000000000000000000000000000000000000000000000000000000000000000000000000000000000000000000000000000
310
00000000000000000000000000000000000000000000000000000000000000000000000000000000000000000000000000000000000000000000000000000000000000000000000000000000000000000000000000000000000000000000000000000000000000000000000000000000000000000000000000000000000000
310
00000000000000000000000000000000000000000000000000000000000000000000000000000000000000000000000000000000000000000000000000000000000000000000000000000000000000000000000000000000000000000000000000000000000000000000000000000000000000000000000000000000000000
310
00000000000000000000000000000000000000000000000000000000000000000000000000000000000000000000000000000000000000000000000000000000000000000000000000000000000000000000000000000000000000000000000000000000000000000000000000000000000000000000000000000000000000
310
00000000000000000000000000000000000000000000000000000000000000000000000000000000000000000000000000000000000000000000000000000000000000000000000000000000000000000000000000000000000000000000000000000000000000000000000000000000000000000000000000000000000000
310
00000000000000000000000000000000000000000000000000000000000000000000000000000000000000000000000000000000000000000000000000000000000000000000000000000000000000000000000000000000000000000000000000000000000000000000000000000000000000000000000000000000000000
310
00000000000000000000000000000000000000000000000000000000000000000000000000000000000000000000000000000000000000000000000000000000000000000000000000000000000000000000000000000000000000000000000000000000000000000000000000000000000000000000000000000000000000
310
00000000000000000000000000000000000000000000000000000000000000070707070707070707070707070707070707070707070707070707070707070707070707070700000000000000000000000000000000000000000000000000000000000000000000000000000000000000000000000000000000000000000000
310
00000000000000000000000000000000000000000000000000000000000000000000000000000000000000000000000000000000000000000000000000000000000000000000000000000000000000000707070700070707000000000000000000000000000000000000000000000000000000000000000000000707070707
310
07000000000000000000000000000000000000000000000000000000000000000000000000000000000000000000000000000000000000000000000000000000000000000000000000000000000000000000000000000000000000000000000000000000000000000000000000000000000000000000000000000000000000
310
00000707070707000000000000000000000000000000000000000000000000000000000000000000000000000000000000000000000707070700000000000000000000000000000000000000000000000000000000000000000000000000000000000000000000000000000000000000000000000000000000000000000000
310
00000000000000000000000000000000000000000000000000000000000000000000000000000000000000000000000000000000000707070700000000000000000000000000000000000000000000000000000000000000000000000000000000000000000000000000000000000700000000000000000000000000000000
310
00000000000000000000000000000000000000000000000000000000000000000000000000000000000000000000000000000000000000000000000000000000000000000000000000000000000000000000000000000000000000000000000000000000000000000007070000000000000000000000000000000000000000
310
00000000000000000000000000000000000000000000000000000000000000000000000000070700000000000000000000000000000000000000000000000000000000000000000000000000000000000000000000000000000000000000000000000000000000000000000000000000000000000000000000000000000000
310
00000000000000000000000000000000000000000000000000000000000007070000000000000000000000000000000000000000000000000000000000000000000000000000000000000000000000000000000000000000000000070000000000000000000000000000000000000000000000000000000000000000000000
310
00000000000000000000000000000000000000000000000000000000000000000000000000000000000000000000000000000000000000000000000000000000000000000000000000000000000000000000000700000000000000000000000000000000000000000000000000000000000000000000000000000000000000
310
00000000000000000000000000000000000007000000000000000000000000000000000000000000000000000000000000000000000000000000000000000000000000000000000000000000000000000000000000000000000000000000000000000000000000000000000000000000000000000000000000000000000000
310
00000000000000000007000000000000000000000000000000000000000000000000000000000000000000000000000000000000000000000000000000000000000000000000000700000000000000000000000000000000000000000000000000000000000000000000000000000000000000000000000000000000000000
310
00000000000000000000000000000000000000000000000000000000000000000000000000000000000000000000000000000000000000000000000000070000000000000000000000000000000000000000000000000000000000000000000000000000000000000000000000000000000000000000000000000000000700
310
00000000000000000000000000000000000000000000000000000000000000000000000000000000000000000000000000000000000000000000000000000000000000000000000000000000000000000000000000000000000000000000000000000000000000000000000000000000000007000000000000000000000000
310
00000000000000000000000000000000000000000000000000000000000000000000000000000000000000000000000000000007000000000000000000000000000000000000000000000000000000000000000000000000000000000000000000000000000000000000000000000000000000000000000000000000000000
310
00000000000000000000000000000000000000000000000000000000000000000000000000000007000000000000000000000000000000000000000000000000000000000000000000000000000000000000000000000000000000000000000000000000000000000700000000000000000000000000000000000000000000
310
00000000000000000000000000000000000000000000000000000000000000000000000000000000000000000000000000000000000000000000000000000000000000000000000000000000000000000000000000000000000000000700000000000000000000000000000000000000000000000000000000000000000000
310
00000000000000000000000000000000000000000000000000000000000000070000000000000000000000000000000000000000000000000000000000000000000000000000000000000000000000000000000000000000000000000000000000000000000000000000000000000000000000000000000000000000000000
310
00000000000000000000000000000000000007000000000000000000000000000000000000000000000000000000000000000000000000000000000000000000000000000000000000000000000000000000000007000000000000000000000000000000000000000000000000000000000000000000000000000000000000
310
00000000000000000000000000000000000000000000000000000000000000000000000000000000000000000000000000000000000000000000000000000000000000000000000700000000000000000000000000000000000000000000000000000007070707070707070707070000000000000000000000000000000000
310
00000000000000000000070000000000000000000000000000000000000000000000000000000000000000000000000000000000000000000000000000000000000000000000000000000000000000000000000000000000000000000000000000000000000000000000000000000000000000000000000000000000070000
310
00000000000000000000000000000000000000000000000007000000000000000000000707000000000000000000000000000000000000000000000000000007000000000000000000000000000000000000000000000000000000000000000000000000000000000000000000000000000000000000000000000000000000
310
00000000000000000000000000000000000000000000000000000000000000000000000000000000000000000000000000000700000000000000000000000000000000000000000000000000000700000000000000000000000700000000000000000000000000000000000000000000000000000700000000000000000000
310
00000000000000000000000000000000000000000000000000000000000000000000000000000000000000000000000000000000000000000000000000000000000000000000000000000000000000000000000000000000000000000000000000000000000000070000000000000000000000000000000000000000000000
310
00000007000000000000000000000700000000000000000000000000000000000000000000000000000007000000000000000000000000000000000000000000000000000000000000000000000000000000000000000000000000000000000000000000000000000000000000000000000000000000000000000000000000
310
00000000000000000000000000000000000000000000000000000000000700000000000000000000000000000000000000000000000000000700000000000000000000070000000000000000000000000000000000000000000000000000000700000000000000000000000000000000000000000000000000000000000000
310
00000000000000000000000000000000000000000000000000000000000000000000000000000000000000000000000000000000000000000000000000000000000000000000000000000000000000000000070000000000000000000000000000000000000000000000000000070000000000000000000007000000000000
310
00000000000000000000000000000000000000000007000000000000000000000000000000000000000000000000000000000000000000000000000000000000000000000000000000000000000000000000000000000000000000000000000000000000000000000000000000000000000000000000000000000000000000
310
00000000000000000700000000000000000000000000000000000000000000000000000700000000000000000000070000000000000000000000000000000000000000000000000000000700000000000000000000000000000000000000000000000000000000000000000000000000000000000000000000000000000000
310
00000000000000000000000000000000000000000000000000000000000000000000000000000000000000000000000000000000000000000000000000070000000000000000000000000000000000000000000000000000000700000000000000000007000000000000000000000000000000000000000000000000000000
310
00000000000000000000000000000000000000000000000000000000000000000000000000000000000000000000000000000000000000000000000000000000000000000000000000000000000000000000000000000000000000000000000000000000000000000000000000000000000007000000000000000000000000
310
00000000000000000000000000000007000000000000000000070000000000000000000000000000000000000000000000000000000700000000000000000000000000000000000000000000000000000000000000000000000000000000000000000000000000000000000000000000000000000000000000000000000000
310
00000000000000000000000000000000000000000000000000000000000000000000000000000000070000000000000000000000000000000000000000000000000000000700000000000000000007000000000000000000000000000000000000000000000000000000070000000000000000000000000000000000000000
310
00000000000000000000000000000000000000000000000000000000000000000000000000000000000000000000000000000000000000000000000000000000000000000000000000000000000000000000000000000000000000000007000000000000000000000000000000000000000000000000000000070000000000
310
00000000070000000000000000000000000000000000000000000000000000000700000000000000000000000000000000000000000000000000000000000000000000000000000000000000000000000000000000000000000000000000000000000000000000000000000000000000000000000000000000000000000000
310
00000000000000000000000000000000000000070000000000000000000000000000000000000000000000000000000700000000000000000007000000000000000000000000000000000000000000000000000000070000000000000000000000000000000000000000000000000000000000000000000000000000000000
310
00000000000000000000000000000000000000000000000000000000000000000000000000000000000000000000000000000000000000000000000000000000000000000000000007000000000000000000000000000000000000000000000000000000070000000000000000000700000000000000000000000000000000
310
00000000000000000000000700000000000000000000000000000000000000000000000000000000000000000000000000000000000000000000000000000000000000000000000000000000000000000000000000000000000000000000000000000000000000000000000000000000000000000000000000000000000700
310
00000000000000000000000000000000000000000000000000000700000000000000000007000000000000000000000000000000000000000000000000000000070000000000000000000000000000000000000000000000000000000000000000000000000000000000000000000000000000000000000000000000000000
310
00000000000000000000000000000000000000000000000000000000000000000000000000000000000000000000000000000007000000000000000000000000000000000000000000000000000000070000000000000000070000000000000000000000000000000000000000000000000000000007000000000000000000
310
00000000000000000000000000000000000000000000000000000000000000000000000000000000000000000000000000000000000000000000000000000000000000000000000000000000000000000000000000000000000000000000000000000000000000000700000000000000000000000000000000000000000000
310
00000000000700000000000000000700000000000000000000000000000000000000000000000000000000070000000000000000000000000000000000000000000000000000000000000000000000000000000000000000000000000000000000000000000000000000000000000000000000000000000000000000000000
310
00000000000000000000000000000000000000000000000000000000000007000000000000000000000000000000000000000000000000000000070000000000000000070000000000000000000000000000000000000000000000000000000007000000000000000000000000000000000000000000000000000000000000
310
00000000000000000000000000000000000000000000000000000000000000000000000000000000000000000000000000000000000000000000000000000000000000000000000000000000000000000000000700000000000000000000000000000000000000000000000000000007000000000000000007000000000000
310
00000000000000000000000000000000000000000007000000000000000000000000000000000000000000000000000000000000000000000000000000000000000000000000000000000000000000000000000000000000000000000000000000000000000000000000000000000000000000000000000000000000000000
310
00000000000000000000070000000000000000000000000000000000000000000000000000000700000000000000070000000000000000000000000000000000000000000000000000000700000000000000000000000000000000000000000000000000000000000000000000000000000000000000000000000000000000
310
00000000000000000000000000000000000000000000000000000000000000000000000000000000000000000000000000000000000000000000000000000007000000000000000000000000000000000000000000000000000000070000000000000007000000000000000000000000000000000000000000000000000000
310
07000000000000000000000000000000000000000000000000000000000000000000000000000000000000000000000000000000000000000000000000000000000000000000000000000000000000000000000000000000000000000000000000000000000000000000000000000000000000000007000000000000000000
310
00000000000000000000000000000000000700000000000000070000000000000000000000000000000000000000000000000000070000000000000000000000000000000000000000000000000000000000000000000000000000000000000000000000000000000000000000000000000000000000000000000000000000
310
00000000000000000000000000000000000000000000000000000000000000000000000000000000000000070000000000000000000000000000000000000000000000000000070000000000000007000000000000000000000000000000000000000000000000000707000000000000000000000000000000000000000000
310
00000000000000000000000000000000000000000000000000000000000000000000000000000000000000000000000000000000000000000000000000000000000000000000000000000000000000000000000000000000000000000000000000070000000000000000000000000000000000000000000000000007000000
310
00000000070000000000000000000000000000000000000000000000000007000000000000000000000000000000000000000000000000000000000000000000000000000000000000000000000000000000000000000000000000000000000000000000000000000000000000000000000000000000000000000000000000
310
00000000000000000000000000000000000000000000000007070000000000000000000000000000000000000000000000070000000000000007000000000000000000000000000000000000000000000000070000000000000000000000000000000000000000000000000000000000000000000000000000000000000000
310
00000000000000000000000000000000000000000000000000000000000000000000000000000000000000000000000000000000000000000000000000000000000000000000000000000000000007070000000000000000000000000000000000000000000007000000000000000700000000000000000000000000000000
310
00000000000707070000000000000000000000000000000000000000000000000000000000000000000000000000000000000000000000000000000000000000000000000000000000000000000000000000000000000000000000000000000000000000000000000000000000000000000000000000000000000000000000
310
00000000000007070707070700000000000000000000000000000000070000000000000007000000000000000000000000000000000007070707070000000000000000000000000000000000000000000000000000000000000000000000000000000000000000000000000000000000000000000000000000000000000000
310
00000000000000000000000000000000000000000000000000000000000000000000000000000000000000000000000000000000000000000000000000000000070707070707070707070707070707070707000000000000000707070707070707070707070707070707070000000000000000000000000000000000000000
310
00000000000000000000000000000000000000000000000000000000000000000000000000000000000000000000000000000000000000000000000000000000000000000000000000000000000000000000000000000000000000000000000000000000000000000000000000000000000000000000000000000000000000
310
00000000000000070000000000000007000000000000000000000000000000000000000000000000000000000000000000000000000000000000000000000000000000000000000000000000000000000000000000000000000000000000000000000000000000000000000000000000000000000000000000000000000000
310
00000000000000000000000000000000000000000000000000000000000000000000000000000000000000000000000000000000000000000000000007000000000000000700000000000000000000000000000000000000000000000000000000000000000000000000000000000000000000000000000000000000000000
310
00000000000000000000000000000000000000000000000000000000000000000000000000000000000000000000000000000000000000000000000000000000000000000000000000000000000000000000000000000000000000000000000000000000000000000000000000000000000700000000000000070000000000
310
00000000000000000000000000000000000000000000000000000000000000000000000000000000000000000000000000000000000000000000000000000000000000000000000000000000000000000000000000000000000000000000000000000000000000000000000000000000000000000000000000000000000000
310
00000000000000000000000000000000000000000000000000000000000000000000000000000007000000000000000700000000000000000000000000000000000000000000000000000000000000000000000000000000000000000000000000000000000000000000000000000000000000000000000000000000000000
310
00000000000000000000000000000000000000000000000000000000000000000000000000000000000000000000000000000000000000000000000000000000000000000000000000000000000000000000000000000000000000000700000000000000070000000000000000000000000000000000000000000000000000
310
00000000000000000000000000000000000000000000000000000000000000000000000000000000000000000000000000000000000000000000000000000000000000000000000000000000000000000000000000000000000000000000000000000000000000000000000000000000000000000000000000000000000000
310
00000000000000000000000000000000000007000000000000000700000000000000000000000000000000000000000000000000000000000000000000000000000000000000000000000000000000000000000000000000000000000000000000000000000000000000000000000000000000000000000000000000000000
310
00000000000000000000000000000000000000000000000000000000000000000000000000000000000000000000000000000000000000000000000000000000000000000000000700000000000000070000000000000000000000000000000000000000000000000000000000000000000000000000000000000000000000
310
00000000000000000000000000000000000000000000000000000000000000000000000000000000000000000000000000000000000000000000000000000000000000000000000000000000000000000000000000000000000000000000000000000000000000000000000000000000000000000000000000000000070000
310
00000000000700000000000000000000000000000000000000000000000000000000000000000000000000000000000000000000000000000000000000000000000000000000000000000000000000000000000000000000000000000000000000000000000000000000000000000000000000000000000000000000000000
310
00000000000000000000000000000000000000000000000000000000000000000000000000000000000000000000000000000700000000000000070000000000000000000000000000000000000000000000000000000000000000000000000000000000000000000000000000000000000000000000000000000000000000
310
00000000000000000000000000000000000000000000000000000000000000000000000000000000000000000000000000000000000000000000000000000000000000000000000000000000000000000000000000000000000000000000000000000000000000070000000000000007000000000000000000000000000000
310
00000000000000000000000000000000000000000000000000000000000000000000000000000000000000000000000000000000000000000000000000000000000000000000000000000000000000000000000000000000000000000000000000000000000000000000000000000000000000000000000000000000000000
310
00000000000000000000000000000000000000000000000000000000000700000000000000070000000000000000000000000000000000000000000000000000000000000000000000000000000000000000000000000000000000000000000000000000000000000000000000000000000000000000000000000000000000
310
00000000000000000000000000000000000000000000000000000000000000000000000000000000000000000000000000000000000000000000000000000000000000000000000000000000000000000000070000000000000000000000000000000000000000000000000000000000000000000000000000000000000000
310
00000000000000000000000000000000000000000000000000000000000000000000000000000000000000000000000000000000000000000000000000000000000000000000000000000000000000000000000000000000000000000000000000000000000000000000000000000000000000000000000000000000000000
310
00000000000000000700000000000000070000000000000000000000000000000000000000000000000000000000000000000000000000000000000000000000000000000000000000000000000000000000000000000000000000000000000000000000000000000000000000000000000000000000000000000000000000
310
00000000000000000000000000000000000000000000000000000000000000000000000000000000000000000000000000000000000000000000000000070000000000000007000000000000000000000000000000000000000000000000000000000000000000000000000000000000000000000000000000000000000000
310
00000000000000000000000000000000000000000000000000000000000000000000000000000000000000000000000000000000000000000000000000000000000000000000000000000000000000000000000000000000000000000000000000000000000000000000000000000000000007000000000000000700000000
310
00000000000000000000000000000000000000000000000000000000000000000000000000000000000000000000000000000000000000000000000000000000000000000000000000000000000000000000000000000000000000000000000000000000000000000000000000000000000000000000000000000000000000
310
00000000000000000000000000000000000000000000000000000000000000000000000000000000070000000000000007000000000000000000000000000000000000000000000000000000000000000000000000000000000000000000000000000000000000000000000000000000000000000000000000000000000000
310
00000000000000000000000000000000000000000000000000000000000000000000000000000000000000000000000000000000000000000000000000000000000000000000000000000000000000000000000000000000000000000007000000000000000700000000000000000000000000000000000000000000000000
310
00000000000000000000000000000000000000000000000000000000000000000000000000000000000000000000000000000000000000000000000000000000000000000000000000000000000000000000000000000000000000000000000000000000000000000000000000000000000000000000000000000000000000
310
00000000000000000000000000000000000000070000000000000007000000000000000000000000000000000000000000000000000000000000000000000000000000000000000000000000000000000000000000000000000000000000000000000000000000000000000000000000000000000000000000000000000000
310
00000000000000000000000000000000000000000000000000000000000000000000000000000000000000000000000000000000000000000000000000000000000000000000000007000000000000000700000000000000000000000000000000000000000000000000000000000000000000000000000000000000000000
310
00000000000000000000000000000000000000000000000000000000000000000000000000000000000000000000000000000000000000000000000000000000000000000000000000000000000000000000000000000000000000000000000000000000000000000000000000000000000000000000000000000000000700
310
00000000000007000000000000000000000000000000000000000000000000000000000000000000000000000000000000000000000000000000000000000000000000000000000000000000000000000000000000000000000000000000000000000000000000000000000000000000000000000000000000000000000000
310
00000000000000000000000000000000000000000000000000000000000000000000000000000000000000000000000000000007000000000000000700000000000000000000000000000000000000000000000000000000000000000000000000000000000000000000000000000000000000000000000000000000000000
310
00000000000000000000000000000000000000000000000000000000000000000000000000000000000000000000000000000000000000000000000000000000000000000000000000000000000000000000000000000000000000000000000000000000000000000700000000000000000000000000000000000000000000
310
00000000000000000000000000000000000000000000000000000000000000000000000000000000000000000000000000000000000000000000000000000000000000000000000000000000000000000000000000000000000000000000000000000000000000000000000000000000000000000000000000000000000000
310
00000000000000000000000000000000000000000000000000000000000007000000000000000700000000000000000000000000000000000000000000000000000000000000000000000000000000000000000000000000000000000000000000000000000000000000000000000000000000000000000000000000000000
310
00000000000000000000000000000000000000000000000000000000000000000000000000000000000000000000000000000000000000000000000000000000000000000000000000000000000000000000000700000000000000070000000000000000000000000000000000000000000000000000000000000000000000
310
00000000000000000000000000000000000000000000000000000000000000000000000000000000000000000000000000000000000000000000000000000000000000000000000000000000000000000000000000000000000000000000000000000000000000000000000000000000000000000000000000000000000000
310
00000000000000000007000000000000000700000000000000000000000000000000070707000000000000000000000000000000000000000000000000000000000000000000000000000000000000000000000000000000000000000000000000000000000000000000000000000000000000000000000000000000000000
310
00000000000000000000000000000000000000000000000000000000000000000000000000000000000000000000000000000000000000000000000000000700000000000000070000000000000000000000000000000007000700000000000000000000000000000000000000000000000000000000000000000000000000
310
00000000000000000000000000000000000000000000000000000000000000000000000000000000000000000000000000000000000000000000000000000000000000000000000000000000000000000000000000000000000000000000000000000000000000000000000000000000000000070000000000000007000000
310
00000000000000000000000000070007000000000000000000000000000000000000000000000000000000000000000000000000000000000000000000000000000000000000000000000000000000000000000000000000000000000000000000000000000000000000000000000000000000000000000000000000000000
310
00000000000000000000000000000000000000000000000000000000000000000000000000000000000700000000000000070000000000000000000000000000000007000700000000000000000000000000000000000000000000000000000000000000000000000000000000000000000000000000000000000000000000
310
00000000000000000000000000000000000000000000000000000000000000000000000000000000000000000000000000000000000000000000000000000000000000000000000000000000000000000000000000000000000000000000070000000000000007000000000000000000000000000000000700070000000000
310
00000000000000000000000000000000000000000000000000000000000000000000000000000000000000000000000000000000000000000000000000000000000000000000000000000000000000000000000000000000000000000000000000000000000000000000000000000000000000000000000000070707070707
310
07070707070707070707070707070707070707070000000000000000070707070707070707070707070707070707070707070707070707000000000000000000000000000000000000000000000000000000000000000000000000000000000000000000000000000000000000000000000000000000000000000000000000
310
00000000000000000000000000000000000000000000000000000000000000000000000000000000000000000000070700000000000000000000000000000000000000000000000000070000000000000007000000000000000000000000000000000000000000000000000707000000000000000000000000000000000000
310
00000000000000000000000000000000000000000000000000000000000000000000000000000000000000000000000000000000000000000000000000000000000000000000000000000000000000000000000000000000000000000000000000000007000000000000000000000000000000000000000000000000000007
310
00000000000000070000000000000000000000000000000000000000000000000000070000000000000000000000000000000000000000000000000000000000000000000000000000000000000000000000000000000000000000000000000000000000000000000000000000000000000000000000000000000000000000
310
000000000000000000000000000000000000000000000000070000000000000000000000000000000000000000000000000000000700000000000000000000000000000000000000000000000000000000000000000000070000000000000000000000000000000000000000
  0
ENDSEC
  0
EOF
