  0
SECTION
  2
HEADER
  9
$ACADVER
  1
AC1015
  9
$ACADMAINTVER
 70
     6
  9
$DWGCODEPAGE
  3
ANSI_1252
  9
$INSBASE
 10
0.0
 20
0.0
 30
0.0
  9
$EXTMIN
 10
0.364212223068
 20
199.893
 30
0.0
  9
$EXTMAX
 10
208.8217
 20
1257.893
 30
0.0
  9
$LIMMIN
 10
0.0
 20
0.0
  9
$LIMMAX
 10
12.0
 20
9.0
  9
$ORTHOMODE
 70
     0
  9
$REGENMODE
 70
     1
  9
$FILLMODE
 70
     1
  9
$QTEXTMODE
 70
     0
  9
$MIRRTEXT
 70
     1
  9
$LTSCALE
 40
1.0
  9
$ATTMODE
 70
     1
  9
$TEXTSIZE
 40
0.2
  9
$TRACEWID
 40
0.05
  9
$TEXTSTYLE
  7
Standard
  9
$CLAYER
  8
0
  9
$CELTYPE
  6
ByBlock
  9
$CECOLOR
 62
   256
  9
$CELTSCALE
 40
1.0
  9
$DISPSILH
 70
     0
  9
$DIMSCALE
 40
1.0
  9
$DIMASZ
 40
0.18
  9
$DIMEXO
 40
0.0625
  9
$DIMDLI
 40
0.38
  9
$DIMRND
 40
0.0
  9
$DIMDLE
 40
0.0
  9
$DIMEXE
 40
0.18
  9
$DIMTP
 40
0.0
  9
$DIMTM
 40
0.0
  9
$DIMTXT
 40
0.18
  9
$DIMCEN
 40
0.09
  9
$DIMTSZ
 40
0.0
  9
$DIMTOL
 70
     0
  9
$DIMLIM
 70
     0
  9
$DIMTIH
 70
     1
  9
$DIMTOH
 70
     1
  9
$DIMSE1
 70
     0
  9
$DIMSE2
 70
     0
  9
$DIMTAD
 70
     0
  9
$DIMZIN
 70
     0
  9
$DIMBLK
  1

  9
$DIMASO
 70
     1
  9
$DIMSHO
 70
     1
  9
$DIMPOST
  1

  9
$DIMAPOST
  1

  9
$DIMALT
 70
     0
  9
$DIMALTD
 70
     2
  9
$DIMALTF
 40
25.4
  9
$DIMLFAC
 40
1.0
  9
$DIMTOFL
 70
     0
  9
$DIMTVP
 40
0.0
  9
$DIMTIX
 70
     0
  9
$DIMSOXD
 70
     0
  9
$DIMSAH
 70
     0
  9
$DIMBLK1
  1

  9
$DIMBLK2
  1

  9
$DIMSTYLE
  2
Standard
  9
$DIMCLRD
 70
     0
  9
$DIMCLRE
 70
     0
  9
$DIMCLRT
 70
     0
  9
$DIMTFAC
 40
1.0
  9
$DIMGAP
 40
0.09
  9
$DIMJUST
 70
     0
  9
$DIMSD1
 70
     0
  9
$DIMSD2
 70
     0
  9
$DIMTOLJ
 70
     1
  9
$DIMTZIN
 70
     0
  9
$DIMALTZ
 70
     0
  9
$DIMALTTZ
 70
     0
  9
$DIMUPT
 70
     0
  9
$DIMDEC
 70
     4
  9
$DIMTDEC
 70
     4
  9
$DIMALTU
 70
     2
  9
$DIMALTTD
 70
     2
  9
$DIMTXSTY
  7
Standard
  9
$DIMAUNIT
 70
     0
  9
$DIMADEC
 70
     0
  9
$DIMALTRND
 40
0.0
  9
$DIMAZIN
 70
     0
  9
$DIMDSEP
 70
    46
  9
$DIMATFIT
 70
     3
  9
$DIMFRAC
 70
     0
  9
$DIMLDRBLK
  1

  9
$DIMLUNIT
 70
     2
  9
$DIMLWD
 70
    -2
  9
$DIMLWE
 70
    -2
  9
$DIMTMOVE
 70
     2
  9
$LUNITS
 70
     2
  9
$LUPREC
 70
     4
  9
$SKETCHINC
 40
0.1
  9
$FILLETRAD
 40
0.5
  9
$AUNITS
 70
     0
  9
$AUPREC
 70
     0
  9
$MENU
  1
.
  9
$ELEVATION
 40
0.0
  9
$PELEVATION
 40
0.0
  9
$THICKNESS
 40
0.0
  9
$LIMCHECK
 70
     0
  9
$CHAMFERA
 40
0.5
  9
$CHAMFERB
 40
0.5
  9
$CHAMFERC
 40
1.0
  9
$CHAMFERD
 40
0.0
  9
$SKPOLY
 70
     0
  9
$TDCREATE
 40
2456213.871022488
  9
$TDUCREATE
 40
2456213.787689155
  9
$TDUPDATE
 40
2456213.877978333
  9
$TDUUPDATE
 40
2456213.794645
  9
$TDINDWG
 40
0.0069553125
  9
$TDUSRTIMER
 40
0.0069553125
  9
$USRTIMER
 70
     1
  9
$ANGBASE
 50
0.0
  9
$ANGDIR
 70
     0
  9
$PDMODE
 70
     0
  9
$PDSIZE
 40
0.0
  9
$PLINEWID
 40
0.0
  9
$SPLFRAME
 70
     0
  9
$SPLINETYPE
 70
     6
  9
$SPLINESEGS
 70
     8
  9
$HANDSEED
  5
2F2F
  9
$SURFTAB1
 70
     6
  9
$SURFTAB2
 70
     6
  9
$SURFTYPE
 70
     6
  9
$SURFU
 70
     6
  9
$SURFV
 70
     6
  9
$UCSBASE
  2

  9
$UCSNAME
  2

  9
$UCSORG
 10
0.0
 20
0.0
 30
0.0
  9
$UCSXDIR
 10
1.0
 20
0.0
 30
0.0
  9
$UCSYDIR
 10
0.0
 20
1.0
 30
0.0
  9
$UCSORTHOREF
  2

  9
$UCSORTHOVIEW
 70
     0
  9
$UCSORGTOP
 10
0.0
 20
0.0
 30
0.0
  9
$UCSORGBOTTOM
 10
0.0
 20
0.0
 30
0.0
  9
$UCSORGLEFT
 10
0.0
 20
0.0
 30
0.0
  9
$UCSORGRIGHT
 10
0.0
 20
0.0
 30
0.0
  9
$UCSORGFRONT
 10
0.0
 20
0.0
 30
0.0
  9
$UCSORGBACK
 10
0.0
 20
0.0
 30
0.0
  9
$PUCSBASE
  2

  9
$PUCSNAME
  2

  9
$PUCSORG
 10
0.0
 20
0.0
 30
0.0
  9
$PUCSXDIR
 10
1.0
 20
0.0
 30
0.0
  9
$PUCSYDIR
 10
0.0
 20
1.0
 30
0.0
  9
$PUCSORTHOREF
  2

  9
$PUCSORTHOVIEW
 70
     0
  9
$PUCSORGTOP
 10
0.0
 20
0.0
 30
0.0
  9
$PUCSORGBOTTOM
 10
0.0
 20
0.0
 30
0.0
  9
$PUCSORGLEFT
 10
0.0
 20
0.0
 30
0.0
  9
$PUCSORGRIGHT
 10
0.0
 20
0.0
 30
0.0
  9
$PUCSORGFRONT
 10
0.0
 20
0.0
 30
0.0
  9
$PUCSORGBACK
 10
0.0
 20
0.0
 30
0.0
  9
$USERI1
 70
     0
  9
$USERI2
 70
     0
  9
$USERI3
 70
     0
  9
$USERI4
 70
     0
  9
$USERI5
 70
     0
  9
$USERR1
 40
0.0
  9
$USERR2
 40
0.0
  9
$USERR3
 40
0.0
  9
$USERR4
 40
0.0
  9
$USERR5
 40
0.0
  9
$WORLDVIEW
 70
     1
  9
$SHADEDGE
 70
     3
  9
$SHADEDIF
 70
    70
  9
$TILEMODE
 70
     1
  9
$MAXACTVP
 70
    64
  9
$PINSBASE
 10
0.0
 20
0.0
 30
0.0
  9
$PLIMCHECK
 70
     0
  9
$PEXTMIN
 10
1.000000000000E+20
 20
1.000000000000E+20
 30
1.000000000000E+20
  9
$PEXTMAX
 10
-1.000000000000E+20
 20
-1.000000000000E+20
 30
-1.000000000000E+20
  9
$PLIMMIN
 10
0.0
 20
0.0
  9
$PLIMMAX
 10
12.0
 20
9.0
  9
$UNITMODE
 70
     0
  9
$VISRETAIN
 70
     1
  9
$PLINEGEN
 70
     0
  9
$PSLTSCALE
 70
     1
  9
$TREEDEPTH
 70
  3020
  9
$CMLSTYLE
  2
Standard
  9
$CMLJUST
 70
     0
  9
$CMLSCALE
 40
1.0
  9
$PROXYGRAPHICS
 70
     1
  9
$MEASUREMENT
 70
     0
  9
$CELWEIGHT
370
    -1
  9
$ENDCAPS
280
     0
  9
$JOINSTYLE
280
     0
  9
$LWDISPLAY
290
     0
  9
$INSUNITS
 70
     0
  9
$HYPERLINKBASE
  1

  9
$STYLESHEET
  1

  9
$XEDIT
290
     1
  9
$CEPSNTYPE
380
     0
  9
$PSTYLEMODE
290
     1
  9
$FINGERPRINTGUID
  2
{5C67A97F-8429-43BF-8526-B292C43BE677}
  9
$VERSIONGUID
  2
{FAEB1C32-E019-11D5-929B-00C0DF256EC4}
  9
$EXTNAMES
290
     1
  9
$PSVPSCALE
 40
0.0
  9
$OLESTARTUP
290
     0
  0
ENDSEC
  0
SECTION
  2
CLASSES
  0
CLASS
  1
ACDBDICTIONARYWDFLT
  2
AcDbDictionaryWithDefault
  3
ObjectDBX Classes
 90
        0
280
     0
281
     0
  0
CLASS
  1
SCALE
  2
AcDbScale
  3
ObjectDBX Classes
 90
     1153
280
     0
281
     0
  0
CLASS
  1
DICTIONARYVAR
  2
AcDbDictionaryVar
  3
ObjectDBX Classes
 90
        0
280
     0
281
     0
  0
CLASS
  1
ACDBPLACEHOLDER
  2
AcDbPlaceHolder
  3
ObjectDBX Classes
 90
        0
280
     0
281
     0
  0
CLASS
  1
LAYOUT
  2
AcDbLayout
  3
ObjectDBX Classes
 90
        0
280
     0
281
     0
  0
ENDSEC
  0
SECTION
  2
TABLES
  0
TABLE
  2
VPORT
  5
8
330
0
100
AcDbSymbolTable
 70
     1
  0
VPORT
  5
CF0
330
8
100
AcDbSymbolTableRecord
100
AcDbViewportTableRecord
  2
*Active
 70
     0
 10
0.0
 20
0.0
 11
1.0
 21
1.0
 12
104.41085
 22
628.9465
 13
0.0
 23
0.0
 14
0.5
 24
0.5
 15
0.5
 25
0.5
 16
0.0
 26
0.0
 36
1.0
 17
0.0
 27
0.0
 37
0.0
 40
1283.05086
 41
1.863448275862
 42
50.0
 43
0.0
 44
0.0
 50
0.0
 51
0.0
 71
    16
 72
   100
 73
     1
 74
     3
 75
     0
 76
     0
 77
     0
 78
     0
281
     0
 65
     1
110
0.0
120
0.0
130
0.0
111
1.0
121
0.0
131
0.0
112
0.0
122
1.0
132
0.0
 79
     0
146
0.0
  0
ENDTAB
  0
TABLE
  2
LTYPE
  5
5
330
0
100
AcDbSymbolTable
 70
     1
  0
LTYPE
  5
14
330
5
100
AcDbSymbolTableRecord
100
AcDbLinetypeTableRecord
  2
ByBlock
 70
     0
  3

 72
    65
 73
     0
 40
0.0
  0
LTYPE
  5
15
330
5
100
AcDbSymbolTableRecord
100
AcDbLinetypeTableRecord
  2
ByLayer
 70
     0
  3

 72
    65
 73
     0
 40
0.0
  0
LTYPE
  5
16
330
5
100
AcDbSymbolTableRecord
100
AcDbLinetypeTableRecord
  2
Continuous
 70
     0
  3
Solid line
 72
    65
 73
     0
 40
0.0
  0
ENDTAB
  0
TABLE
  2
LAYER
  5
2
330
0
100
AcDbSymbolTable
 70
     1
  0
LAYER
  5
10
330
2
100
AcDbSymbolTableRecord
100
AcDbLayerTableRecord
  2
0
 70
     0
 62
     7
  6
Continuous
370
    -3
390
F
  0
ENDTAB
  0
TABLE
  2
STYLE
  5
3
330
0
100
AcDbSymbolTable
 70
     1
  0
STYLE
  5
11
330
3
100
AcDbSymbolTableRecord
100
AcDbTextStyleTableRecord
  2
Standard
 70
     0
 40
0.0
 41
1.0
 50
0.0
 71
     0
 42
0.2
  3
txt
  4

  0
ENDTAB
  0
TABLE
  2
VIEW
  5
6
330
0
100
AcDbSymbolTable
 70
     0
  0
ENDTAB
  0
TABLE
  2
UCS
  5
7
330
0
100
AcDbSymbolTable
 70
     0
  0
ENDTAB
  0
TABLE
  2
APPID
  5
9
330
0
100
AcDbSymbolTable
 70
     1
  0
APPID
  5
12
330
9
100
AcDbSymbolTableRecord
100
AcDbRegAppTableRecord
  2
ACAD
 70
     0
  0
ENDTAB
  0
TABLE
  2
DIMSTYLE
  5
A
330
0
100
AcDbSymbolTable
 70
     1
100
AcDbDimStyleTable
  0
DIMSTYLE
105
20
330
A
100
AcDbSymbolTableRecord
100
AcDbDimStyleTableRecord
  2
Standard
 70
     0
340
11
  0
ENDTAB
  0
TABLE
  2
BLOCK_RECORD
  5
1
330
0
100
AcDbSymbolTable
 70
     2
  0
BLOCK_RECORD
  5
1D
330
1
100
AcDbSymbolTableRecord
100
AcDbBlockTableRecord
  2
*Model_Space
340
1E
  0
BLOCK_RECORD
  5
1B
330
1
100
AcDbSymbolTableRecord
100
AcDbBlockTableRecord
  2
*Paper_Space
340
1C
  0
ENDTAB
  0
ENDSEC
  0
SECTION
  2
BLOCKS
  0
BLOCK
  5
CF3
330
1D
100
AcDbEntity
  8
0
100
AcDbBlockBegin
  2
*Model_Space
 70
     0
 10
0.0
 20
0.0
 30
0.0
  3
*Model_Space
  1
*Model_Space
  0
ENDBLK
  5
CF4
330
1D
100
AcDbEntity
  8
0
100
AcDbBlockEnd
  0
BLOCK
  5
CF1
330
1B
100
AcDbEntity
 67
     1
  8
0
100
AcDbBlockBegin
  2
*Paper_Space
 70
     0
 10
0.0
 20
0.0
 30
0.0
  3
*Paper_Space
  1
*Paper_Space
  0
ENDBLK
  5
CF2
330
1B
100
AcDbEntity
 67
     1
  8
0
100
AcDbBlockEnd
  0
ENDSEC
  0
SECTION
  2
ENTITIES
  0
LINE
  5
4DD
330
1D
100
AcDbEntity
  8
0
100
AcDbLine
 10
41.0627
 20
349.893
 30
0.0
 11
41.1377
 21
349.893
 31
0.0
  0
LINE
  5
4DE
330
1D
100
AcDbEntity
  8
0
100
AcDbLine
 10
41.0627
 20
349.893
 30
0.0
 11
41.0627
 21
369.893
 31
0.0
  0
LINE
  5
4DF
330
1D
100
AcDbEntity
  8
0
100
AcDbLine
 10
41.1377
 20
369.893
 30
0.0
 11
41.1986
 21
369.893
 31
0.0
  0
LINE
  5
4E0
330
1D
100
AcDbEntity
  8
0
100
AcDbLine
 10
41.1377
 20
349.893
 30
0.0
 11
41.1986
 21
349.893
 31
0.0
  0
LINE
  5
4E1
330
1D
100
AcDbEntity
  8
0
100
AcDbLine
 10
41.0627
 20
369.893
 30
0.0
 11
41.0627
 21
349.893
 31
0.0
  0
LINE
  5
4E2
330
1D
100
AcDbEntity
  8
0
100
AcDbLine
 10
41.0627
 20
369.893
 30
0.0
 11
41.1377
 21
369.893
 31
0.0
  0
LINE
  5
4E5
330
1D
100
AcDbEntity
  8
0
100
AcDbLine
 10
41.1986
 20
369.893
 30
0.0
 11
41.3343
 21
369.893
 31
0.0
  0
LINE
  5
4E6
330
1D
100
AcDbEntity
  8
0
100
AcDbLine
 10
41.1986
 20
349.893
 30
0.0
 11
41.3343
 21
349.893
 31
0.0
  0
LINE
  5
4E8
330
1D
100
AcDbEntity
  8
0
100
AcDbLine
 10
41.3343
 20
349.893
 30
0.0
 11
41.4948
 21
349.893
 31
0.0
  0
LINE
  5
4E9
330
1D
100
AcDbEntity
  8
0
100
AcDbLine
 10
41.4948
 20
349.893
 30
0.0
 11
41.6851
 21
349.893
 31
0.0
  0
LINE
  5
4EA
330
1D
100
AcDbEntity
  8
0
100
AcDbLine
 10
41.6851
 20
349.893
 30
0.0
 11
41.9283
 21
349.893
 31
0.0
  0
LINE
  5
4EB
330
1D
100
AcDbEntity
  8
0
100
AcDbLine
 10
41.9283
 20
349.893
 30
0.0
 11
42.1716
 21
349.893
 31
0.0
  0
LINE
  5
4EC
330
1D
100
AcDbEntity
  8
0
100
AcDbLine
 10
42.1716
 20
349.893
 30
0.0
 11
42.6581
 21
349.893
 31
0.0
  0
LINE
  5
4ED
330
1D
100
AcDbEntity
  8
0
100
AcDbLine
 10
42.6581
 20
349.893
 30
0.0
 11
43.5095
 21
349.893
 31
0.0
  0
LINE
  5
4EE
330
1D
100
AcDbEntity
  8
0
100
AcDbLine
 10
43.5095
 20
349.893
 30
0.0
 11
44.5434
 21
349.893
 31
0.0
  0
LINE
  5
4EF
330
1D
100
AcDbEntity
  8
0
100
AcDbLine
 10
44.5434
 20
349.893
 30
0.0
 11
45.6989
 21
349.893
 31
0.0
  0
LINE
  5
4F0
330
1D
100
AcDbEntity
  8
0
100
AcDbLine
 10
41.3343
 20
369.893
 30
0.0
 11
41.4948
 21
369.893
 31
0.0
  0
LINE
  5
4F1
330
1D
100
AcDbEntity
  8
0
100
AcDbLine
 10
41.4948
 20
369.893
 30
0.0
 11
41.6851
 21
369.893
 31
0.0
  0
LINE
  5
4F2
330
1D
100
AcDbEntity
  8
0
100
AcDbLine
 10
41.6851
 20
369.893
 30
0.0
 11
41.9283
 21
369.893
 31
0.0
  0
LINE
  5
4F3
330
1D
100
AcDbEntity
  8
0
100
AcDbLine
 10
41.9283
 20
369.893
 30
0.0
 11
42.1716
 21
369.893
 31
0.0
  0
LINE
  5
4F4
330
1D
100
AcDbEntity
  8
0
100
AcDbLine
 10
42.1716
 20
369.893
 30
0.0
 11
42.6581
 21
369.893
 31
0.0
  0
LINE
  5
4F5
330
1D
100
AcDbEntity
  8
0
100
AcDbLine
 10
42.6581
 20
369.893
 30
0.0
 11
43.5095
 21
369.893
 31
0.0
  0
LINE
  5
4F6
330
1D
100
AcDbEntity
  8
0
100
AcDbLine
 10
43.5095
 20
369.893
 30
0.0
 11
44.5434
 21
369.893
 31
0.0
  0
LINE
  5
4F7
330
1D
100
AcDbEntity
  8
0
100
AcDbLine
 10
44.5434
 20
369.893
 30
0.0
 11
45.6989
 21
369.893
 31
0.0
  0
LINE
  5
4F8
330
1D
100
AcDbEntity
  8
0
100
AcDbLine
 10
45.6989
 20
369.893
 30
0.0
 11
46.976
 21
369.893
 31
0.0
  0
LINE
  5
4F9
330
1D
100
AcDbEntity
  8
0
100
AcDbLine
 10
46.976
 20
369.893
 30
0.0
 11
48.4627
 21
369.893
 31
0.0
  0
LINE
  5
4FA
330
1D
100
AcDbEntity
  8
0
100
AcDbLine
 10
45.6989
 20
349.893
 30
0.0
 11
46.976
 21
349.893
 31
0.0
  0
LINE
  5
4FB
330
1D
100
AcDbEntity
  8
0
100
AcDbLine
 10
56.208
 20
349.893
 30
0.0
 11
59.0074
 21
349.893
 31
0.0
  0
LINE
  5
4FC
330
1D
100
AcDbEntity
  8
0
100
AcDbLine
 10
53.8953
 20
349.893
 30
0.0
 11
56.208
 21
349.893
 31
0.0
  0
LINE
  5
4FD
330
1D
100
AcDbEntity
  8
0
100
AcDbLine
 10
51.9479
 20
349.893
 30
0.0
 11
53.8953
 21
349.893
 31
0.0
  0
LINE
  5
4FE
330
1D
100
AcDbEntity
  8
0
100
AcDbLine
 10
50.183
 20
349.893
 30
0.0
 11
51.9479
 21
349.893
 31
0.0
  0
LINE
  5
4FF
330
1D
100
AcDbEntity
  8
0
100
AcDbLine
 10
56.208
 20
369.893
 30
0.0
 11
59.0074
 21
369.893
 31
0.0
  0
LINE
  5
500
330
1D
100
AcDbEntity
  8
0
100
AcDbLine
 10
53.8953
 20
369.893
 30
0.0
 11
56.208
 21
369.893
 31
0.0
  0
LINE
  5
501
330
1D
100
AcDbEntity
  8
0
100
AcDbLine
 10
51.9479
 20
369.893
 30
0.0
 11
53.8953
 21
369.893
 31
0.0
  0
LINE
  5
507
330
1D
100
AcDbEntity
  8
0
100
AcDbLine
 10
50.183
 20
369.893
 30
0.0
 11
51.9479
 21
369.893
 31
0.0
  0
LINE
  5
508
330
1D
100
AcDbEntity
  8
0
100
AcDbLine
 10
48.4627
 20
369.893
 30
0.0
 11
50.183
 21
369.893
 31
0.0
  0
LINE
  5
509
330
1D
100
AcDbEntity
  8
0
100
AcDbLine
 10
48.4627
 20
349.893
 30
0.0
 11
50.183
 21
349.893
 31
0.0
  0
LINE
  5
50A
330
1D
100
AcDbEntity
  8
0
100
AcDbLine
 10
46.976
 20
349.893
 30
0.0
 11
48.4627
 21
349.893
 31
0.0
  0
LINE
  5
527
330
1D
100
AcDbEntity
  8
0
100
AcDbLine
 10
59.0074
 20
369.893
 30
0.0
 11
61.9286
 21
369.893
 31
0.0
  0
LINE
  5
528
330
1D
100
AcDbEntity
  8
0
100
AcDbLine
 10
59.0074
 20
349.893
 30
0.0
 11
61.9286
 21
349.893
 31
0.0
  0
LINE
  5
547
330
1D
100
AcDbEntity
  8
0
100
AcDbLine
 10
61.9286
 20
369.893
 30
0.0
 11
65.0933
 21
369.893
 31
0.0
  0
LINE
  5
548
330
1D
100
AcDbEntity
  8
0
100
AcDbLine
 10
61.9286
 20
349.893
 30
0.0
 11
65.0933
 21
349.893
 31
0.0
  0
LINE
  5
55F
330
1D
100
AcDbEntity
  8
0
100
AcDbLine
 10
71.0822
 20
349.893
 30
0.0
 11
74.186
 21
349.893
 31
0.0
  0
LINE
  5
560
330
1D
100
AcDbEntity
  8
0
100
AcDbLine
 10
68.197
 20
349.893
 30
0.0
 11
71.0822
 21
349.893
 31
0.0
  0
LINE
  5
561
330
1D
100
AcDbEntity
  8
0
100
AcDbLine
 10
71.0822
 20
369.893
 30
0.0
 11
74.186
 21
369.893
 31
0.0
  0
LINE
  5
562
330
1D
100
AcDbEntity
  8
0
100
AcDbLine
 10
68.197
 20
369.893
 30
0.0
 11
71.0822
 21
369.893
 31
0.0
  0
LINE
  5
563
330
1D
100
AcDbEntity
  8
0
100
AcDbLine
 10
65.0933
 20
369.893
 30
0.0
 11
68.197
 21
369.893
 31
0.0
  0
LINE
  5
564
330
1D
100
AcDbEntity
  8
0
100
AcDbLine
 10
65.0933
 20
349.893
 30
0.0
 11
68.197
 21
349.893
 31
0.0
  0
LINE
  5
80D
330
1D
100
AcDbEntity
  8
0
100
AcDbLine
 10
74.186
 20
369.893
 30
0.0
 11
77.7518
 21
369.893
 31
0.0
  0
LINE
  5
80E
330
1D
100
AcDbEntity
  8
0
100
AcDbLine
 10
77.7518
 20
369.893
 30
0.0
 11
81.4641
 21
369.893
 31
0.0
  0
LINE
  5
80F
330
1D
100
AcDbEntity
  8
0
100
AcDbLine
 10
77.7518
 20
349.893
 30
0.0
 11
81.4641
 21
349.893
 31
0.0
  0
LINE
  5
810
330
1D
100
AcDbEntity
  8
0
100
AcDbLine
 10
74.186
 20
349.893
 30
0.0
 11
77.7518
 21
349.893
 31
0.0
  0
LINE
  5
814
330
1D
100
AcDbEntity
  8
0
100
AcDbLine
 10
81.4641
 20
369.893
 30
0.0
 11
85.0627
 21
369.893
 31
0.0
  0
LINE
  5
815
330
1D
100
AcDbEntity
  8
0
100
AcDbLine
 10
81.4641
 20
349.893
 30
0.0
 11
85.0627
 21
349.893
 31
0.0
  0
LINE
  5
8AD
330
1D
100
AcDbEntity
  8
0
100
AcDbLine
 10
85.0627
 20
369.893
 30
0.0
 11
95.0627
 21
369.893
 31
0.0
  0
LINE
  5
8AE
330
1D
100
AcDbEntity
  8
0
100
AcDbLine
 10
95.0627
 20
349.893
 30
0.0
 11
105.0627
 21
349.893
 31
0.0
  0
LINE
  5
8AF
330
1D
100
AcDbEntity
  8
0
100
AcDbLine
 10
105.0627
 20
349.893
 30
0.0
 11
108.6617
 21
349.893
 31
0.0
  0
LINE
  5
8B0
330
1D
100
AcDbEntity
  8
0
100
AcDbLine
 10
108.6617
 20
349.893
 30
0.0
 11
112.3737
 21
349.893
 31
0.0
  0
LINE
  5
8B1
330
1D
100
AcDbEntity
  8
0
100
AcDbLine
 10
112.3737
 20
349.893
 30
0.0
 11
115.9397
 21
349.893
 31
0.0
  0
LINE
  5
8B2
330
1D
100
AcDbEntity
  8
0
100
AcDbLine
 10
115.9397
 20
349.893
 30
0.0
 11
119.0427
 21
349.893
 31
0.0
  0
LINE
  5
8B3
330
1D
100
AcDbEntity
  8
0
100
AcDbLine
 10
119.0427
 20
349.893
 30
0.0
 11
121.9287
 21
349.893
 31
0.0
  0
LINE
  5
8B4
330
1D
100
AcDbEntity
  8
0
100
AcDbLine
 10
121.9287
 20
349.893
 30
0.0
 11
125.0317
 21
349.893
 31
0.0
  0
LINE
  5
8B5
330
1D
100
AcDbEntity
  8
0
100
AcDbLine
 10
95.0627
 20
369.893
 30
0.0
 11
105.0627
 21
369.893
 31
0.0
  0
LINE
  5
8B6
330
1D
100
AcDbEntity
  8
0
100
AcDbLine
 10
105.0627
 20
369.893
 30
0.0
 11
108.6617
 21
369.893
 31
0.0
  0
LINE
  5
8B7
330
1D
100
AcDbEntity
  8
0
100
AcDbLine
 10
108.6617
 20
369.893
 30
0.0
 11
112.3737
 21
369.893
 31
0.0
  0
LINE
  5
8B8
330
1D
100
AcDbEntity
  8
0
100
AcDbLine
 10
112.3737
 20
369.893
 30
0.0
 11
115.9397
 21
369.893
 31
0.0
  0
LINE
  5
8B9
330
1D
100
AcDbEntity
  8
0
100
AcDbLine
 10
115.9397
 20
369.893
 30
0.0
 11
119.0427
 21
369.893
 31
0.0
  0
LINE
  5
8BA
330
1D
100
AcDbEntity
  8
0
100
AcDbLine
 10
119.0427
 20
369.893
 30
0.0
 11
121.9287
 21
369.893
 31
0.0
  0
LINE
  5
8BB
330
1D
100
AcDbEntity
  8
0
100
AcDbLine
 10
121.9287
 20
369.893
 30
0.0
 11
125.0317
 21
369.893
 31
0.0
  0
LINE
  5
8BC
330
1D
100
AcDbEntity
  8
0
100
AcDbLine
 10
125.0317
 20
369.893
 30
0.0
 11
128.1967
 21
369.893
 31
0.0
  0
LINE
  5
8BD
330
1D
100
AcDbEntity
  8
0
100
AcDbLine
 10
125.0317
 20
349.893
 30
0.0
 11
128.1967
 21
349.893
 31
0.0
  0
LINE
  5
8BE
330
1D
100
AcDbEntity
  8
0
100
AcDbLine
 10
85.0627
 20
349.893
 30
0.0
 11
95.0627
 21
349.893
 31
0.0
  0
LINE
  5
908
330
1D
100
AcDbEntity
  8
0
100
AcDbLine
 10
128.1967
 20
349.893
 30
0.0
 11
131.1177
 21
349.893
 31
0.0
  0
LINE
  5
909
330
1D
100
AcDbEntity
  8
0
100
AcDbLine
 10
131.1177
 20
349.893
 30
0.0
 11
133.9177
 21
349.893
 31
0.0
  0
LINE
  5
90A
330
1D
100
AcDbEntity
  8
0
100
AcDbLine
 10
133.9177
 20
349.893
 30
0.0
 11
136.2297
 21
349.893
 31
0.0
  0
LINE
  5
90B
330
1D
100
AcDbEntity
  8
0
100
AcDbLine
 10
136.2297
 20
349.893
 30
0.0
 11
138.1777
 21
349.893
 31
0.0
  0
LINE
  5
90C
330
1D
100
AcDbEntity
  8
0
100
AcDbLine
 10
138.1777
 20
349.893
 30
0.0
 11
139.9427
 21
349.893
 31
0.0
  0
LINE
  5
90D
330
1D
100
AcDbEntity
  8
0
100
AcDbLine
 10
128.1967
 20
369.893
 30
0.0
 11
131.1177
 21
369.893
 31
0.0
  0
LINE
  5
90E
330
1D
100
AcDbEntity
  8
0
100
AcDbLine
 10
131.1177
 20
369.893
 30
0.0
 11
133.9177
 21
369.893
 31
0.0
  0
LINE
  5
90F
330
1D
100
AcDbEntity
  8
0
100
AcDbLine
 10
133.9177
 20
369.893
 30
0.0
 11
136.2297
 21
369.893
 31
0.0
  0
LINE
  5
910
330
1D
100
AcDbEntity
  8
0
100
AcDbLine
 10
136.2297
 20
369.893
 30
0.0
 11
138.1777
 21
369.893
 31
0.0
  0
LINE
  5
911
330
1D
100
AcDbEntity
  8
0
100
AcDbLine
 10
138.1777
 20
369.893
 30
0.0
 11
139.9427
 21
369.893
 31
0.0
  0
LINE
  5
912
330
1D
100
AcDbEntity
  8
0
100
AcDbLine
 10
139.9427
 20
369.893
 30
0.0
 11
141.6627
 21
369.893
 31
0.0
  0
LINE
  5
913
330
1D
100
AcDbEntity
  8
0
100
AcDbLine
 10
139.9427
 20
349.893
 30
0.0
 11
141.6627
 21
349.893
 31
0.0
  0
LINE
  5
914
330
1D
100
AcDbEntity
  8
0
100
AcDbLine
 10
148.0627
 20
349.893
 30
0.0
 11
154.0627
 21
349.893
 31
0.0
  0
LINE
  5
915
330
1D
100
AcDbEntity
  8
0
100
AcDbLine
 10
148.9877
 20
349.893
 30
0.0
 11
149.0627
 21
349.893
 31
0.0
  0
LINE
  5
916
330
1D
100
AcDbEntity
  8
0
100
AcDbLine
 10
148.9267
 20
349.893
 30
0.0
 11
148.9877
 21
349.893
 31
0.0
  0
LINE
  5
917
330
1D
100
AcDbEntity
  8
0
100
AcDbLine
 10
148.7907
 20
349.893
 30
0.0
 11
148.9267
 21
349.893
 31
0.0
  0
LINE
  5
918
330
1D
100
AcDbEntity
  8
0
100
AcDbLine
 10
148.6307
 20
349.893
 30
0.0
 11
148.7907
 21
349.893
 31
0.0
  0
LINE
  5
919
330
1D
100
AcDbEntity
  8
0
100
AcDbLine
 10
148.4407
 20
349.893
 30
0.0
 11
148.6307
 21
349.893
 31
0.0
  0
LINE
  5
91A
330
1D
100
AcDbEntity
  8
0
100
AcDbLine
 10
148.1967
 20
349.893
 30
0.0
 11
148.4407
 21
349.893
 31
0.0
  0
LINE
  5
91B
330
1D
100
AcDbEntity
  8
0
100
AcDbLine
 10
147.9537
 20
349.893
 30
0.0
 11
148.1967
 21
349.893
 31
0.0
  0
LINE
  5
91C
330
1D
100
AcDbEntity
  8
0
100
AcDbLine
 10
147.4677
 20
349.893
 30
0.0
 11
147.9537
 21
349.893
 31
0.0
  0
LINE
  5
91D
330
1D
100
AcDbEntity
  8
0
100
AcDbLine
 10
146.6157
 20
349.893
 30
0.0
 11
147.4677
 21
349.893
 31
0.0
  0
LINE
  5
91E
330
1D
100
AcDbEntity
  8
0
100
AcDbLine
 10
145.5817
 20
349.893
 30
0.0
 11
146.6157
 21
349.893
 31
0.0
  0
LINE
  5
91F
330
1D
100
AcDbEntity
  8
0
100
AcDbLine
 10
144.4267
 20
349.893
 30
0.0
 11
145.5817
 21
349.893
 31
0.0
  0
LINE
  5
920
330
1D
100
AcDbEntity
  8
0
100
AcDbLine
 10
143.1497
 20
349.893
 30
0.0
 11
144.4267
 21
349.893
 31
0.0
  0
LINE
  5
921
330
1D
100
AcDbEntity
  8
0
100
AcDbLine
 10
148.98465
 20
368.893
 30
0.0
 11
154.0627
 21
368.893
 31
0.0
  0
LINE
  5
922
330
1D
100
AcDbEntity
  8
0
100
AcDbLine
 10
148.9877
 20
369.893
 30
0.0
 11
149.0627
 21
369.893
 31
0.0
  0
LINE
  5
923
330
1D
100
AcDbEntity
  8
0
100
AcDbLine
 10
148.9267
 20
369.893
 30
0.0
 11
148.9877
 21
369.893
 31
0.0
  0
LINE
  5
924
330
1D
100
AcDbEntity
  8
0
100
AcDbLine
 10
148.7907
 20
369.893
 30
0.0
 11
148.9267
 21
369.893
 31
0.0
  0
LINE
  5
925
330
1D
100
AcDbEntity
  8
0
100
AcDbLine
 10
148.6307
 20
369.893
 30
0.0
 11
148.7907
 21
369.893
 31
0.0
  0
LINE
  5
926
330
1D
100
AcDbEntity
  8
0
100
AcDbLine
 10
148.4407
 20
369.893
 30
0.0
 11
148.6307
 21
369.893
 31
0.0
  0
LINE
  5
927
330
1D
100
AcDbEntity
  8
0
100
AcDbLine
 10
148.1967
 20
369.893
 30
0.0
 11
148.4407
 21
369.893
 31
0.0
  0
LINE
  5
928
330
1D
100
AcDbEntity
  8
0
100
AcDbLine
 10
147.9537
 20
369.893
 30
0.0
 11
148.1967
 21
369.893
 31
0.0
  0
LINE
  5
929
330
1D
100
AcDbEntity
  8
0
100
AcDbLine
 10
147.4677
 20
369.893
 30
0.0
 11
147.9537
 21
369.893
 31
0.0
  0
LINE
  5
92A
330
1D
100
AcDbEntity
  8
0
100
AcDbLine
 10
146.6157
 20
369.893
 30
0.0
 11
147.4677
 21
369.893
 31
0.0
  0
LINE
  5
92B
330
1D
100
AcDbEntity
  8
0
100
AcDbLine
 10
145.5817
 20
369.893
 30
0.0
 11
146.6157
 21
369.893
 31
0.0
  0
LINE
  5
92C
330
1D
100
AcDbEntity
  8
0
100
AcDbLine
 10
144.4267
 20
369.893
 30
0.0
 11
145.5817
 21
369.893
 31
0.0
  0
LINE
  5
92D
330
1D
100
AcDbEntity
  8
0
100
AcDbLine
 10
143.1497
 20
369.893
 30
0.0
 11
144.4267
 21
369.893
 31
0.0
  0
LINE
  5
92E
330
1D
100
AcDbEntity
  8
0
100
AcDbLine
 10
141.6627
 20
369.893
 30
0.0
 11
143.1497
 21
369.893
 31
0.0
  0
LINE
  5
92F
330
1D
100
AcDbEntity
  8
0
100
AcDbLine
 10
141.6627
 20
349.893
 30
0.0
 11
143.1497
 21
349.893
 31
0.0
  0
LINE
  5
930
330
1D
100
AcDbEntity
  8
0
100
AcDbLine
 10
154.0627
 20
349.893
 30
0.0
 11
154.0627
 21
368.893
 31
0.0
  0
LINE
  5
931
330
1D
100
AcDbEntity
  8
0
100
AcDbLine
 10
154.0627
 20
349.893
 30
0.0
 11
157.0627
 21
349.893
 31
0.0
  0
LINE
  5
932
330
1D
100
AcDbEntity
  8
0
100
AcDbLine
 10
154.0627
 20
349.893
 30
0.0
 11
168.0627
 21
349.893
 31
0.0
  0
LINE
  5
933
330
1D
100
AcDbEntity
  8
0
100
AcDbLine
 10
149.0627
 20
369.893
 30
0.0
 11
149.0627
 21
368.893
 31
0.0
  0
LINE
  5
934
330
1D
100
AcDbEntity
  8
0
100
AcDbLine
 10
154.0627
 20
367.893
 30
0.0
 11
168.0627
 21
367.893
 31
0.0
  0
LINE
  5
935
330
1D
100
AcDbEntity
  8
0
100
AcDbLine
 10
154.0627
 20
368.893
 30
0.0
 11
154.0627
 21
349.893
 31
0.0
  0
LINE
  5
936
330
1D
100
AcDbEntity
  8
0
100
AcDbLine
 10
149.0627
 20
368.893
 30
0.0
 11
149.0627
 21
369.893
 31
0.0
  0
LINE
  5
940
330
1D
100
AcDbEntity
  8
0
100
AcDbLine
 10
152.6047
 20
865.067
 30
0.0
 11
154.1627
 21
868.969
 31
0.0
  0
LINE
  5
941
330
1D
100
AcDbEntity
  8
0
100
AcDbLine
 10
152.0027
 20
860.909
 30
0.0
 11
152.6537
 21
856.782
 31
0.0
  0
LINE
  5
942
330
1D
100
AcDbEntity
  8
0
100
AcDbLine
 10
152.0027
 20
860.909
 30
0.0
 11
152.6047
 21
865.067
 31
0.0
  0
LINE
  5
943
330
1D
100
AcDbEntity
  8
0
100
AcDbLine
 10
152.6537
 20
856.782
 30
0.0
 11
154.1847
 21
852.931
 31
0.0
  0
LINE
  5
945
330
1D
100
AcDbEntity
  8
0
100
AcDbLine
 10
157.0627
 20
200.277615
 30
0.0
 11
157.3267
 21
199.893
 31
0.0
  0
LINE
  5
946
330
1D
100
AcDbEntity
  8
0
100
AcDbLine
 10
157.0627
 20
200.277615
 30
0.0
 11
157.0627
 21
269.5084
 31
0.0
  0
LINE
  5
947
330
1D
100
AcDbEntity
  8
0
100
AcDbLine
 10
157.3267
 20
199.893
 30
0.0
 11
157.7227
 21
199.893
 31
0.0
  0
LINE
  5
948
330
1D
100
AcDbEntity
  8
0
100
AcDbLine
 10
157.7227
 20
199.893
 30
0.0
 11
158.7787
 21
199.893
 31
0.0
  0
LINE
  5
94C
330
1D
100
AcDbEntity
  8
0
100
AcDbLine
 10
157.0627
 20
269.5084
 30
0.0
 11
157.3267
 21
269.893
 31
0.0
  0
LINE
  5
94D
330
1D
100
AcDbEntity
  8
0
100
AcDbLine
 10
157.0627
 20
269.5084
 30
0.0
 11
157.0627
 21
200.277615
 31
0.0
  0
LINE
  5
94E
330
1D
100
AcDbEntity
  8
0
100
AcDbLine
 10
157.0627
 20
270.493
 30
0.0
 11
157.3267
 21
269.893
 31
0.0
  0
LINE
  5
94F
330
1D
100
AcDbEntity
  8
0
100
AcDbLine
 10
157.0627
 20
270.493
 30
0.0
 11
157.0627
 21
349.893
 31
0.0
  0
LINE
  5
950
330
1D
100
AcDbEntity
  8
0
100
AcDbLine
 10
157.0627
 20
349.893
 30
0.0
 11
157.0627
 21
270.493
 31
0.0
  0
LINE
  5
951
330
1D
100
AcDbEntity
  8
0
100
AcDbLine
 10
157.0627
 20
349.893
 30
0.0
 11
163.0627
 21
349.893
 31
0.0
  0
LINE
  5
953
330
1D
100
AcDbEntity
  8
0
100
AcDbLine
 10
157.0627
 20
367.893
 30
0.0
 11
157.0627
 21
778.893
 31
0.0
  0
LINE
  5
954
330
1D
100
AcDbEntity
  8
0
100
AcDbLine
 10
157.3267
 20
269.893
 30
0.0
 11
157.7227
 21
269.893
 31
0.0
  0
LINE
  5
955
330
1D
100
AcDbEntity
  8
0
100
AcDbLine
 10
157.7227
 20
269.893
 30
0.0
 11
158.7787
 21
269.893
 31
0.0
  0
LINE
  5
957
330
1D
100
AcDbEntity
  8
0
100
AcDbLine
 10
158.7787
 20
199.893
 30
0.0
 11
160.4947
 21
199.893
 31
0.0
  0
LINE
  5
958
330
1D
100
AcDbEntity
  8
0
100
AcDbLine
 10
158.7787
 20
269.893
 30
0.0
 11
160.4947
 21
269.893
 31
0.0
  0
LINE
  5
95B
330
1D
100
AcDbEntity
  8
0
100
AcDbLine
 10
160.4947
 20
199.893
 30
0.0
 11
162.7387
 21
199.893
 31
0.0
  0
LINE
  5
95D
330
1D
100
AcDbEntity
  8
0
100
AcDbLine
 10
160.4947
 20
269.893
 30
0.0
 11
162.7387
 21
269.893
 31
0.0
  0
LINE
  5
95F
330
1D
100
AcDbEntity
  8
0
100
AcDbLine
 10
160.0027
 20
847.053
 30
0.0
 11
163.9047
 21
845.495
 31
0.0
  0
LINE
  5
961
330
1D
100
AcDbEntity
  8
0
100
AcDbLine
 10
156.7537
 20
849.68
 30
0.0
 11
157.0627
 21
849.430156048015
 31
0.0
  0
LINE
  5
962
330
1D
100
AcDbEntity
  8
0
100
AcDbLine
 10
156.7537
 20
849.68
 30
0.0
 11
160.0027
 21
847.053
 31
0.0
  0
LINE
  5
963
330
1D
100
AcDbEntity
  8
0
100
AcDbLine
 10
154.1847
 20
852.931
 30
0.0
 11
156.7537
 21
849.68
 31
0.0
  0
LINE
  5
966
330
1D
100
AcDbEntity
  8
0
100
AcDbLine
 10
154.1627
 20
868.969
 30
0.0
 11
156.7897
 21
872.218
 31
0.0
  0
LINE
  5
967
330
1D
100
AcDbEntity
  8
0
100
AcDbLine
 10
161.568412050105
 20
867.741546574245
 30
0.0
 11
169.1137
 21
850.147
 31
0.0
  0
LINE
  5
968
330
1D
100
AcDbEntity
  8
0
100
AcDbLine
 10
162.7387
 20
199.893
 30
0.0
 11
165.2907
 21
199.893
 31
0.0
  0
LINE
  5
96A
330
1D
100
AcDbEntity
  8
0
100
AcDbLine
 10
163.0627
 20
349.893
 30
0.0
 11
168.0627
 21
349.893
 31
0.0
  0
LINE
  5
96B
330
1D
100
AcDbEntity
  8
0
100
AcDbLine
 10
162.7387
 20
269.893
 30
0.0
 11
165.2907
 21
269.893
 31
0.0
  0
LINE
  5
96E
330
1D
100
AcDbEntity
  8
0
100
AcDbLine
 10
168.0627
 20
199.893
 30
0.0
 11
170.8347
 21
199.893
 31
0.0
  0
LINE
  5
970
330
1D
100
AcDbEntity
  8
0
100
AcDbLine
 10
165.2907
 20
199.893
 30
0.0
 11
168.0627
 21
199.893
 31
0.0
  0
LINE
  5
971
330
1D
100
AcDbEntity
  8
0
100
AcDbLine
 10
168.0627
 20
269.893
 30
0.0
 11
170.8347
 21
269.893
 31
0.0
  0
LINE
  5
973
330
1D
100
AcDbEntity
  8
0
100
AcDbLine
 10
168.0627
 20
367.893
 30
0.0
 11
171.3907
 21
367.893
 31
0.0
  0
LINE
  5
974
330
1D
100
AcDbEntity
  8
0
100
AcDbLine
 10
168.0627
 20
349.893
 30
0.0
 11
171.3907
 21
349.893
 31
0.0
  0
LINE
  5
975
330
1D
100
AcDbEntity
  8
0
100
AcDbLine
 10
168.0627
 20
349.893
 30
0.0
 11
170.8787
 21
349.893
 31
0.0
  0
LINE
  5
976
330
1D
100
AcDbEntity
  8
0
100
AcDbLine
 10
165.2907
 20
269.893
 30
0.0
 11
168.0627
 21
269.893
 31
0.0
  0
LINE
  5
978
330
1D
100
AcDbEntity
  8
0
100
AcDbLine
 10
168.0627
 20
844.893
 30
0.0
 11
170.785868140755
 21
845.322453115221
 31
0.0
  0
LINE
  5
979
330
1D
100
AcDbEntity
  8
0
100
AcDbLine
 10
163.9047
 20
845.495
 30
0.0
 11
168.0627
 21
844.893
 31
0.0
  0
LINE
  5
97A
330
1D
100
AcDbEntity
  8
0
100
AcDbLine
 10
169.1137
 20
850.147
 30
0.0
 11
177.0147
 21
827.351
 31
0.0
  0
LINE
  5
97B
330
1D
100
AcDbEntity
  8
0
100
AcDbLine
 10
170.8347
 20
199.893
 30
0.0
 11
173.3867
 21
199.893
 31
0.0
  0
LINE
  5
97D
330
1D
100
AcDbEntity
  8
0
100
AcDbLine
 10
175.6307
 20
199.893
 30
0.0
 11
177.3467
 21
199.893
 31
0.0
  0
LINE
  5
97E
330
1D
100
AcDbEntity
  8
0
100
AcDbLine
 10
173.3867
 20
199.893
 30
0.0
 11
175.6307
 21
199.893
 31
0.0
  0
LINE
  5
97F
330
1D
100
AcDbEntity
  8
0
100
AcDbLine
 10
178.4027
 20
199.893
 30
0.0
 11
178.7987
 21
199.893
 31
0.0
  0
LINE
  5
980
330
1D
100
AcDbEntity
  8
0
100
AcDbLine
 10
178.7987
 20
199.893
 30
0.0
 11
179.0627
 21
200.277615
 31
0.0
  0
LINE
  5
981
330
1D
100
AcDbEntity
  8
0
100
AcDbLine
 10
177.3467
 20
199.893
 30
0.0
 11
178.4027
 21
199.893
 31
0.0
  0
LINE
  5
983
330
1D
100
AcDbEntity
  8
0
100
AcDbLine
 10
179.0627
 20
200.277615
 30
0.0
 11
179.0627
 21
224.893
 31
0.0
  0
LINE
  5
987
330
1D
100
AcDbEntity
  8
0
100
AcDbLine
 10
172.580033532474
 20
224.893
 30
0.0
 11
192.745205242343
 21
224.893
 31
0.0
  0
LINE
  5
988
330
1D
100
AcDbEntity
  8
0
100
AcDbLine
 10
173.5187
 20
349.893
 30
0.0
 11
175.8507
 21
349.893
 31
0.0
  0
LINE
  5
989
330
1D
100
AcDbEntity
  8
0
100
AcDbLine
 10
170.8787
 20
349.893
 30
0.0
 11
173.5187
 21
349.893
 31
0.0
  0
LINE
  5
98A
330
1D
100
AcDbEntity
  8
0
100
AcDbLine
 10
178.6667
 20
349.893
 30
0.0
 11
179.0627
 21
349.893
 31
0.0
  0
LINE
  5
98B
330
1D
100
AcDbEntity
  8
0
100
AcDbLine
 10
177.6107
 20
349.893
 30
0.0
 11
178.6667
 21
349.893
 31
0.0
  0
LINE
  5
98C
330
1D
100
AcDbEntity
  8
0
100
AcDbLine
 10
175.8507
 20
349.893
 30
0.0
 11
177.6107
 21
349.893
 31
0.0
  0
LINE
  5
98D
330
1D
100
AcDbEntity
  8
0
100
AcDbLine
 10
177.2667
 20
349.893
 30
0.0
 11
179.3467
 21
349.893
 31
0.0
  0
LINE
  5
98E
330
1D
100
AcDbEntity
  8
0
100
AcDbLine
 10
174.5107
 20
349.893
 30
0.0
 11
177.2667
 21
349.893
 31
0.0
  0
LINE
  5
98F
330
1D
100
AcDbEntity
  8
0
100
AcDbLine
 10
171.3907
 20
349.893
 30
0.0
 11
174.5107
 21
349.893
 31
0.0
  0
LINE
  5
990
330
1D
100
AcDbEntity
  8
0
100
AcDbLine
 10
179.0627
 20
270.493
 30
0.0
 11
179.0627
 21
349.893
 31
0.0
  0
LINE
  5
991
330
1D
100
AcDbEntity
  8
0
100
AcDbLine
 10
178.7987
 20
269.893
 30
0.0
 11
179.0627
 21
270.493
 31
0.0
  0
LINE
  5
992
330
1D
100
AcDbEntity
  8
0
100
AcDbLine
 10
177.2667
 20
367.893
 30
0.0
 11
179.3467
 21
367.893
 31
0.0
  0
LINE
  5
993
330
1D
100
AcDbEntity
  8
0
100
AcDbLine
 10
174.5107
 20
367.893
 30
0.0
 11
177.2667
 21
367.893
 31
0.0
  0
LINE
  5
994
330
1D
100
AcDbEntity
  8
0
100
AcDbLine
 10
171.3907
 20
367.893
 30
0.0
 11
174.5107
 21
367.893
 31
0.0
  0
LINE
  5
995
330
1D
100
AcDbEntity
  8
0
100
AcDbLine
 10
179.0627
 20
349.893
 30
0.0
 11
179.0627
 21
270.493
 31
0.0
  0
LINE
  5
996
330
1D
100
AcDbEntity
  8
0
100
AcDbLine
 10
179.0627
 20
349.893
 30
0.0
 11
179.3467
 21
349.893
 31
0.0
  0
LINE
  5
997
330
1D
100
AcDbEntity
  8
0
100
AcDbLine
 10
181.0627
 20
349.893
 30
0.0
 11
181.0627
 21
367.893
 31
0.0
  0
LINE
  5
998
330
1D
100
AcDbEntity
  8
0
100
AcDbLine
 10
180.5947
 20
349.893
 30
0.0
 11
181.0627
 21
349.893
 31
0.0
  0
LINE
  5
999
330
1D
100
AcDbEntity
  8
0
100
AcDbLine
 10
180.5947
 20
367.893
 30
0.0
 11
181.0627
 21
367.893
 31
0.0
  0
LINE
  5
99A
330
1D
100
AcDbEntity
  8
0
100
AcDbLine
 10
179.3467
 20
367.893
 30
0.0
 11
180.5947
 21
367.893
 31
0.0
  0
LINE
  5
99B
330
1D
100
AcDbEntity
  8
0
100
AcDbLine
 10
181.0627
 20
367.893
 30
0.0
 11
181.0627
 21
349.893
 31
0.0
  0
LINE
  5
99C
330
1D
100
AcDbEntity
  8
0
100
AcDbLine
 10
179.3467
 20
349.893
 30
0.0
 11
180.5947
 21
349.893
 31
0.0
  0
LINE
  5
99D
330
1D
100
AcDbEntity
  8
0
100
AcDbLine
 10
179.0627
 20
778.893
 30
0.0
 11
179.0627
 21
819.29212
 31
0.0
  0
LINE
  5
99E
330
1D
100
AcDbEntity
  8
0
100
AcDbLine
 10
179.0627
 20
819.29212
 30
0.0
 11
179.0627
 21
778.893
 31
0.0
  0
LINE
  5
99F
330
1D
100
AcDbEntity
  8
0
100
AcDbLine
 10
179.0627
 20
367.893
 30
0.0
 11
179.0627
 21
778.893
 31
0.0
  0
LINE
  5
9A1
330
1D
100
AcDbEntity
  8
0
100
AcDbLine
 10
170.8347
 20
269.893
 30
0.0
 11
192.710543695392
 21
269.893
 31
0.0
  0
LINE
  5
9A2
330
1D
100
AcDbEntity
  8
0
100
AcDbLine
 10
179.0627
 20
224.893
 30
0.0
 11
192.745205242343
 21
224.893
 31
0.0
  0
LINE
  5
9A3
330
1D
100
AcDbEntity
  8
0
100
AcDbLine
 10
179.0627
 20
224.893
 30
0.0
 11
179.0627
 21
200.277615
 31
0.0
  0
LINE
  5
9A4
330
1D
100
AcDbEntity
  8
0
100
AcDbLine
 10
192.5137
 20
725.449
 30
0.0
 11
192.9157
 21
203.545
 31
0.0
  0
LINE
  5
9A5
330
1D
100
AcDbEntity
  8
0
100
AcDbLine
 10
192.5137
 20
725.449
 30
0.0
 11
192.9157
 21
203.545
 31
0.0
  0
LINE
  5
9A6
330
1D
100
AcDbEntity
  8
0
100
AcDbLine
 10
201.8317
 20
200.107
 30
0.0
 11
204.7377
 21
200.615
 31
0.0
  0
LINE
  5
9A7
330
1D
100
AcDbEntity
  8
0
100
AcDbLine
 10
207.1297
 20
201.566
 30
0.0
 11
208.5587
 21
202.94
 31
0.0
  0
LINE
  5
9A8
330
1D
100
AcDbEntity
  8
0
100
AcDbLine
 10
204.7377
 20
200.615
 30
0.0
 11
207.1297
 21
201.566
 31
0.0
  0
LINE
  5
9A9
330
1D
100
AcDbEntity
  8
0
100
AcDbLine
 10
198.6887
 20
200.236
 30
0.0
 11
201.8317
 21
200.107
 31
0.0
  0
LINE
  5
9AA
330
1D
100
AcDbEntity
  8
0
100
AcDbLine
 10
195.8897
 20
200.939
 30
0.0
 11
198.6887
 21
200.236
 31
0.0
  0
LINE
  5
9AB
330
1D
100
AcDbEntity
  8
0
100
AcDbLine
 10
207.7917
 20
205.91
 30
0.0
 11
208.8217
 21
204.482
 31
0.0
  0
LINE
  5
9AC
330
1D
100
AcDbEntity
  8
0
100
AcDbLine
 10
205.8557
 20
207.086
 30
0.0
 11
207.7917
 21
205.91
 31
0.0
  0
LINE
  5
9AD
330
1D
100
AcDbEntity
  8
0
100
AcDbLine
 10
203.0617
 20
207.789
 30
0.0
 11
205.8557
 21
207.086
 31
0.0
  0
LINE
  5
9AE
330
1D
100
AcDbEntity
  8
0
100
AcDbLine
 10
199.9187
 20
207.921
 30
0.0
 11
203.0617
 21
207.789
 31
0.0
  0
LINE
  5
9AF
330
1D
100
AcDbEntity
  8
0
100
AcDbLine
 10
197.0087
 20
207.415
 30
0.0
 11
199.9187
 21
207.921
 31
0.0
  0
LINE
  5
9B0
330
1D
100
AcDbEntity
  8
0
100
AcDbLine
 10
194.6137
 20
206.463
 30
0.0
 11
197.0087
 21
207.415
 31
0.0
  0
LINE
  5
9B1
330
1D
100
AcDbEntity
  8
0
100
AcDbLine
 10
193.1807
 20
205.09
 30
0.0
 11
194.6137
 21
206.463
 31
0.0
  0
LINE
  5
9B2
330
1D
100
AcDbEntity
  8
0
100
AcDbLine
 10
208.5137
 20
725.453
 30
0.0
 11
208.8217
 21
204.482
 31
0.0
  0
LINE
  5
9B3
330
1D
100
AcDbEntity
  8
0
100
AcDbLine
 10
208.5137
 20
725.453
 30
0.0
 11
208.8217
 21
204.482
 31
0.0
  0
LINE
  5
9B4
330
1D
100
AcDbEntity
  8
0
100
AcDbLine
 10
208.5587
 20
202.94
 30
0.0
 11
208.8217
 21
204.482
 31
0.0
  0
LINE
  5
9B5
330
1D
100
AcDbEntity
  8
0
100
AcDbLine
 10
193.9497
 20
202.115
 30
0.0
 11
195.8897
 21
200.939
 31
0.0
  0
LINE
  5
9B6
330
1D
100
AcDbEntity
  8
0
100
AcDbLine
 10
192.9157
 20
203.545
 30
0.0
 11
193.9497
 21
202.115
 31
0.0
  0
LINE
  5
9B7
330
1D
100
AcDbEntity
  8
0
100
AcDbLine
 10
192.9157
 20
203.545
 30
0.0
 11
193.1807
 21
205.09
 31
0.0
  0
LINE
  5
9B8
330
1D
100
AcDbEntity
  8
0
100
AcDbLine
 10
206.5137
 20
759.854
 30
0.0
 11
208.5137
 21
725.453
 31
0.0
  0
LINE
  5
9B9
330
1D
100
AcDbEntity
  8
0
100
AcDbLine
 10
190.7127
 20
757.051
 30
0.0
 11
192.5137
 21
725.449
 31
0.0
  0
LINE
  5
9BA
330
1D
100
AcDbEntity
  8
0
100
AcDbLine
 10
202.8137
 20
784.252
 30
0.0
 11
206.5137
 21
759.854
 31
0.0
  0
LINE
  5
9BB
330
1D
100
AcDbEntity
  8
0
100
AcDbLine
 10
187.8137
 20
778.747
 30
0.0
 11
190.7127
 21
757.051
 31
0.0
  0
LINE
  5
9BC
330
1D
100
AcDbEntity
  8
0
100
AcDbLine
 10
197.7137
 20
809.65
 30
0.0
 11
202.8137
 21
784.252
 31
0.0
  0
LINE
  5
9BD
330
1D
100
AcDbEntity
  8
0
100
AcDbLine
 10
183.2147
 20
802.954
 30
0.0
 11
187.8137
 21
778.747
 31
0.0
  0
LINE
  5
9BE
330
1D
100
AcDbEntity
  8
0
100
AcDbLine
 10
190.9137
 20
835.357
 30
0.0
 11
197.7137
 21
809.65
 31
0.0
  0
LINE
  5
9BF
330
1D
100
AcDbEntity
  8
0
100
AcDbLine
 10
177.0147
 20
827.351
 30
0.0
 11
183.2147
 21
802.954
 31
0.0
  0
LINE
  5
9C0
330
1D
100
AcDbEntity
  8
0
100
AcDbLine
 10
161.6357
 20
867.625
 30
0.0
 11
163.9737
 21
868.975
 31
0.0
  0
LINE
  5
9C3
330
1D
100
AcDbEntity
  8
0
100
AcDbLine
 10
163.9737
 20
868.975
 30
0.0
 11
166.6587
 21
870.525
 31
0.0
  0
LINE
  5
9C6
330
1D
100
AcDbEntity
  8
0
100
AcDbLine
 10
181.8977
 20
868.931
 30
0.0
 11
183.4277
 21
865.08
 31
0.0
  0
LINE
  5
9C7
330
1D
100
AcDbEntity
  8
0
100
AcDbLine
 10
166.6587
 20
870.525
 30
0.0
 11
169.6027
 21
872.225
 31
0.0
  0
LINE
  5
9CC
330
1D
100
AcDbEntity
  8
0
100
AcDbLine
 10
183.355750482196
 20
856.492082786603
 30
0.0
 11
183.4767
 21
856.795
 31
0.0
  0
LINE
  5
9CF
330
1D
100
AcDbEntity
  8
0
100
AcDbLine
 10
183.4767
 20
856.795
 30
0.0
 11
184.0787
 21
860.953
 31
0.0
  0
LINE
  5
9D0
330
1D
100
AcDbEntity
  8
0
100
AcDbLine
 10
183.4277
 20
865.08
 30
0.0
 11
184.0787
 21
860.953
 31
0.0
  0
LINE
  5
9D1
330
1D
100
AcDbEntity
  8
0
100
AcDbLine
 10
182.5147
 20
858.844
 30
0.0
 11
190.9137
 21
835.357
 31
0.0
  0
LINE
  5
9D2
330
1D
100
AcDbEntity
  8
0
100
AcDbLine
 10
161.568412050105
 20
867.741546574245
 30
0.0
 11
169.1137
 21
850.147
 31
0.0
  0
LINE
  5
9D4
330
1D
100
AcDbEntity
  8
0
100
AcDbLine
 10
157.0627
 20
849.288968859478
 30
0.0
 11
157.0627
 21
778.893
 31
0.0
  0
LINE
  5
9D5
330
1D
100
AcDbEntity
  8
0
100
AcDbLine
 10
156.7897
 20
872.218
 30
0.0
 11
157.628256091299
 21
872.88064244803
 31
0.0
  0
LINE
  5
9D6
330
1D
100
AcDbEntity
  8
0
100
AcDbLine
 10
156.7897
 20
872.218
 30
0.0
 11
157.0627
 21
872.433729621655
 31
0.0
  0
LINE
  5
9D9
330
1D
100
AcDbEntity
  8
0
100
AcDbLine
 10
179.3277
 20
872.182
 30
0.0
 11
181.8977
 21
868.931
 31
0.0
  0
LINE
  5
9DA
330
1D
100
AcDbEntity
  8
0
100
AcDbLine
 10
174.944866695237
 20
875.261719704977
 30
0.0
 11
176.0787
 21
874.809
 31
0.0
  0
LINE
  5
9DC
330
1D
100
AcDbEntity
  8
0
100
AcDbLine
 10
176.0787
 20
874.809
 30
0.0
 11
179.3277
 21
872.182
 31
0.0
  0
LINE
  5
9DD
330
1D
100
AcDbEntity
  8
0
100
AcDbLine
 10
179.0627
 20
872.396267466913
 30
0.0
 11
179.3277
 21
872.182
 31
0.0
  0
LINE
  5
9DE
330
1D
100
AcDbEntity
  8
0
100
AcDbLine
 10
172.5477
 20
873.925
 30
0.0
 11
175.2317
 21
875.475
 31
0.0
  0
LINE
  5
9DF
330
1D
100
AcDbEntity
  8
0
100
AcDbLine
 10
169.6027
 20
872.225
 30
0.0
 11
172.5477
 21
873.925
 31
0.0
  0
LINE
  5
9E0
330
1D
100
AcDbEntity
  8
0
100
AcDbLine
 10
159.095765129815
 20
872.024312334296
 30
0.0
 11
161.568412050105
 21
867.741546574245
 31
0.0
  0
LINE
  5
9E1
330
1D
100
AcDbEntity
  8
0
100
AcDbLine
 10
174.963300000113
 20
875.320000000065
 30
0.0
 11
175.591546153429
 21
875.682692307451
 31
0.0
  0
LINE
  5
9E2
330
1D
100
AcDbEntity
  8
0
100
AcDbLine
 10
174.963300000114
 20
875.320000000066
 30
0.0
 11
175.591546153429
 21
875.682692307452
 31
0.0
  0
LINE
  5
9E3
330
1D
100
AcDbEntity
  8
0
100
AcDbLine
 10
175.2317
 20
875.475
 30
0.0
 11
177.5707
 21
876.825
 31
0.0
  0
LINE
  5
9E4
330
1D
100
AcDbEntity
  8
0
100
AcDbLine
 10
177.278325000386
 20
876.656250000223
 30
0.0
 11
177.8307
 21
876.975
 31
0.0
  0
LINE
  5
9E5
330
1D
100
AcDbEntity
  8
0
100
AcDbLine
 10
177.278325000389
 20
876.656250000224
 30
0.0
 11
177.8307
 21
876.975
 31
0.0
  0
LINE
  5
9E6
330
1D
100
AcDbEntity
  8
0
100
AcDbLine
 10
179.0627
 20
877.686242440902
 30
0.0
 11
179.0627
 21
872.396267466913
 31
0.0
  0
LINE
  5
9E7
330
1D
100
AcDbEntity
  8
0
100
AcDbLine
 10
177.8307
 20
876.975
 30
0.0
 11
178.480199999527
 21
877.349999999727
 31
0.0
  0
LINE
  5
9E8
330
1D
100
AcDbEntity
  8
0
100
AcDbLine
 10
177.8307
 20
876.975
 30
0.0
 11
178.480199999528
 21
877.349999999728
 31
0.0
  0
LINE
  5
9E9
330
1D
100
AcDbEntity
  8
0
100
AcDbLine
 10
177.5707
 20
876.825
 30
0.0
 11
179.3897
 21
877.875
 31
0.0
  0
LINE
  5
9EA
330
1D
100
AcDbEntity
  8
0
100
AcDbLine
 10
179.3897
 20
877.875
 30
0.0
 11
180.4287
 21
878.475
 31
0.0
  0
LINE
  5
9EB
330
1D
100
AcDbEntity
  8
0
100
AcDbLine
 10
179.0627
 20
881.8409708
 30
0.0
 11
179.0627
 21
1187.293
 31
0.0
  0
LINE
  5
9EC
330
1D
100
AcDbEntity
  8
0
100
AcDbLine
 10
180.4287
 20
878.475
 30
0.0
 11
180.8617
 21
878.725
 31
0.0
  0
LINE
  5
9ED
330
1D
100
AcDbEntity
  8
0
100
AcDbLine
 10
174.92752169029
 20
875.299338159445
 30
0.0
 11
182.5147
 21
858.844
 31
0.0
  0
LINE
  5
9EE
330
1D
100
AcDbEntity
  8
0
100
AcDbLine
 10
158.7767
 20
871.84
 30
0.0
 11
159.095765129815
 21
872.024312334296
 31
0.0
  0
LINE
  5
9EF
330
1D
100
AcDbEntity
  8
0
100
AcDbLine
 10
158.4297
 20
871.64
 30
0.0
 11
158.7767
 21
871.84
 31
0.0
  0
LINE
  5
9F9
330
1D
100
AcDbEntity
  8
0
100
AcDbLine
 10
142.794120920662
 20
895.844018390746
 30
0.0
 11
158.4297
 21
871.64
 31
0.0
  0
LINE
  5
A10
330
1D
100
AcDbEntity
  8
0
100
AcDbLine
 10
157.0627
 20
923.021194947316
 30
0.0
 11
157.0627
 21
1187.293
 31
0.0
  0
LINE
  5
A1A
330
1D
100
AcDbEntity
  8
0
100
AcDbLine
 10
163.505745003375
 20
908.786505823011
 30
0.0
 11
180.8617
 21
878.725
 31
0.0
  0
LINE
  5
A1B
330
1D
100
AcDbEntity
  8
0
100
AcDbLine
 10
163.505745003375
 20
908.786505823011
 30
0.0
 11
180.8617
 21
878.725
 31
0.0
  0
LINE
  5
CB2
330
1D
100
AcDbEntity
  8
0
100
AcDbLine
 10
157.0627
 20
1187.293
 30
0.0
 11
157.3267
 21
1187.893
 31
0.0
  0
LINE
  5
CB3
330
1D
100
AcDbEntity
  8
0
100
AcDbLine
 10
157.3267
 20
1187.893
 30
0.0
 11
157.7227
 21
1187.893
 31
0.0
  0
LINE
  5
CB5
330
1D
100
AcDbEntity
  8
0
100
AcDbLine
 10
157.0627
 20
1188.278
 30
0.0
 11
157.3267
 21
1187.893
 31
0.0
  0
LINE
  5
CB6
330
1D
100
AcDbEntity
  8
0
100
AcDbLine
 10
157.0627
 20
1188.278
 30
0.0
 11
157.0627
 21
1257.508
 31
0.0
  0
LINE
  5
CB7
330
1D
100
AcDbEntity
  8
0
100
AcDbLine
 10
157.7227
 20
1187.893
 30
0.0
 11
158.7787
 21
1187.893
 31
0.0
  0
LINE
  5
CB9
330
1D
100
AcDbEntity
  8
0
100
AcDbLine
 10
158.7787
 20
1187.893
 30
0.0
 11
160.4947
 21
1187.893
 31
0.0
  0
LINE
  5
CBB
330
1D
100
AcDbEntity
  8
0
100
AcDbLine
 10
160.4947
 20
1187.893
 30
0.0
 11
162.7387
 21
1187.893
 31
0.0
  0
LINE
  5
CBD
330
1D
100
AcDbEntity
  8
0
100
AcDbLine
 10
162.7387
 20
1187.893
 30
0.0
 11
165.2907
 21
1187.893
 31
0.0
  0
LINE
  5
CBF
330
1D
100
AcDbEntity
  8
0
100
AcDbLine
 10
203.0627
 20
1187.893
 30
0.0
 11
203.0627
 21
1232.893
 31
0.0
  0
LINE
  5
CC0
330
1D
100
AcDbEntity
  8
0
100
AcDbLine
 10
178.7987
 20
1187.893
 30
0.0
 11
179.0627
 21
1187.293
 31
0.0
  0
LINE
  5
CC1
330
1D
100
AcDbEntity
  8
0
100
AcDbLine
 10
178.7987
 20
1187.893
 30
0.0
 11
203.0627
 21
1187.893
 31
0.0
  0
LINE
  5
CC2
330
1D
100
AcDbEntity
  8
0
100
AcDbLine
 10
178.4027
 20
1187.893
 30
0.0
 11
178.7987
 21
1187.893
 31
0.0
  0
LINE
  5
CC3
330
1D
100
AcDbEntity
  8
0
100
AcDbLine
 10
177.3467
 20
1187.893
 30
0.0
 11
178.4027
 21
1187.893
 31
0.0
  0
LINE
  5
CC4
330
1D
100
AcDbEntity
  8
0
100
AcDbLine
 10
175.6307
 20
1187.893
 30
0.0
 11
177.3467
 21
1187.893
 31
0.0
  0
LINE
  5
CC5
330
1D
100
AcDbEntity
  8
0
100
AcDbLine
 10
173.3867
 20
1187.893
 30
0.0
 11
175.6307
 21
1187.893
 31
0.0
  0
LINE
  5
CC6
330
1D
100
AcDbEntity
  8
0
100
AcDbLine
 10
170.8347
 20
1187.893
 30
0.0
 11
173.3867
 21
1187.893
 31
0.0
  0
LINE
  5
CC7
330
1D
100
AcDbEntity
  8
0
100
AcDbLine
 10
170.8347
 20
1187.893
 30
0.0
 11
203.0627
 21
1187.893
 31
0.0
  0
LINE
  5
CC9
330
1D
100
AcDbEntity
  8
0
100
AcDbLine
 10
168.0627
 20
1187.893
 30
0.0
 11
170.8347
 21
1187.893
 31
0.0
  0
LINE
  5
CCB
330
1D
100
AcDbEntity
  8
0
100
AcDbLine
 10
165.2907
 20
1187.893
 30
0.0
 11
168.0627
 21
1187.893
 31
0.0
  0
LINE
  5
CCC
330
1D
100
AcDbEntity
  8
0
100
AcDbLine
 10
157.0627
 20
1257.508
 30
0.0
 11
157.0627
 21
1188.278
 31
0.0
  0
LINE
  5
CCE
330
1D
100
AcDbEntity
  8
0
100
AcDbLine
 10
157.0627
 20
1257.508
 30
0.0
 11
157.3267
 21
1257.893
 31
0.0
  0
LINE
  5
CD2
330
1D
100
AcDbEntity
  8
0
100
AcDbLine
 10
157.3267
 20
1257.893
 30
0.0
 11
157.7227
 21
1257.893
 31
0.0
  0
LINE
  5
CD3
330
1D
100
AcDbEntity
  8
0
100
AcDbLine
 10
157.7227
 20
1257.893
 30
0.0
 11
158.7787
 21
1257.893
 31
0.0
  0
LINE
  5
CD4
330
1D
100
AcDbEntity
  8
0
100
AcDbLine
 10
158.7787
 20
1257.893
 30
0.0
 11
160.4947
 21
1257.893
 31
0.0
  0
LINE
  5
CD5
330
1D
100
AcDbEntity
  8
0
100
AcDbLine
 10
160.4947
 20
1257.893
 30
0.0
 11
162.7387
 21
1257.893
 31
0.0
  0
LINE
  5
CD6
330
1D
100
AcDbEntity
  8
0
100
AcDbLine
 10
162.7387
 20
1257.893
 30
0.0
 11
165.2907
 21
1257.893
 31
0.0
  0
LINE
  5
CD8
330
1D
100
AcDbEntity
  8
0
100
AcDbLine
 10
168.0627
 20
1257.893
 30
0.0
 11
170.8347
 21
1257.893
 31
0.0
  0
LINE
  5
CD9
330
1D
100
AcDbEntity
  8
0
100
AcDbLine
 10
171.817362429583
 20
1232.893
 30
0.0
 11
203.0627
 21
1232.893
 31
0.0
  0
LINE
  5
CDA
330
1D
100
AcDbEntity
  8
0
100
AcDbLine
 10
203.0627
 20
1232.893
 30
0.0
 11
203.0627
 21
1187.893
 31
0.0
  0
LINE
  5
CDB
330
1D
100
AcDbEntity
  8
0
100
AcDbLine
 10
179.0627
 20
1257.508
 30
0.0
 11
179.0627
 21
1232.893
 31
0.0
  0
LINE
  5
CDD
330
1D
100
AcDbEntity
  8
0
100
AcDbLine
 10
179.0627
 20
1232.893
 30
0.0
 11
179.0627
 21
1257.508
 31
0.0
  0
LINE
  5
CE1
330
1D
100
AcDbEntity
  8
0
100
AcDbLine
 10
178.7987
 20
1257.893
 30
0.0
 11
179.0627
 21
1257.508
 31
0.0
  0
LINE
  5
CE2
330
1D
100
AcDbEntity
  8
0
100
AcDbLine
 10
178.4027
 20
1257.893
 30
0.0
 11
178.7987
 21
1257.893
 31
0.0
  0
LINE
  5
CE3
330
1D
100
AcDbEntity
  8
0
100
AcDbLine
 10
177.3467
 20
1257.893
 30
0.0
 11
178.4027
 21
1257.893
 31
0.0
  0
LINE
  5
CE4
330
1D
100
AcDbEntity
  8
0
100
AcDbLine
 10
175.6307
 20
1257.893
 30
0.0
 11
177.3467
 21
1257.893
 31
0.0
  0
LINE
  5
CE5
330
1D
100
AcDbEntity
  8
0
100
AcDbLine
 10
173.3867
 20
1257.893
 30
0.0
 11
175.6307
 21
1257.893
 31
0.0
  0
LINE
  5
CE6
330
1D
100
AcDbEntity
  8
0
100
AcDbLine
 10
170.8347
 20
1257.893
 30
0.0
 11
173.3867
 21
1257.893
 31
0.0
  0
LINE
  5
CE9
330
1D
100
AcDbEntity
  8
0
100
AcDbLine
 10
165.2907
 20
1257.893
 30
0.0
 11
168.0627
 21
1257.893
 31
0.0
  0
LINE
  5
1139
330
1D
100
AcDbEntity
  8
0
100
AcDbLine
 10
33.052795223068
 20
1034.424475396484
 30
0.0
 11
34.056895223068
 21
1033.648475396485
 31
0.0
  0
LINE
  5
113A
330
1D
100
AcDbEntity
  8
0
100
AcDbLine
 10
33.511095223068
 20
1031.830475396485
 30
0.0
 11
33.822982219237
 21
1031.55256332834
 31
0.0
  0
LINE
  5
113B
330
1D
100
AcDbEntity
  8
0
100
AcDbLine
 10
33.422495223068
 20
1031.910475396485
 30
0.0
 11
33.511095223068
 21
1031.830475396485
 31
0.0
  0
LINE
  5
113C
330
1D
100
AcDbEntity
  8
0
100
AcDbLine
 10
33.867895223068
 20
1032.027475396485
 30
0.0
 11
34.312095223068
 21
1031.494475396485
 31
0.0
  0
LINE
  5
113D
330
1D
100
AcDbEntity
  8
0
100
AcDbLine
 10
33.758695223068
 20
1032.286475396485
 30
0.0
 11
34.050095223068
 21
1032.193475396485
 31
0.0
  0
LINE
  5
113E
330
1D
100
AcDbEntity
  8
0
100
AcDbLine
 10
33.758695223068
 20
1032.286475396485
 30
0.0
 11
33.867895223068
 21
1032.027475396485
 31
0.0
  0
LINE
  5
113F
330
1D
100
AcDbEntity
  8
0
100
AcDbLine
 10
32.273595223068
 20
1034.941475396485
 30
0.0
 11
33.052795223068
 21
1034.424475396484
 31
0.0
  0
LINE
  5
1140
330
1D
100
AcDbEntity
  8
0
100
AcDbLine
 10
37.362095223068
 20
1027.762475396485
 30
0.0
 11
38.013245032644
 21
1027.220574035134
 31
0.0
  0
LINE
  5
1141
330
1D
100
AcDbEntity
  8
0
100
AcDbLine
 10
37.697495223068
 20
1027.831475396485
 30
0.0
 11
38.706795223068
 21
1026.753475396485
 31
0.0
  0
LINE
  5
1142
330
1D
100
AcDbEntity
  8
0
100
AcDbLine
 10
38.013245032644
 20
1027.220574035134
 30
0.0
 11
38.338595223068
 21
1026.929475396485
 31
0.0
  0
LINE
  5
1143
330
1D
100
AcDbEntity
  8
0
100
AcDbLine
 10
38.772395223068
 20
1026.587475396484
 30
0.0
 11
39.839609208329
 21
1027.256400700979
 31
0.0
  0
LINE
  5
1144
330
1D
100
AcDbEntity
  8
0
100
AcDbLine
 10
38.706795223068
 20
1026.753475396485
 30
0.0
 11
38.772395223068
 21
1026.587475396484
 31
0.0
  0
LINE
  5
1145
330
1D
100
AcDbEntity
  8
0
100
AcDbLine
 10
36.750995223068
 20
1028.386475396484
 30
0.0
 11
36.967918049377
 21
1028.177106632485
 31
0.0
  0
LINE
  5
1146
330
1D
100
AcDbEntity
  8
0
100
AcDbLine
 10
39.260010811489
 20
1026.844853043388
 30
0.0
 11
40.177795223068
 21
1026.076475396485
 31
0.0
  0
LINE
  5
1147
330
1D
100
AcDbEntity
  8
0
100
AcDbLine
 10
39.839609208329
 20
1027.256400700979
 30
0.0
 11
41.087595223068
 21
1025.956475396485
 31
0.0
  0
LINE
  5
1148
330
1D
100
AcDbEntity
  8
0
100
AcDbLine
 10
39.554195223068
 20
1028.178475396485
 30
0.0
 11
40.570044919823
 21
1029.389024350615
 31
0.0
  0
LINE
  5
1149
330
1D
100
AcDbEntity
  8
0
100
AcDbLine
 10
39.209495223068
 20
1028.467475396485
 30
0.0
 11
39.554195223068
 21
1028.178475396485
 31
0.0
  0
LINE
  5
114A
330
1D
100
AcDbEntity
  8
0
100
AcDbLine
 10
36.785995223068
 20
1028.773475396485
 30
0.0
 11
37.697495223068
 21
1027.831475396485
 31
0.0
  0
LINE
  5
114B
330
1D
100
AcDbEntity
  8
0
100
AcDbLine
 10
39.857281584739
 20
1028.53965173911
 30
0.0
 11
40.543195223068
 21
1027.927475396485
 31
0.0
  0
LINE
  5
114C
330
1D
100
AcDbEntity
  8
0
100
AcDbLine
 10
35.872395223068
 20
1029.326475396485
 30
0.0
 11
36.313695223068
 21
1028.809475396485
 31
0.0
  0
LINE
  5
114D
330
1D
100
AcDbEntity
  8
0
100
AcDbLine
 10
37.256095223068
 20
1030.106475396485
 30
0.0
 11
37.600795223068
 21
1029.817475396484
 31
0.0
  0
LINE
  5
114E
330
1D
100
AcDbEntity
  8
0
100
AcDbLine
 10
37.256095223068
 20
1030.106475396485
 30
0.0
 11
38.373236731766
 21
1031.437771323026
 31
0.0
  0
LINE
  5
114F
330
1D
100
AcDbEntity
  8
0
100
AcDbLine
 10
35.959795223068
 20
1029.584475396485
 30
0.0
 11
36.785995223068
 21
1028.773475396485
 31
0.0
  0
LINE
  5
1150
330
1D
100
AcDbEntity
  8
0
100
AcDbLine
 10
35.441895223068
 20
1030.035475396485
 30
0.0
 11
35.959795223068
 21
1029.584475396485
 31
0.0
  0
LINE
  5
1151
330
1D
100
AcDbEntity
  8
0
100
AcDbLine
 10
35.441895223068
 20
1030.035475396485
 30
0.0
 11
35.962159290064
 21
1030.770983848786
 31
0.0
  0
LINE
  5
1152
330
1D
100
AcDbEntity
  8
0
100
AcDbLine
 10
35.441895223068
 20
1030.035475396485
 30
0.0
 11
35.962159290064
 21
1030.770983848786
 31
0.0
  0
LINE
  5
1153
330
1D
100
AcDbEntity
  8
0
100
AcDbLine
 10
37.600795223068
 20
1029.817475396484
 30
0.0
 11
38.405195223068
 21
1029.142475396485
 31
0.0
  0
LINE
  5
1154
330
1D
100
AcDbEntity
  8
0
100
AcDbLine
 10
38.405195223068
 20
1029.142475396485
 30
0.0
 11
39.209495223068
 21
1028.467475396485
 31
0.0
  0
LINE
  5
1155
330
1D
100
AcDbEntity
  8
0
100
AcDbLine
 10
37.295895223068
 20
1029.662475396485
 30
0.0
 11
38.112995223068
 21
1028.931475396485
 31
0.0
  0
LINE
  5
1156
330
1D
100
AcDbEntity
  8
0
100
AcDbLine
 10
38.112995223068
 20
1028.931475396485
 30
0.0
 11
39.839609208329
 21
1027.256400700979
 31
0.0
  0
LINE
  5
1157
330
1D
100
AcDbEntity
  8
0
100
AcDbLine
 10
35.091895223068
 20
1030.418475396485
 30
0.0
 11
35.470689362887
 21
1030.076182288536
 31
0.0
  0
LINE
  5
1158
330
1D
100
AcDbEntity
  8
0
100
AcDbLine
 10
40.177795223068
 20
1026.076475396485
 30
0.0
 11
40.982195223068
 21
1025.457475396485
 31
0.0
  0
LINE
  5
1159
330
1D
100
AcDbEntity
  8
0
100
AcDbLine
 10
35.048095223068
 20
1030.724475396485
 30
0.0
 11
35.568725490297
 21
1030.214778061174
 31
0.0
  0
LINE
  5
115A
330
1D
100
AcDbEntity
  8
0
100
AcDbLine
 10
34.312095223068
 20
1031.494475396485
 30
0.0
 11
35.048095223068
 21
1030.724475396485
 31
0.0
  0
LINE
  5
115B
330
1D
100
AcDbEntity
  8
0
100
AcDbLine
 10
35.620641642504
 20
1032.318779152257
 30
0.0
 11
37.612095223068
 21
1030.543475396485
 31
0.0
  0
LINE
  5
115C
330
1D
100
AcDbEntity
  8
0
100
AcDbLine
 10
35.265195223068
 20
1032.623475396485
 30
0.0
 11
35.620641642501
 21
1032.318779152259
 31
0.0
  0
LINE
  5
115D
330
1D
100
AcDbEntity
  8
0
100
AcDbLine
 10
34.050095223068
 20
1032.193475396485
 30
0.0
 11
34.498195223068
 21
1031.905475396485
 31
0.0
  0
LINE
  5
115E
330
1D
100
AcDbEntity
  8
0
100
AcDbLine
 10
34.498195223068
 20
1031.905475396485
 30
0.0
 11
35.404495223068
 21
1031.234475396485
 31
0.0
  0
LINE
  5
115F
330
1D
100
AcDbEntity
  8
0
100
AcDbLine
 10
35.404495223068
 20
1031.234475396485
 30
0.0
 11
37.295895223068
 21
1029.662475396485
 31
0.0
  0
LINE
  5
1160
330
1D
100
AcDbEntity
  8
0
100
AcDbLine
 10
35.496895223068
 20
1034.154475396484
 30
0.0
 11
36.502781518017
 21
1035.353151348462
 31
0.0
  0
LINE
  5
1161
330
1D
100
AcDbEntity
  8
0
100
AcDbLine
 10
34.347895223068
 20
1035.118475396485
 30
0.0
 11
35.152195223068
 21
1034.443475396485
 31
0.0
  0
LINE
  5
1162
330
1D
100
AcDbEntity
  8
0
100
AcDbLine
 10
35.152195223068
 20
1034.443475396485
 30
0.0
 11
35.496895223068
 21
1034.154475396484
 31
0.0
  0
LINE
  5
1163
330
1D
100
AcDbEntity
  8
0
100
AcDbLine
 10
36.772295223068
 20
1034.365475396485
 30
0.0
 11
36.926595223068
 21
1034.501475396485
 31
0.0
  0
LINE
  5
1164
330
1D
100
AcDbEntity
  8
0
100
AcDbLine
 10
35.695519412794
 20
1034.39116819258
 30
0.0
 11
38.044895223068
 21
1032.322475396485
 31
0.0
  0
LINE
  5
1165
330
1D
100
AcDbEntity
  8
0
100
AcDbLine
 10
36.276595223068
 20
1034.531475396485
 30
0.0
 11
36.772295223068
 21
1034.365475396485
 31
0.0
  0
LINE
  5
1166
330
1D
100
AcDbEntity
  8
0
100
AcDbLine
 10
35.985562395052
 20
1034.736801242377
 30
0.0
 11
36.276595223068
 21
1034.531475396485
 31
0.0
  0
LINE
  5
1167
330
1D
100
AcDbEntity
  8
0
100
AcDbLine
 10
36.823995223068
 20
1034.862475396485
 30
0.0
 11
36.926595223068
 21
1034.501475396485
 31
0.0
  0
LINE
  5
1168
330
1D
100
AcDbEntity
  8
0
100
AcDbLine
 10
34.056895223068
 20
1033.648475396485
 30
0.0
 11
35.265195223068
 21
1032.623475396485
 31
0.0
  0
LINE
  5
1169
330
1D
100
AcDbEntity
  8
0
100
AcDbLine
 10
37.495295223068
 20
1031.351475396485
 30
0.0
 11
37.912055067439
 21
1030.888181798035
 31
0.0
  0
LINE
  5
116A
330
1D
100
AcDbEntity
  8
0
100
AcDbLine
 10
38.805595223068
 20
1031.116475396484
 30
0.0
 11
39.592395223068
 21
1030.447475396485
 31
0.0
  0
LINE
  5
116B
330
1D
100
AcDbEntity
  8
0
100
AcDbLine
 10
38.012995223068
 20
1031.705475396485
 30
0.0
 11
38.805595223068
 21
1031.116475396484
 31
0.0
  0
LINE
  5
116C
330
1D
100
AcDbEntity
  8
0
100
AcDbLine
 10
37.434195223068
 20
1031.985475396485
 30
0.0
 11
38.012995223068
 21
1031.705475396485
 31
0.0
  0
LINE
  5
116D
330
1D
100
AcDbEntity
  8
0
100
AcDbLine
 10
37.180595223068
 20
1031.930475396485
 30
0.0
 11
37.495295223068
 21
1031.351475396485
 31
0.0
  0
LINE
  5
116E
330
1D
100
AcDbEntity
  8
0
100
AcDbLine
 10
37.180595223068
 20
1031.930475396485
 30
0.0
 11
37.434195223068
 21
1031.985475396485
 31
0.0
  0
LINE
  5
116F
330
1D
100
AcDbEntity
  8
0
100
AcDbLine
 10
39.264295223068
 20
1032.989475396485
 30
0.0
 11
39.608995223068
 21
1032.700475396485
 31
0.0
  0
LINE
  5
1170
330
1D
100
AcDbEntity
  8
0
100
AcDbLine
 10
39.264295223068
 20
1032.989475396485
 30
0.0
 11
40.445102708906
 21
1034.396641976267
 31
0.0
  0
LINE
  5
1171
330
1D
100
AcDbEntity
  8
0
100
AcDbLine
 10
38.044895223068
 20
1032.322475396485
 30
0.0
 11
42.589395223068
 21
1028.262475396485
 31
0.0
  0
LINE
  5
1172
330
1D
100
AcDbEntity
  8
0
100
AcDbLine
 10
39.608995223068
 20
1032.700475396485
 30
0.0
 11
40.413395223068
 21
1032.025475396485
 31
0.0
  0
LINE
  5
1173
330
1D
100
AcDbEntity
  8
0
100
AcDbLine
 10
40.175895223068
 20
1034.527475396485
 30
0.0
 11
41.011295223068
 21
1034.121475396485
 31
0.0
  0
LINE
  5
1174
330
1D
100
AcDbEntity
  8
0
100
AcDbLine
 10
39.778695223068
 20
1034.329475396485
 30
0.0
 11
40.003804364951
 21
1033.870747375518
 31
0.0
  0
LINE
  5
1175
330
1D
100
AcDbEntity
  8
0
100
AcDbLine
 10
39.778695223068
 20
1034.329475396485
 30
0.0
 11
40.175895223068
 21
1034.527475396485
 31
0.0
  0
LINE
  5
1176
330
1D
100
AcDbEntity
  8
0
100
AcDbLine
 10
39.592395223068
 20
1030.447475396485
 30
0.0
 11
40.528195223068
 21
1029.454475396485
 31
0.0
  0
LINE
  5
1177
330
1D
100
AcDbEntity
  8
0
100
AcDbLine
 10
27.246795223068
 20
1037.825475396485
 30
0.0
 11
27.806480737808
 21
1038.492451818108
 31
0.0
  0
LINE
  5
1178
330
1D
100
AcDbEntity
  8
0
100
AcDbLine
 10
26.641495223068
 20
1037.869475396485
 30
0.0
 11
26.869814560747
 21
1038.141563222276
 31
0.0
  0
LINE
  5
1179
330
1D
100
AcDbEntity
  8
0
100
AcDbLine
 10
26.097695223068
 20
1038.789475396485
 30
0.0
 11
26.902095223068
 21
1038.114475396485
 31
0.0
  0
LINE
  5
117A
330
1D
100
AcDbEntity
  8
0
100
AcDbLine
 10
25.492395223068
 20
1038.833475396485
 30
0.0
 11
26.296795223068
 21
1038.158475396485
 31
0.0
  0
LINE
  5
117B
330
1D
100
AcDbEntity
  8
0
100
AcDbLine
 10
26.902095223068
 20
1038.114475396485
 30
0.0
 11
27.246795223068
 21
1037.825475396485
 31
0.0
  0
LINE
  5
117C
330
1D
100
AcDbEntity
  8
0
100
AcDbLine
 10
26.296795223068
 20
1038.158475396485
 30
0.0
 11
26.641495223068
 21
1037.869475396485
 31
0.0
  0
LINE
  5
117D
330
1D
100
AcDbEntity
  8
0
100
AcDbLine
 10
27.436929057072
 20
1038.052057612557
 30
0.0
 11
27.482495223068
 21
1038.006475396485
 31
0.0
  0
LINE
  5
117E
330
1D
100
AcDbEntity
  8
0
100
AcDbLine
 10
27.482495223068
 20
1038.006475396485
 30
0.0
 11
29.867195223068
 21
1035.657475396485
 31
0.0
  0
LINE
  5
117F
330
1D
100
AcDbEntity
  8
0
100
AcDbLine
 10
27.920195223068
 20
1038.161475396485
 30
0.0
 11
28.264995223068
 21
1037.872475396485
 31
0.0
  0
LINE
  5
1180
330
1D
100
AcDbEntity
  8
0
100
AcDbLine
 10
27.920195223068
 20
1038.161475396485
 30
0.0
 11
28.866485344735
 21
1039.289427311889
 31
0.0
  0
LINE
  5
1181
330
1D
100
AcDbEntity
  8
0
100
AcDbLine
 10
28.264995223068
 20
1037.872475396485
 30
0.0
 11
28.354415455014
 21
1037.797430442409
 31
0.0
  0
LINE
  5
1182
330
1D
100
AcDbEntity
  8
0
100
AcDbLine
 10
28.264995223068
 20
1037.872475396485
 30
0.0
 11
29.069295223068
 21
1037.197475396485
 31
0.0
  0
LINE
  5
1183
330
1D
100
AcDbEntity
  8
0
100
AcDbLine
 10
27.475495223068
 20
1038.857475396484
 30
0.0
 11
27.905295223068
 21
1038.383475396485
 31
0.0
  0
LINE
  5
1184
330
1D
100
AcDbEntity
  8
0
100
AcDbLine
 10
27.905295223068
 20
1038.383475396485
 30
0.0
 11
28.005087081501
 21
1038.26266416738
 31
0.0
  0
LINE
  5
1185
330
1D
100
AcDbEntity
  8
0
100
AcDbLine
 10
27.437034846834
 20
1038.052183682064
 30
0.0
 11
27.482495223068
 21
1038.006475396485
 31
0.0
  0
LINE
  5
1186
330
1D
100
AcDbEntity
  8
0
100
AcDbLine
 10
25.293395223068
 20
1039.464475396485
 30
0.0
 11
26.097695223068
 21
1038.789475396485
 31
0.0
  0
LINE
  5
1187
330
1D
100
AcDbEntity
  8
0
100
AcDbLine
 10
24.948595223068
 20
1039.753475396485
 30
0.0
 11
25.293395223068
 21
1039.464475396485
 31
0.0
  0
LINE
  5
1188
330
1D
100
AcDbEntity
  8
0
100
AcDbLine
 10
24.948595223068
 20
1039.753475396485
 30
0.0
 11
25.679894294321
 21
1040.624936330804
 31
0.0
  0
LINE
  5
1189
330
1D
100
AcDbEntity
  8
0
100
AcDbLine
 10
24.688095223068
 20
1039.508475396485
 30
0.0
 11
25.492395223068
 21
1038.833475396485
 31
0.0
  0
LINE
  5
118A
330
1D
100
AcDbEntity
  8
0
100
AcDbLine
 10
24.343395223068
 20
1039.797475396485
 30
0.0
 11
24.688095223068
 21
1039.508475396485
 31
0.0
  0
LINE
  5
118B
330
1D
100
AcDbEntity
  8
0
100
AcDbLine
 10
24.343395223068
 20
1039.797475396485
 30
0.0
 11
24.977993771944
 21
1040.553725572967
 31
0.0
  0
LINE
  5
118C
330
1D
100
AcDbEntity
  8
0
100
AcDbLine
 10
26.975595223068
 20
1039.378475396485
 30
0.0
 11
27.475495223068
 21
1038.857475396484
 31
0.0
  0
LINE
  5
118D
330
1D
100
AcDbEntity
  8
0
100
AcDbLine
 10
28.582595223068
 20
1039.468475396485
 30
0.0
 11
29.142295223068
 21
1039.115475396485
 31
0.0
  0
LINE
  5
118E
330
1D
100
AcDbEntity
  8
0
100
AcDbLine
 10
28.453095223068
 20
1039.342475396485
 30
0.0
 11
28.582595223068
 21
1039.468475396485
 31
0.0
  0
LINE
  5
118F
330
1D
100
AcDbEntity
  8
0
100
AcDbLine
 10
28.453095223068
 20
1039.342475396485
 30
0.0
 11
28.657909628254
 21
1039.040810768691
 31
0.0
  0
LINE
  5
1190
330
1D
100
AcDbEntity
  8
0
100
AcDbLine
 10
29.069295223068
 20
1037.197475396485
 30
0.0
 11
29.873695223068
 21
1036.522475396485
 31
0.0
  0
LINE
  5
1191
330
1D
100
AcDbEntity
  8
0
100
AcDbLine
 10
29.142295223068
 20
1039.115475396485
 30
0.0
 11
30.270495223068
 21
1038.113475396485
 31
0.0
  0
LINE
  5
1192
330
1D
100
AcDbEntity
  8
0
100
AcDbLine
 10
29.873695223068
 20
1036.522475396485
 30
0.0
 11
30.218395223068
 21
1036.233475396485
 31
0.0
  0
LINE
  5
1193
330
1D
100
AcDbEntity
  8
0
100
AcDbLine
 10
29.867195223068
 20
1035.657475396485
 30
0.0
 11
29.920595223068
 21
1035.565475396485
 31
0.0
  0
LINE
  5
1194
330
1D
100
AcDbEntity
  8
0
100
AcDbLine
 10
22.284395223068
 20
1043.355475396485
 30
0.0
 11
24.572395223068
 21
1040.959475396485
 31
0.0
  0
LINE
  5
1195
330
1D
100
AcDbEntity
  8
0
100
AcDbLine
 10
22.252795223068
 20
1043.587475396484
 30
0.0
 11
22.262495223068
 21
1043.702475396485
 31
0.0
  0
LINE
  5
1196
330
1D
100
AcDbEntity
  8
0
100
AcDbLine
 10
22.233495223068
 20
1043.458475396485
 30
0.0
 11
22.284395223068
 21
1043.355475396485
 31
0.0
  0
LINE
  5
1197
330
1D
100
AcDbEntity
  8
0
100
AcDbLine
 10
22.233495223068
 20
1043.458475396485
 30
0.0
 11
22.248795223068
 21
1043.576475396485
 31
0.0
  0
LINE
  5
1198
330
1D
100
AcDbEntity
  8
0
100
AcDbLine
 10
24.572395223068
 20
1040.959475396485
 30
0.0
 11
24.685295223068
 21
1040.844475396485
 31
0.0
  0
LINE
  5
1199
330
1D
100
AcDbEntity
  8
0
100
AcDbLine
 10
24.572395223068
 20
1040.959475396485
 30
0.0
 11
24.669795837297
 21
1040.86068555004
 31
0.0
  0
LINE
  5
119A
330
1D
100
AcDbEntity
  8
0
100
AcDbLine
 10
24.685295223068
 20
1040.844475396485
 30
0.0
 11
25.060795223068
 21
1040.471475396484
 31
0.0
  0
LINE
  5
119B
330
1D
100
AcDbEntity
  8
0
100
AcDbLine
 10
25.060795223068
 20
1040.471475396484
 30
0.0
 11
25.324697928692
 21
1040.201662503684
 31
0.0
  0
LINE
  5
119C
330
1D
100
AcDbEntity
  8
0
100
AcDbLine
 10
26.211895223068
 20
1040.140475396485
 30
0.0
 11
26.975595223068
 21
1039.378475396485
 31
0.0
  0
LINE
  5
119D
330
1D
100
AcDbEntity
  8
0
100
AcDbLine
 10
25.331195223068
 20
1040.942475396484
 30
0.0
 11
26.211895223068
 21
1040.140475396485
 31
0.0
  0
LINE
  5
119E
330
1D
100
AcDbEntity
  8
0
100
AcDbLine
 10
25.082895223068
 20
1040.940475396485
 30
0.0
 11
25.517406261919
 21
1040.431305601463
 31
0.0
  0
LINE
  5
119F
330
1D
100
AcDbEntity
  8
0
100
AcDbLine
 10
25.412995223068
 20
1042.646475396485
 30
0.0
 11
25.757695223068
 21
1042.357475396484
 31
0.0
  0
LINE
  5
11A0
330
1D
100
AcDbEntity
  8
0
100
AcDbLine
 10
25.757695223068
 20
1042.357475396484
 30
0.0
 11
26.658046848092
 21
1043.430423130964
 31
0.0
  0
LINE
  5
11A1
330
1D
100
AcDbEntity
  8
0
100
AcDbLine
 10
25.76357965275
 20
1042.364487862859
 30
0.0
 11
26.642695223068
 21
1041.805475396485
 31
0.0
  0
LINE
  5
11A2
330
1D
100
AcDbEntity
  8
0
100
AcDbLine
 10
25.551295223068
 20
1042.499475396485
 30
0.0
 11
25.704595549083
 21
1042.401994705396
 31
0.0
  0
LINE
  5
11A3
330
1D
100
AcDbEntity
  8
0
100
AcDbLine
 10
24.608595223068
 20
1043.321475396485
 30
0.0
 11
25.412995223068
 21
1042.646475396485
 31
0.0
  0
LINE
  5
11A4
330
1D
100
AcDbEntity
  8
0
100
AcDbLine
 10
23.861395223068
 20
1043.316475396485
 30
0.0
 11
24.625795223068
 21
1042.994475396485
 31
0.0
  0
LINE
  5
11A5
330
1D
100
AcDbEntity
  8
0
100
AcDbLine
 10
24.625795223068
 20
1042.994475396485
 30
0.0
 11
25.551295223068
 21
1042.499475396485
 31
0.0
  0
LINE
  5
11A6
330
1D
100
AcDbEntity
  8
0
100
AcDbLine
 10
26.321728666903
 20
1043.029633238946
 30
0.0
 11
26.873495223068
 21
1042.737475396485
 31
0.0
  0
LINE
  5
11A7
330
1D
100
AcDbEntity
  8
0
100
AcDbLine
 10
26.873495223068
 20
1042.737475396485
 30
0.0
 11
26.897895223068
 21
1043.033475396485
 31
0.0
  0
LINE
  5
11A8
330
1D
100
AcDbEntity
  8
0
100
AcDbLine
 10
26.642695223068
 20
1041.805475396485
 30
0.0
 11
28.375095223068
 21
1040.558475396484
 31
0.0
  0
LINE
  5
11A9
330
1D
100
AcDbEntity
  8
0
100
AcDbLine
 10
26.626595223068
 20
1043.482475396484
 30
0.0
 11
26.897895223068
 21
1043.033475396485
 31
0.0
  0
LINE
  5
11AA
330
1D
100
AcDbEntity
  8
0
100
AcDbLine
 10
24.919995223068
 20
1041.213475396485
 30
0.0
 11
25.331195223068
 21
1040.942475396484
 31
0.0
  0
LINE
  5
11AB
330
1D
100
AcDbEntity
  8
0
100
AcDbLine
 10
24.919995223068
 20
1041.213475396485
 30
0.0
 11
25.082895223068
 21
1040.940475396485
 31
0.0
  0
LINE
  5
11AC
330
1D
100
AcDbEntity
  8
0
100
AcDbLine
 10
23.459495223068
 20
1044.285475396485
 30
0.0
 11
23.804295223068
 21
1043.996475396485
 31
0.0
  0
LINE
  5
11AD
330
1D
100
AcDbEntity
  8
0
100
AcDbLine
 10
23.459495223068
 20
1044.285475396485
 30
0.0
 11
24.541305087865
 21
1045.574626542152
 31
0.0
  0
LINE
  5
11AE
330
1D
100
AcDbEntity
  8
0
100
AcDbLine
 10
23.804295223068
 20
1043.996475396485
 30
0.0
 11
24.608595223068
 21
1043.321475396485
 31
0.0
  0
LINE
  5
11AF
330
1D
100
AcDbEntity
  8
0
100
AcDbLine
 10
19.142795223068
 20
1046.418475396485
 30
0.0
 11
19.55974470473
 21
1046.915353493117
 31
0.0
  0
LINE
  5
11B0
330
1D
100
AcDbEntity
  8
0
100
AcDbLine
 10
18.798095223068
 20
1046.707475396485
 30
0.0
 11
19.142795223068
 21
1046.418475396485
 31
0.0
  0
LINE
  5
11B1
330
1D
100
AcDbEntity
  8
0
100
AcDbLine
 10
19.452595503657
 20
1046.787663944559
 30
0.0
 11
19.546995223068
 21
1046.678475396485
 31
0.0
  0
LINE
  5
11B2
330
1D
100
AcDbEntity
  8
0
100
AcDbLine
 10
19.504000317838
 20
1046.848922987564
 30
0.0
 11
19.645095223068
 21
1046.700475396485
 31
0.0
  0
LINE
  5
11B3
330
1D
100
AcDbEntity
  8
0
100
AcDbLine
 10
20.912995223068
 20
1046.015475396485
 30
0.0
 11
21.343387878562
 21
1046.528373704006
 31
0.0
  0
LINE
  5
11B4
330
1D
100
AcDbEntity
  8
0
100
AcDbLine
 10
20.568295223068
 20
1046.304475396485
 30
0.0
 11
20.912995223068
 21
1046.015475396485
 31
0.0
  0
LINE
  5
11B5
330
1D
100
AcDbEntity
  8
0
100
AcDbLine
 10
19.645095223068
 20
1046.700475396485
 30
0.0
 11
19.874195223068
 21
1046.483475396485
 31
0.0
  0
LINE
  5
11B6
330
1D
100
AcDbEntity
  8
0
100
AcDbLine
 10
19.747595223068
 20
1046.689475396485
 30
0.0
 11
19.874195223068
 21
1046.483475396485
 31
0.0
  0
LINE
  5
11B7
330
1D
100
AcDbEntity
  8
0
100
AcDbLine
 10
21.125337572944
 20
1046.268523468929
 30
0.0
 11
21.343387878562
 21
1046.528373704006
 31
0.0
  0
LINE
  5
11B8
330
1D
100
AcDbEntity
  8
0
100
AcDbLine
 10
21.125337572944
 20
1046.268523468929
 30
0.0
 11
21.343387878562
 21
1046.528373704006
 31
0.0
  0
LINE
  5
11B9
330
1D
100
AcDbEntity
  8
0
100
AcDbLine
 10
21.094704093283
 20
1046.232017595347
 30
0.0
 11
21.402095223068
 21
1045.952475396485
 31
0.0
  0
LINE
  5
11BA
330
1D
100
AcDbEntity
  8
0
100
AcDbLine
 10
21.402095223068
 20
1045.952475396485
 30
0.0
 11
21.776695223068
 21
1045.686475396485
 31
0.0
  0
LINE
  5
11BB
330
1D
100
AcDbEntity
  8
0
100
AcDbLine
 10
21.573495223068
 20
1046.240475396485
 30
0.0
 11
21.829695223068
 21
1045.794475396485
 31
0.0
  0
LINE
  5
11BC
330
1D
100
AcDbEntity
  8
0
100
AcDbLine
 10
19.763895223068
 20
1046.979475396485
 30
0.0
 11
20.568295223068
 21
1046.304475396485
 31
0.0
  0
LINE
  5
11BD
330
1D
100
AcDbEntity
  8
0
100
AcDbLine
 10
23.903095223068
 20
1046.946475396485
 30
0.0
 11
25.726795223068
 21
1045.451475396485
 31
0.0
  0
LINE
  5
11BE
330
1D
100
AcDbEntity
  8
0
100
AcDbLine
 10
19.546995223068
 20
1046.678475396485
 30
0.0
 11
22.212395223068
 21
1043.797475396485
 31
0.0
  0
LINE
  5
11BF
330
1D
100
AcDbEntity
  8
0
100
AcDbLine
 10
21.776695223068
 20
1045.686475396485
 30
0.0
 11
21.829695223068
 21
1045.794475396485
 31
0.0
  0
LINE
  5
11C0
330
1D
100
AcDbEntity
  8
0
100
AcDbLine
 10
24.27599937285
 20
1045.258471940874
 30
0.0
 11
24.541305087865
 21
1045.574626542152
 31
0.0
  0
LINE
  5
11C1
330
1D
100
AcDbEntity
  8
0
100
AcDbLine
 10
25.244895223068
 20
1045.027475396485
 30
0.0
 11
26.160095223068
 21
1044.083475396485
 31
0.0
  0
LINE
  5
11C2
330
1D
100
AcDbEntity
  8
0
100
AcDbLine
 10
26.160095223068
 20
1044.083475396485
 30
0.0
 11
26.626595223068
 21
1043.482475396484
 31
0.0
  0
LINE
  5
11C3
330
1D
100
AcDbEntity
  8
0
100
AcDbLine
 10
24.423195223068
 20
1045.666475396485
 30
0.0
 11
25.244895223068
 21
1045.027475396485
 31
0.0
  0
LINE
  5
11C4
330
1D
100
AcDbEntity
  8
0
100
AcDbLine
 10
23.993195223068
 20
1045.785475396485
 30
0.0
 11
24.27599937285
 21
1045.258471940874
 31
0.0
  0
LINE
  5
11C5
330
1D
100
AcDbEntity
  8
0
100
AcDbLine
 10
23.993195223068
 20
1045.785475396485
 30
0.0
 11
24.423195223068
 21
1045.666475396485
 31
0.0
  0
LINE
  5
11C6
330
1D
100
AcDbEntity
  8
0
100
AcDbLine
 10
25.726795223068
 20
1045.451475396485
 30
0.0
 11
28.100895223068
 21
1043.440475396485
 31
0.0
  0
LINE
  5
11C7
330
1D
100
AcDbEntity
  8
0
100
AcDbLine
 10
7.562425223068
 20
1062.273475396485
 30
0.0
 11
7.608385223068
 21
1062.421475396485
 31
0.0
  0
LINE
  5
11C8
330
1D
100
AcDbEntity
  8
0
100
AcDbLine
 10
7.543645223068
 20
1062.171475396485
 30
0.0
 11
7.579165223068
 21
1062.074475396485
 31
0.0
  0
LINE
  5
11C9
330
1D
100
AcDbEntity
  8
0
100
AcDbLine
 10
7.543645223068
 20
1062.171475396485
 30
0.0
 11
7.562425223068
 21
1062.273475396485
 31
0.0
  0
LINE
  5
11CA
330
1D
100
AcDbEntity
  8
0
100
AcDbLine
 10
7.579165223068
 20
1062.074475396485
 30
0.0
 11
9.400535223068
 21
1059.518475396485
 31
0.0
  0
LINE
  5
11CB
330
1D
100
AcDbEntity
  8
0
100
AcDbLine
 10
16.844595223068
 20
1048.346475396484
 30
0.0
 11
17.189395223068
 21
1048.057475396485
 31
0.0
  0
LINE
  5
11CC
330
1D
100
AcDbEntity
  8
0
100
AcDbLine
 10
16.844595223068
 20
1048.346475396484
 30
0.0
 11
17.465280506136
 21
1049.086315259407
 31
0.0
  0
LINE
  5
11CD
330
1D
100
AcDbEntity
  8
0
100
AcDbLine
 10
17.189395223068
 20
1048.057475396485
 30
0.0
 11
17.993695223068
 21
1047.382475396485
 31
0.0
  0
LINE
  5
11CE
330
1D
100
AcDbEntity
  8
0
100
AcDbLine
 10
17.490097818337
 20
1049.115896816048
 30
0.0
 11
17.554242777067
 21
1049.192355850552
 31
0.0
  0
LINE
  5
11CF
330
1D
100
AcDbEntity
  8
0
100
AcDbLine
 10
17.490097818337
 20
1049.115896816048
 30
0.0
 11
17.554242777067
 21
1049.192355850552
 31
0.0
  0
LINE
  5
11D0
330
1D
100
AcDbEntity
  8
0
100
AcDbLine
 10
17.368695223068
 20
1049.395475396484
 30
0.0
 11
18.188095223068
 21
1048.498475396485
 31
0.0
  0
LINE
  5
11D1
330
1D
100
AcDbEntity
  8
0
100
AcDbLine
 10
17.035795223068
 20
1049.703475396484
 30
0.0
 11
17.368695223068
 21
1049.395475396484
 31
0.0
  0
LINE
  5
11D2
330
1D
100
AcDbEntity
  8
0
100
AcDbLine
 10
14.765995223068
 20
1052.208475396485
 30
0.0
 11
17.465280506136
 21
1049.086315259407
 31
0.0
  0
LINE
  5
11D3
330
1D
100
AcDbEntity
  8
0
100
AcDbLine
 10
14.751895223068
 20
1052.434475396485
 30
0.0
 11
14.765995223068
 21
1052.208475396485
 31
0.0
  0
LINE
  5
11D4
330
1D
100
AcDbEntity
  8
0
100
AcDbLine
 10
14.751895223068
 20
1052.434475396485
 30
0.0
 11
14.775595223068
 21
1052.537475396485
 31
0.0
  0
LINE
  5
11D5
330
1D
100
AcDbEntity
  8
0
100
AcDbLine
 10
15.297195223068
 20
1052.351475396485
 30
0.0
 11
15.535395223068
 21
1052.290475396484
 31
0.0
  0
LINE
  5
11D6
330
1D
100
AcDbEntity
  8
0
100
AcDbLine
 10
15.535395223068
 20
1052.290475396484
 30
0.0
 11
16.130595223068
 21
1052.090475396485
 31
0.0
  0
LINE
  5
11D7
330
1D
100
AcDbEntity
  8
0
100
AcDbLine
 10
16.130595223068
 20
1052.090475396485
 30
0.0
 11
16.983695223068
 21
1051.718475396485
 31
0.0
  0
LINE
  5
11D8
330
1D
100
AcDbEntity
  8
0
100
AcDbLine
 10
16.983695223068
 20
1051.718475396485
 30
0.0
 11
18.205767333246
 21
1051.052488776488
 31
0.0
  0
LINE
  5
11D9
330
1D
100
AcDbEntity
  8
0
100
AcDbLine
 10
18.614795223068
 20
1047.943475396485
 30
0.0
 11
18.959595223068
 21
1047.654475396484
 31
0.0
  0
LINE
  5
11DA
330
1D
100
AcDbEntity
  8
0
100
AcDbLine
 10
18.614795223068
 20
1047.943475396485
 30
0.0
 11
19.315164948568
 21
1048.778079020837
 31
0.0
  0
LINE
  5
11DB
330
1D
100
AcDbEntity
  8
0
100
AcDbLine
 10
17.993695223068
 20
1047.382475396485
 30
0.0
 11
18.798095223068
 21
1046.707475396485
 31
0.0
  0
LINE
  5
11DC
330
1D
100
AcDbEntity
  8
0
100
AcDbLine
 10
18.627495223068
 20
1049.050475396485
 30
0.0
 11
19.058796711596
 21
1048.47257486788
 31
0.0
  0
LINE
  5
11DD
330
1D
100
AcDbEntity
  8
0
100
AcDbLine
 10
18.188095223068
 20
1048.498475396485
 30
0.0
 11
18.645566659196
 21
1047.980144531634
 31
0.0
  0
LINE
  5
11DE
330
1D
100
AcDbEntity
  8
0
100
AcDbLine
 10
18.959595223068
 20
1047.654475396484
 30
0.0
 11
19.763895223068
 21
1046.979475396485
 31
0.0
  0
LINE
  5
11DF
330
1D
100
AcDbEntity
  8
0
100
AcDbLine
 10
18.857366083802
 20
1047.740160492912
 30
0.0
 11
19.353395223068
 21
1047.163475396485
 31
0.0
  0
LINE
  5
11E0
330
1D
100
AcDbEntity
  8
0
100
AcDbLine
 10
18.471395223068
 20
1049.407475396485
 30
0.0
 11
18.875695223068
 21
1049.190475396485
 31
0.0
  0
LINE
  5
11E1
330
1D
100
AcDbEntity
  8
0
100
AcDbLine
 10
18.471395223068
 20
1049.407475396485
 30
0.0
 11
18.627495223068
 21
1049.050475396485
 31
0.0
  0
LINE
  5
11E2
330
1D
100
AcDbEntity
  8
0
100
AcDbLine
 10
18.832295223068
 20
1051.723475396484
 30
0.0
 11
19.176995223068
 21
1051.434475396485
 31
0.0
  0
LINE
  5
11E3
330
1D
100
AcDbEntity
  8
0
100
AcDbLine
 10
18.832295223068
 20
1051.723475396484
 30
0.0
 11
19.680941235732
 21
1052.734805627203
 31
0.0
  0
LINE
  5
11E4
330
1D
100
AcDbEntity
  8
0
100
AcDbLine
 10
19.176995223068
 20
1051.434475396485
 30
0.0
 11
19.981395223068
 21
1050.759475396485
 31
0.0
  0
LINE
  5
11E5
330
1D
100
AcDbEntity
  8
0
100
AcDbLine
 10
19.155895223068
 20
1052.511475396484
 30
0.0
 11
19.273595223068
 21
1052.309475396485
 31
0.0
  0
LINE
  5
11E6
330
1D
100
AcDbEntity
  8
0
100
AcDbLine
 10
18.205767333246
 20
1051.052488776488
 30
0.0
 11
19.260595223068
 21
1050.397475396485
 31
0.0
  0
LINE
  5
11E7
330
1D
100
AcDbEntity
  8
0
100
AcDbLine
 10
18.875695223068
 20
1049.190475396485
 30
0.0
 11
19.713295223068
 21
1048.404475396484
 31
0.0
  0
LINE
  5
11E8
330
1D
100
AcDbEntity
  8
0
100
AcDbLine
 10
12.538495223068
 20
1055.175475396485
 30
0.0
 11
12.961704913809
 21
1055.679813775258
 31
0.0
  0
LINE
  5
11E9
330
1D
100
AcDbEntity
  8
0
100
AcDbLine
 10
13.952595223068
 20
1055.261475396484
 30
0.0
 11
14.756895223068
 21
1054.586475396485
 31
0.0
  0
LINE
  5
11EA
330
1D
100
AcDbEntity
  8
0
100
AcDbLine
 10
14.756895223068
 20
1054.586475396485
 30
0.0
 11
15.101695223068
 21
1054.297475396485
 31
0.0
  0
LINE
  5
11EB
330
1D
100
AcDbEntity
  8
0
100
AcDbLine
 10
14.736695223068
 20
1052.648475396485
 30
0.0
 11
14.775595223068
 21
1052.537475396485
 31
0.0
  0
LINE
  5
11EC
330
1D
100
AcDbEntity
  8
0
100
AcDbLine
 10
12.619631593567
 20
1055.272165492322
 30
0.0
 11
14.729595223068
 21
1052.656475396485
 31
0.0
  0
LINE
  5
11ED
330
1D
100
AcDbEntity
  8
0
100
AcDbLine
 10
15.101695223068
 20
1054.297475396485
 30
0.0
 11
15.560748503144
 21
1054.844528529031
 31
0.0
  0
LINE
  5
11EE
330
1D
100
AcDbEntity
  8
0
100
AcDbLine
 10
15.493095223068
 20
1054.209475396485
 30
0.0
 11
15.995695223068
 21
1053.884475396485
 31
0.0
  0
LINE
  5
11EF
330
1D
100
AcDbEntity
  8
0
100
AcDbLine
 10
15.241741102911
 20
1054.464367869741
 30
0.0
 11
15.493095223068
 21
1054.209475396485
 31
0.0
  0
LINE
  5
11F0
330
1D
100
AcDbEntity
  8
0
100
AcDbLine
 10
15.959795223068
 20
1054.237475396485
 30
0.0
 11
15.995695223068
 21
1053.884475396485
 31
0.0
  0
LINE
  5
11F1
330
1D
100
AcDbEntity
  8
0
100
AcDbLine
 10
18.995795223068
 20
1052.921475396485
 30
0.0
 11
19.155895223068
 21
1052.511475396484
 31
0.0
  0
LINE
  5
11F2
330
1D
100
AcDbEntity
  8
0
100
AcDbLine
 10
18.995795223068
 20
1052.921475396485
 30
0.0
 11
19.208295223068
 21
1053.056475396485
 31
0.0
  0
LINE
  5
11F3
330
1D
100
AcDbEntity
  8
0
100
AcDbLine
 10
17.714195223068
 20
1055.197475396485
 30
0.0
 11
19.847895223068
 21
1053.356475396485
 31
0.0
  0
LINE
  5
11F4
330
1D
100
AcDbEntity
  8
0
100
AcDbLine
 10
19.353395223068
 20
1047.163475396485
 30
0.0
 11
19.747595223068
 21
1046.689475396485
 31
0.0
  0
LINE
  5
11F5
330
1D
100
AcDbEntity
  8
0
100
AcDbLine
 10
19.208295223068
 20
1053.056475396485
 30
0.0
 11
19.956195223068
 21
1052.547475396485
 31
0.0
  0
LINE
  5
11F6
330
1D
100
AcDbEntity
  8
0
100
AcDbLine
 10
19.260595223068
 20
1050.397475396485
 30
0.0
 11
20.623795223068
 21
1049.444475396484
 31
0.0
  0
LINE
  5
11F7
330
1D
100
AcDbEntity
  8
0
100
AcDbLine
 10
20.702295223068
 20
1047.330475396485
 30
0.0
 11
21.573495223068
 21
1046.240475396485
 31
0.0
  0
LINE
  5
11F8
330
1D
100
AcDbEntity
  8
0
100
AcDbLine
 10
19.981395223068
 20
1050.759475396485
 30
0.0
 11
20.785695223068
 21
1050.084475396485
 31
0.0
  0
LINE
  5
11F9
330
1D
100
AcDbEntity
  8
0
100
AcDbLine
 10
19.956195223068
 20
1052.547475396485
 30
0.0
 11
20.850095223068
 21
1051.644475396485
 31
0.0
  0
LINE
  5
11FA
330
1D
100
AcDbEntity
  8
0
100
AcDbLine
 10
19.847895223068
 20
1053.356475396485
 30
0.0
 11
22.274195223068
 21
1051.244475396485
 31
0.0
  0
LINE
  5
11FB
330
1D
100
AcDbEntity
  8
0
100
AcDbLine
 10
21.130395223068
 20
1049.795475396485
 30
0.0
 11
21.696334222212
 21
1050.469883102372
 31
0.0
  0
LINE
  5
11FC
330
1D
100
AcDbEntity
  8
0
100
AcDbLine
 10
20.785695223068
 20
1050.084475396485
 30
0.0
 11
21.130395223068
 21
1049.795475396485
 31
0.0
  0
LINE
  5
11FD
330
1D
100
AcDbEntity
  8
0
100
AcDbLine
 10
20.850095223068
 20
1051.644475396485
 30
0.0
 11
21.388995223068
 21
1050.961475396485
 31
0.0
  0
LINE
  5
11FE
330
1D
100
AcDbEntity
  8
0
100
AcDbLine
 10
21.388995223068
 20
1050.961475396485
 30
0.0
 11
21.716595223068
 21
1050.437475396485
 31
0.0
  0
LINE
  5
11FF
330
1D
100
AcDbEntity
  8
0
100
AcDbLine
 10
21.377862673225
 20
1050.090372824644
 30
0.0
 11
21.523895223068
 21
1049.979475396485
 31
0.0
  0
LINE
  5
1200
330
1D
100
AcDbEntity
  8
0
100
AcDbLine
 10
21.716595223068
 20
1050.437475396485
 30
0.0
 11
21.870095223068
 21
1049.980475396485
 31
0.0
  0
LINE
  5
1201
330
1D
100
AcDbEntity
  8
0
100
AcDbLine
 10
21.523895223068
 20
1049.979475396485
 30
0.0
 11
21.870095223068
 21
1049.980475396485
 31
0.0
  0
LINE
  5
1202
330
1D
100
AcDbEntity
  8
0
100
AcDbLine
 10
20.623795223068
 20
1049.444475396484
 30
0.0
 11
21.961895223068
 21
1048.469475396485
 31
0.0
  0
LINE
  5
1203
330
1D
100
AcDbEntity
  8
0
100
AcDbLine
 10
22.274195223068
 20
1051.244475396485
 30
0.0
 11
23.068275086168
 21
1050.544575267567
 31
0.0
  0
LINE
  5
1204
330
1D
100
AcDbEntity
  8
0
100
AcDbLine
 10
21.961895223068
 20
1048.469475396485
 30
0.0
 11
23.903095223068
 21
1046.946475396485
 31
0.0
  0
LINE
  5
1205
330
1D
100
AcDbEntity
  8
0
100
AcDbLine
 10
19.713295223068
 20
1048.404475396484
 30
0.0
 11
20.702295223068
 21
1047.330475396485
 31
0.0
  0
LINE
  5
1206
330
1D
100
AcDbEntity
  8
0
100
AcDbLine
 10
9.402035223068
 20
1057.838475396485
 30
0.0
 11
9.746755223068
 21
1057.548475396485
 31
0.0
  0
LINE
  5
1207
330
1D
100
AcDbEntity
  8
0
100
AcDbLine
 10
9.402035223068
 20
1057.838475396485
 30
0.0
 11
10.062032146211
 21
1058.624978095846
 31
0.0
  0
LINE
  5
1208
330
1D
100
AcDbEntity
  8
0
100
AcDbLine
 10
10.585095223068
 20
1056.814475396485
 30
0.0
 11
11.389395223068
 21
1056.139475396485
 31
0.0
  0
LINE
  5
1209
330
1D
100
AcDbEntity
  8
0
100
AcDbLine
 10
10.240335223068
 20
1057.103475396485
 30
0.0
 11
10.585095223068
 21
1056.814475396485
 31
0.0
  0
LINE
  5
120A
330
1D
100
AcDbEntity
  8
0
100
AcDbLine
 10
10.240335223068
 20
1057.103475396485
 30
0.0
 11
11.096406596628
 21
1058.123901734121
 31
0.0
  0
LINE
  5
120B
330
1D
100
AcDbEntity
  8
0
100
AcDbLine
 10
9.746755223068
 20
1057.548475396485
 30
0.0
 11
10.255804937332
 21
1057.121915101816
 31
0.0
  0
LINE
  5
120C
330
1D
100
AcDbEntity
  8
0
100
AcDbLine
 10
10.351355223068
 20
1058.240475396485
 30
0.0
 11
10.751129798791
 21
1057.71233612269
 31
0.0
  0
LINE
  5
120D
330
1D
100
AcDbEntity
  8
0
100
AcDbLine
 10
11.389395223068
 20
1056.139475396485
 30
0.0
 11
12.193795223068
 21
1055.464475396485
 31
0.0
  0
LINE
  5
120E
330
1D
100
AcDbEntity
  8
0
100
AcDbLine
 10
11.043695223068
 20
1058.188475396485
 30
0.0
 11
11.930195223068
 21
1057.102475396485
 31
0.0
  0
LINE
  5
120F
330
1D
100
AcDbEntity
  8
0
100
AcDbLine
 10
9.608135223068
 20
1059.230475396485
 30
0.0
 11
9.923205223068
 21
1058.809475396485
 31
0.0
  0
LINE
  5
1210
330
1D
100
AcDbEntity
  8
0
100
AcDbLine
 10
9.923205223068
 20
1058.809475396485
 30
0.0
 11
10.351355223068
 21
1058.240475396485
 31
0.0
  0
LINE
  5
1211
330
1D
100
AcDbEntity
  8
0
100
AcDbLine
 10
10.642795223068
 20
1058.600475396485
 30
0.0
 11
10.672595223068
 21
1058.422475396485
 31
0.0
  0
LINE
  5
1212
330
1D
100
AcDbEntity
  8
0
100
AcDbLine
 10
10.642795223068
 20
1058.600475396485
 30
0.0
 11
11.043695223068
 21
1058.188475396485
 31
0.0
  0
LINE
  5
1213
330
1D
100
AcDbEntity
  8
0
100
AcDbLine
 10
10.672595223068
 20
1058.422475396485
 30
0.0
 11
10.966853309704
 21
1057.969475841388
 31
0.0
  0
LINE
  5
1214
330
1D
100
AcDbEntity
  8
0
100
AcDbLine
 10
9.400535223068
 20
1059.518475396485
 30
0.0
 11
9.541812223638
 21
1059.326883840772
 31
0.0
  0
LINE
  5
1215
330
1D
100
AcDbEntity
  8
0
100
AcDbLine
 10
9.400535223068
 20
1059.518475396485
 30
0.0
 11
9.608135223068
 21
1059.230475396485
 31
0.0
  0
LINE
  5
1216
330
1D
100
AcDbEntity
  8
0
100
AcDbLine
 10
10.450175223068
 20
1060.648475396485
 30
0.0
 11
11.359895223068
 21
1060.050475396485
 31
0.0
  0
LINE
  5
1217
330
1D
100
AcDbEntity
  8
0
100
AcDbLine
 10
11.359895223068
 20
1060.050475396485
 30
0.0
 11
12.383695223068
 21
1059.374475396485
 31
0.0
  0
LINE
  5
1218
330
1D
100
AcDbEntity
  8
0
100
AcDbLine
 10
12.193795223068
 20
1055.464475396485
 30
0.0
 11
12.538495223068
 21
1055.175475396485
 31
0.0
  0
LINE
  5
1219
330
1D
100
AcDbEntity
  8
0
100
AcDbLine
 10
12.803495223068
 20
1056.225475396485
 30
0.0
 11
13.148195223068
 21
1055.936475396485
 31
0.0
  0
LINE
  5
121A
330
1D
100
AcDbEntity
  8
0
100
AcDbLine
 10
12.803495223068
 20
1056.225475396485
 30
0.0
 11
13.638467336835
 21
1057.220739294381
 31
0.0
  0
LINE
  5
121B
330
1D
100
AcDbEntity
  8
0
100
AcDbLine
 10
12.853295223068
 20
1057.650475396485
 30
0.0
 11
12.885295223068
 21
1057.836475396485
 31
0.0
  0
LINE
  5
121C
330
1D
100
AcDbEntity
  8
0
100
AcDbLine
 10
12.853295223068
 20
1057.650475396485
 30
0.0
 11
12.996395223068
 21
1057.319475396484
 31
0.0
  0
LINE
  5
121D
330
1D
100
AcDbEntity
  8
0
100
AcDbLine
 10
12.728895223068
 20
1056.028475396485
 30
0.0
 11
13.086795223068
 21
1055.492475396485
 31
0.0
  0
LINE
  5
121E
330
1D
100
AcDbEntity
  8
0
100
AcDbLine
 10
12.885295223068
 20
1057.836475396485
 30
0.0
 11
13.298795223068
 21
1057.538475396485
 31
0.0
  0
LINE
  5
121F
330
1D
100
AcDbEntity
  8
0
100
AcDbLine
 10
12.383695223068
 20
1059.374475396485
 30
0.0
 11
13.446995223068
 21
1058.603475396485
 31
0.0
  0
LINE
  5
1220
330
1D
100
AcDbEntity
  8
0
100
AcDbLine
 10
11.930195223068
 20
1057.102475396485
 30
0.0
 11
12.728895223068
 21
1056.028475396485
 31
0.0
  0
LINE
  5
1221
330
1D
100
AcDbEntity
  8
0
100
AcDbLine
 10
12.86045465534
 20
1055.559153988104
 30
0.0
 11
13.164795223068
 21
1055.273475396485
 31
0.0
  0
LINE
  5
1222
330
1D
100
AcDbEntity
  8
0
100
AcDbLine
 10
10.710595223068
 20
1061.166475396485
 30
0.0
 11
11.610708402458
 21
1062.239105600923
 31
0.0
  0
LINE
  5
1223
330
1D
100
AcDbEntity
  8
0
100
AcDbLine
 10
10.365895223068
 20
1061.455475396485
 30
0.0
 11
10.710595223068
 21
1061.166475396485
 31
0.0
  0
LINE
  5
1224
330
1D
100
AcDbEntity
  8
0
100
AcDbLine
 10
11.589995223068
 20
1061.323475396485
 30
0.0
 11
11.998995223068
 21
1061.118475396485
 31
0.0
  0
LINE
  5
1225
330
1D
100
AcDbEntity
  8
0
100
AcDbLine
 10
11.1861355538
 20
1061.733158491289
 30
0.0
 11
11.589995223068
 21
1061.323475396485
 31
0.0
  0
LINE
  5
1226
330
1D
100
AcDbEntity
  8
0
100
AcDbLine
 10
11.981995223068
 20
1061.523475396485
 30
0.0
 11
11.998995223068
 21
1061.118475396485
 31
0.0
  0
LINE
  5
1227
330
1D
100
AcDbEntity
  8
0
100
AcDbLine
 10
9.561545223068
 20
1062.130475396485
 30
0.0
 11
10.365895223068
 21
1061.455475396485
 31
0.0
  0
LINE
  5
1228
330
1D
100
AcDbEntity
  8
0
100
AcDbLine
 10
11.620495223068
 20
1062.223475396484
 30
0.0
 11
11.981995223068
 21
1061.523475396485
 31
0.0
  0
LINE
  5
1229
330
1D
100
AcDbEntity
  8
0
100
AcDbLine
 10
13.148195223068
 20
1055.936475396485
 30
0.0
 11
13.952595223068
 21
1055.261475396484
 31
0.0
  0
LINE
  5
122A
330
1D
100
AcDbEntity
  8
0
100
AcDbLine
 10
13.086795223068
 20
1055.492475396485
 30
0.0
 11
13.164795223068
 21
1055.273475396485
 31
0.0
  0
LINE
  5
122B
330
1D
100
AcDbEntity
  8
0
100
AcDbLine
 10
15.766695223068
 20
1056.801475396485
 30
0.0
 11
17.714195223068
 21
1055.197475396485
 31
0.0
  0
LINE
  5
122C
330
1D
100
AcDbEntity
  8
0
100
AcDbLine
 10
15.145995223068
 20
1055.475475396485
 30
0.0
 11
15.959795223068
 21
1054.237475396485
 31
0.0
  0
LINE
  5
122D
330
1D
100
AcDbEntity
  8
0
100
AcDbLine
 10
14.604095223068
 20
1056.160475396485
 30
0.0
 11
15.145995223068
 21
1055.475475396485
 31
0.0
  0
LINE
  5
122E
330
1D
100
AcDbEntity
  8
0
100
AcDbLine
 10
13.298795223068
 20
1057.538475396485
 30
0.0
 11
13.854695223068
 21
1057.018475396485
 31
0.0
  0
LINE
  5
122F
330
1D
100
AcDbEntity
  8
0
100
AcDbLine
 10
12.996395223068
 20
1057.319475396484
 30
0.0
 11
13.302807642428
 21
1056.820642129082
 31
0.0
  0
LINE
  5
1230
330
1D
100
AcDbEntity
  8
0
100
AcDbLine
 10
13.854695223068
 20
1057.018475396485
 30
0.0
 11
14.604095223068
 21
1056.160475396485
 31
0.0
  0
LINE
  5
1231
330
1D
100
AcDbEntity
  8
0
100
AcDbLine
 10
15.537895223068
 20
1057.981475396485
 30
0.0
 11
16.342195223068
 21
1057.306475396485
 31
0.0
  0
LINE
  5
1232
330
1D
100
AcDbEntity
  8
0
100
AcDbLine
 10
14.541995223068
 20
1057.770475396484
 30
0.0
 11
15.766695223068
 21
1056.801475396485
 31
0.0
  0
LINE
  5
1233
330
1D
100
AcDbEntity
  8
0
100
AcDbLine
 10
17.491295223068
 20
1056.342475396485
 30
0.0
 11
18.056030742918
 21
1057.015469901922
 31
0.0
  0
LINE
  5
1234
330
1D
100
AcDbEntity
  8
0
100
AcDbLine
 10
17.662643437095
 20
1056.546670816293
 30
0.0
 11
17.965495223068
 21
1056.357475396484
 31
0.0
  0
LINE
  5
1235
330
1D
100
AcDbEntity
  8
0
100
AcDbLine
 10
17.965495223068
 20
1056.357475396484
 30
0.0
 11
18.220895223068
 21
1056.610475396485
 31
0.0
  0
LINE
  5
1236
330
1D
100
AcDbEntity
  8
0
100
AcDbLine
 10
17.146495223068
 20
1056.631475396485
 30
0.0
 11
17.491295223068
 21
1056.342475396485
 31
0.0
  0
LINE
  5
1237
330
1D
100
AcDbEntity
  8
0
100
AcDbLine
 10
16.342195223068
 20
1057.306475396485
 30
0.0
 11
17.146495223068
 21
1056.631475396485
 31
0.0
  0
LINE
  5
1238
330
1D
100
AcDbEntity
  8
0
100
AcDbLine
 10
17.950595223068
 20
1057.274475396485
 30
0.0
 11
18.220895223068
 21
1056.610475396485
 31
0.0
  0
LINE
  5
1239
330
1D
100
AcDbEntity
  8
0
100
AcDbLine
 10
17.502595223068
 20
1057.917475396485
 30
0.0
 11
17.950595223068
 21
1057.274475396485
 31
0.0
  0
LINE
  5
123A
330
1D
100
AcDbEntity
  8
0
100
AcDbLine
 10
13.446995223068
 20
1058.603475396485
 30
0.0
 11
14.541995223068
 21
1057.770475396484
 31
0.0
  0
LINE
  5
123B
330
1D
100
AcDbEntity
  8
0
100
AcDbLine
 10
15.193095223068
 20
1058.270475396484
 30
0.0
 11
15.537895223068
 21
1057.981475396485
 31
0.0
  0
LINE
  5
123C
330
1D
100
AcDbEntity
  8
0
100
AcDbLine
 10
15.193095223068
 20
1058.270475396484
 30
0.0
 11
16.093821973189
 21
1059.34411702054
 31
0.0
  0
LINE
  5
123D
330
1D
100
AcDbEntity
  8
0
100
AcDbLine
 10
15.193095223068
 20
1058.270475396484
 30
0.0
 11
16.093821973189
 21
1059.34411702054
 31
0.0
  0
LINE
  5
123E
330
1D
100
AcDbEntity
  8
0
100
AcDbLine
 10
16.385495223068
 20
1059.140475396485
 30
0.0
 11
17.080795223068
 21
1058.430475396485
 31
0.0
  0
LINE
  5
123F
330
1D
100
AcDbEntity
  8
0
100
AcDbLine
 10
15.451595223068
 20
1059.299475396484
 30
0.0
 11
15.668607506105
 21
1058.837273018238
 31
0.0
  0
LINE
  5
1240
330
1D
100
AcDbEntity
  8
0
100
AcDbLine
 10
15.746695223068
 20
1059.586475396485
 30
0.0
 11
16.385495223068
 21
1059.140475396485
 31
0.0
  0
LINE
  5
1241
330
1D
100
AcDbEntity
  8
0
100
AcDbLine
 10
15.426895223068
 20
1059.573475396485
 30
0.0
 11
15.451595223068
 21
1059.299475396484
 31
0.0
  0
LINE
  5
1242
330
1D
100
AcDbEntity
  8
0
100
AcDbLine
 10
15.426895223068
 20
1059.573475396485
 30
0.0
 11
15.746695223068
 21
1059.586475396485
 31
0.0
  0
LINE
  5
1243
330
1D
100
AcDbEntity
  8
0
100
AcDbLine
 10
17.080795223068
 20
1058.430475396485
 30
0.0
 11
17.502595223068
 21
1057.917475396485
 31
0.0
  0
LINE
  5
1244
330
1D
100
AcDbEntity
  8
0
100
AcDbLine
 10
8.412475223068
 20
1063.094475396485
 30
0.0
 11
8.757195223068
 21
1062.805475396485
 31
0.0
  0
LINE
  5
1245
330
1D
100
AcDbEntity
  8
0
100
AcDbLine
 10
8.412475223068
 20
1063.094475396485
 30
0.0
 11
9.770039228403
 21
1064.712694799718
 31
0.0
  0
LINE
  5
1246
330
1D
100
AcDbEntity
  8
0
100
AcDbLine
 10
8.757195223068
 20
1062.805475396485
 30
0.0
 11
9.561545223068
 21
1062.130475396485
 31
0.0
  0
LINE
  5
1247
330
1D
100
AcDbEntity
  8
0
100
AcDbLine
 10
11.129595223068
 20
1063.007475396485
 30
0.0
 11
11.620495223068
 21
1062.223475396484
 31
0.0
  0
LINE
  5
1248
330
1D
100
AcDbEntity
  8
0
100
AcDbLine
 10
2.657675223068
 20
1067.749475396485
 30
0.0
 11
3.002385223068
 21
1067.460475396485
 31
0.0
  0
LINE
  5
1249
330
1D
100
AcDbEntity
  8
0
100
AcDbLine
 10
2.657675223068
 20
1067.749475396485
 30
0.0
 11
3.549870111459
 21
1068.812970437579
 31
0.0
  0
LINE
  5
124A
330
1D
100
AcDbEntity
  8
0
100
AcDbLine
 10
3.277425223068
 20
1066.943475396485
 30
0.0
 11
3.418323507081
 21
1067.11142542855
 31
0.0
  0
LINE
  5
124B
330
1D
100
AcDbEntity
  8
0
100
AcDbLine
 10
3.277425223068
 20
1066.943475396485
 30
0.0
 11
3.622145223068
 21
1066.654475396484
 31
0.0
  0
LINE
  5
124C
330
1D
100
AcDbEntity
  8
0
100
AcDbLine
 10
3.277425223068
 20
1066.943475396485
 30
0.0
 11
4.355243143153
 21
1068.22822883054
 31
0.0
  0
LINE
  5
124D
330
1D
100
AcDbEntity
  8
0
100
AcDbLine
 10
3.002385223068
 20
1067.460475396485
 30
0.0
 11
3.418323507081
 21
1067.11142542855
 31
0.0
  0
LINE
  5
124E
330
1D
100
AcDbEntity
  8
0
100
AcDbLine
 10
3.002385223068
 20
1067.460475396485
 30
0.0
 11
3.418323507081
 21
1067.11142542855
 31
0.0
  0
LINE
  5
124F
330
1D
100
AcDbEntity
  8
0
100
AcDbLine
 10
3.622145223068
 20
1066.654475396484
 30
0.0
 11
4.426495223068
 21
1065.979475396485
 31
0.0
  0
LINE
  5
1250
330
1D
100
AcDbEntity
  8
0
100
AcDbLine
 10
3.461915223068
 20
1068.958475396485
 30
0.0
 11
4.092587881716
 21
1067.915145105714
 31
0.0
  0
LINE
  5
1251
330
1D
100
AcDbEntity
  8
0
100
AcDbLine
 10
3.235305223068
 20
1069.341475396485
 30
0.0
 11
3.461915223068
 21
1068.958475396485
 31
0.0
  0
LINE
  5
1252
330
1D
100
AcDbEntity
  8
0
100
AcDbLine
 10
3.247145223068
 20
1069.320475396485
 30
0.0
 11
3.319319807095
 21
1069.199479960791
 31
0.0
  0
LINE
  5
1253
330
1D
100
AcDbEntity
  8
0
100
AcDbLine
 10
3.179675223068
 20
1069.434475396485
 30
0.0
 11
3.247145223068
 21
1069.320475396485
 31
0.0
  0
LINE
  5
1254
330
1D
100
AcDbEntity
  8
0
100
AcDbLine
 10
3.179675223068
 20
1069.434475396485
 30
0.0
 11
3.235305223068
 21
1069.341475396485
 31
0.0
  0
LINE
  5
1255
330
1D
100
AcDbEntity
  8
0
100
AcDbLine
 10
3.526705223068
 20
1069.410475396485
 30
0.0
 11
3.648255223068
 21
1069.083475396485
 31
0.0
  0
LINE
  5
1256
330
1D
100
AcDbEntity
  8
0
100
AcDbLine
 10
3.526705223068
 20
1069.410475396485
 30
0.0
 11
3.852385223068
 21
1068.981475396485
 31
0.0
  0
LINE
  5
1257
330
1D
100
AcDbEntity
  8
0
100
AcDbLine
 10
3.739663131501
 20
1069.129957886298
 30
0.0
 11
3.774936539765
 21
1069.081249300791
 31
0.0
  0
LINE
  5
1258
330
1D
100
AcDbEntity
  8
0
100
AcDbLine
 10
0.364212223068
 20
1076.066475396485
 30
0.0
 11
0.403998223068
 21
1077.219475396485
 31
0.0
  0
LINE
  5
1259
330
1D
100
AcDbEntity
  8
0
100
AcDbLine
 10
0.364212223068
 20
1076.066475396485
 30
0.0
 11
0.553807223068
 21
1074.888475396485
 31
0.0
  0
LINE
  5
125A
330
1D
100
AcDbEntity
  8
0
100
AcDbLine
 10
0.403998223068
 20
1077.219475396485
 30
0.0
 11
0.826717223068
 21
1078.725475396485
 31
0.0
  0
LINE
  5
125B
330
1D
100
AcDbEntity
  8
0
100
AcDbLine
 10
0.553807223068
 20
1074.888475396485
 30
0.0
 11
0.587213223068
 21
1074.824475396485
 31
0.0
  0
LINE
  5
125C
330
1D
100
AcDbEntity
  8
0
100
AcDbLine
 10
0.587431549359
 20
1074.824640358452
 30
0.0
 11
1.383018223068
 21
1072.745475396485
 31
0.0
  0
LINE
  5
125D
330
1D
100
AcDbEntity
  8
0
100
AcDbLine
 10
0.826717223068
 20
1078.725475396485
 30
0.0
 11
1.331381223068
 21
1079.722475396485
 31
0.0
  0
LINE
  5
125E
330
1D
100
AcDbEntity
  8
0
100
AcDbLine
 10
1.331381223068
 20
1079.722475396485
 30
0.0
 11
2.752945223068
 21
1081.778475396485
 31
0.0
  0
LINE
  5
125F
330
1D
100
AcDbEntity
  8
0
100
AcDbLine
 10
2.752945223068
 20
1081.778475396485
 30
0.0
 11
6.343685223068
 21
1086.533475396485
 31
0.0
  0
LINE
  5
1260
330
1D
100
AcDbEntity
  8
0
100
AcDbLine
 10
2.752945223068
 20
1081.778475396485
 30
0.0
 11
6.343685223068
 21
1086.533475396485
 31
0.0
  0
LINE
  5
1261
330
1D
100
AcDbEntity
  8
0
100
AcDbLine
 10
1.383018223068
 20
1072.745475396485
 30
0.0
 11
2.616295223068
 21
1070.413475396485
 31
0.0
  0
LINE
  5
1262
330
1D
100
AcDbEntity
  8
0
100
AcDbLine
 10
2.616295223068
 20
1070.413475396485
 30
0.0
 11
3.179675223068
 21
1069.434475396485
 31
0.0
  0
LINE
  5
1263
330
1D
100
AcDbEntity
  8
0
100
AcDbLine
 10
7.203545223068
 20
1063.954475396485
 30
0.0
 11
7.777843930845
 21
1064.638857821417
 31
0.0
  0
LINE
  5
1264
330
1D
100
AcDbEntity
  8
0
100
AcDbLine
 10
6.858825223068
 20
1064.244475396485
 30
0.0
 11
7.203545223068
 21
1063.954475396485
 31
0.0
  0
LINE
  5
1265
330
1D
100
AcDbEntity
  8
0
100
AcDbLine
 10
5.575565223068
 20
1065.015475396485
 30
0.0
 11
5.725696833919
 21
1065.194385350826
 31
0.0
  0
LINE
  5
1266
330
1D
100
AcDbEntity
  8
0
100
AcDbLine
 10
6.054475223068
 20
1064.918475396485
 30
0.0
 11
6.858825223068
 21
1064.244475396485
 31
0.0
  0
LINE
  5
1267
330
1D
100
AcDbEntity
  8
0
100
AcDbLine
 10
7.573003418247
 20
1064.394752715767
 30
0.0
 11
7.948725223068
 21
1063.975475396485
 31
0.0
  0
LINE
  5
1268
330
1D
100
AcDbEntity
  8
0
100
AcDbLine
 10
7.948725223068
 20
1063.975475396485
 30
0.0
 11
8.124405223068
 21
1063.939475396485
 31
0.0
  0
LINE
  5
1269
330
1D
100
AcDbEntity
  8
0
100
AcDbLine
 10
7.956865223068
 20
1064.336475396485
 30
0.0
 11
8.124405223068
 21
1063.939475396485
 31
0.0
  0
LINE
  5
126A
330
1D
100
AcDbEntity
  8
0
100
AcDbLine
 10
5.888578921266
 20
1065.057695134054
 30
0.0
 11
7.574145223068
 21
1062.521475396485
 31
0.0
  0
LINE
  5
126B
330
1D
100
AcDbEntity
  8
0
100
AcDbLine
 10
10.458125223068
 20
1063.932475396485
 30
0.0
 11
11.129595223068
 21
1063.007475396485
 31
0.0
  0
LINE
  5
126C
330
1D
100
AcDbEntity
  8
0
100
AcDbLine
 10
9.275225223068
 20
1064.285475396485
 30
0.0
 11
9.333762765059
 21
1064.192652256322
 31
0.0
  0
LINE
  5
126D
330
1D
100
AcDbEntity
  8
0
100
AcDbLine
 10
8.940455223068
 20
1064.939475396485
 30
0.0
 11
9.275225223068
 21
1064.285475396485
 31
0.0
  0
LINE
  5
126E
330
1D
100
AcDbEntity
  8
0
100
AcDbLine
 10
9.540935223068
 20
1064.972475396485
 30
0.0
 11
10.458125223068
 21
1063.932475396485
 31
0.0
  0
LINE
  5
126F
330
1D
100
AcDbEntity
  8
0
100
AcDbLine
 10
5.725696833919
 20
1065.194385350826
 30
0.0
 11
5.888578921266
 21
1065.057695134054
 31
0.0
  0
LINE
  5
1270
330
1D
100
AcDbEntity
  8
0
100
AcDbLine
 10
5.230845223068
 20
1065.304475396485
 30
0.0
 11
5.575565223068
 21
1065.015475396485
 31
0.0
  0
LINE
  5
1271
330
1D
100
AcDbEntity
  8
0
100
AcDbLine
 10
8.833765223068
 20
1065.307475396485
 30
0.0
 11
8.950915223068
 21
1065.420475396485
 31
0.0
  0
LINE
  5
1272
330
1D
100
AcDbEntity
  8
0
100
AcDbLine
 10
8.833765223068
 20
1065.307475396485
 30
0.0
 11
8.940455223068
 21
1064.939475396485
 31
0.0
  0
LINE
  5
1273
330
1D
100
AcDbEntity
  8
0
100
AcDbLine
 10
3.852385223068
 20
1068.981475396485
 30
0.0
 11
4.342455223068
 21
1068.248475396485
 31
0.0
  0
LINE
  5
1274
330
1D
100
AcDbEntity
  8
0
100
AcDbLine
 10
4.426495223068
 20
1065.979475396485
 30
0.0
 11
5.230845223068
 21
1065.304475396485
 31
0.0
  0
LINE
  5
1275
330
1D
100
AcDbEntity
  8
0
100
AcDbLine
 10
4.905415223068
 20
1065.883475396485
 30
0.0
 11
5.250135223068
 21
1065.593475396485
 31
0.0
  0
LINE
  5
1276
330
1D
100
AcDbEntity
  8
0
100
AcDbLine
 10
4.905415223068
 20
1065.883475396485
 30
0.0
 11
6.023183688332
 21
1067.215506032486
 31
0.0
  0
LINE
  5
1277
330
1D
100
AcDbEntity
  8
0
100
AcDbLine
 10
5.250135223068
 20
1065.593475396485
 30
0.0
 11
6.054475223068
 21
1064.918475396485
 31
0.0
  0
LINE
  5
1278
330
1D
100
AcDbEntity
  8
0
100
AcDbLine
 10
5.666115223068
 20
1067.495475396485
 30
0.0
 11
5.963615223068
 21
1067.291475396485
 31
0.0
  0
LINE
  5
1279
330
1D
100
AcDbEntity
  8
0
100
AcDbLine
 10
5.666115223068
 20
1067.495475396485
 30
0.0
 11
5.750185223068
 21
1067.215475396485
 31
0.0
  0
LINE
  5
127A
330
1D
100
AcDbEntity
  8
0
100
AcDbLine
 10
4.856585223068
 20
1067.434475396485
 30
0.0
 11
5.426801111545
 21
1066.504804408899
 31
0.0
  0
LINE
  5
127B
330
1D
100
AcDbEntity
  8
0
100
AcDbLine
 10
4.342455223068
 20
1068.248475396485
 30
0.0
 11
4.856585223068
 21
1067.434475396485
 31
0.0
  0
LINE
  5
127C
330
1D
100
AcDbEntity
  8
0
100
AcDbLine
 10
4.062665223068
 20
1068.314475396485
 30
0.0
 11
4.215009849435
 21
1068.061071463497
 31
0.0
  0
LINE
  5
127D
330
1D
100
AcDbEntity
  8
0
100
AcDbLine
 10
7.299705223068
 20
1065.446475396485
 30
0.0
 11
7.956865223068
 21
1064.336475396485
 31
0.0
  0
LINE
  5
127E
330
1D
100
AcDbEntity
  8
0
100
AcDbLine
 10
6.818925223068
 20
1066.163475396485
 30
0.0
 11
7.299705223068
 21
1065.446475396485
 31
0.0
  0
LINE
  5
127F
330
1D
100
AcDbEntity
  8
0
100
AcDbLine
 10
5.750185223068
 20
1067.215475396485
 30
0.0
 11
5.852990982964
 21
1067.012689523862
 31
0.0
  0
LINE
  5
1280
330
1D
100
AcDbEntity
  8
0
100
AcDbLine
 10
6.427025223068
 20
1066.700475396485
 30
0.0
 11
6.818925223068
 21
1066.163475396485
 31
0.0
  0
LINE
  5
1281
330
1D
100
AcDbEntity
  8
0
100
AcDbLine
 10
6.774825223068
 20
1086.788475396485
 30
0.0
 11
7.022285223068
 21
1086.805475396485
 31
0.0
  0
LINE
  5
1282
330
1D
100
AcDbEntity
  8
0
100
AcDbLine
 10
6.343685223068
 20
1086.533475396485
 30
0.0
 11
6.774825223068
 21
1086.788475396485
 31
0.0
  0
LINE
  5
1283
330
1D
100
AcDbEntity
  8
0
100
AcDbLine
 10
7.267915223068
 20
1086.738475396485
 30
0.0
 11
13.609895223068
 21
1083.615475396485
 31
0.0
  0
LINE
  5
1284
330
1D
100
AcDbEntity
  8
0
100
AcDbLine
 10
7.022285223068
 20
1086.805475396485
 30
0.0
 11
7.267915223068
 21
1086.738475396485
 31
0.0
  0
LINE
  5
1285
330
1D
100
AcDbEntity
  8
0
100
AcDbLine
 10
5.963615223068
 20
1067.291475396485
 30
0.0
 11
6.427025223068
 21
1066.700475396485
 31
0.0
  0
LINE
  5
1286
330
1D
100
AcDbEntity
  8
0
100
AcDbLine
 10
8.950915223068
 20
1065.420475396485
 30
0.0
 11
9.540935223068
 21
1064.972475396485
 31
0.0
  0
LINE
  5
1287
330
1D
100
AcDbEntity
  8
0
100
AcDbLine
 10
13.609895223068
 20
1083.615475396485
 30
0.0
 11
20.062395223068
 21
1080.185475396485
 31
0.0
  0
LINE
  5
1288
330
1D
100
AcDbEntity
  8
0
100
AcDbLine
 10
20.062395223068
 20
1080.185475396485
 30
0.0
 11
26.394895223068
 21
1076.562475396485
 31
0.0
  0
LINE
  5
1289
330
1D
100
AcDbEntity
  8
0
100
AcDbLine
 10
7.574145223068
 20
1062.521475396485
 30
0.0
 11
7.608385223068
 21
1062.421475396485
 31
0.0
  0
LINE
  5
128A
330
1D
100
AcDbEntity
  8
0
100
AcDbLine
 10
23.025395223068
 20
1050.493475396485
 30
0.0
 11
23.370095223068
 21
1050.203475396484
 31
0.0
  0
LINE
  5
128B
330
1D
100
AcDbEntity
  8
0
100
AcDbLine
 10
23.025395223068
 20
1050.493475396485
 30
0.0
 11
24.407127463283
 21
1052.140083716602
 31
0.0
  0
LINE
  5
128C
330
1D
100
AcDbEntity
  8
0
100
AcDbLine
 10
23.370095223068
 20
1050.203475396484
 30
0.0
 11
24.174495223068
 21
1049.528475396485
 31
0.0
  0
LINE
  5
128D
330
1D
100
AcDbEntity
  8
0
100
AcDbLine
 10
24.174495223068
 20
1049.528475396485
 30
0.0
 11
24.978795223068
 21
1048.854475396485
 31
0.0
  0
LINE
  5
128E
330
1D
100
AcDbEntity
  8
0
100
AcDbLine
 10
24.978795223068
 20
1048.854475396485
 30
0.0
 11
25.323495223068
 21
1048.564475396485
 31
0.0
  0
LINE
  5
128F
330
1D
100
AcDbEntity
  8
0
100
AcDbLine
 10
25.323495223068
 20
1048.564475396485
 30
0.0
 11
26.512381554506
 21
1049.981595351599
 31
0.0
  0
LINE
  5
1290
330
1D
100
AcDbEntity
  8
0
100
AcDbLine
 10
26.660595223068
 20
1048.756475396485
 30
0.0
 11
26.878195223068
 21
1048.873475396485
 31
0.0
  0
LINE
  5
1291
330
1D
100
AcDbEntity
  8
0
100
AcDbLine
 10
25.807349361162
 20
1049.141216281064
 30
0.0
 11
26.116495223068
 21
1048.915475396484
 31
0.0
  0
LINE
  5
1292
330
1D
100
AcDbEntity
  8
0
100
AcDbLine
 10
25.985295223068
 20
1050.739475396485
 30
0.0
 11
26.615395223068
 21
1049.833475396485
 31
0.0
  0
LINE
  5
1293
330
1D
100
AcDbEntity
  8
0
100
AcDbLine
 10
26.615395223068
 20
1049.833475396485
 30
0.0
 11
26.849595223068
 21
1049.297475396485
 31
0.0
  0
LINE
  5
1294
330
1D
100
AcDbEntity
  8
0
100
AcDbLine
 10
26.116495223068
 20
1048.915475396484
 30
0.0
 11
26.660595223068
 21
1048.756475396485
 31
0.0
  0
LINE
  5
1295
330
1D
100
AcDbEntity
  8
0
100
AcDbLine
 10
26.849595223068
 20
1049.297475396485
 30
0.0
 11
26.878195223068
 21
1048.873475396485
 31
0.0
  0
LINE
  5
1296
330
1D
100
AcDbEntity
  8
0
100
AcDbLine
 10
25.132760358807
 20
1048.724942790264
 30
0.0
 11
25.199095223068
 21
1048.666475396485
 31
0.0
  0
LINE
  5
1297
330
1D
100
AcDbEntity
  8
0
100
AcDbLine
 10
23.333095223068
 20
1052.365475396485
 30
0.0
 11
23.365695223068
 21
1051.993475396485
 31
0.0
  0
LINE
  5
1298
330
1D
100
AcDbEntity
  8
0
100
AcDbLine
 10
23.333095223068
 20
1052.365475396485
 30
0.0
 11
23.496195223068
 21
1052.505475396485
 31
0.0
  0
LINE
  5
1299
330
1D
100
AcDbEntity
  8
0
100
AcDbLine
 10
24.686595223068
 20
1051.952475396485
 30
0.0
 11
25.221095223068
 21
1051.507475396485
 31
0.0
  0
LINE
  5
129A
330
1D
100
AcDbEntity
  8
0
100
AcDbLine
 10
25.221095223068
 20
1051.507475396485
 30
0.0
 11
25.985295223068
 21
1050.739475396485
 31
0.0
  0
LINE
  5
129B
330
1D
100
AcDbEntity
  8
0
100
AcDbLine
 10
24.197995223068
 20
1052.280475396485
 30
0.0
 11
24.686595223068
 21
1051.952475396485
 31
0.0
  0
LINE
  5
129C
330
1D
100
AcDbEntity
  8
0
100
AcDbLine
 10
26.394895223068
 20
1076.562475396485
 30
0.0
 11
35.265495223068
 21
1071.057475396485
 31
0.0
  0
LINE
  5
129D
330
1D
100
AcDbEntity
  8
0
100
AcDbLine
 10
23.496195223068
 20
1052.505475396485
 30
0.0
 11
23.787495223068
 21
1052.469475396485
 31
0.0
  0
LINE
  5
129E
330
1D
100
AcDbEntity
  8
0
100
AcDbLine
 10
23.787495223068
 20
1052.469475396485
 30
0.0
 11
24.197995223068
 21
1052.280475396485
 31
0.0
  0
LINE
  5
129F
330
1D
100
AcDbEntity
  8
0
100
AcDbLine
 10
23.36103811054
 20
1052.04661790754
 30
0.0
 11
23.614177587036
 21
1051.462073609158
 31
0.0
  0
LINE
  5
12A0
330
1D
100
AcDbEntity
  8
0
100
AcDbLine
 10
23.585995223068
 20
1051.503475396485
 30
0.0
 11
23.714504763129
 21
1051.314686242632
 31
0.0
  0
LINE
  5
12A1
330
1D
100
AcDbEntity
  8
0
100
AcDbLine
 10
22.212395223068
 20
1043.797475396485
 30
0.0
 11
22.262495223068
 21
1043.702475396485
 31
0.0
  0
LINE
  5
12A2
330
1D
100
AcDbEntity
  8
0
100
AcDbLine
 10
28.332295223068
 20
1043.103475396485
 30
0.0
 11
28.676995223068
 21
1042.813475396485
 31
0.0
  0
LINE
  5
12A3
330
1D
100
AcDbEntity
  8
0
100
AcDbLine
 10
28.332295223068
 20
1043.103475396485
 30
0.0
 11
29.399966714283
 21
1044.37581797446
 31
0.0
  0
LINE
  5
12A4
330
1D
100
AcDbEntity
  8
0
100
AcDbLine
 10
28.375095223068
 20
1040.558475396484
 30
0.0
 11
31.046995223068
 21
1038.390475396485
 31
0.0
  0
LINE
  5
12A5
330
1D
100
AcDbEntity
  8
0
100
AcDbLine
 10
28.408295223068
 20
1044.454475396485
 30
0.0
 11
28.434295223068
 21
1044.717475396485
 31
0.0
  0
LINE
  5
12A6
330
1D
100
AcDbEntity
  8
0
100
AcDbLine
 10
28.408295223068
 20
1044.454475396485
 30
0.0
 11
28.602695223068
 21
1044.009475396485
 31
0.0
  0
LINE
  5
12A7
330
1D
100
AcDbEntity
  8
0
100
AcDbLine
 10
28.434295223068
 20
1044.717475396485
 30
0.0
 11
28.650795223068
 21
1044.774475396485
 31
0.0
  0
LINE
  5
12A8
330
1D
100
AcDbEntity
  8
0
100
AcDbLine
 10
28.100895223068
 20
1043.440475396485
 30
0.0
 11
28.397795001933
 21
1043.181531388599
 31
0.0
  0
LINE
  5
12A9
330
1D
100
AcDbEntity
  8
0
100
AcDbLine
 10
28.676995223068
 20
1042.813475396485
 30
0.0
 11
29.481295223068
 21
1042.138475396485
 31
0.0
  0
LINE
  5
12AA
330
1D
100
AcDbEntity
  8
0
100
AcDbLine
 10
28.602695223068
 20
1044.009475396485
 30
0.0
 11
28.82494499889
 21
1043.690565424612
 31
0.0
  0
LINE
  5
12AB
330
1D
100
AcDbEntity
  8
0
100
AcDbLine
 10
28.650795223068
 20
1044.774475396485
 30
0.0
 11
29.013195223068
 21
1044.655475396485
 31
0.0
  0
LINE
  5
12AC
330
1D
100
AcDbEntity
  8
0
100
AcDbLine
 10
29.481295223068
 20
1042.138475396485
 30
0.0
 11
30.285695223068
 21
1041.463475396485
 31
0.0
  0
LINE
  5
12AD
330
1D
100
AcDbEntity
  8
0
100
AcDbLine
 10
29.013195223068
 20
1044.655475396485
 30
0.0
 11
30.405895223068
 21
1043.648475396485
 31
0.0
  0
LINE
  5
12AE
330
1D
100
AcDbEntity
  8
0
100
AcDbLine
 10
29.916695223068
 20
1035.448475396485
 30
0.0
 11
29.920595223068
 21
1035.565475396485
 31
0.0
  0
LINE
  5
12AF
330
1D
100
AcDbEntity
  8
0
100
AcDbLine
 10
30.218395223068
 20
1036.233475396485
 30
0.0
 11
31.061508103913
 21
1037.238211801985
 31
0.0
  0
LINE
  5
12B0
330
1D
100
AcDbEntity
  8
0
100
AcDbLine
 10
30.285695223068
 20
1041.463475396485
 30
0.0
 11
30.630395223068
 21
1041.174475396484
 31
0.0
  0
LINE
  5
12B1
330
1D
100
AcDbEntity
  8
0
100
AcDbLine
 10
30.270495223068
 20
1038.113475396485
 30
0.0
 11
30.970395223068
 21
1037.367475396485
 31
0.0
  0
LINE
  5
12B2
330
1D
100
AcDbEntity
  8
0
100
AcDbLine
 10
30.630395223068
 20
1041.174475396484
 30
0.0
 11
31.590168996911
 21
1042.318236420107
 31
0.0
  0
LINE
  5
12B3
330
1D
100
AcDbEntity
  8
0
100
AcDbLine
 10
30.405895223068
 20
1043.648475396485
 30
0.0
 11
31.001195223068
 21
1043.059475396485
 31
0.0
  0
LINE
  5
12B4
330
1D
100
AcDbEntity
  8
0
100
AcDbLine
 10
30.739795223068
 20
1035.524475396485
 30
0.0
 11
31.328795223068
 21
1035.347475396485
 31
0.0
  0
LINE
  5
12B5
330
1D
100
AcDbEntity
  8
0
100
AcDbLine
 10
36.492095223068
 20
1035.369475396485
 30
0.0
 11
36.823995223068
 21
1034.862475396485
 31
0.0
  0
LINE
  5
12B6
330
1D
100
AcDbEntity
  8
0
100
AcDbLine
 10
31.328795223068
 20
1035.347475396485
 30
0.0
 11
32.274179032555
 21
1034.940428366484
 31
0.0
  0
LINE
  5
12B7
330
1D
100
AcDbEntity
  8
0
100
AcDbLine
 10
33.543495223068
 20
1035.793475396485
 30
0.0
 11
34.347895223068
 21
1035.118475396485
 31
0.0
  0
LINE
  5
12B8
330
1D
100
AcDbEntity
  8
0
100
AcDbLine
 10
36.097295223068
 20
1035.841475396485
 30
0.0
 11
36.492095223068
 21
1035.369475396485
 31
0.0
  0
LINE
  5
12B9
330
1D
100
AcDbEntity
  8
0
100
AcDbLine
 10
33.198795223068
 20
1036.082475396485
 30
0.0
 11
33.543495223068
 21
1035.793475396485
 31
0.0
  0
LINE
  5
12BA
330
1D
100
AcDbEntity
  8
0
100
AcDbLine
 10
33.198795223068
 20
1036.082475396485
 30
0.0
 11
34.302166464024
 21
1037.397361314797
 31
0.0
  0
LINE
  5
12BB
330
1D
100
AcDbEntity
  8
0
100
AcDbLine
 10
33.198795223068
 20
1036.082475396485
 30
0.0
 11
34.302166464024
 21
1037.397361314797
 31
0.0
  0
LINE
  5
12BC
330
1D
100
AcDbEntity
  8
0
100
AcDbLine
 10
35.605195223068
 20
1036.347475396485
 30
0.0
 11
36.097295223068
 21
1035.841475396485
 31
0.0
  0
LINE
  5
12BD
330
1D
100
AcDbEntity
  8
0
100
AcDbLine
 10
31.173995223068
 20
1036.622475396485
 30
0.0
 11
31.451595223068
 21
1036.556475396485
 31
0.0
  0
LINE
  5
12BE
330
1D
100
AcDbEntity
  8
0
100
AcDbLine
 10
36.952395223068
 20
1035.877475396484
 30
0.0
 11
39.671339450079
 21
1033.474549415419
 31
0.0
  0
LINE
  5
12BF
330
1D
100
AcDbEntity
  8
0
100
AcDbLine
 10
36.952395223068
 20
1035.877475396484
 30
0.0
 11
39.67040432222
 21
1033.473435024897
 31
0.0
  0
LINE
  5
12C0
330
1D
100
AcDbEntity
  8
0
100
AcDbLine
 10
30.78302012122
 20
1036.906338074204
 30
0.0
 11
31.173995223068
 21
1036.622475396485
 31
0.0
  0
LINE
  5
12C1
330
1D
100
AcDbEntity
  8
0
100
AcDbLine
 10
31.376395223068
 20
1036.791475396485
 30
0.0
 11
31.451595223068
 21
1036.556475396485
 31
0.0
  0
LINE
  5
12C2
330
1D
100
AcDbEntity
  8
0
100
AcDbLine
 10
30.970395223068
 20
1037.367475396485
 30
0.0
 11
31.376395223068
 21
1036.791475396485
 31
0.0
  0
LINE
  5
12C3
330
1D
100
AcDbEntity
  8
0
100
AcDbLine
 10
31.046995223068
 20
1038.390475396485
 30
0.0
 11
33.020395223068
 21
1036.717475396485
 31
0.0
  0
LINE
  5
12C4
330
1D
100
AcDbEntity
  8
0
100
AcDbLine
 10
30.979495223068
 20
1041.570475396485
 30
0.0
 11
31.446295223068
 21
1041.305475396485
 31
0.0
  0
LINE
  5
12C5
330
1D
100
AcDbEntity
  8
0
100
AcDbLine
 10
31.001195223068
 20
1043.059475396485
 30
0.0
 11
31.438995223068
 21
1042.541475396485
 31
0.0
  0
LINE
  5
12C6
330
1D
100
AcDbEntity
  8
0
100
AcDbLine
 10
31.446295223068
 20
1041.305475396485
 30
0.0
 11
31.915495223068
 21
1041.200475396485
 31
0.0
  0
LINE
  5
12C7
330
1D
100
AcDbEntity
  8
0
100
AcDbLine
 10
31.438995223068
 20
1042.541475396485
 30
0.0
 11
31.818895223068
 21
1041.980475396485
 31
0.0
  0
LINE
  5
12C8
330
1D
100
AcDbEntity
  8
0
100
AcDbLine
 10
31.915495223068
 20
1041.200475396485
 30
0.0
 11
32.008495223068
 21
1041.509475396485
 31
0.0
  0
LINE
  5
12C9
330
1D
100
AcDbEntity
  8
0
100
AcDbLine
 10
32.157595223068
 20
1042.799475396484
 30
0.0
 11
32.502295223068
 21
1042.510475396485
 31
0.0
  0
LINE
  5
12CA
330
1D
100
AcDbEntity
  8
0
100
AcDbLine
 10
32.157595223068
 20
1042.799475396484
 30
0.0
 11
33.245843089297
 21
1044.096338810922
 31
0.0
  0
LINE
  5
12CB
330
1D
100
AcDbEntity
  8
0
100
AcDbLine
 10
32.157595223068
 20
1042.799475396484
 30
0.0
 11
33.245843089297
 21
1044.096338810922
 31
0.0
  0
LINE
  5
12CC
330
1D
100
AcDbEntity
  8
0
100
AcDbLine
 10
32.502295223068
 20
1042.510475396485
 30
0.0
 11
33.306595223068
 21
1041.835475396485
 31
0.0
  0
LINE
  5
12CD
330
1D
100
AcDbEntity
  8
0
100
AcDbLine
 10
32.356795223068
 20
1044.164475396485
 30
0.0
 11
32.515095223068
 21
1043.506475396485
 31
0.0
  0
LINE
  5
12CE
330
1D
100
AcDbEntity
  8
0
100
AcDbLine
 10
32.356795223068
 20
1044.164475396485
 30
0.0
 11
32.700895223068
 21
1044.303475396485
 31
0.0
  0
LINE
  5
12CF
330
1D
100
AcDbEntity
  8
0
100
AcDbLine
 10
32.515095223068
 20
1043.506475396485
 30
0.0
 11
32.62773003282
 21
1043.359734371982
 31
0.0
  0
LINE
  5
12D0
330
1D
100
AcDbEntity
  8
0
100
AcDbLine
 10
31.818895223068
 20
1041.980475396485
 30
0.0
 11
32.008495223068
 21
1041.509475396485
 31
0.0
  0
LINE
  5
12D1
330
1D
100
AcDbEntity
  8
0
100
AcDbLine
 10
32.62773003282
 20
1043.359734371982
 30
0.0
 11
33.245843089297
 21
1044.096338810922
 31
0.0
  0
LINE
  5
12D2
330
1D
100
AcDbEntity
  8
0
100
AcDbLine
 10
33.035895223068
 20
1044.206475396485
 30
0.0
 11
33.462895223068
 21
1043.982475396484
 31
0.0
  0
LINE
  5
12D3
330
1D
100
AcDbEntity
  8
0
100
AcDbLine
 10
32.700895223068
 20
1044.303475396485
 30
0.0
 11
33.035895223068
 21
1044.206475396485
 31
0.0
  0
LINE
  5
12D4
330
1D
100
AcDbEntity
  8
0
100
AcDbLine
 10
33.826289857172
 20
1036.830259847968
 30
0.0
 11
34.302166464024
 21
1037.397361314797
 31
0.0
  0
LINE
  5
12D5
330
1D
100
AcDbEntity
  8
0
100
AcDbLine
 10
33.826289857172
 20
1036.830259847968
 30
0.0
 11
34.302166464024
 21
1037.397361314797
 31
0.0
  0
LINE
  5
12D6
330
1D
100
AcDbEntity
  8
0
100
AcDbLine
 10
33.404195223068
 20
1037.214475396485
 30
0.0
 11
33.76526420732
 21
1036.757535668954
 31
0.0
  0
LINE
  5
12D7
330
1D
100
AcDbEntity
  8
0
100
AcDbLine
 10
34.781995223068
 20
1037.084475396485
 30
0.0
 11
35.605195223068
 21
1036.347475396485
 31
0.0
  0
LINE
  5
12D8
330
1D
100
AcDbEntity
  8
0
100
AcDbLine
 10
33.872595223068
 20
1037.677475396485
 30
0.0
 11
34.781995223068
 21
1037.084475396485
 31
0.0
  0
LINE
  5
12D9
330
1D
100
AcDbEntity
  8
0
100
AcDbLine
 10
34.455695223068
 20
1040.871475396485
 30
0.0
 11
35.36920569236
 21
1041.960070635248
 31
0.0
  0
LINE
  5
12DA
330
1D
100
AcDbEntity
  8
0
100
AcDbLine
 10
33.306595223068
 20
1041.835475396485
 30
0.0
 11
34.110995223068
 21
1041.160475396485
 31
0.0
  0
LINE
  5
12DB
330
1D
100
AcDbEntity
  8
0
100
AcDbLine
 10
34.110995223068
 20
1041.160475396485
 30
0.0
 11
34.455695223068
 21
1040.871475396485
 31
0.0
  0
LINE
  5
12DC
330
1D
100
AcDbEntity
  8
0
100
AcDbLine
 10
34.242395223068
 20
1043.421475396485
 30
0.0
 11
34.892895223068
 21
1042.720475396485
 31
0.0
  0
LINE
  5
12DD
330
1D
100
AcDbEntity
  8
0
100
AcDbLine
 10
33.462895223068
 20
1043.982475396484
 30
0.0
 11
34.242395223068
 21
1043.421475396485
 31
0.0
  0
LINE
  5
12DE
330
1D
100
AcDbEntity
  8
0
100
AcDbLine
 10
34.270444520774
 20
1041.026791477027
 30
0.0
 11
37.045395223068
 21
1038.578475396484
 31
0.0
  0
LINE
  5
12DF
330
1D
100
AcDbEntity
  8
0
100
AcDbLine
 10
34.270444520774
 20
1041.026791477027
 30
0.0
 11
37.045395223068
 21
1038.578475396484
 31
0.0
  0
LINE
  5
12E0
330
1D
100
AcDbEntity
  8
0
100
AcDbLine
 10
35.123295223068
 20
1041.271475396485
 30
0.0
 11
35.508395223068
 21
1041.543475396485
 31
0.0
  0
LINE
  5
12E1
330
1D
100
AcDbEntity
  8
0
100
AcDbLine
 10
37.045395223068
 20
1038.578475396484
 30
0.0
 11
40.976825135411
 21
1035.137536555251
 31
0.0
  0
LINE
  5
12E2
330
1D
100
AcDbEntity
  8
0
100
AcDbLine
 10
35.293895223068
 20
1042.185475396485
 30
0.0
 11
35.508395223068
 21
1041.543475396485
 31
0.0
  0
LINE
  5
12E3
330
1D
100
AcDbEntity
  8
0
100
AcDbLine
 10
35.265495223068
 20
1071.057475396485
 30
0.0
 11
43.911395223068
 21
1065.203475396484
 31
0.0
  0
LINE
  5
12E4
330
1D
100
AcDbEntity
  8
0
100
AcDbLine
 10
34.892895223068
 20
1042.720475396485
 30
0.0
 11
35.293895223068
 21
1042.185475396485
 31
0.0
  0
LINE
  5
12E5
330
1D
100
AcDbEntity
  8
0
100
AcDbLine
 10
34.882934810582
 20
1041.380600356093
 30
0.0
 11
35.123295223068
 21
1041.271475396485
 31
0.0
  0
LINE
  5
12E6
330
1D
100
AcDbEntity
  8
0
100
AcDbLine
 10
33.257095223068
 20
1037.808475396484
 30
0.0
 11
33.404195223068
 21
1037.214475396485
 31
0.0
  0
LINE
  5
12E7
330
1D
100
AcDbEntity
  8
0
100
AcDbLine
 10
33.257095223068
 20
1037.808475396484
 30
0.0
 11
33.872595223068
 21
1037.677475396485
 31
0.0
  0
LINE
  5
12E8
330
1D
100
AcDbEntity
  8
0
100
AcDbLine
 10
33.020395223068
 20
1036.717475396485
 30
0.0
 11
33.431928635177
 21
1036.360300147839
 31
0.0
  0
LINE
  5
12E9
330
1D
100
AcDbEntity
  8
0
100
AcDbLine
 10
29.901395223068
 20
1035.323475396485
 30
0.0
 11
29.958795223068
 21
1035.219475396485
 31
0.0
  0
LINE
  5
12EA
330
1D
100
AcDbEntity
  8
0
100
AcDbLine
 10
29.901395223068
 20
1035.323475396485
 30
0.0
 11
29.912595223068
 21
1035.437475396485
 31
0.0
  0
LINE
  5
12EB
330
1D
100
AcDbEntity
  8
0
100
AcDbLine
 10
29.958795223068
 20
1035.219475396485
 30
0.0
 11
33.422495223068
 21
1031.910475396485
 31
0.0
  0
LINE
  5
12EC
330
1D
100
AcDbEntity
  8
0
100
AcDbLine
 10
53.505095223068
 20
1014.531475396485
 30
0.0
 11
53.621295223068
 21
1014.485475396485
 31
0.0
  0
LINE
  5
12ED
330
1D
100
AcDbEntity
  8
0
100
AcDbLine
 10
56.603895223068
 20
1011.152475396485
 30
0.0
 11
56.948595223068
 21
1010.863475396485
 31
0.0
  0
LINE
  5
12EE
330
1D
100
AcDbEntity
  8
0
100
AcDbLine
 10
56.603895223068
 20
1011.152475396485
 30
0.0
 11
57.161963703979
 21
1011.817524801224
 31
0.0
  0
LINE
  5
12EF
330
1D
100
AcDbEntity
  8
0
100
AcDbLine
 10
56.603895223068
 20
1011.152475396485
 30
0.0
 11
57.304465591389
 21
1011.98734409516
 31
0.0
  0
LINE
  5
12F0
330
1D
100
AcDbEntity
  8
0
100
AcDbLine
 10
56.948595223068
 20
1010.863475396485
 30
0.0
 11
57.752895223068
 21
1010.188475396485
 31
0.0
  0
LINE
  5
12F1
330
1D
100
AcDbEntity
  8
0
100
AcDbLine
 10
58.389495223068
 20
1011.147475396485
 30
0.0
 11
59.224857883382
 21
1012.142975875343
 31
0.0
  0
LINE
  5
12F2
330
1D
100
AcDbEntity
  8
0
100
AcDbLine
 10
58.044695223068
 20
1011.436475396485
 30
0.0
 11
58.389495223068
 21
1011.147475396485
 31
0.0
  0
LINE
  5
12F3
330
1D
100
AcDbEntity
  8
0
100
AcDbLine
 10
57.752895223068
 20
1010.188475396485
 30
0.0
 11
58.557295223068
 21
1009.513475396485
 31
0.0
  0
LINE
  5
12F4
330
1D
100
AcDbEntity
  8
0
100
AcDbLine
 10
58.557295223068
 20
1009.513475396485
 30
0.0
 11
58.901995223068
 21
1009.223475396485
 31
0.0
  0
LINE
  5
12F5
330
1D
100
AcDbEntity
  8
0
100
AcDbLine
 10
58.901995223068
 20
1009.223475396485
 30
0.0
 11
59.470051431894
 21
1009.900603912
 31
0.0
  0
LINE
  5
12F6
330
1D
100
AcDbEntity
  8
0
100
AcDbLine
 10
59.470051431894
 20
1009.900603912
 30
0.0
 11
62.462295223068
 21
1007.415475396485
 31
0.0
  0
LINE
  5
12F7
330
1D
100
AcDbEntity
  8
0
100
AcDbLine
 10
58.851995223068
 20
1010.743475396485
 30
0.0
 11
59.883195223068
 21
1009.820475396485
 31
0.0
  0
LINE
  5
12F8
330
1D
100
AcDbEntity
  8
0
100
AcDbLine
 10
57.670995223068
 20
1011.708475396485
 30
0.0
 11
58.851995223068
 21
1010.743475396485
 31
0.0
  0
LINE
  5
12F9
330
1D
100
AcDbEntity
  8
0
100
AcDbLine
 10
59.945195223068
 20
1009.614475396485
 30
0.0
 11
60.219695223068
 21
1009.462475396485
 31
0.0
  0
LINE
  5
12FA
330
1D
100
AcDbEntity
  8
0
100
AcDbLine
 10
59.524006605918
 20
1009.964919003223
 30
0.0
 11
59.608841106205
 21
1010.066042551125
 31
0.0
  0
LINE
  5
12FB
330
1D
100
AcDbEntity
  8
0
100
AcDbLine
 10
59.883195223068
 20
1009.820475396485
 30
0.0
 11
60.219695223068
 21
1009.462475396485
 31
0.0
  0
LINE
  5
12FC
330
1D
100
AcDbEntity
  8
0
100
AcDbLine
 10
59.470051431894
 20
1009.900603912
 30
0.0
 11
62.462295223068
 21
1007.415475396485
 31
0.0
  0
LINE
  5
12FD
330
1D
100
AcDbEntity
  8
0
100
AcDbLine
 10
56.091295223068
 20
1013.075475396485
 30
0.0
 11
56.435995223068
 21
1012.786475396485
 31
0.0
  0
LINE
  5
12FE
330
1D
100
AcDbEntity
  8
0
100
AcDbLine
 10
56.091295223068
 20
1013.075475396485
 30
0.0
 11
56.90144304264
 21
1014.041149415397
 31
0.0
  0
LINE
  5
12FF
330
1D
100
AcDbEntity
  8
0
100
AcDbLine
 10
56.435995223068
 20
1012.786475396485
 30
0.0
 11
57.240395223068
 21
1012.111475396485
 31
0.0
  0
LINE
  5
1300
330
1D
100
AcDbEntity
  8
0
100
AcDbLine
 10
57.240395223068
 20
1012.111475396485
 30
0.0
 11
58.044695223068
 21
1011.436475396485
 31
0.0
  0
LINE
  5
1301
330
1D
100
AcDbEntity
  8
0
100
AcDbLine
 10
57.206283177905
 20
1011.870340254454
 30
0.0
 11
57.304465591389
 21
1011.98734409516
 31
0.0
  0
LINE
  5
1302
330
1D
100
AcDbEntity
  8
0
100
AcDbLine
 10
58.991681454765
 20
1011.865099861279
 30
0.0
 11
59.151295223068
 21
1011.769475396485
 31
0.0
  0
LINE
  5
1303
330
1D
100
AcDbEntity
  8
0
100
AcDbLine
 10
59.430695223068
 20
1011.868475396485
 30
0.0
 11
59.465395223068
 21
1011.692475396485
 31
0.0
  0
LINE
  5
1304
330
1D
100
AcDbEntity
  8
0
100
AcDbLine
 10
58.252695223068
 20
1013.091475396485
 30
0.0
 11
59.159995223068
 21
1012.229475396485
 31
0.0
  0
LINE
  5
1305
330
1D
100
AcDbEntity
  8
0
100
AcDbLine
 10
59.159995223068
 20
1012.229475396485
 30
0.0
 11
59.430695223068
 21
1011.868475396485
 31
0.0
  0
LINE
  5
1306
330
1D
100
AcDbEntity
  8
0
100
AcDbLine
 10
59.151295223068
 20
1011.769475396485
 30
0.0
 11
59.465395223068
 21
1011.692475396485
 31
0.0
  0
LINE
  5
1307
330
1D
100
AcDbEntity
  8
0
100
AcDbLine
 10
65.380695223068
 20
1004.991475396485
 30
0.0
 11
65.555676058455
 21
1005.199999805935
 31
0.0
  0
LINE
  5
1308
330
1D
100
AcDbEntity
  8
0
100
AcDbLine
 10
65.380695223068
 20
1004.991475396485
 30
0.0
 11
65.725395223068
 21
1004.702475396485
 31
0.0
  0
LINE
  5
1309
330
1D
100
AcDbEntity
  8
0
100
AcDbLine
 10
65.380695223068
 20
1004.991475396485
 30
0.0
 11
66.13588801601
 21
1005.891437559891
 31
0.0
  0
LINE
  5
130A
330
1D
100
AcDbEntity
  8
0
100
AcDbLine
 10
67.946895223068
 20
1001.968475396485
 30
0.0
 11
68.583979844663
 21
1002.727664600191
 31
0.0
  0
LINE
  5
130B
330
1D
100
AcDbEntity
  8
0
100
AcDbLine
 10
67.602195223068
 20
1002.257475396485
 30
0.0
 11
67.946895223068
 21
1001.968475396485
 31
0.0
  0
LINE
  5
130C
330
1D
100
AcDbEntity
  8
0
100
AcDbLine
 10
69.233695223068
 20
1002.183475396485
 30
0.0
 11
71.775895223068
 21
1000.102475396485
 31
0.0
  0
LINE
  5
130D
330
1D
100
AcDbEntity
  8
0
100
AcDbLine
 10
68.879795223068
 20
1002.480475396485
 30
0.0
 11
69.233695223068
 21
1002.183475396485
 31
0.0
  0
LINE
  5
130E
330
1D
100
AcDbEntity
  8
0
100
AcDbLine
 10
66.529795223068
 20
1004.027475396485
 30
0.0
 11
67.334095223068
 21
1003.352475396485
 31
0.0
  0
LINE
  5
130F
330
1D
100
AcDbEntity
  8
0
100
AcDbLine
 10
65.648795223068
 20
1003.897475396485
 30
0.0
 11
65.993495223068
 21
1003.607475396485
 31
0.0
  0
LINE
  5
1310
330
1D
100
AcDbEntity
  8
0
100
AcDbLine
 10
65.648795223068
 20
1003.897475396485
 30
0.0
 11
66.076835138866
 21
1004.4075699475
 31
0.0
  0
LINE
  5
1311
330
1D
100
AcDbEntity
  8
0
100
AcDbLine
 10
65.993495223068
 20
1003.607475396485
 30
0.0
 11
66.797895223068
 21
1002.932475396485
 31
0.0
  0
LINE
  5
1312
330
1D
100
AcDbEntity
  8
0
100
AcDbLine
 10
67.678795223068
 20
1003.063475396485
 30
0.0
 11
68.470552336995
 21
1004.006981851476
 31
0.0
  0
LINE
  5
1313
330
1D
100
AcDbEntity
  8
0
100
AcDbLine
 10
67.334095223068
 20
1003.352475396485
 30
0.0
 11
67.678795223068
 21
1003.063475396485
 31
0.0
  0
LINE
  5
1314
330
1D
100
AcDbEntity
  8
0
100
AcDbLine
 10
66.797895223068
 20
1002.932475396485
 30
0.0
 11
67.602195223068
 21
1002.257475396485
 31
0.0
  0
LINE
  5
1315
330
1D
100
AcDbEntity
  8
0
100
AcDbLine
 10
65.725395223068
 20
1004.702475396485
 30
0.0
 11
66.076835138866
 21
1004.4075699475
 31
0.0
  0
LINE
  5
1316
330
1D
100
AcDbEntity
  8
0
100
AcDbLine
 10
65.725395223068
 20
1004.702475396485
 30
0.0
 11
66.529795223068
 21
1004.027475396485
 31
0.0
  0
LINE
  5
1317
330
1D
100
AcDbEntity
  8
0
100
AcDbLine
 10
67.885178490461
 20
1003.309414386564
 30
0.0
 11
68.077995223068
 21
1003.150475396485
 31
0.0
  0
LINE
  5
1318
330
1D
100
AcDbEntity
  8
0
100
AcDbLine
 10
67.185895223068
 20
1005.161475396485
 30
0.0
 11
68.037595223068
 21
1004.448475396485
 31
0.0
  0
LINE
  5
1319
330
1D
100
AcDbEntity
  8
0
100
AcDbLine
 10
68.077995223068
 20
1003.150475396485
 30
0.0
 11
68.879795223068
 21
1002.480475396485
 31
0.0
  0
LINE
  5
131A
330
1D
100
AcDbEntity
  8
0
100
AcDbLine
 10
68.273473230965
 20
1003.772130272106
 30
0.0
 11
68.741095223068
 21
1003.530475396485
 31
0.0
  0
LINE
  5
131B
330
1D
100
AcDbEntity
  8
0
100
AcDbLine
 10
68.686795223068
 20
1003.786475396485
 30
0.0
 11
68.741095223068
 21
1003.530475396485
 31
0.0
  0
LINE
  5
131C
330
1D
100
AcDbEntity
  8
0
100
AcDbLine
 10
68.037595223068
 20
1004.448475396485
 30
0.0
 11
68.686795223068
 21
1003.786475396485
 31
0.0
  0
LINE
  5
131D
330
1D
100
AcDbEntity
  8
0
100
AcDbLine
 10
65.454995223068
 20
1005.280475396485
 30
0.0
 11
65.555676058455
 21
1005.199999805935
 31
0.0
  0
LINE
  5
131E
330
1D
100
AcDbEntity
  8
0
100
AcDbLine
 10
65.926444192496
 20
1005.641843657137
 30
0.0
 11
66.13588801601
 21
1005.891437559891
 31
0.0
  0
LINE
  5
131F
330
1D
100
AcDbEntity
  8
0
100
AcDbLine
 10
65.379395223068
 20
1005.340475396485
 30
0.0
 11
65.454995223068
 21
1005.280475396485
 31
0.0
  0
LINE
  5
1320
330
1D
100
AcDbEntity
  8
0
100
AcDbLine
 10
65.518395223068
 20
1006.104475396485
 30
0.0
 11
65.645595223068
 21
1006.151475396485
 31
0.0
  0
LINE
  5
1321
330
1D
100
AcDbEntity
  8
0
100
AcDbLine
 10
65.518395223068
 20
1006.104475396485
 30
0.0
 11
65.926444192496
 21
1005.641843657137
 31
0.0
  0
LINE
  5
1322
330
1D
100
AcDbEntity
  8
0
100
AcDbLine
 10
66.190495223068
 20
1005.862475396485
 30
0.0
 11
67.185895223068
 21
1005.161475396485
 31
0.0
  0
LINE
  5
1323
330
1D
100
AcDbEntity
  8
0
100
AcDbLine
 10
65.519934191704
 20
1006.102730567334
 30
0.0
 11
65.597434501883
 21
1006.133680161456
 31
0.0
  0
LINE
  5
1324
330
1D
100
AcDbEntity
  8
0
100
AcDbLine
 10
62.576995223068
 20
1007.370475396485
 30
0.0
 11
62.684995223068
 21
1007.392475396485
 31
0.0
  0
LINE
  5
1325
330
1D
100
AcDbEntity
  8
0
100
AcDbLine
 10
65.645595223068
 20
1006.151475396485
 30
0.0
 11
66.190495223068
 21
1005.862475396485
 31
0.0
  0
LINE
  5
1326
330
1D
100
AcDbEntity
  8
0
100
AcDbLine
 10
67.167195223068
 20
1006.964475396485
 30
0.0
 11
67.869538631946
 21
1007.801430983294
 31
0.0
  0
LINE
  5
1327
330
1D
100
AcDbEntity
  8
0
100
AcDbLine
 10
66.822495223068
 20
1007.253475396485
 30
0.0
 11
67.167195223068
 21
1006.964475396485
 31
0.0
  0
LINE
  5
1328
330
1D
100
AcDbEntity
  8
0
100
AcDbLine
 10
67.303022972059
 20
1007.126336093011
 30
0.0
 11
67.864095223068
 21
1006.861475396485
 31
0.0
  0
LINE
  5
1329
330
1D
100
AcDbEntity
  8
0
100
AcDbLine
 10
68.264095223068
 20
1007.279475396485
 30
0.0
 11
68.369395223068
 21
1006.894475396485
 31
0.0
  0
LINE
  5
132A
330
1D
100
AcDbEntity
  8
0
100
AcDbLine
 10
67.864095223068
 20
1006.861475396485
 30
0.0
 11
68.369395223068
 21
1006.894475396485
 31
0.0
  0
LINE
  5
132B
330
1D
100
AcDbEntity
  8
0
100
AcDbLine
 10
62.907595223068
 20
1007.371475396485
 30
0.0
 11
65.379395223068
 21
1005.340475396485
 31
0.0
  0
LINE
  5
132C
330
1D
100
AcDbEntity
  8
0
100
AcDbLine
 10
74.105395223068
 20
999.308475396485
 30
0.0
 11
74.206795223068
 21
999.382475396485
 31
0.0
  0
LINE
  5
132D
330
1D
100
AcDbEntity
  8
0
100
AcDbLine
 10
74.105395223068
 20
999.308475396485
 30
0.0
 11
74.285295223068
 21
999.020475396485
 31
0.0
  0
LINE
  5
132E
330
1D
100
AcDbEntity
  8
0
100
AcDbLine
 10
72.124895223068
 20
1000.105475396485
 30
0.0
 11
72.221695223068
 21
1000.061475396485
 31
0.0
  0
LINE
  5
132F
330
1D
100
AcDbEntity
  8
0
100
AcDbLine
 10
72.009395223068
 20
1000.087475396485
 30
0.0
 11
72.124895223068
 21
1000.105475396485
 31
0.0
  0
LINE
  5
1330
330
1D
100
AcDbEntity
  8
0
100
AcDbLine
 10
71.891195223068
 20
1000.058475396485
 30
0.0
 11
72.009395223068
 21
1000.087475396485
 31
0.0
  0
LINE
  5
1331
330
1D
100
AcDbEntity
  8
0
100
AcDbLine
 10
72.221695223068
 20
1000.061475396485
 30
0.0
 11
74.673285787648
 21
998.057445047794
 31
0.0
  0
LINE
  5
1332
330
1D
100
AcDbEntity
  8
0
100
AcDbLine
 10
71.775895223068
 20
1000.102475396485
 30
0.0
 11
71.891195223068
 21
1000.058475396485
 31
0.0
  0
LINE
  5
1333
330
1D
100
AcDbEntity
  8
0
100
AcDbLine
 10
74.357795223068
 20
997.681475396485
 30
0.0
 11
74.702495223068
 21
997.392475396485
 31
0.0
  0
LINE
  5
1334
330
1D
100
AcDbEntity
  8
0
100
AcDbLine
 10
74.357795223068
 20
997.681475396485
 30
0.0
 11
74.673285787648
 21
998.057445047794
 31
0.0
  0
LINE
  5
1335
330
1D
100
AcDbEntity
  8
0
100
AcDbLine
 10
74.357795223068
 20
997.681475396485
 30
0.0
 11
75.283987525272
 21
998.785217428733
 31
0.0
  0
LINE
  5
1336
330
1D
100
AcDbEntity
  8
0
100
AcDbLine
 10
74.704795223068
 20
996.788475396485
 30
0.0
 11
75.049495223068
 21
996.499475396485
 31
0.0
  0
LINE
  5
1337
330
1D
100
AcDbEntity
  8
0
100
AcDbLine
 10
74.704795223068
 20
996.788475396485
 30
0.0
 11
75.001244378121
 21
997.141753427492
 31
0.0
  0
LINE
  5
1338
330
1D
100
AcDbEntity
  8
0
100
AcDbLine
 10
74.702495223068
 20
997.392475396485
 30
0.0
 11
75.001244378121
 21
997.141753427492
 31
0.0
  0
LINE
  5
1339
330
1D
100
AcDbEntity
  8
0
100
AcDbLine
 10
74.702495223068
 20
997.392475396485
 30
0.0
 11
75.506795223068
 21
996.717475396485
 31
0.0
  0
LINE
  5
133A
330
1D
100
AcDbEntity
  8
0
100
AcDbLine
 10
74.285295223068
 20
999.020475396485
 30
0.0
 11
74.856395223068
 21
998.472475396485
 31
0.0
  0
LINE
  5
133B
330
1D
100
AcDbEntity
  8
0
100
AcDbLine
 10
81.306895223068
 20
992.455475396485
 30
0.0
 11
82.179695223068
 21
991.980475396485
 31
0.0
  0
LINE
  5
133C
330
1D
100
AcDbEntity
  8
0
100
AcDbLine
 10
77.002895223068
 20
994.860475396485
 30
0.0
 11
77.646740772143
 21
995.627745209783
 31
0.0
  0
LINE
  5
133D
330
1D
100
AcDbEntity
  8
0
100
AcDbLine
 10
76.658195223068
 20
995.149475396485
 30
0.0
 11
77.002895223068
 21
994.860475396485
 31
0.0
  0
LINE
  5
133E
330
1D
100
AcDbEntity
  8
0
100
AcDbLine
 10
78.133695223068
 20
995.218475396485
 30
0.0
 11
81.306895223068
 21
992.455475396485
 31
0.0
  0
LINE
  5
133F
330
1D
100
AcDbEntity
  8
0
100
AcDbLine
 10
94.773895223068
 20
977.613275396485
 30
0.0
 11
95.771595223068
 21
976.097575396485
 31
0.0
  0
LINE
  5
1340
330
1D
100
AcDbEntity
  8
0
100
AcDbLine
 10
95.771595223068
 20
976.097575396485
 30
0.0
 11
96.557595223068
 21
974.857475396485
 31
0.0
  0
LINE
  5
1341
330
1D
100
AcDbEntity
  8
0
100
AcDbLine
 10
95.229095223068
 20
978.554775396485
 30
0.0
 11
95.876972971034
 21
977.678915506999
 31
0.0
  0
LINE
  5
1342
330
1D
100
AcDbEntity
  8
0
100
AcDbLine
 10
95.876972971034
 20
977.678915507
 30
0.0
 11
97.702295223068
 21
975.012075396485
 31
0.0
  0
LINE
  5
1343
330
1D
100
AcDbEntity
  8
0
100
AcDbLine
 10
96.408195223068
 20
967.030675396485
 30
0.0
 11
99.694795223068
 21
960.913275396485
 31
0.0
  0
LINE
  5
1344
330
1D
100
AcDbEntity
  8
0
100
AcDbLine
 10
91.334795223068
 20
979.116375396485
 30
0.0
 11
91.728895223068
 21
978.599875396485
 31
0.0
  0
LINE
  5
1345
330
1D
100
AcDbEntity
  8
0
100
AcDbLine
 10
97.356295223068
 20
973.559775396485
 30
0.0
 11
98.547395223068
 21
971.530375396485
 31
0.0
  0
LINE
  5
1346
330
1D
100
AcDbEntity
  8
0
100
AcDbLine
 10
97.445895223068
 20
969.438675396485
 30
0.0
 11
98.196095223068
 21
967.972675396485
 31
0.0
  0
LINE
  5
1347
330
1D
100
AcDbEntity
  8
0
100
AcDbLine
 10
97.702295223068
 20
975.012075396485
 30
0.0
 11
99.919295223068
 21
971.478175396485
 31
0.0
  0
LINE
  5
1348
330
1D
100
AcDbEntity
  8
0
100
AcDbLine
 10
96.557595223068
 20
974.857475396485
 30
0.0
 11
97.356295223068
 21
973.559775396485
 31
0.0
  0
LINE
  5
1349
330
1D
100
AcDbEntity
  8
0
100
AcDbLine
 10
90.762495223068
 20
979.826775396485
 30
0.0
 11
91.334795223068
 21
979.116375396485
 31
0.0
  0
LINE
  5
134A
330
1D
100
AcDbEntity
  8
0
100
AcDbLine
 10
93.693295223068
 20
979.162475396485
 30
0.0
 11
94.773895223068
 21
977.613275396485
 31
0.0
  0
LINE
  5
134B
330
1D
100
AcDbEntity
  8
0
100
AcDbLine
 10
94.394195223068
 20
979.642275396485
 30
0.0
 11
95.229095223068
 21
978.554775396485
 31
0.0
  0
LINE
  5
134C
330
1D
100
AcDbEntity
  8
0
100
AcDbLine
 10
98.196095223068
 20
967.972675396485
 30
0.0
 11
98.844795223068
 21
966.565475396485
 31
0.0
  0
LINE
  5
134D
330
1D
100
AcDbEntity
  8
0
100
AcDbLine
 10
99.694795223068
 20
960.913275396485
 30
0.0
 11
99.748295223068
 21
961.091775396485
 31
0.0
  0
LINE
  5
134E
330
1D
100
AcDbEntity
  8
0
100
AcDbLine
 10
99.748295223068
 20
961.091775396485
 30
0.0
 11
99.777895223068
 21
961.176575396485
 31
0.0
  0
LINE
  5
134F
330
1D
100
AcDbEntity
  8
0
100
AcDbLine
 10
99.694795223068
 20
960.913275396485
 30
0.0
 11
100.063395223068
 21
960.302175396485
 31
0.0
  0
LINE
  5
1350
330
1D
100
AcDbEntity
  8
0
100
AcDbLine
 10
99.777895223068
 20
961.176575396485
 30
0.0
 11
99.902595223068
 21
961.699975396485
 31
0.0
  0
LINE
  5
1351
330
1D
100
AcDbEntity
  8
0
100
AcDbLine
 10
100.063395223068
 20
960.302175396485
 30
0.0
 11
100.243795223068
 21
960.190275396485
 31
0.0
  0
LINE
  5
1352
330
1D
100
AcDbEntity
  8
0
100
AcDbLine
 10
99.902595223068
 20
961.699975396485
 30
0.0
 11
99.978295223068
 21
962.440475396485
 31
0.0
  0
LINE
  5
1353
330
1D
100
AcDbEntity
  8
0
100
AcDbLine
 10
99.892195223068
 20
963.485475396485
 30
0.0
 11
99.978295223068
 21
962.440475396485
 31
0.0
  0
LINE
  5
1354
330
1D
100
AcDbEntity
  8
0
100
AcDbLine
 10
100.243795223068
 20
960.190275396485
 30
0.0
 11
100.636095223068
 21
960.214975396485
 31
0.0
  0
LINE
  5
1355
330
1D
100
AcDbEntity
  8
0
100
AcDbLine
 10
99.192772425639
 20
965.716241012559
 30
0.0
 11
99.22847104857
 21
965.629118931492
 31
0.0
  0
LINE
  5
1356
330
1D
100
AcDbEntity
  8
0
100
AcDbLine
 10
98.844795223068
 20
966.565475396485
 30
0.0
 11
99.085295223068
 21
965.998675396485
 31
0.0
  0
LINE
  5
1357
330
1D
100
AcDbEntity
  8
0
100
AcDbLine
 10
99.085295223068
 20
965.998675396485
 30
0.0
 11
99.435695223068
 21
965.077875396485
 31
0.0
  0
LINE
  5
1358
330
1D
100
AcDbEntity
  8
0
100
AcDbLine
 10
99.633095223068
 20
964.391175396485
 30
0.0
 11
99.892195223068
 21
963.485475396485
 31
0.0
  0
LINE
  5
1359
330
1D
100
AcDbEntity
  8
0
100
AcDbLine
 10
100.342995223068
 20
968.109475396485
 30
0.0
 11
101.227095223068
 21
966.002375396485
 31
0.0
  0
LINE
  5
135A
330
1D
100
AcDbEntity
  8
0
100
AcDbLine
 10
99.435695223068
 20
965.077875396485
 30
0.0
 11
99.633095223068
 21
964.391175396485
 31
0.0
  0
LINE
  5
135B
330
1D
100
AcDbEntity
  8
0
100
AcDbLine
 10
99.230325295664
 20
965.624332865137
 30
0.0
 11
99.270213825572
 21
965.512736329175
 31
0.0
  0
LINE
  5
135C
330
1D
100
AcDbEntity
  8
0
100
AcDbLine
 10
98.547395223068
 20
971.530375396485
 30
0.0
 11
100.342995223068
 21
968.109475396485
 31
0.0
  0
LINE
  5
135D
330
1D
100
AcDbEntity
  8
0
100
AcDbLine
 10
93.768495223068
 20
980.423475396485
 30
0.0
 11
94.394195223068
 21
979.642275396485
 31
0.0
  0
LINE
  5
135E
330
1D
100
AcDbEntity
  8
0
100
AcDbLine
 10
92.533695223068
 20
980.687475396485
 30
0.0
 11
93.693295223068
 21
979.162475396485
 31
0.0
  0
LINE
  5
135F
330
1D
100
AcDbEntity
  8
0
100
AcDbLine
 10
90.106595223068
 20
980.525175396485
 30
0.0
 11
90.415095223068
 21
980.213375396485
 31
0.0
  0
LINE
  5
1360
330
1D
100
AcDbEntity
  8
0
100
AcDbLine
 10
89.798595223068
 20
980.787575396485
 30
0.0
 11
90.106595223068
 21
980.525175396485
 31
0.0
  0
LINE
  5
1361
330
1D
100
AcDbEntity
  8
0
100
AcDbLine
 10
90.415095223068
 20
980.213375396485
 30
0.0
 11
90.762495223068
 21
979.826775396485
 31
0.0
  0
LINE
  5
1362
330
1D
100
AcDbEntity
  8
0
100
AcDbLine
 10
89.038095223068
 20
981.187975396485
 30
0.0
 11
89.347595223068
 21
981.089475396485
 31
0.0
  0
LINE
  5
1363
330
1D
100
AcDbEntity
  8
0
100
AcDbLine
 10
89.347595223068
 20
981.089475396485
 30
0.0
 11
89.798595223068
 21
980.787575396485
 31
0.0
  0
LINE
  5
1364
330
1D
100
AcDbEntity
  8
0
100
AcDbLine
 10
88.422895223068
 20
981.983975396485
 30
0.0
 11
88.910977218286
 21
981.24761644597
 31
0.0
  0
LINE
  5
1365
330
1D
100
AcDbEntity
  8
0
100
AcDbLine
 10
91.655195223068
 20
981.754775396485
 30
0.0
 11
92.533695223068
 21
980.687475396485
 31
0.0
  0
LINE
  5
1366
330
1D
100
AcDbEntity
  8
0
100
AcDbLine
 10
88.916695223068
 20
981.238175396485
 30
0.0
 11
89.038095223068
 21
981.187975396485
 31
0.0
  0
LINE
  5
1367
330
1D
100
AcDbEntity
  8
0
100
AcDbLine
 10
88.910977218286
 20
981.24761644597
 30
0.0
 11
96.408195223068
 21
967.030675396485
 31
0.0
  0
LINE
  5
1368
330
1D
100
AcDbEntity
  8
0
100
AcDbLine
 10
93.147495223068
 20
981.169375396485
 30
0.0
 11
93.768495223068
 21
980.423475396485
 31
0.0
  0
LINE
  5
1369
330
1D
100
AcDbEntity
  8
0
100
AcDbLine
 10
92.533495223068
 20
981.876575396485
 30
0.0
 11
93.147495223068
 21
981.169375396485
 31
0.0
  0
LINE
  5
136A
330
1D
100
AcDbEntity
  8
0
100
AcDbLine
 10
101.227095223068
 20
966.002375396485
 30
0.0
 11
101.583095223068
 21
964.812475396485
 31
0.0
  0
LINE
  5
136B
330
1D
100
AcDbEntity
  8
0
100
AcDbLine
 10
101.545095223068
 20
961.089875396485
 30
0.0
 11
101.752095223068
 21
961.752175396485
 31
0.0
  0
LINE
  5
136C
330
1D
100
AcDbEntity
  8
0
100
AcDbLine
 10
101.700362103367
 20
964.382841737976
 30
0.0
 11
101.776095223068
 21
963.903975396485
 31
0.0
  0
LINE
  5
136D
330
1D
100
AcDbEntity
  8
0
100
AcDbLine
 10
101.776095223068
 20
963.903975396485
 30
0.0
 11
101.851095223068
 21
963.320775396485
 31
0.0
  0
LINE
  5
136E
330
1D
100
AcDbEntity
  8
0
100
AcDbLine
 10
101.851095223068
 20
963.320775396485
 30
0.0
 11
101.892095223068
 21
962.569475396485
 31
0.0
  0
LINE
  5
136F
330
1D
100
AcDbEntity
  8
0
100
AcDbLine
 10
101.752095223068
 20
961.752175396485
 30
0.0
 11
101.892095223068
 21
962.569475396485
 31
0.0
  0
LINE
  5
1370
330
1D
100
AcDbEntity
  8
0
100
AcDbLine
 10
101.198813391557
 20
969.09139212963
 30
0.0
 11
101.794375822022
 21
967.772569558056
 31
0.0
  0
LINE
  5
1371
330
1D
100
AcDbEntity
  8
0
100
AcDbLine
 10
102.154095223068
 20
966.928975396485
 30
0.0
 11
102.776095223068
 21
965.023175396485
 31
0.0
  0
LINE
  5
1372
330
1D
100
AcDbEntity
  8
0
100
AcDbLine
 10
101.492095223068
 20
960.843175396485
 30
0.0
 11
102.741095223068
 21
958.370575396485
 31
0.0
  0
LINE
  5
1373
330
1D
100
AcDbEntity
  8
0
100
AcDbLine
 10
101.492095223068
 20
960.843175396485
 30
0.0
 11
101.545095223068
 21
961.089875396485
 31
0.0
  0
LINE
  5
1374
330
1D
100
AcDbEntity
  8
0
100
AcDbLine
 10
100.636095223068
 20
960.214975396485
 30
0.0
 11
101.635210977295
 21
961.378202275831
 31
0.0
  0
LINE
  5
1375
330
1D
100
AcDbEntity
  8
0
100
AcDbLine
 10
82.453095223068
 20
991.652475396485
 30
0.0
 11
82.495595223068
 21
991.589475396485
 31
0.0
  0
LINE
  5
1376
330
1D
100
AcDbEntity
  8
0
100
AcDbLine
 10
82.495595223068
 20
991.589475396485
 30
0.0
 11
85.150895223068
 21
988.969475396485
 31
0.0
  0
LINE
  5
1377
330
1D
100
AcDbEntity
  8
0
100
AcDbLine
 10
88.41341288602
 20
982.337171472909
 30
0.0
 11
88.422895223068
 21
981.983975396485
 31
0.0
  0
LINE
  5
1378
330
1D
100
AcDbEntity
  8
0
100
AcDbLine
 10
89.422395223068
 20
983.862475396485
 30
0.0
 11
90.099395223068
 21
983.345175396485
 31
0.0
  0
LINE
  5
1379
330
1D
100
AcDbEntity
  8
0
100
AcDbLine
 10
89.232095223068
 20
984.013275396485
 30
0.0
 11
89.422395223068
 21
983.862475396485
 31
0.0
  0
LINE
  5
137A
330
1D
100
AcDbEntity
  8
0
100
AcDbLine
 10
88.400295223068
 20
982.578875396485
 30
0.0
 11
88.41341288602
 21
982.337171472909
 31
0.0
  0
LINE
  5
137B
330
1D
100
AcDbEntity
  8
0
100
AcDbLine
 10
88.400295223068
 20
982.578875396485
 30
0.0
 11
89.434427018297
 21
983.85328182533
 31
0.0
  0
LINE
  5
137C
330
1D
100
AcDbEntity
  8
0
100
AcDbLine
 10
90.731295223068
 20
982.756675396485
 30
0.0
 11
91.655195223068
 21
981.754775396485
 31
0.0
  0
LINE
  5
137D
330
1D
100
AcDbEntity
  8
0
100
AcDbLine
 10
90.099395223068
 20
983.345175396485
 30
0.0
 11
90.731295223068
 21
982.756675396485
 31
0.0
  0
LINE
  5
137E
330
1D
100
AcDbEntity
  8
0
100
AcDbLine
 10
90.461295223068
 20
984.016575396485
 30
0.0
 11
90.900395223068
 21
983.598675396485
 31
0.0
  0
LINE
  5
137F
330
1D
100
AcDbEntity
  8
0
100
AcDbLine
 10
90.900395223068
 20
983.598675396485
 30
0.0
 11
91.405495223068
 21
983.092675396485
 31
0.0
  0
LINE
  5
1380
330
1D
100
AcDbEntity
  8
0
100
AcDbLine
 10
87.700595223068
 20
986.048775396485
 30
0.0
 11
87.855346874082
 21
985.972118868161
 31
0.0
  0
LINE
  5
1381
330
1D
100
AcDbEntity
  8
0
100
AcDbLine
 10
90.053795223068
 20
984.383975396485
 30
0.0
 11
90.461295223068
 21
984.016575396485
 31
0.0
  0
LINE
  5
1382
330
1D
100
AcDbEntity
  8
0
100
AcDbLine
 10
88.705222627674
 20
985.4553794277
 30
0.0
 11
89.058911184763
 21
985.206216060329
 31
0.0
  0
LINE
  5
1383
330
1D
100
AcDbEntity
  8
0
100
AcDbLine
 10
88.010376326524
 20
985.894391189395
 30
0.0
 11
88.466864531365
 21
985.61860738139
 31
0.0
  0
LINE
  5
1384
330
1D
100
AcDbEntity
  8
0
100
AcDbLine
 10
89.275295223068
 20
985.027575396485
 30
0.0
 11
89.460227639218
 21
984.880761304592
 31
0.0
  0
LINE
  5
1385
330
1D
100
AcDbEntity
  8
0
100
AcDbLine
 10
89.560795223068
 20
984.802975396485
 30
0.0
 11
90.053795223068
 21
984.383975396485
 31
0.0
  0
LINE
  5
1386
330
1D
100
AcDbEntity
  8
0
100
AcDbLine
 10
88.009295223068
 20
985.594675396485
 30
0.0
 11
89.099695223068
 21
984.115175396485
 31
0.0
  0
LINE
  5
1387
330
1D
100
AcDbEntity
  8
0
100
AcDbLine
 10
88.009295223068
 20
985.594675396485
 30
0.0
 11
88.049895223068
 21
985.831775396485
 31
0.0
  0
LINE
  5
1388
330
1D
100
AcDbEntity
  8
0
100
AcDbLine
 10
89.099695223068
 20
984.115175396485
 30
0.0
 11
89.24372888227
 21
984.004056501016
 31
0.0
  0
LINE
  5
1389
330
1D
100
AcDbEntity
  8
0
100
AcDbLine
 10
85.150895223068
 20
988.969475396485
 30
0.0
 11
87.566595223068
 21
986.111775396485
 31
0.0
  0
LINE
  5
138A
330
1D
100
AcDbEntity
  8
0
100
AcDbLine
 10
91.405495223068
 20
983.092675396485
 30
0.0
 11
91.930695223068
 21
982.540475396485
 31
0.0
  0
LINE
  5
138B
330
1D
100
AcDbEntity
  8
0
100
AcDbLine
 10
91.930695223068
 20
982.540475396485
 30
0.0
 11
92.533495223068
 21
981.876575396485
 31
0.0
  0
LINE
  5
138C
330
1D
100
AcDbEntity
  8
0
100
AcDbLine
 10
141.589095223068
 20
895.367295396485
 30
0.0
 11
141.954095223068
 21
895.368275396485
 31
0.0
  0
LINE
  5
138D
330
1D
100
AcDbEntity
  8
0
100
AcDbLine
 10
124.984095223068
 20
921.262975396485
 30
0.0
 11
140.702095223068
 21
896.239985396485
 31
0.0
  0
LINE
  5
138E
330
1D
100
AcDbEntity
  8
0
100
AcDbLine
 10
140.702095223068
 20
896.239985396485
 30
0.0
 11
141.589095223068
 21
895.367295396485
 31
0.0
  0
LINE
  5
138F
330
1D
100
AcDbEntity
  8
0
100
AcDbLine
 10
124.984095223068
 20
921.262975396485
 30
0.0
 11
140.702095223068
 21
896.239985396485
 31
0.0
  0
LINE
  5
13A2
330
1D
100
AcDbEntity
  8
0
100
AcDbLine
 10
164.497095223068
 20
909.376575396485
 30
0.0
 11
164.823095223068
 21
909.770075396485
 31
0.0
  0
LINE
  5
13A3
330
1D
100
AcDbEntity
  8
0
100
AcDbLine
 10
164.767095223068
 20
910.528075396485
 30
0.0
 11
164.850095223068
 21
910.266275396485
 31
0.0
  0
LINE
  5
13A4
330
1D
100
AcDbEntity
  8
0
100
AcDbLine
 10
164.461095223068
 20
911.085475396485
 30
0.0
 11
164.767095223068
 21
910.528075396485
 31
0.0
  0
LINE
  5
13A5
330
1D
100
AcDbEntity
  8
0
100
AcDbLine
 10
164.823095223068
 20
909.770075396485
 30
0.0
 11
164.850095223068
 21
910.266275396485
 31
0.0
  0
LINE
  5
13A6
330
1D
100
AcDbEntity
  8
0
100
AcDbLine
 10
102.741095223068
 20
958.370575396485
 30
0.0
 11
102.789095223068
 21
958.508975396485
 31
0.0
  0
LINE
  5
13A7
330
1D
100
AcDbEntity
  8
0
100
AcDbLine
 10
102.741095223068
 20
958.370575396485
 30
0.0
 11
104.753095223068
 21
954.810875396485
 31
0.0
  0
LINE
  5
13A8
330
1D
100
AcDbEntity
  8
0
100
AcDbLine
 10
102.789095223068
 20
958.508975396485
 30
0.0
 11
102.944095223068
 21
958.895175396485
 31
0.0
  0
LINE
  5
13A9
330
1D
100
AcDbEntity
  8
0
100
AcDbLine
 10
108.963095223068
 20
947.800775396485
 30
0.0
 11
124.984095223068
 21
921.262975396485
 31
0.0
  0
LINE
  5
13AA
330
1D
100
AcDbEntity
  8
0
100
AcDbLine
 10
104.753095223068
 20
954.810875396485
 30
0.0
 11
108.963095223068
 21
947.800775396485
 31
0.0
  0
LINE
  5
13AB
330
1D
100
AcDbEntity
  8
0
100
AcDbLine
 10
102.944095223068
 20
958.895175396485
 30
0.0
 11
103.133095223068
 21
959.464475396485
 31
0.0
  0
LINE
  5
13AC
330
1D
100
AcDbEntity
  8
0
100
AcDbLine
 10
102.776095223068
 20
965.023175396485
 30
0.0
 11
103.199095223068
 21
963.065575396485
 31
0.0
  0
LINE
  5
13AD
330
1D
100
AcDbEntity
  8
0
100
AcDbLine
 10
103.275477856813
 20
962.189193792308
 30
0.0
 11
103.325751208018
 21
961.158547488076
 31
0.0
  0
LINE
  5
13AE
330
1D
100
AcDbEntity
  8
0
100
AcDbLine
 10
103.133095223068
 20
959.464475396485
 30
0.0
 11
103.287095223068
 21
960.287375396485
 31
0.0
  0
LINE
  5
13AF
330
1D
100
AcDbEntity
  8
0
100
AcDbLine
 10
113.934095223068
 20
991.697475396485
 30
0.0
 11
132.063095223068
 21
962.980675396485
 31
0.0
  0
LINE
  5
13B0
330
1D
100
AcDbEntity
  8
0
100
AcDbLine
 10
148.345095223068
 20
937.085175396485
 30
0.0
 11
164.461095223068
 21
911.085475396485
 31
0.0
  0
LINE
  5
13B1
330
1D
100
AcDbEntity
  8
0
100
AcDbLine
 10
132.063095223068
 20
962.980675396485
 30
0.0
 11
148.345095223068
 21
937.085175396485
 31
0.0
  0
LINE
  5
13B2
330
1D
100
AcDbEntity
  8
0
100
AcDbLine
 10
75.506795223068
 20
996.717475396485
 30
0.0
 11
76.311195223068
 21
996.042475396485
 31
0.0
  0
LINE
  5
13B3
330
1D
100
AcDbEntity
  8
0
100
AcDbLine
 10
75.049495223068
 20
996.499475396485
 30
0.0
 11
75.853895223068
 21
995.824475396485
 31
0.0
  0
LINE
  5
13B4
330
1D
100
AcDbEntity
  8
0
100
AcDbLine
 10
76.655895223068
 20
995.753475396485
 30
0.0
 11
77.602703522714
 21
996.881785483184
 31
0.0
  0
LINE
  5
13B5
330
1D
100
AcDbEntity
  8
0
100
AcDbLine
 10
76.311195223068
 20
996.042475396485
 30
0.0
 11
76.655895223068
 21
995.753475396485
 31
0.0
  0
LINE
  5
13B6
330
1D
100
AcDbEntity
  8
0
100
AcDbLine
 10
75.853895223068
 20
995.824475396485
 30
0.0
 11
76.658195223068
 21
995.149475396485
 31
0.0
  0
LINE
  5
13B7
330
1D
100
AcDbEntity
  8
0
100
AcDbLine
 10
76.517395223068
 20
998.789475396485
 30
0.0
 11
77.694322838307
 21
1000.192384539265
 31
0.0
  0
LINE
  5
13B8
330
1D
100
AcDbEntity
  8
0
100
AcDbLine
 10
74.856395223068
 20
998.472475396485
 30
0.0
 11
74.951530141676
 21
998.389028443646
 31
0.0
  0
LINE
  5
13B9
330
1D
100
AcDbEntity
  8
0
100
AcDbLine
 10
75.885695223068
 20
998.382475396485
 30
0.0
 11
76.674395223068
 21
997.780475396485
 31
0.0
  0
LINE
  5
13BA
330
1D
100
AcDbEntity
  8
0
100
AcDbLine
 10
77.001246198483
 20
996.165029656369
 30
0.0
 11
77.378195223068
 21
995.853475396485
 31
0.0
  0
LINE
  5
13BB
330
1D
100
AcDbEntity
  8
0
100
AcDbLine
 10
77.378195223068
 20
995.853475396485
 30
0.0
 11
78.000395223068
 21
995.330475396485
 31
0.0
  0
LINE
  5
13BC
330
1D
100
AcDbEntity
  8
0
100
AcDbLine
 10
78.000395223068
 20
995.330475396485
 30
0.0
 11
78.133695223068
 21
995.218475396485
 31
0.0
  0
LINE
  5
13BD
330
1D
100
AcDbEntity
  8
0
100
AcDbLine
 10
77.312945377272
 20
996.536481118693
 30
0.0
 11
77.825795223068
 21
996.222475396485
 31
0.0
  0
LINE
  5
13BE
330
1D
100
AcDbEntity
  8
0
100
AcDbLine
 10
77.956295223068
 20
996.539475396485
 30
0.0
 11
78.146295223068
 21
996.201475396485
 31
0.0
  0
LINE
  5
13BF
330
1D
100
AcDbEntity
  8
0
100
AcDbLine
 10
77.825795223068
 20
996.222475396485
 30
0.0
 11
78.146295223068
 21
996.201475396485
 31
0.0
  0
LINE
  5
13C0
330
1D
100
AcDbEntity
  8
0
100
AcDbLine
 10
76.674395223068
 20
997.780475396485
 30
0.0
 11
77.956295223068
 21
996.539475396485
 31
0.0
  0
LINE
  5
13C1
330
1D
100
AcDbEntity
  8
0
100
AcDbLine
 10
74.910095223068
 20
999.035475396485
 30
0.0
 11
75.885695223068
 21
998.382475396485
 31
0.0
  0
LINE
  5
13C2
330
1D
100
AcDbEntity
  8
0
100
AcDbLine
 10
110.252095223068
 20
997.742475396485
 30
0.0
 11
113.934095223068
 21
991.697475396485
 31
0.0
  0
LINE
  5
13C3
330
1D
100
AcDbEntity
  8
0
100
AcDbLine
 10
78.004696964412
 20
995.327373926467
 30
0.0
 11
78.133695223068
 21
995.218475396485
 31
0.0
  0
LINE
  5
13C4
330
1D
100
AcDbEntity
  8
0
100
AcDbLine
 10
74.206795223068
 20
999.382475396485
 30
0.0
 11
74.910095223068
 21
999.035475396485
 31
0.0
  0
LINE
  5
13C5
330
1D
100
AcDbEntity
  8
0
100
AcDbLine
 10
76.172595223068
 20
999.079475396485
 30
0.0
 11
76.517395223068
 21
998.789475396485
 31
0.0
  0
LINE
  5
13C6
330
1D
100
AcDbEntity
  8
0
100
AcDbLine
 10
75.368295223068
 20
999.753475396485
 30
0.0
 11
76.172595223068
 21
999.079475396485
 31
0.0
  0
LINE
  5
13C7
330
1D
100
AcDbEntity
  8
0
100
AcDbLine
 10
77.200299445699
 20
999.603503859381
 30
0.0
 11
77.530695223068
 21
999.506475396485
 31
0.0
  0
LINE
  5
13C8
330
1D
100
AcDbEntity
  8
0
100
AcDbLine
 10
77.530695223068
 20
999.506475396485
 30
0.0
 11
77.958795223068
 21
999.731475396485
 31
0.0
  0
LINE
  5
13C9
330
1D
100
AcDbEntity
  8
0
100
AcDbLine
 10
77.698895223068
 20
1000.187475396485
 30
0.0
 11
77.958795223068
 21
999.731475396485
 31
0.0
  0
LINE
  5
13CA
330
1D
100
AcDbEntity
  8
0
100
AcDbLine
 10
74.563995223068
 20
1000.428475396485
 30
0.0
 11
75.368295223068
 21
999.753475396485
 31
0.0
  0
LINE
  5
13CB
330
1D
100
AcDbEntity
  8
0
100
AcDbLine
 10
74.219195223068
 20
1000.718475396485
 30
0.0
 11
74.563995223068
 21
1000.428475396485
 31
0.0
  0
LINE
  5
13CC
330
1D
100
AcDbEntity
  8
0
100
AcDbLine
 10
74.219195223068
 20
1000.718475396485
 30
0.0
 11
75.215976085238
 21
1001.906300754952
 31
0.0
  0
LINE
  5
13CD
330
1D
100
AcDbEntity
  8
0
100
AcDbLine
 10
77.200595223068
 20
1000.722475396485
 30
0.0
 11
77.698895223068
 21
1000.187475396485
 31
0.0
  0
LINE
  5
13CE
330
1D
100
AcDbEntity
  8
0
100
AcDbLine
 10
74.197195223068
 20
1001.821475396485
 30
0.0
 11
74.454695223068
 21
1001.450475396485
 31
0.0
  0
LINE
  5
13CF
330
1D
100
AcDbEntity
  8
0
100
AcDbLine
 10
74.454695223068
 20
1001.450475396485
 30
0.0
 11
74.654947870094
 21
1001.237745041198
 31
0.0
  0
LINE
  5
13D0
330
1D
100
AcDbEntity
  8
0
100
AcDbLine
 10
75.549795223068
 20
1001.767475396485
 30
0.0
 11
76.425395223068
 21
1001.284475396485
 31
0.0
  0
LINE
  5
13D1
330
1D
100
AcDbEntity
  8
0
100
AcDbLine
 10
74.712995223068
 20
1002.115475396485
 30
0.0
 11
75.549795223068
 21
1001.767475396485
 31
0.0
  0
LINE
  5
13D2
330
1D
100
AcDbEntity
  8
0
100
AcDbLine
 10
75.205495223068
 20
1003.976475396485
 30
0.0
 11
76.479691500067
 21
1005.494933264155
 31
0.0
  0
LINE
  5
13D3
330
1D
100
AcDbEntity
  8
0
100
AcDbLine
 10
74.141995223068
 20
1002.127475396485
 30
0.0
 11
74.712995223068
 21
1002.115475396485
 31
0.0
  0
LINE
  5
13D4
330
1D
100
AcDbEntity
  8
0
100
AcDbLine
 10
74.141995223068
 20
1002.127475396485
 30
0.0
 11
74.197195223068
 21
1001.821475396485
 31
0.0
  0
LINE
  5
13D5
330
1D
100
AcDbEntity
  8
0
100
AcDbLine
 10
76.425395223068
 20
1001.284475396485
 30
0.0
 11
77.200595223068
 21
1000.722475396485
 31
0.0
  0
LINE
  5
13D6
330
1D
100
AcDbEntity
  8
0
100
AcDbLine
 10
107.451095223068
 20
1002.566475396485
 30
0.0
 11
110.252095223068
 21
997.742475396485
 31
0.0
  0
LINE
  5
13D7
330
1D
100
AcDbEntity
  8
0
100
AcDbLine
 10
72.684995223068
 20
1006.376475396485
 30
0.0
 11
73.025146547846
 21
1006.04491428071
 31
0.0
  0
LINE
  5
13D8
330
1D
100
AcDbEntity
  8
0
100
AcDbLine
 10
72.371995223068
 20
1007.025475396485
 30
0.0
 11
72.684995223068
 21
1006.376475396485
 31
0.0
  0
LINE
  5
13D9
330
1D
100
AcDbEntity
  8
0
100
AcDbLine
 10
72.371995223068
 20
1007.025475396485
 30
0.0
 11
72.739895223068
 21
1007.273475396485
 31
0.0
  0
LINE
  5
13DA
330
1D
100
AcDbEntity
  8
0
100
AcDbLine
 10
74.860695223068
 20
1004.265475396485
 30
0.0
 11
75.205495223068
 21
1003.976475396485
 31
0.0
  0
LINE
  5
13DB
330
1D
100
AcDbEntity
  8
0
100
AcDbLine
 10
76.304995223068
 20
1004.372475396485
 30
0.0
 11
76.724295223068
 21
1004.455475396485
 31
0.0
  0
LINE
  5
13DC
330
1D
100
AcDbEntity
  8
0
100
AcDbLine
 10
74.056395223068
 20
1004.940475396485
 30
0.0
 11
74.860695223068
 21
1004.265475396485
 31
0.0
  0
LINE
  5
13DD
330
1D
100
AcDbEntity
  8
0
100
AcDbLine
 10
75.637488642612
 20
1004.491281332218
 30
0.0
 11
76.304995223068
 21
1004.372475396485
 31
0.0
  0
LINE
  5
13DE
330
1D
100
AcDbEntity
  8
0
100
AcDbLine
 10
76.724295223068
 20
1004.455475396485
 30
0.0
 11
76.946495223068
 21
1004.748475396485
 31
0.0
  0
LINE
  5
13DF
330
1D
100
AcDbEntity
  8
0
100
AcDbLine
 10
76.702295223068
 20
1005.242475396485
 30
0.0
 11
76.946495223068
 21
1004.748475396485
 31
0.0
  0
LINE
  5
13E0
330
1D
100
AcDbEntity
  8
0
100
AcDbLine
 10
72.907295223068
 20
1005.904475396485
 30
0.0
 11
73.251995223068
 21
1005.615475396485
 31
0.0
  0
LINE
  5
13E1
330
1D
100
AcDbEntity
  8
0
100
AcDbLine
 10
72.907295223068
 20
1005.904475396485
 30
0.0
 11
73.867188776179
 21
1007.048343569607
 31
0.0
  0
LINE
  5
13E2
330
1D
100
AcDbEntity
  8
0
100
AcDbLine
 10
73.251995223068
 20
1005.615475396485
 30
0.0
 11
74.056395223068
 21
1004.940475396485
 31
0.0
  0
LINE
  5
13E3
330
1D
100
AcDbEntity
  8
0
100
AcDbLine
 10
72.986762812218
 20
1006.082328670381
 30
0.0
 11
73.027551323881
 21
1006.047779959681
 31
0.0
  0
LINE
  5
13E4
330
1D
100
AcDbEntity
  8
0
100
AcDbLine
 10
75.621295223068
 20
1006.224475396485
 30
0.0
 11
76.368995223068
 21
1005.620475396485
 31
0.0
  0
LINE
  5
13E5
330
1D
100
AcDbEntity
  8
0
100
AcDbLine
 10
76.368995223068
 20
1005.620475396485
 30
0.0
 11
76.702295223068
 21
1005.242475396485
 31
0.0
  0
LINE
  5
13E6
330
1D
100
AcDbEntity
  8
0
100
AcDbLine
 10
74.546195223068
 20
1006.797475396485
 30
0.0
 11
75.621295223068
 21
1006.224475396485
 31
0.0
  0
LINE
  5
13E7
330
1D
100
AcDbEntity
  8
0
100
AcDbLine
 10
73.647595223068
 20
1007.129475396485
 30
0.0
 11
74.546195223068
 21
1006.797475396485
 31
0.0
  0
LINE
  5
13E8
330
1D
100
AcDbEntity
  8
0
100
AcDbLine
 10
72.739895223068
 20
1007.273475396485
 30
0.0
 11
73.647595223068
 21
1007.129475396485
 31
0.0
  0
LINE
  5
13E9
330
1D
100
AcDbEntity
  8
0
100
AcDbLine
 10
62.462295223068
 20
1007.415475396485
 30
0.0
 11
62.576995223068
 21
1007.370475396485
 31
0.0
  0
LINE
  5
13EA
330
1D
100
AcDbEntity
  8
0
100
AcDbLine
 10
62.685595223068
 20
1007.393475396485
 30
0.0
 11
62.799795223068
 21
1007.419475396485
 31
0.0
  0
LINE
  5
13EB
330
1D
100
AcDbEntity
  8
0
100
AcDbLine
 10
62.890695223068
 20
1007.540475396485
 30
0.0
 11
62.907595223068
 21
1007.371475396485
 31
0.0
  0
LINE
  5
13EC
330
1D
100
AcDbEntity
  8
0
100
AcDbLine
 10
62.799795223068
 20
1007.419475396485
 30
0.0
 11
62.907595223068
 21
1007.371475396485
 31
0.0
  0
LINE
  5
13ED
330
1D
100
AcDbEntity
  8
0
100
AcDbLine
 10
62.515395223068
 20
1009.972475396485
 30
0.0
 11
62.769195223068
 21
1009.010475396485
 31
0.0
  0
LINE
  5
13EE
330
1D
100
AcDbEntity
  8
0
100
AcDbLine
 10
61.356895223068
 20
1013.316475396485
 30
0.0
 11
62.161295223068
 21
1012.641475396485
 31
0.0
  0
LINE
  5
13EF
330
1D
100
AcDbEntity
  8
0
100
AcDbLine
 10
61.442195223068
 20
1012.210475396485
 30
0.0
 11
62.093795223068
 21
1011.050475396485
 31
0.0
  0
LINE
  5
13F0
330
1D
100
AcDbEntity
  8
0
100
AcDbLine
 10
62.093795223068
 20
1011.050475396485
 30
0.0
 11
62.515395223068
 21
1009.972475396485
 31
0.0
  0
LINE
  5
13F1
330
1D
100
AcDbEntity
  8
0
100
AcDbLine
 10
62.505995223068
 20
1012.352475396485
 30
0.0
 11
63.701004821842
 21
1013.776566613793
 31
0.0
  0
LINE
  5
13F2
330
1D
100
AcDbEntity
  8
0
100
AcDbLine
 10
62.161295223068
 20
1012.641475396485
 30
0.0
 11
62.505995223068
 21
1012.352475396485
 31
0.0
  0
LINE
  5
13F3
330
1D
100
AcDbEntity
  8
0
100
AcDbLine
 10
62.887395223068
 20
1008.194475396485
 30
0.0
 11
62.890695223068
 21
1007.540475396485
 31
0.0
  0
LINE
  5
13F4
330
1D
100
AcDbEntity
  8
0
100
AcDbLine
 10
66.018195223068
 20
1007.928475396485
 30
0.0
 11
66.083784656671
 21
1007.873430179921
 31
0.0
  0
LINE
  5
13F5
330
1D
100
AcDbEntity
  8
0
100
AcDbLine
 10
66.018195223068
 20
1007.928475396485
 30
0.0
 11
66.822495223068
 21
1007.253475396485
 31
0.0
  0
LINE
  5
13F6
330
1D
100
AcDbEntity
  8
0
100
AcDbLine
 10
67.849095223068
 20
1007.828475396485
 30
0.0
 11
68.264095223068
 21
1007.279475396485
 31
0.0
  0
LINE
  5
13F7
330
1D
100
AcDbEntity
  8
0
100
AcDbLine
 10
67.104795223068
 20
1008.481475396485
 30
0.0
 11
67.849095223068
 21
1007.828475396485
 31
0.0
  0
LINE
  5
13F8
330
1D
100
AcDbEntity
  8
0
100
AcDbLine
 10
64.291195223068
 20
1009.697475396485
 30
0.0
 11
64.656395223068
 21
1009.101475396485
 31
0.0
  0
LINE
  5
13F9
330
1D
100
AcDbEntity
  8
0
100
AcDbLine
 10
64.291195223068
 20
1009.697475396485
 30
0.0
 11
64.451195223068
 21
1009.872475396485
 31
0.0
  0
LINE
  5
13FA
330
1D
100
AcDbEntity
  8
0
100
AcDbLine
 10
64.792195223068
 20
1009.821475396485
 30
0.0
 11
66.204795223068
 21
1009.131475396485
 31
0.0
  0
LINE
  5
13FB
330
1D
100
AcDbEntity
  8
0
100
AcDbLine
 10
66.204795223068
 20
1009.131475396485
 30
0.0
 11
67.104795223068
 21
1008.481475396485
 31
0.0
  0
LINE
  5
13FC
330
1D
100
AcDbEntity
  8
0
100
AcDbLine
 10
64.656395223068
 20
1009.101475396485
 30
0.0
 11
64.873699317824
 21
1008.89796352213
 31
0.0
  0
LINE
  5
13FD
330
1D
100
AcDbEntity
  8
0
100
AcDbLine
 10
64.451195223068
 20
1009.872475396485
 30
0.0
 11
64.792195223068
 21
1009.821475396485
 31
0.0
  0
LINE
  5
13FE
330
1D
100
AcDbEntity
  8
0
100
AcDbLine
 10
63.328266378563
 20
1013.33237474791
 30
0.0
 11
63.742795223068
 21
1013.224475396485
 31
0.0
  0
LINE
  5
13FF
330
1D
100
AcDbEntity
  8
0
100
AcDbLine
 10
63.742795223068
 20
1013.224475396485
 30
0.0
 11
63.901195223068
 21
1013.490475396485
 31
0.0
  0
LINE
  5
1400
330
1D
100
AcDbEntity
  8
0
100
AcDbLine
 10
67.508295223068
 20
1013.329475396485
 30
0.0
 11
67.862895223068
 21
1013.520475396485
 31
0.0
  0
LINE
  5
1401
330
1D
100
AcDbEntity
  8
0
100
AcDbLine
 10
67.508295223068
 20
1013.329475396485
 30
0.0
 11
67.669295223068
 21
1012.852475396485
 31
0.0
  0
LINE
  5
1402
330
1D
100
AcDbEntity
  8
0
100
AcDbLine
 10
68.262095223068
 20
1012.447475396485
 30
0.0
 11
69.066395223068
 21
1011.772475396485
 31
0.0
  0
LINE
  5
1403
330
1D
100
AcDbEntity
  8
0
100
AcDbLine
 10
67.917395223068
 20
1012.736475396485
 30
0.0
 11
68.021017535667
 21
1012.649597391434
 31
0.0
  0
LINE
  5
1404
330
1D
100
AcDbEntity
  8
0
100
AcDbLine
 10
67.917395223068
 20
1012.736475396485
 30
0.0
 11
68.477540832181
 21
1013.40400011191
 31
0.0
  0
LINE
  5
1405
330
1D
100
AcDbEntity
  8
0
100
AcDbLine
 10
67.917395223068
 20
1012.736475396485
 30
0.0
 11
68.262095223068
 21
1012.447475396485
 31
0.0
  0
LINE
  5
1406
330
1D
100
AcDbEntity
  8
0
100
AcDbLine
 10
69.066395223068
 20
1011.772475396485
 30
0.0
 11
69.870795223068
 21
1011.097475396485
 31
0.0
  0
LINE
  5
1407
330
1D
100
AcDbEntity
  8
0
100
AcDbLine
 10
68.407595223068
 20
1012.112475396485
 30
0.0
 11
69.324895223068
 21
1011.469475396485
 31
0.0
  0
LINE
  5
1408
330
1D
100
AcDbEntity
  8
0
100
AcDbLine
 10
67.862895223068
 20
1013.520475396485
 30
0.0
 11
68.365795223068
 21
1013.442475396485
 31
0.0
  0
LINE
  5
1409
330
1D
100
AcDbEntity
  8
0
100
AcDbLine
 10
68.365795223068
 20
1013.442475396485
 30
0.0
 11
69.100595223068
 21
1013.189475396485
 31
0.0
  0
LINE
  5
140A
330
1D
100
AcDbEntity
  8
0
100
AcDbLine
 10
69.100595223068
 20
1013.189475396485
 30
0.0
 11
69.814495223068
 21
1012.818475396485
 31
0.0
  0
LINE
  5
140B
330
1D
100
AcDbEntity
  8
0
100
AcDbLine
 10
67.669295223068
 20
1012.852475396485
 30
0.0
 11
68.407595223068
 21
1012.112475396485
 31
0.0
  0
LINE
  5
140C
330
1D
100
AcDbEntity
  8
0
100
AcDbLine
 10
69.324895223068
 20
1011.469475396485
 30
0.0
 11
69.502334644066
 21
1011.406663475583
 31
0.0
  0
LINE
  5
140D
330
1D
100
AcDbEntity
  8
0
100
AcDbLine
 10
104.343095223068
 20
1008.865475396485
 30
0.0
 11
107.451095223068
 21
1002.566475396485
 31
0.0
  0
LINE
  5
140E
330
1D
100
AcDbEntity
  8
0
100
AcDbLine
 10
103.861095223068
 20
1010.420475396485
 30
0.0
 11
104.343095223068
 21
1008.865475396485
 31
0.0
  0
LINE
  5
140F
330
1D
100
AcDbEntity
  8
0
100
AcDbLine
 10
70.215495223068
 20
1010.808475396485
 30
0.0
 11
71.030557108672
 21
1011.779783471367
 31
0.0
  0
LINE
  5
1410
330
1D
100
AcDbEntity
  8
0
100
AcDbLine
 10
69.870795223068
 20
1011.097475396485
 30
0.0
 11
70.215495223068
 21
1010.808475396485
 31
0.0
  0
LINE
  5
1411
330
1D
100
AcDbEntity
  8
0
100
AcDbLine
 10
70.421395223068
 20
1012.396475396485
 30
0.0
 11
70.847195223068
 21
1012.015475396485
 31
0.0
  0
LINE
  5
1412
330
1D
100
AcDbEntity
  8
0
100
AcDbLine
 10
70.847195223068
 20
1012.015475396485
 30
0.0
 11
71.246295223068
 21
1011.502475396485
 31
0.0
  0
LINE
  5
1413
330
1D
100
AcDbEntity
  8
0
100
AcDbLine
 10
69.814495223068
 20
1012.818475396485
 30
0.0
 11
70.421395223068
 21
1012.396475396485
 31
0.0
  0
LINE
  5
1414
330
1D
100
AcDbEntity
  8
0
100
AcDbLine
 10
70.458987199634
 20
1011.09864443418
 30
0.0
 11
71.068395223068
 21
1011.086475396485
 31
0.0
  0
LINE
  5
1415
330
1D
100
AcDbEntity
  8
0
100
AcDbLine
 10
103.671095223068
 20
1011.651475396485
 30
0.0
 11
103.861095223068
 21
1010.420475396485
 31
0.0
  0
LINE
  5
1416
330
1D
100
AcDbEntity
  8
0
100
AcDbLine
 10
103.536095223068
 20
1012.206475396485
 30
0.0
 11
103.671095223068
 21
1011.651475396485
 31
0.0
  0
LINE
  5
1417
330
1D
100
AcDbEntity
  8
0
100
AcDbLine
 10
103.222095223068
 20
1012.680475396485
 30
0.0
 11
103.536095223068
 21
1012.206475396485
 31
0.0
  0
LINE
  5
1418
330
1D
100
AcDbEntity
  8
0
100
AcDbLine
 10
71.068395223068
 20
1011.086475396485
 30
0.0
 11
71.246295223068
 21
1011.502475396485
 31
0.0
  0
LINE
  5
1419
330
1D
100
AcDbEntity
  8
0
100
AcDbLine
 10
56.639169812606
 20
1013.728526906292
 30
0.0
 11
56.90144304264
 21
1014.041149415397
 31
0.0
  0
LINE
  5
141A
330
1D
100
AcDbEntity
  8
0
100
AcDbLine
 10
60.552595223068
 20
1013.991475396485
 30
0.0
 11
61.356895223068
 21
1013.316475396485
 31
0.0
  0
LINE
  5
141B
330
1D
100
AcDbEntity
  8
0
100
AcDbLine
 10
57.106795223068
 20
1013.922475396485
 30
0.0
 11
58.252695223068
 21
1013.091475396485
 31
0.0
  0
LINE
  5
141C
330
1D
100
AcDbEntity
  8
0
100
AcDbLine
 10
56.617095223068
 20
1014.205475396485
 30
0.0
 11
57.106795223068
 21
1013.922475396485
 31
0.0
  0
LINE
  5
141D
330
1D
100
AcDbEntity
  8
0
100
AcDbLine
 10
56.261395223068
 20
1014.132475396485
 30
0.0
 11
56.639169812606
 21
1013.728526906292
 31
0.0
  0
LINE
  5
141E
330
1D
100
AcDbEntity
  8
0
100
AcDbLine
 10
56.261395223068
 20
1014.132475396485
 30
0.0
 11
56.289495223068
 21
1014.331475396485
 31
0.0
  0
LINE
  5
141F
330
1D
100
AcDbEntity
  8
0
100
AcDbLine
 10
60.604095223068
 20
1013.579475396485
 30
0.0
 11
61.442195223068
 21
1012.210475396485
 31
0.0
  0
LINE
  5
1420
330
1D
100
AcDbEntity
  8
0
100
AcDbLine
 10
60.207895223068
 20
1014.280475396485
 30
0.0
 11
60.552595223068
 21
1013.991475396485
 31
0.0
  0
LINE
  5
1421
330
1D
100
AcDbEntity
  8
0
100
AcDbLine
 10
60.207895223068
 20
1014.280475396485
 30
0.0
 11
61.325352143793
 21
1015.612188635136
 31
0.0
  0
LINE
  5
1422
330
1D
100
AcDbEntity
  8
0
100
AcDbLine
 10
56.289495223068
 20
1014.331475396485
 30
0.0
 11
56.617095223068
 21
1014.205475396485
 31
0.0
  0
LINE
  5
1423
330
1D
100
AcDbEntity
  8
0
100
AcDbLine
 10
63.356095223068
 20
1014.269475396485
 30
0.0
 11
63.901195223068
 21
1013.490475396485
 31
0.0
  0
LINE
  5
1424
330
1D
100
AcDbEntity
  8
0
100
AcDbLine
 10
63.701004821842
 20
1013.776566613793
 30
0.0
 11
63.901195223068
 21
1013.490475396485
 31
0.0
  0
LINE
  5
1425
330
1D
100
AcDbEntity
  8
0
100
AcDbLine
 10
53.950795223068
 20
1014.484475396485
 30
0.0
 11
57.161963703979
 21
1011.817524801224
 31
0.0
  0
LINE
  5
1426
330
1D
100
AcDbEntity
  8
0
100
AcDbLine
 10
53.950795223068
 20
1014.484475396485
 30
0.0
 11
53.960095223068
 21
1014.644475396485
 31
0.0
  0
LINE
  5
1427
330
1D
100
AcDbEntity
  8
0
100
AcDbLine
 10
53.621295223068
 20
1014.485475396485
 30
0.0
 11
53.950795223068
 21
1014.484475396485
 31
0.0
  0
LINE
  5
1428
330
1D
100
AcDbEntity
  8
0
100
AcDbLine
 10
62.593095223068
 20
1014.876475396485
 30
0.0
 11
63.356095223068
 21
1014.269475396485
 31
0.0
  0
LINE
  5
1429
330
1D
100
AcDbEntity
  8
0
100
AcDbLine
 10
41.06393266591
 20
1024.944906496097
 30
0.0
 11
41.278095223068
 21
1024.744475396485
 31
0.0
  0
LINE
  5
142A
330
1D
100
AcDbEntity
  8
0
100
AcDbLine
 10
41.278095223068
 20
1024.744475396485
 30
0.0
 11
41.367695223068
 21
1024.661475396485
 31
0.0
  0
LINE
  5
142B
330
1D
100
AcDbEntity
  8
0
100
AcDbLine
 10
41.087595223068
 20
1025.956475396485
 30
0.0
 11
41.567695223068
 21
1025.329475396485
 31
0.0
  0
LINE
  5
142C
330
1D
100
AcDbEntity
  8
0
100
AcDbLine
 10
40.982195223068
 20
1025.457475396485
 30
0.0
 11
41.560395223068
 21
1025.112475396485
 31
0.0
  0
LINE
  5
142D
330
1D
100
AcDbEntity
  8
0
100
AcDbLine
 10
41.560395223068
 20
1025.112475396485
 30
0.0
 11
41.567695223068
 21
1025.329475396485
 31
0.0
  0
LINE
  5
142E
330
1D
100
AcDbEntity
  8
0
100
AcDbLine
 10
41.705264024746
 20
1027.049803314612
 30
0.0
 11
42.870695223068
 21
1025.939475396485
 31
0.0
  0
LINE
  5
142F
330
1D
100
AcDbEntity
  8
0
100
AcDbLine
 10
41.367695223068
 20
1024.661475396485
 30
0.0
 11
44.902695223068
 21
1021.553475396485
 31
0.0
  0
LINE
  5
1430
330
1D
100
AcDbEntity
  8
0
100
AcDbLine
 10
40.193550664383
 20
1028.94037064858
 30
0.0
 11
40.662295223068
 21
1028.684475396485
 31
0.0
  0
LINE
  5
1431
330
1D
100
AcDbEntity
  8
0
100
AcDbLine
 10
40.662295223068
 20
1028.684475396485
 30
0.0
 11
40.893295223068
 21
1028.883475396485
 31
0.0
  0
LINE
  5
1432
330
1D
100
AcDbEntity
  8
0
100
AcDbLine
 10
40.543195223068
 20
1027.927475396485
 30
0.0
 11
41.705264024749
 21
1027.049803314609
 31
0.0
  0
LINE
  5
1433
330
1D
100
AcDbEntity
  8
0
100
AcDbLine
 10
45.018995223068
 20
1021.505475396485
 30
0.0
 11
45.125095223068
 21
1021.525475396485
 31
0.0
  0
LINE
  5
1434
330
1D
100
AcDbEntity
  8
0
100
AcDbLine
 10
45.135295223068
 20
1021.530475396485
 30
0.0
 11
45.251295223068
 21
1021.543475396485
 31
0.0
  0
LINE
  5
1435
330
1D
100
AcDbEntity
  8
0
100
AcDbLine
 10
45.346095223068
 20
1021.498475396485
 30
0.0
 11
45.375195223068
 21
1021.693475396485
 31
0.0
  0
LINE
  5
1436
330
1D
100
AcDbEntity
  8
0
100
AcDbLine
 10
45.346095223068
 20
1021.498475396485
 30
0.0
 11
47.854595223068
 21
1019.331475396485
 31
0.0
  0
LINE
  5
1437
330
1D
100
AcDbEntity
  8
0
100
AcDbLine
 10
43.841695223068
 20
1024.926475396485
 30
0.0
 11
44.794795223068
 21
1023.734475396485
 31
0.0
  0
LINE
  5
1438
330
1D
100
AcDbEntity
  8
0
100
AcDbLine
 10
44.794795223068
 20
1023.734475396485
 30
0.0
 11
45.219295223068
 21
1022.940475396485
 31
0.0
  0
LINE
  5
1439
330
1D
100
AcDbEntity
  8
0
100
AcDbLine
 10
44.902695223068
 20
1021.553475396485
 30
0.0
 11
45.018995223068
 21
1021.505475396485
 31
0.0
  0
LINE
  5
143A
330
1D
100
AcDbEntity
  8
0
100
AcDbLine
 10
45.375195223068
 20
1021.693475396485
 30
0.0
 11
45.384595223068
 21
1022.209475396485
 31
0.0
  0
LINE
  5
143B
330
1D
100
AcDbEntity
  8
0
100
AcDbLine
 10
45.219295223068
 20
1022.940475396485
 30
0.0
 11
45.384595223068
 21
1022.209475396485
 31
0.0
  0
LINE
  5
143C
330
1D
100
AcDbEntity
  8
0
100
AcDbLine
 10
45.816895223068
 20
1021.987475396485
 30
0.0
 11
46.161595223068
 21
1021.697475396485
 31
0.0
  0
LINE
  5
143D
330
1D
100
AcDbEntity
  8
0
100
AcDbLine
 10
45.816895223068
 20
1021.987475396485
 30
0.0
 11
46.77112894777
 21
1023.124634351527
 31
0.0
  0
LINE
  5
143E
330
1D
100
AcDbEntity
  8
0
100
AcDbLine
 10
45.629195223068
 20
1025.064475396485
 30
0.0
 11
46.655698168103
 21
1026.287757477286
 31
0.0
  0
LINE
  5
143F
330
1D
100
AcDbEntity
  8
0
100
AcDbLine
 10
46.015195223068
 20
1023.375475396485
 30
0.0
 11
46.47181877599
 21
1022.767946851008
 31
0.0
  0
LINE
  5
1440
330
1D
100
AcDbEntity
  8
0
100
AcDbLine
 10
46.015195223068
 20
1023.375475396485
 30
0.0
 11
46.654495223068
 21
1023.199475396485
 31
0.0
  0
LINE
  5
1441
330
1D
100
AcDbEntity
  8
0
100
AcDbLine
 10
45.251295223068
 20
1021.543475396485
 30
0.0
 11
45.346095223068
 21
1021.498475396485
 31
0.0
  0
LINE
  5
1442
330
1D
100
AcDbEntity
  8
0
100
AcDbLine
 10
46.161595223068
 20
1021.697475396485
 30
0.0
 11
46.965995223068
 21
1021.022475396485
 31
0.0
  0
LINE
  5
1443
330
1D
100
AcDbEntity
  8
0
100
AcDbLine
 10
46.965995223068
 20
1021.022475396485
 30
0.0
 11
47.770295223068
 21
1020.347475396485
 31
0.0
  0
LINE
  5
1444
330
1D
100
AcDbEntity
  8
0
100
AcDbLine
 10
47.017995223068
 20
1018.296475396485
 30
0.0
 11
47.362695223068
 21
1018.006475396485
 31
0.0
  0
LINE
  5
1445
330
1D
100
AcDbEntity
  8
0
100
AcDbLine
 10
47.017995223068
 20
1018.296475396485
 30
0.0
 11
47.873283166968
 21
1019.315720807088
 31
0.0
  0
LINE
  5
1446
330
1D
100
AcDbEntity
  8
0
100
AcDbLine
 10
47.017995223068
 20
1018.296475396485
 30
0.0
 11
48.290462865246
 21
1019.81287325253
 31
0.0
  0
LINE
  5
1447
330
1D
100
AcDbEntity
  8
0
100
AcDbLine
 10
46.691593623663
 20
1023.175670248584
 30
0.0
 11
46.770873090257
 21
1023.124329446498
 31
0.0
  0
LINE
  5
1448
330
1D
100
AcDbEntity
  8
0
100
AcDbLine
 10
46.654495223068
 20
1023.199475396485
 30
0.0
 11
47.107995223068
 21
1022.908475396485
 31
0.0
  0
LINE
  5
1449
330
1D
100
AcDbEntity
  8
0
100
AcDbLine
 10
42.870695223068
 20
1025.939475396485
 30
0.0
 11
43.841695223068
 21
1024.926475396485
 31
0.0
  0
LINE
  5
144A
330
1D
100
AcDbEntity
  8
0
100
AcDbLine
 10
42.589395223068
 20
1028.262475396485
 30
0.0
 11
43.612545788768
 21
1027.32898836059
 31
0.0
  0
LINE
  5
144B
330
1D
100
AcDbEntity
  8
0
100
AcDbLine
 10
45.284395223068
 20
1025.353475396485
 30
0.0
 11
45.629195223068
 21
1025.064475396485
 31
0.0
  0
LINE
  5
144C
330
1D
100
AcDbEntity
  8
0
100
AcDbLine
 10
43.330995223068
 20
1026.993475396485
 30
0.0
 11
43.675695223068
 21
1026.703475396484
 31
0.0
  0
LINE
  5
144D
330
1D
100
AcDbEntity
  8
0
100
AcDbLine
 10
43.330995223068
 20
1026.993475396485
 30
0.0
 11
44.40143455705
 21
1028.26907671856
 31
0.0
  0
LINE
  5
144E
330
1D
100
AcDbEntity
  8
0
100
AcDbLine
 10
43.675695223068
 20
1026.703475396484
 30
0.0
 11
44.480095223068
 21
1026.028475396485
 31
0.0
  0
LINE
  5
144F
330
1D
100
AcDbEntity
  8
0
100
AcDbLine
 10
44.480095223068
 20
1026.028475396485
 30
0.0
 11
45.284395223068
 21
1025.353475396485
 31
0.0
  0
LINE
  5
1450
330
1D
100
AcDbEntity
  8
0
100
AcDbLine
 10
45.672995223068
 20
1027.359475396485
 30
0.0
 11
46.237695223068
 21
1026.803475396485
 31
0.0
  0
LINE
  5
1451
330
1D
100
AcDbEntity
  8
0
100
AcDbLine
 10
45.936260199651
 20
1025.430404286716
 30
0.0
 11
48.119895223068
 21
1023.366475396485
 31
0.0
  0
LINE
  5
1452
330
1D
100
AcDbEntity
  8
0
100
AcDbLine
 10
46.237695223068
 20
1026.803475396485
 30
0.0
 11
46.668895223068
 21
1026.271475396485
 31
0.0
  0
LINE
  5
1453
330
1D
100
AcDbEntity
  8
0
100
AcDbLine
 10
46.668895223068
 20
1026.271475396485
 30
0.0
 11
46.804995223068
 21
1025.869475396485
 31
0.0
  0
LINE
  5
1454
330
1D
100
AcDbEntity
  8
0
100
AcDbLine
 10
46.299068953031
 20
1025.86276295545
 30
0.0
 11
46.804995223068
 21
1025.869475396485
 31
0.0
  0
LINE
  5
1455
330
1D
100
AcDbEntity
  8
0
100
AcDbLine
 10
43.957097087277
 20
1027.739576871258
 30
0.0
 11
44.060243224338
 21
1027.86249214971
 31
0.0
  0
LINE
  5
1456
330
1D
100
AcDbEntity
  8
0
100
AcDbLine
 10
43.885595223068
 20
1027.814475396485
 30
0.0
 11
43.957097087277
 21
1027.739576871258
 31
0.0
  0
LINE
  5
1457
330
1D
100
AcDbEntity
  8
0
100
AcDbLine
 10
43.577595223068
 20
1028.357475396484
 30
0.0
 11
43.689395223068
 21
1028.515475396485
 31
0.0
  0
LINE
  5
1458
330
1D
100
AcDbEntity
  8
0
100
AcDbLine
 10
43.577595223068
 20
1028.357475396484
 30
0.0
 11
43.885595223068
 21
1027.814475396485
 31
0.0
  0
LINE
  5
1459
330
1D
100
AcDbEntity
  8
0
100
AcDbLine
 10
43.689395223068
 20
1028.515475396485
 30
0.0
 11
44.056295223068
 21
1028.444475396484
 31
0.0
  0
LINE
  5
145A
330
1D
100
AcDbEntity
  8
0
100
AcDbLine
 10
44.056295223068
 20
1028.444475396484
 30
0.0
 11
44.605295223068
 21
1028.165475396484
 31
0.0
  0
LINE
  5
145B
330
1D
100
AcDbEntity
  8
0
100
AcDbLine
 10
44.605295223068
 20
1028.165475396484
 30
0.0
 11
45.672995223068
 21
1027.359475396485
 31
0.0
  0
LINE
  5
145C
330
1D
100
AcDbEntity
  8
0
100
AcDbLine
 10
40.528195223068
 20
1029.454475396485
 30
0.0
 11
40.893295223068
 21
1028.883475396485
 31
0.0
  0
LINE
  5
145D
330
1D
100
AcDbEntity
  8
0
100
AcDbLine
 10
41.562395223068
 20
1031.060475396485
 30
0.0
 11
42.733472390745
 21
1032.456367316015
 31
0.0
  0
LINE
  5
145E
330
1D
100
AcDbEntity
  8
0
100
AcDbLine
 10
41.217695223068
 20
1031.350475396485
 30
0.0
 11
41.562395223068
 21
1031.060475396485
 31
0.0
  0
LINE
  5
145F
330
1D
100
AcDbEntity
  8
0
100
AcDbLine
 10
41.918540380002
 20
1031.484990672221
 30
0.0
 11
42.620095223068
 21
1030.864475396485
 31
0.0
  0
LINE
  5
1460
330
1D
100
AcDbEntity
  8
0
100
AcDbLine
 10
42.620095223068
 20
1030.864475396485
 30
0.0
 11
47.181095223068
 21
1026.891475396485
 31
0.0
  0
LINE
  5
1461
330
1D
100
AcDbEntity
  8
0
100
AcDbLine
 10
40.413395223068
 20
1032.025475396485
 30
0.0
 11
41.217695223068
 21
1031.350475396485
 31
0.0
  0
LINE
  5
1462
330
1D
100
AcDbEntity
  8
0
100
AcDbLine
 10
42.689295223068
 20
1031.664475396485
 30
0.0
 11
42.985995223068
 21
1031.972475396485
 31
0.0
  0
LINE
  5
1463
330
1D
100
AcDbEntity
  8
0
100
AcDbLine
 10
42.237689815175
 20
1031.865408060567
 30
0.0
 11
42.689295223068
 21
1031.664475396485
 31
0.0
  0
LINE
  5
1464
330
1D
100
AcDbEntity
  8
0
100
AcDbLine
 10
43.052495223068
 20
1032.943475396485
 30
0.0
 11
44.426867545608
 21
1034.581689574348
 31
0.0
  0
LINE
  5
1465
330
1D
100
AcDbEntity
  8
0
100
AcDbLine
 10
44.316195223068
 20
1033.189475396485
 30
0.0
 11
44.886395223068
 21
1033.430475396485
 31
0.0
  0
LINE
  5
1466
330
1D
100
AcDbEntity
  8
0
100
AcDbLine
 10
43.079284070628
 20
1032.972060809336
 30
0.0
 11
46.725795223068
 21
1029.864475396485
 31
0.0
  0
LINE
  5
1467
330
1D
100
AcDbEntity
  8
0
100
AcDbLine
 10
42.699495223068
 20
1032.521475396485
 30
0.0
 11
42.985995223068
 21
1031.972475396485
 31
0.0
  0
LINE
  5
1468
330
1D
100
AcDbEntity
  8
0
100
AcDbLine
 10
40.754395223068
 20
1034.872475396485
 30
0.0
 11
41.099095223068
 21
1034.582475396485
 31
0.0
  0
LINE
  5
1469
330
1D
100
AcDbEntity
  8
0
100
AcDbLine
 10
40.754395223068
 20
1034.872475396485
 30
0.0
 11
42.109368719256
 21
1036.487145119695
 31
0.0
  0
LINE
  5
146A
330
1D
100
AcDbEntity
  8
0
100
AcDbLine
 10
41.004795223068
 20
1036.119475396485
 30
0.0
 11
41.32977534981
 21
1035.558133730467
 31
0.0
  0
LINE
  5
146B
330
1D
100
AcDbEntity
  8
0
100
AcDbLine
 10
41.004795223068
 20
1036.119475396485
 30
0.0
 11
41.133095223068
 21
1036.648475396485
 31
0.0
  0
LINE
  5
146C
330
1D
100
AcDbEntity
  8
0
100
AcDbLine
 10
41.099095223068
 20
1034.582475396485
 30
0.0
 11
41.903495223068
 21
1033.907475396485
 31
0.0
  0
LINE
  5
146D
330
1D
100
AcDbEntity
  8
0
100
AcDbLine
 10
41.903495223068
 20
1033.907475396485
 30
0.0
 11
42.707795223068
 21
1033.233475396485
 31
0.0
  0
LINE
  5
146E
330
1D
100
AcDbEntity
  8
0
100
AcDbLine
 10
42.707795223068
 20
1033.233475396485
 30
0.0
 11
43.052495223068
 21
1032.943475396485
 31
0.0
  0
LINE
  5
146F
330
1D
100
AcDbEntity
  8
0
100
AcDbLine
 10
43.471695223068
 20
1035.572475396485
 30
0.0
 11
44.517695223068
 21
1034.487475396485
 31
0.0
  0
LINE
  5
1470
330
1D
100
AcDbEntity
  8
0
100
AcDbLine
 10
42.216295223068
 20
1036.469475396485
 30
0.0
 11
43.471695223068
 21
1035.572475396485
 31
0.0
  0
LINE
  5
1471
330
1D
100
AcDbEntity
  8
0
100
AcDbLine
 10
44.517695223068
 20
1034.487475396485
 30
0.0
 11
44.886395223068
 21
1033.430475396485
 31
0.0
  0
LINE
  5
1472
330
1D
100
AcDbEntity
  8
0
100
AcDbLine
 10
43.578172189094
 20
1033.57006794684
 30
0.0
 11
44.316195223068
 21
1033.189475396485
 31
0.0
  0
LINE
  5
1473
330
1D
100
AcDbEntity
  8
0
100
AcDbLine
 10
41.133095223068
 20
1036.648475396485
 30
0.0
 11
42.216295223068
 21
1036.469475396485
 31
0.0
  0
LINE
  5
1474
330
1D
100
AcDbEntity
  8
0
100
AcDbLine
 10
41.011295223068
 20
1034.121475396485
 30
0.0
 11
42.081495223068
 21
1033.231475396485
 31
0.0
  0
LINE
  5
1475
330
1D
100
AcDbEntity
  8
0
100
AcDbLine
 10
42.081495223068
 20
1033.231475396485
 30
0.0
 11
42.699495223068
 21
1032.521475396485
 31
0.0
  0
LINE
  5
1476
330
1D
100
AcDbEntity
  8
0
100
AcDbLine
 10
46.725795223068
 20
1029.864475396485
 30
0.0
 11
49.847695223068
 21
1027.177475396485
 31
0.0
  0
LINE
  5
1477
330
1D
100
AcDbEntity
  8
0
100
AcDbLine
 10
43.911395223068
 20
1065.203475396484
 30
0.0
 11
52.324795223068
 21
1059.041475396485
 31
0.0
  0
LINE
  5
1478
330
1D
100
AcDbEntity
  8
0
100
AcDbLine
 10
60.722395223068
 20
1015.043475396485
 30
0.0
 11
60.7920068548
 21
1014.976582045789
 31
0.0
  0
LINE
  5
1479
330
1D
100
AcDbEntity
  8
0
100
AcDbLine
 10
59.435395223068
 20
1015.101475396485
 30
0.0
 11
60.604095223068
 21
1013.579475396485
 31
0.0
  0
LINE
  5
147A
330
1D
100
AcDbEntity
  8
0
100
AcDbLine
 10
59.426095223068
 20
1015.110475396485
 30
0.0
 11
60.604095223068
 21
1013.579475396485
 31
0.0
  0
LINE
  5
147B
330
1D
100
AcDbEntity
  8
0
100
AcDbLine
 10
53.915095223068
 20
1015.241475396485
 30
0.0
 11
53.960095223068
 21
1014.644475396485
 31
0.0
  0
LINE
  5
147C
330
1D
100
AcDbEntity
  8
0
100
AcDbLine
 10
53.795795223068
 20
1015.914475396485
 30
0.0
 11
53.915095223068
 21
1015.241475396485
 31
0.0
  0
LINE
  5
147D
330
1D
100
AcDbEntity
  8
0
100
AcDbLine
 10
61.127993483445
 20
1015.376989285726
 30
0.0
 11
61.325352143793
 21
1015.612188635136
 31
0.0
  0
LINE
  5
147E
330
1D
100
AcDbEntity
  8
0
100
AcDbLine
 10
60.437295223068
 20
1015.616475396485
 30
0.0
 11
60.722395223068
 21
1015.043475396485
 31
0.0
  0
LINE
  5
147F
330
1D
100
AcDbEntity
  8
0
100
AcDbLine
 10
60.437295223068
 20
1015.616475396485
 30
0.0
 11
60.613595223068
 21
1015.767475396485
 31
0.0
  0
LINE
  5
1480
330
1D
100
AcDbEntity
  8
0
100
AcDbLine
 10
61.214095223068
 20
1015.669475396485
 30
0.0
 11
62.025895223068
 21
1015.251475396485
 31
0.0
  0
LINE
  5
1481
330
1D
100
AcDbEntity
  8
0
100
AcDbLine
 10
62.025895223068
 20
1015.251475396485
 30
0.0
 11
62.593095223068
 21
1014.876475396485
 31
0.0
  0
LINE
  5
1482
330
1D
100
AcDbEntity
  8
0
100
AcDbLine
 10
60.613595223068
 20
1015.767475396485
 30
0.0
 11
61.214095223068
 21
1015.669475396485
 31
0.0
  0
LINE
  5
1483
330
1D
100
AcDbEntity
  8
0
100
AcDbLine
 10
95.355095223068
 20
1015.978475396485
 30
0.0
 11
97.415195223068
 21
1014.801475396485
 31
0.0
  0
LINE
  5
1484
330
1D
100
AcDbEntity
  8
0
100
AcDbLine
 10
47.362695223068
 20
1018.006475396485
 30
0.0
 11
48.167095223068
 21
1017.331475396485
 31
0.0
  0
LINE
  5
1485
330
1D
100
AcDbEntity
  8
0
100
AcDbLine
 10
48.167095223068
 20
1017.331475396485
 30
0.0
 11
48.971395223068
 21
1016.656475396485
 31
0.0
  0
LINE
  5
1486
330
1D
100
AcDbEntity
  8
0
100
AcDbLine
 10
48.100711065535
 20
1019.586746306174
 30
0.0
 11
48.290462865246
 21
1019.81287325253
 31
0.0
  0
LINE
  5
1487
330
1D
100
AcDbEntity
  8
0
100
AcDbLine
 10
49.316095223068
 20
1016.367475396485
 30
0.0
 11
50.580810841917
 21
1017.874588283913
 31
0.0
  0
LINE
  5
1488
330
1D
100
AcDbEntity
  8
0
100
AcDbLine
 10
49.903295223068
 20
1016.373475396485
 30
0.0
 11
50.497567550474
 21
1017.081668872936
 31
0.0
  0
LINE
  5
1489
330
1D
100
AcDbEntity
  8
0
100
AcDbLine
 10
49.561520728374
 20
1016.659939517618
 30
0.0
 11
49.903295223068
 21
1016.373475396485
 31
0.0
  0
LINE
  5
148A
330
1D
100
AcDbEntity
  8
0
100
AcDbLine
 10
48.971395223068
 20
1016.656475396485
 30
0.0
 11
49.316095223068
 21
1016.367475396485
 31
0.0
  0
LINE
  5
148B
330
1D
100
AcDbEntity
  8
0
100
AcDbLine
 10
50.160424641797
 20
1017.373630242077
 30
0.0
 11
50.826895223068
 21
1016.796475396485
 31
0.0
  0
LINE
  5
148C
330
1D
100
AcDbEntity
  8
0
100
AcDbLine
 10
50.829995223068
 20
1016.793475396485
 30
0.0
 11
50.982095223068
 21
1016.661475396485
 31
0.0
  0
LINE
  5
148D
330
1D
100
AcDbEntity
  8
0
100
AcDbLine
 10
50.791017978183
 20
1016.827544623416
 30
0.0
 11
50.829995223068
 21
1016.793475396485
 31
0.0
  0
LINE
  5
148E
330
1D
100
AcDbEntity
  8
0
100
AcDbLine
 10
50.826895223068
 20
1016.796475396485
 30
0.0
 11
50.982095223068
 21
1016.661475396485
 31
0.0
  0
LINE
  5
148F
330
1D
100
AcDbEntity
  8
0
100
AcDbLine
 10
50.982095223068
 20
1016.661475396485
 30
0.0
 11
53.505095223068
 21
1014.531475396485
 31
0.0
  0
LINE
  5
1490
330
1D
100
AcDbEntity
  8
0
100
AcDbLine
 10
50.889995223068
 20
1017.275475396485
 30
0.0
 11
51.201095223068
 21
1017.111475396485
 31
0.0
  0
LINE
  5
1491
330
1D
100
AcDbEntity
  8
0
100
AcDbLine
 10
50.382975962357
 20
1017.638836078339
 30
0.0
 11
50.889995223068
 21
1017.275475396485
 31
0.0
  0
LINE
  5
1492
330
1D
100
AcDbEntity
  8
0
100
AcDbLine
 10
49.746895223068
 20
1018.667475396485
 30
0.0
 11
50.502095223068
 21
1017.953475396485
 31
0.0
  0
LINE
  5
1493
330
1D
100
AcDbEntity
  8
0
100
AcDbLine
 10
50.502095223068
 20
1017.953475396485
 30
0.0
 11
51.052895223068
 21
1017.401475396485
 31
0.0
  0
LINE
  5
1494
330
1D
100
AcDbEntity
  8
0
100
AcDbLine
 10
48.819495223068
 20
1019.409475396485
 30
0.0
 11
49.746895223068
 21
1018.667475396485
 31
0.0
  0
LINE
  5
1495
330
1D
100
AcDbEntity
  8
0
100
AcDbLine
 10
48.114995223068
 20
1020.058475396485
 30
0.0
 11
49.033935501152
 21
1021.153541129236
 31
0.0
  0
LINE
  5
1496
330
1D
100
AcDbEntity
  8
0
100
AcDbLine
 10
48.200495223068
 20
1019.881475396485
 30
0.0
 11
48.819495223068
 21
1019.409475396485
 31
0.0
  0
LINE
  5
1497
330
1D
100
AcDbEntity
  8
0
100
AcDbLine
 10
47.871395223068
 20
1019.796475396485
 30
0.0
 11
48.098881740666
 21
1019.584566302362
 31
0.0
  0
LINE
  5
1498
330
1D
100
AcDbEntity
  8
0
100
AcDbLine
 10
51.052895223068
 20
1017.401475396485
 30
0.0
 11
51.201095223068
 21
1017.111475396485
 31
0.0
  0
LINE
  5
1499
330
1D
100
AcDbEntity
  8
0
100
AcDbLine
 10
51.703595223068
 20
1019.553475396485
 30
0.0
 11
52.440431052491
 21
1018.577968450621
 31
0.0
  0
LINE
  5
149A
330
1D
100
AcDbEntity
  8
0
100
AcDbLine
 10
47.640495223068
 20
1020.270475396485
 30
0.0
 11
48.200495223068
 21
1019.881475396485
 31
0.0
  0
LINE
  5
149B
330
1D
100
AcDbEntity
  8
0
100
AcDbLine
 10
47.770295223068
 20
1020.347475396485
 30
0.0
 11
48.114995223068
 21
1020.058475396485
 31
0.0
  0
LINE
  5
149C
330
1D
100
AcDbEntity
  8
0
100
AcDbLine
 10
48.809158765169
 20
1020.885683351136
 30
0.0
 11
49.208095223068
 21
1020.703475396485
 31
0.0
  0
LINE
  5
149D
330
1D
100
AcDbEntity
  8
0
100
AcDbLine
 10
48.809158765169
 20
1020.885683351136
 30
0.0
 11
49.033935501152
 21
1021.153541129236
 31
0.0
  0
LINE
  5
149E
330
1D
100
AcDbEntity
  8
0
100
AcDbLine
 10
50.504895223068
 20
1020.931475396485
 30
0.0
 11
51.703595223068
 21
1019.553475396485
 31
0.0
  0
LINE
  5
149F
330
1D
100
AcDbEntity
  8
0
100
AcDbLine
 10
49.208095223068
 20
1020.703475396485
 30
0.0
 11
49.244295223068
 21
1020.882475396485
 31
0.0
  0
LINE
  5
14A0
330
1D
100
AcDbEntity
  8
0
100
AcDbLine
 10
47.443195223068
 20
1020.277475396485
 30
0.0
 11
47.871395223068
 21
1019.796475396485
 31
0.0
  0
LINE
  5
14A1
330
1D
100
AcDbEntity
  8
0
100
AcDbLine
 10
47.443195223068
 20
1020.277475396485
 30
0.0
 11
47.640495223068
 21
1020.270475396485
 31
0.0
  0
LINE
  5
14A2
330
1D
100
AcDbEntity
  8
0
100
AcDbLine
 10
48.780995223068
 20
1021.479475396485
 30
0.0
 11
49.244295223068
 21
1020.882475396485
 31
0.0
  0
LINE
  5
14A3
330
1D
100
AcDbEntity
  8
0
100
AcDbLine
 10
52.286195223068
 20
1022.338475396485
 30
0.0
 11
54.240895223068
 21
1020.433475396485
 31
0.0
  0
LINE
  5
14A4
330
1D
100
AcDbEntity
  8
0
100
AcDbLine
 10
54.701195223068
 20
1016.605475396485
 30
0.0
 11
55.784289936495
 21
1017.896157646774
 31
0.0
  0
LINE
  5
14A5
330
1D
100
AcDbEntity
  8
0
100
AcDbLine
 10
54.356495223068
 20
1016.894475396485
 30
0.0
 11
54.701195223068
 21
1016.605475396485
 31
0.0
  0
LINE
  5
14A6
330
1D
100
AcDbEntity
  8
0
100
AcDbLine
 10
53.539795223068
 20
1016.667475396485
 30
0.0
 11
53.795795223068
 21
1015.914475396485
 31
0.0
  0
LINE
  5
14A7
330
1D
100
AcDbEntity
  8
0
100
AcDbLine
 10
53.552195223068
 20
1017.569475396485
 30
0.0
 11
54.356495223068
 21
1016.894475396485
 31
0.0
  0
LINE
  5
14A8
330
1D
100
AcDbEntity
  8
0
100
AcDbLine
 10
55.935795223068
 20
1017.749475396485
 30
0.0
 11
56.346095223068
 21
1017.091475396485
 31
0.0
  0
LINE
  5
14A9
330
1D
100
AcDbEntity
  8
0
100
AcDbLine
 10
55.231095223068
 20
1017.228475396485
 30
0.0
 11
55.993995223068
 21
1016.872475396485
 31
0.0
  0
LINE
  5
14AA
330
1D
100
AcDbEntity
  8
0
100
AcDbLine
 10
52.403095223068
 20
1018.533475396485
 30
0.0
 11
52.747795223068
 21
1018.244475396485
 31
0.0
  0
LINE
  5
14AB
330
1D
100
AcDbEntity
  8
0
100
AcDbLine
 10
52.403095223068
 20
1018.533475396485
 30
0.0
 11
53.401056322079
 21
1019.722744200496
 31
0.0
  0
LINE
  5
14AC
330
1D
100
AcDbEntity
  8
0
100
AcDbLine
 10
52.747795223068
 20
1018.244475396485
 30
0.0
 11
53.552195223068
 21
1017.569475396485
 31
0.0
  0
LINE
  5
14AD
330
1D
100
AcDbEntity
  8
0
100
AcDbLine
 10
52.578242789648
 20
1018.386629888096
 30
0.0
 11
53.134095223068
 21
1017.498475396485
 31
0.0
  0
LINE
  5
14AE
330
1D
100
AcDbEntity
  8
0
100
AcDbLine
 10
55.250995223068
 20
1018.412475396485
 30
0.0
 11
55.935795223068
 21
1017.749475396485
 31
0.0
  0
LINE
  5
14AF
330
1D
100
AcDbEntity
  8
0
100
AcDbLine
 10
54.388695223068
 20
1019.133475396485
 30
0.0
 11
55.250995223068
 21
1018.412475396485
 31
0.0
  0
LINE
  5
14B0
330
1D
100
AcDbEntity
  8
0
100
AcDbLine
 10
55.932295223068
 20
1018.860475396485
 30
0.0
 11
57.302195223068
 21
1017.488475396485
 31
0.0
  0
LINE
  5
14B1
330
1D
100
AcDbEntity
  8
0
100
AcDbLine
 10
55.993995223068
 20
1016.872475396485
 30
0.0
 11
56.346095223068
 21
1017.091475396485
 31
0.0
  0
LINE
  5
14B2
330
1D
100
AcDbEntity
  8
0
100
AcDbLine
 10
53.435595223068
 20
1019.707475396485
 30
0.0
 11
54.388695223068
 21
1019.133475396485
 31
0.0
  0
LINE
  5
14B3
330
1D
100
AcDbEntity
  8
0
100
AcDbLine
 10
52.797695223068
 20
1019.989475396485
 30
0.0
 11
53.435595223068
 21
1019.707475396485
 31
0.0
  0
LINE
  5
14B4
330
1D
100
AcDbEntity
  8
0
100
AcDbLine
 10
53.420995223068
 20
1021.764475396485
 30
0.0
 11
54.225018392419
 21
1022.722628649111
 31
0.0
  0
LINE
  5
14B5
330
1D
100
AcDbEntity
  8
0
100
AcDbLine
 10
53.076195223068
 20
1022.053475396485
 30
0.0
 11
53.420995223068
 21
1021.764475396485
 31
0.0
  0
LINE
  5
14B6
330
1D
100
AcDbEntity
  8
0
100
AcDbLine
 10
53.568379932454
 20
1021.940113542335
 30
0.0
 11
53.768295223068
 21
1021.827475396485
 31
0.0
  0
LINE
  5
14B7
330
1D
100
AcDbEntity
  8
0
100
AcDbLine
 10
53.768295223068
 20
1021.827475396485
 30
0.0
 11
54.337995223068
 21
1021.692475396485
 31
0.0
  0
LINE
  5
14B8
330
1D
100
AcDbEntity
  8
0
100
AcDbLine
 10
54.337995223068
 20
1021.692475396485
 30
0.0
 11
54.606595223068
 21
1021.778475396485
 31
0.0
  0
LINE
  5
14B9
330
1D
100
AcDbEntity
  8
0
100
AcDbLine
 10
54.240895223068
 20
1020.433475396485
 30
0.0
 11
55.932295223068
 21
1018.860475396485
 31
0.0
  0
LINE
  5
14BA
330
1D
100
AcDbEntity
  8
0
100
AcDbLine
 10
54.606595223068
 20
1021.778475396485
 30
0.0
 11
54.628795223068
 21
1022.149475396485
 31
0.0
  0
LINE
  5
14BB
330
1D
100
AcDbEntity
  8
0
100
AcDbLine
 10
52.774695223068
 20
1019.237475396485
 30
0.0
 11
52.893003184805
 21
1019.117298008717
 31
0.0
  0
LINE
  5
14BC
330
1D
100
AcDbEntity
  8
0
100
AcDbLine
 10
52.370295223068
 20
1019.892475396485
 30
0.0
 11
52.774695223068
 21
1019.237475396485
 31
0.0
  0
LINE
  5
14BD
330
1D
100
AcDbEntity
  8
0
100
AcDbLine
 10
52.370295223068
 20
1019.892475396485
 30
0.0
 11
52.797695223068
 21
1019.989475396485
 31
0.0
  0
LINE
  5
14BE
330
1D
100
AcDbEntity
  8
0
100
AcDbLine
 10
47.107995223068
 20
1022.908475396485
 30
0.0
 11
47.778195223068
 21
1022.403475396485
 31
0.0
  0
LINE
  5
14BF
330
1D
100
AcDbEntity
  8
0
100
AcDbLine
 10
48.119895223068
 20
1023.366475396485
 30
0.0
 11
50.504895223068
 21
1020.931475396485
 31
0.0
  0
LINE
  5
14C0
330
1D
100
AcDbEntity
  8
0
100
AcDbLine
 10
49.918195223068
 20
1026.971475396484
 30
0.0
 11
50.262995223068
 21
1026.682475396485
 31
0.0
  0
LINE
  5
14C1
330
1D
100
AcDbEntity
  8
0
100
AcDbLine
 10
49.918195223068
 20
1026.971475396484
 30
0.0
 11
51.148266479917
 21
1028.437303932183
 31
0.0
  0
LINE
  5
14C2
330
1D
100
AcDbEntity
  8
0
100
AcDbLine
 10
50.262995223068
 20
1026.682475396485
 30
0.0
 11
51.067295223068
 21
1026.007475396485
 31
0.0
  0
LINE
  5
14C3
330
1D
100
AcDbEntity
  8
0
100
AcDbLine
 10
50.271995223068
 20
1028.291475396485
 30
0.0
 11
50.534891370966
 21
1027.706368441429
 31
0.0
  0
LINE
  5
14C4
330
1D
100
AcDbEntity
  8
0
100
AcDbLine
 10
50.271995223068
 20
1028.291475396485
 30
0.0
 11
50.663195223068
 21
1028.573475396485
 31
0.0
  0
LINE
  5
14C5
330
1D
100
AcDbEntity
  8
0
100
AcDbLine
 10
49.847695223068
 20
1027.177475396485
 30
0.0
 11
49.989132187573
 21
1027.056008244665
 31
0.0
  0
LINE
  5
14C6
330
1D
100
AcDbEntity
  8
0
100
AcDbLine
 10
49.847695223068
 20
1027.177475396485
 30
0.0
 11
49.989132187573
 21
1027.056008244665
 31
0.0
  0
LINE
  5
14C7
330
1D
100
AcDbEntity
  8
0
100
AcDbLine
 10
50.722895223068
 20
1024.475475396485
 30
0.0
 11
51.048095223068
 21
1023.914475396485
 31
0.0
  0
LINE
  5
14C8
330
1D
100
AcDbEntity
  8
0
100
AcDbLine
 10
51.122795223068
 20
1023.692475396485
 30
0.0
 11
51.467495223068
 21
1023.403475396485
 31
0.0
  0
LINE
  5
14C9
330
1D
100
AcDbEntity
  8
0
100
AcDbLine
 10
51.122795223068
 20
1023.692475396485
 30
0.0
 11
51.889169177056
 21
1024.60573371751
 31
0.0
  0
LINE
  5
14CA
330
1D
100
AcDbEntity
  8
0
100
AcDbLine
 10
51.048095223068
 20
1023.914475396485
 30
0.0
 11
51.189841506342
 21
1023.772371869708
 31
0.0
  0
LINE
  5
14CB
330
1D
100
AcDbEntity
  8
0
100
AcDbLine
 10
50.951095223068
 20
1024.909475396485
 30
0.0
 11
51.473195223068
 21
1024.800475396485
 31
0.0
  0
LINE
  5
14CC
330
1D
100
AcDbEntity
  8
0
100
AcDbLine
 10
51.067295223068
 20
1026.007475396485
 30
0.0
 11
51.871595223068
 21
1025.332475396485
 31
0.0
  0
LINE
  5
14CD
330
1D
100
AcDbEntity
  8
0
100
AcDbLine
 10
50.695595223068
 20
1024.788475396485
 30
0.0
 11
50.951095223068
 21
1024.909475396485
 31
0.0
  0
LINE
  5
14CE
330
1D
100
AcDbEntity
  8
0
100
AcDbLine
 10
50.695595223068
 20
1024.788475396485
 30
0.0
 11
50.722895223068
 21
1024.475475396485
 31
0.0
  0
LINE
  5
14CF
330
1D
100
AcDbEntity
  8
0
100
AcDbLine
 10
50.663195223068
 20
1028.573475396485
 30
0.0
 11
51.275895223068
 21
1028.401475396485
 31
0.0
  0
LINE
  5
14D0
330
1D
100
AcDbEntity
  8
0
100
AcDbLine
 10
47.778195223068
 20
1022.403475396485
 30
0.0
 11
48.780995223068
 21
1021.479475396485
 31
0.0
  0
LINE
  5
14D1
330
1D
100
AcDbEntity
  8
0
100
AcDbLine
 10
51.467495223068
 20
1023.403475396485
 30
0.0
 11
52.271895223068
 21
1022.728475396485
 31
0.0
  0
LINE
  5
14D2
330
1D
100
AcDbEntity
  8
0
100
AcDbLine
 10
52.054195223068
 20
1024.528475396485
 30
0.0
 11
52.802595223068
 21
1024.054475396485
 31
0.0
  0
LINE
  5
14D3
330
1D
100
AcDbEntity
  8
0
100
AcDbLine
 10
52.216395223068
 20
1025.043475396485
 30
0.0
 11
53.50073476704
 21
1026.574020980794
 31
0.0
  0
LINE
  5
14D4
330
1D
100
AcDbEntity
  8
0
100
AcDbLine
 10
51.871595223068
 20
1025.332475396485
 30
0.0
 11
52.216395223068
 21
1025.043475396485
 31
0.0
  0
LINE
  5
14D5
330
1D
100
AcDbEntity
  8
0
100
AcDbLine
 10
51.791895223068
 20
1028.142475396485
 30
0.0
 11
52.590695223068
 21
1027.603475396485
 31
0.0
  0
LINE
  5
14D6
330
1D
100
AcDbEntity
  8
0
100
AcDbLine
 10
51.473195223068
 20
1024.800475396485
 30
0.0
 11
52.054195223068
 21
1024.528475396485
 31
0.0
  0
LINE
  5
14D7
330
1D
100
AcDbEntity
  8
0
100
AcDbLine
 10
52.271895223068
 20
1022.728475396485
 30
0.0
 11
53.076195223068
 21
1022.053475396485
 31
0.0
  0
LINE
  5
14D8
330
1D
100
AcDbEntity
  8
0
100
AcDbLine
 10
52.802595223068
 20
1024.054475396485
 30
0.0
 11
54.063095223068
 21
1022.952475396485
 31
0.0
  0
LINE
  5
14D9
330
1D
100
AcDbEntity
  8
0
100
AcDbLine
 10
54.063095223068
 20
1022.952475396485
 30
0.0
 11
54.628795223068
 21
1022.149475396485
 31
0.0
  0
LINE
  5
14DA
330
1D
100
AcDbEntity
  8
0
100
AcDbLine
 10
52.893323091113
 20
1025.850169361641
 30
0.0
 11
53.722395223068
 21
1025.904475396484
 31
0.0
  0
LINE
  5
14DB
330
1D
100
AcDbEntity
  8
0
100
AcDbLine
 10
53.540995223068
 20
1026.517475396485
 30
0.0
 11
53.722395223068
 21
1025.904475396484
 31
0.0
  0
LINE
  5
14DC
330
1D
100
AcDbEntity
  8
0
100
AcDbLine
 10
53.256195223068
 20
1026.917475396485
 30
0.0
 11
53.540995223068
 21
1026.517475396485
 31
0.0
  0
LINE
  5
14DD
330
1D
100
AcDbEntity
  8
0
100
AcDbLine
 10
52.590695223068
 20
1027.603475396485
 30
0.0
 11
53.256195223068
 21
1026.917475396485
 31
0.0
  0
LINE
  5
14DE
330
1D
100
AcDbEntity
  8
0
100
AcDbLine
 10
52.339214480072
 20
1025.18983892812
 30
0.0
 11
59.199611647656
 21
1019.472699364033
 31
0.0
  0
LINE
  5
14DF
330
1D
100
AcDbEntity
  8
0
100
AcDbLine
 10
53.069195223068
 20
1047.020475396484
 30
0.0
 11
57.997252228547
 21
1043.083250612671
 31
0.0
  0
LINE
  5
14E0
330
1D
100
AcDbEntity
  8
0
100
AcDbLine
 10
52.324795223068
 20
1059.041475396485
 30
0.0
 11
60.002595223068
 21
1053.011475396484
 31
0.0
  0
LINE
  5
14E1
330
1D
100
AcDbEntity
  8
0
100
AcDbLine
 10
51.275895223068
 20
1028.401475396485
 30
0.0
 11
51.791895223068
 21
1028.142475396485
 31
0.0
  0
LINE
  5
14E2
330
1D
100
AcDbEntity
  8
0
100
AcDbLine
 10
61.412895223068
 20
1017.409475396485
 30
0.0
 11
62.789412886737
 21
1019.049869513244
 31
0.0
  0
LINE
  5
14E3
330
1D
100
AcDbEntity
  8
0
100
AcDbLine
 10
57.997252228547
 20
1043.083250612671
 30
0.0
 11
58.770495223068
 21
1042.465475396485
 31
0.0
  0
LINE
  5
14E4
330
1D
100
AcDbEntity
  8
0
100
AcDbLine
 10
59.459495223068
 20
1019.048475396485
 30
0.0
 11
60.263795223068
 21
1018.373475396485
 31
0.0
  0
LINE
  5
14E5
330
1D
100
AcDbEntity
  8
0
100
AcDbLine
 10
61.068195223068
 20
1017.698475396485
 30
0.0
 11
61.412895223068
 21
1017.409475396485
 31
0.0
  0
LINE
  5
14E6
330
1D
100
AcDbEntity
  8
0
100
AcDbLine
 10
59.114695223068
 20
1019.337475396485
 30
0.0
 11
59.459495223068
 21
1019.048475396485
 31
0.0
  0
LINE
  5
14E7
330
1D
100
AcDbEntity
  8
0
100
AcDbLine
 10
59.114695223068
 20
1019.337475396485
 30
0.0
 11
60.387194538472
 21
1020.853863815277
 31
0.0
  0
LINE
  5
14E8
330
1D
100
AcDbEntity
  8
0
100
AcDbLine
 10
59.025595223068
 20
1020.426475396485
 30
0.0
 11
59.521298942534
 21
1019.822009387012
 31
0.0
  0
LINE
  5
14E9
330
1D
100
AcDbEntity
  8
0
100
AcDbLine
 10
60.473295223068
 20
1020.835475396485
 30
0.0
 11
61.313995223068
 21
1020.353475396485
 31
0.0
  0
LINE
  5
14EA
330
1D
100
AcDbEntity
  8
0
100
AcDbLine
 10
61.313995223068
 20
1020.353475396485
 30
0.0
 11
61.910895223068
 21
1019.924475396485
 31
0.0
  0
LINE
  5
14EB
330
1D
100
AcDbEntity
  8
0
100
AcDbLine
 10
60.324526456657
 20
1020.86724776151
 30
0.0
 11
60.378203352054
 21
1020.843149364754
 31
0.0
  0
LINE
  5
14EC
330
1D
100
AcDbEntity
  8
0
100
AcDbLine
 10
58.770495223068
 20
1042.465475396485
 30
0.0
 11
62.955495223068
 21
1039.172475396485
 31
0.0
  0
LINE
  5
14ED
330
1D
100
AcDbEntity
  8
0
100
AcDbLine
 10
59.148195223068
 20
1021.118475396485
 30
0.0
 11
60.473295223068
 21
1020.835475396485
 31
0.0
  0
LINE
  5
14EE
330
1D
100
AcDbEntity
  8
0
100
AcDbLine
 10
60.002595223068
 20
1053.011475396484
 30
0.0
 11
67.493095223068
 21
1046.750475396484
 31
0.0
  0
LINE
  5
14EF
330
1D
100
AcDbEntity
  8
0
100
AcDbLine
 10
58.923095223068
 20
1020.884475396485
 30
0.0
 11
59.025595223068
 21
1020.426475396485
 31
0.0
  0
LINE
  5
14F0
330
1D
100
AcDbEntity
  8
0
100
AcDbLine
 10
58.923095223068
 20
1020.884475396485
 30
0.0
 11
59.148195223068
 21
1021.118475396485
 31
0.0
  0
LINE
  5
14F1
330
1D
100
AcDbEntity
  8
0
100
AcDbLine
 10
62.014848446053
 20
1018.126822185132
 30
0.0
 11
62.607695223068
 21
1017.996475396485
 31
0.0
  0
LINE
  5
14F2
330
1D
100
AcDbEntity
  8
0
100
AcDbLine
 10
93.500995223068
 20
1017.065475396485
 30
0.0
 11
95.355095223068
 21
1015.978475396485
 31
0.0
  0
LINE
  5
14F3
330
1D
100
AcDbEntity
  8
0
100
AcDbLine
 10
92.920495223068
 20
1017.406475396485
 30
0.0
 11
93.48586437103
 21
1017.074861520165
 31
0.0
  0
LINE
  5
14F4
330
1D
100
AcDbEntity
  8
0
100
AcDbLine
 10
62.607695223068
 20
1017.996475396485
 30
0.0
 11
63.149995223068
 21
1018.101475396485
 31
0.0
  0
LINE
  5
14F5
330
1D
100
AcDbEntity
  8
0
100
AcDbLine
 10
62.911895223068
 20
1018.908475396485
 30
0.0
 11
63.149995223068
 21
1018.101475396485
 31
0.0
  0
LINE
  5
14F6
330
1D
100
AcDbEntity
  8
0
100
AcDbLine
 10
82.801295223068
 20
1024.202475396485
 30
0.0
 11
85.121195223068
 21
1022.559475396485
 31
0.0
  0
LINE
  5
14F7
330
1D
100
AcDbEntity
  8
0
100
AcDbLine
 10
87.337795223068
 20
1021.028475396485
 30
0.0
 11
89.453195223068
 21
1019.613475396485
 31
0.0
  0
LINE
  5
14F8
330
1D
100
AcDbEntity
  8
0
100
AcDbLine
 10
85.121195223068
 20
1022.559475396485
 30
0.0
 11
87.337795223068
 21
1021.028475396485
 31
0.0
  0
LINE
  5
14F9
330
1D
100
AcDbEntity
  8
0
100
AcDbLine
 10
80.405295223068
 20
1025.934475396485
 30
0.0
 11
82.801295223068
 21
1024.202475396485
 31
0.0
  0
LINE
  5
14FA
330
1D
100
AcDbEntity
  8
0
100
AcDbLine
 10
67.991395223068
 20
1035.270475396484
 30
0.0
 11
73.010395223068
 21
1031.440475396485
 31
0.0
  0
LINE
  5
14FB
330
1D
100
AcDbEntity
  8
0
100
AcDbLine
 10
78.198795223068
 20
1037.178475396485
 30
0.0
 11
88.612595223068
 21
1027.274475396485
 31
0.0
  0
LINE
  5
14FC
330
1D
100
AcDbEntity
  8
0
100
AcDbLine
 10
67.493095223068
 20
1046.750475396484
 30
0.0
 11
78.198795223068
 21
1037.178475396485
 31
0.0
  0
LINE
  5
14FD
330
1D
100
AcDbEntity
  8
0
100
AcDbLine
 10
88.612595223068
 20
1027.274475396485
 30
0.0
 11
103.222095223068
 21
1012.680475396485
 31
0.0
  0
LINE
  5
14FE
330
1D
100
AcDbEntity
  8
0
100
AcDbLine
 10
89.453195223068
 20
1019.613475396485
 30
0.0
 11
91.375295223068
 21
1018.369475396485
 31
0.0
  0
LINE
  5
14FF
330
1D
100
AcDbEntity
  8
0
100
AcDbLine
 10
62.429395223068
 20
1019.465475396485
 30
0.0
 11
62.911895223068
 21
1018.908475396485
 31
0.0
  0
LINE
  5
1500
330
1D
100
AcDbEntity
  8
0
100
AcDbLine
 10
61.910895223068
 20
1019.924475396485
 30
0.0
 11
62.429395223068
 21
1019.465475396485
 31
0.0
  0
LINE
  5
1501
330
1D
100
AcDbEntity
  8
0
100
AcDbLine
 10
57.302195223068
 20
1017.488475396485
 30
0.0
 11
59.426095223068
 21
1015.110475396485
 31
0.0
  0
LINE
  5
1502
330
1D
100
AcDbEntity
  8
0
100
AcDbLine
 10
91.375295223068
 20
1018.369475396485
 30
0.0
 11
92.920495223068
 21
1017.406475396485
 31
0.0
  0
LINE
  5
1503
330
1D
100
AcDbEntity
  8
0
100
AcDbLine
 10
97.415195223068
 20
1014.801475396485
 30
0.0
 11
100.850808984498
 21
1013.134494195666
 31
0.0
  0
LINE
  5
1504
330
1D
100
AcDbEntity
  8
0
100
AcDbLine
 10
100.850808984498
 20
1013.134494195666
 30
0.0
 11
103.536095223068
 21
1012.206475396485
 31
0.0
  0
LINE
  5
1505
330
1D
100
AcDbEntity
  8
0
100
AcDbLine
 10
141.954095223068
 20
895.368275396485
 30
0.0
 11
143.770559161757
 21
896.388714111354
 31
0.0
  0
LINE
  5
1506
330
1D
100
AcDbEntity
  8
0
100
AcDbLine
 10
143.770559161757
 20
896.388714111354
 30
0.0
 11
163.276022544783
 21
908.576139092427
 31
0.0
  0
LINE
  5
1507
330
1D
100
AcDbEntity
  8
0
100
AcDbLine
 10
163.276022544783
 20
908.576139092427
 30
0.0
 11
164.497095223068
 21
909.376575396485
 31
0.0
  0
LINE
  5
1508
330
1D
100
AcDbEntity
  8
0
100
AcDbLine
 10
101.700362103367
 20
964.382841737976
 30
0.0
 11
101.583095223068
 21
964.812475396485
 31
0.0
  0
LINE
  5
1509
330
1D
100
AcDbEntity
  8
0
100
AcDbLine
 10
103.275477856813
 20
962.189193792308
 30
0.0
 11
103.199095223068
 21
963.065575396485
 31
0.0
  0
LINE
  5
150A
330
1D
100
AcDbEntity
  8
0
100
AcDbLine
 10
103.325751208018
 20
961.158547488076
 30
0.0
 11
103.287095223068
 21
960.287375396485
 31
0.0
  0
LINE
  5
150B
330
1D
100
AcDbEntity
  8
0
100
AcDbLine
 10
97.445895223068
 20
969.438675396485
 30
0.0
 11
96.029378115222
 21
972.269062827538
 31
0.0
  0
LINE
  5
150C
330
1D
100
AcDbEntity
  8
0
100
AcDbLine
 10
96.029378115222
 20
972.269062827538
 30
0.0
 11
94.473875978786
 21
974.851196374021
 31
0.0
  0
LINE
  5
150D
330
1D
100
AcDbEntity
  8
0
100
AcDbLine
 10
91.728895223068
 20
978.599875396485
 30
0.0
 11
93.444427325399
 21
976.145105022916
 31
0.0
  0
LINE
  5
150E
330
1D
100
AcDbEntity
  8
0
100
AcDbLine
 10
93.444427325399
 20
976.145105022916
 30
0.0
 11
94.473875978786
 21
974.851196374021
 31
0.0
  0
LINE
  5
150F
330
1D
100
AcDbEntity
  8
0
100
AcDbLine
 10
87.566595223068
 20
986.111775396485
 30
0.0
 11
87.700595223068
 21
986.048775396485
 31
0.0
  0
LINE
  5
1510
330
1D
100
AcDbEntity
  8
0
100
AcDbLine
 10
87.855346874082
 20
985.972118868161
 30
0.0
 11
88.010376326524
 21
985.894391189395
 31
0.0
  0
LINE
  5
1511
330
1D
100
AcDbEntity
  8
0
100
AcDbLine
 10
88.049895223068
 20
985.831775396485
 30
0.0
 11
88.010376326524
 21
985.894391189395
 31
0.0
  0
LINE
  5
1512
330
1D
100
AcDbEntity
  8
0
100
AcDbLine
 10
88.466864531365
 20
985.61860738139
 30
0.0
 11
88.705222627674
 21
985.4553794277
 31
0.0
  0
LINE
  5
1513
330
1D
100
AcDbEntity
  8
0
100
AcDbLine
 10
89.058911184763
 20
985.206216060329
 30
0.0
 11
89.275295223068
 21
985.027575396485
 31
0.0
  0
LINE
  5
1514
330
1D
100
AcDbEntity
  8
0
100
AcDbLine
 10
89.460227639218
 20
984.880761304592
 30
0.0
 11
89.560795223068
 21
984.802975396485
 31
0.0
  0
LINE
  5
1515
330
1D
100
AcDbEntity
  8
0
100
AcDbLine
 10
101.794375822022
 20
967.772569558056
 30
0.0
 11
102.154095223068
 21
966.928975396485
 31
0.0
  0
LINE
  5
1516
330
1D
100
AcDbEntity
  8
0
100
AcDbLine
 10
101.198813391557
 20
969.09139212963
 30
0.0
 11
99.919295223068
 21
971.478175396485
 31
0.0
  0
LINE
  5
1517
330
1D
100
AcDbEntity
  8
0
100
AcDbLine
 10
82.453095223068
 20
991.652475396485
 30
0.0
 11
82.443095223068
 21
991.680475396485
 31
0.0
  0
LINE
  5
1518
330
1D
100
AcDbEntity
  8
0
100
AcDbLine
 10
82.443095223068
 20
991.680475396485
 30
0.0
 11
82.66515629301
 21
993.227642254263
 31
0.0
  0
LINE
  5
1519
330
1D
100
AcDbEntity
  8
0
100
AcDbLine
 10
82.66515629301
 20
993.227642254263
 30
0.0
 11
83.025355151784
 21
995.912042894831
 31
0.0
  0
LINE
  5
151A
330
1D
100
AcDbEntity
  8
0
100
AcDbLine
 10
83.025355151784
 20
995.912042894831
 30
0.0
 11
83.176910472732
 21
997.917236371985
 31
0.0
  0
LINE
  5
151B
330
1D
100
AcDbEntity
  8
0
100
AcDbLine
 10
83.176910472732
 20
997.917236371985
 30
0.0
 11
83.193122553575
 21
998.877538291661
 31
0.0
  0
LINE
  5
151C
330
1D
100
AcDbEntity
  8
0
100
AcDbLine
 10
83.193122553575
 20
998.877538291661
 30
0.0
 11
83.099321719548
 21
1000.206383440377
 31
0.0
  0
LINE
  5
151D
330
1D
100
AcDbEntity
  8
0
100
AcDbLine
 10
83.099321719548
 20
1000.206383440377
 30
0.0
 11
82.896086579156
 21
1001.519595116754
 31
0.0
  0
LINE
  5
151E
330
1D
100
AcDbEntity
  8
0
100
AcDbLine
 10
82.896086579156
 20
1001.519595116754
 30
0.0
 11
82.411448936683
 21
1002.98914151651
 31
0.0
  0
LINE
  5
151F
330
1D
100
AcDbEntity
  8
0
100
AcDbLine
 10
82.411448936683
 20
1002.98914151651
 30
0.0
 11
81.911177821873
 21
1004.099118052496
 31
0.0
  0
LINE
  5
1520
330
1D
100
AcDbEntity
  8
0
100
AcDbLine
 10
81.911177821873
 20
1004.099118052496
 30
0.0
 11
81.332739345373
 21
1005.162194171469
 31
0.0
  0
LINE
  5
1521
330
1D
100
AcDbEntity
  8
0
100
AcDbLine
 10
81.332739345373
 20
1005.162194171469
 30
0.0
 11
80.535432256144
 21
1006.272170707455
 31
0.0
  0
LINE
  5
1522
330
1D
100
AcDbEntity
  8
0
100
AcDbLine
 10
80.535432256144
 20
1006.272170707455
 30
0.0
 11
79.91009336263
 21
1007.116378213698
 31
0.0
  0
LINE
  5
1523
330
1D
100
AcDbEntity
  8
0
100
AcDbLine
 10
79.91009336263
 20
1007.116378213698
 30
0.0
 11
78.640719853867
 21
1008.571037795455
 31
0.0
  0
LINE
  5
1524
330
1D
100
AcDbEntity
  8
0
100
AcDbLine
 10
78.640719853867
 20
1008.571037795455
 30
0.0
 11
77.244142562784
 21
1009.94175254411
 31
0.0
  0
LINE
  5
1525
330
1D
100
AcDbEntity
  8
0
100
AcDbLine
 10
77.244142562784
 20
1009.94175254411
 30
0.0
 11
75.563077304999
 21
1011.46764254733
 31
0.0
  0
LINE
  5
1526
330
1D
100
AcDbEntity
  8
0
100
AcDbLine
 10
75.563077304999
 20
1011.46764254733
 30
0.0
 11
73.700974250222
 21
1013.09698272026
 31
0.0
  0
LINE
  5
1527
330
1D
100
AcDbEntity
  8
0
100
AcDbLine
 10
73.700974250222
 20
1013.09698272026
 30
0.0
 11
67.994012694848
 21
1018.035165608663
 31
0.0
  0
LINE
  5
1528
330
1D
100
AcDbEntity
  8
0
100
AcDbLine
 10
67.994012694848
 20
1018.035165608663
 30
0.0
 11
62.393514916472
 21
1022.587441877717
 31
0.0
  0
LINE
  5
1529
330
1D
100
AcDbEntity
  8
0
100
AcDbLine
 10
62.393514916472
 20
1022.587441877717
 30
0.0
 11
54.71315942334
 21
1029.156800058048
 31
0.0
  0
LINE
  5
152A
330
1D
100
AcDbEntity
  8
0
100
AcDbLine
 10
54.71315942334
 20
1029.156800058048
 30
0.0
 11
50.811482079187
 21
1032.538253756315
 31
0.0
  0
LINE
  5
152B
330
1D
100
AcDbEntity
  8
0
100
AcDbLine
 10
50.811482079187
 20
1032.538253756315
 30
0.0
 11
44.507262409294
 21
1037.927523077872
 31
0.0
  0
LINE
  5
152C
330
1D
100
AcDbEntity
  8
0
100
AcDbLine
 10
44.507262409294
 20
1037.927523077872
 30
0.0
 11
32.232401482269
 21
1048.395454632356
 31
0.0
  0
LINE
  5
152D
330
1D
100
AcDbEntity
  8
0
100
AcDbLine
 10
32.232401482269
 20
1048.395454632356
 30
0.0
 11
27.21885317971
 21
1052.627670731918
 31
0.0
  0
LINE
  5
152E
330
1D
100
AcDbEntity
  8
0
100
AcDbLine
 10
27.21885317971
 20
1052.627670731918
 30
0.0
 11
16.949101411519
 21
1061.723104208332
 31
0.0
  0
LINE
  5
152F
330
1D
100
AcDbEntity
  8
0
100
AcDbLine
 10
16.949101411519
 20
1061.723104208332
 30
0.0
 11
5.602184041255
 21
1071.114978383044
 31
0.0
  0
LINE
  5
1530
330
1D
100
AcDbEntity
  8
0
100
AcDbLine
 10
5.602184041255
 20
1071.114978383044
 30
0.0
 11
0.563519251438
 21
1074.926884463583
 31
0.0
  0
LINE
  5
1531
330
1D
100
AcDbEntity
  8
0
100
AcDbLine
 10
68.009708217227
 20
1035.248197245374
 30
0.0
 11
62.955495223069
 21
1039.172475396484
 31
0.0
  0
LINE
  5
1532
330
1D
100
AcDbEntity
  8
0
100
AcDbLine
 10
6.343685223068
 20
1086.533475396485
 30
0.0
 11
11.446807812075
 21
1082.074902479178
 31
0.0
  0
LINE
  5
1533
330
1D
100
AcDbEntity
  8
0
100
AcDbLine
 10
11.446807812075
 20
1082.074902479178
 30
0.0
 11
15.408807900016
 21
1078.813871637564
 31
0.0
  0
LINE
  5
1534
330
1D
100
AcDbEntity
  8
0
100
AcDbLine
 10
15.408807900016
 20
1078.813871637564
 30
0.0
 11
39.356097109505
 21
1058.966860656392
 31
0.0
  0
LINE
  5
1535
330
1D
100
AcDbEntity
  8
0
100
AcDbLine
 10
39.356097109505
 20
1058.966860656392
 30
0.0
 11
53.069195223068
 21
1047.020475396484
 31
0.0
  0
LINE
  5
1536
330
1D
100
AcDbEntity
  8
0
100
AcDbLine
 10
73.010395223068
 20
1031.440475396485
 30
0.0
 11
80.405295223068
 21
1025.934475396485
 31
0.0
  0
LINE
  5
1537
330
1D
100
AcDbEntity
  8
0
100
AcDbLine
 10
82.179695223068
 20
991.980475396485
 30
0.0
 11
82.443095223068
 21
991.680475396485
 31
0.0
  0
LINE
  5
1538
330
1D
100
AcDbEntity
  8
0
100
AcDbLine
 10
3.648255223068
 20
1069.083475396485
 30
0.0
 11
4.062665223068
 21
1068.314475396485
 31
0.0
  0
LINE
  5
1539
330
1D
100
AcDbEntity
  8
0
100
AcDbLine
 10
72.221695223068
 20
1000.061475396485
 30
0.0
 11
72.361269988307
 21
1002.078805169989
 31
0.0
  0
LINE
  5
153A
330
1D
100
AcDbEntity
  8
0
100
AcDbLine
 10
72.361269988307
 20
1002.078805169989
 30
0.0
 11
72.145232561125
 21
1003.69077674204
 31
0.0
  0
LINE
  5
153B
330
1D
100
AcDbEntity
  8
0
100
AcDbLine
 10
72.145232561125
 20
1003.69077674204
 30
0.0
 11
71.580211597726
 21
1005.58525879579
 31
0.0
  0
LINE
  5
153C
330
1D
100
AcDbEntity
  8
0
100
AcDbLine
 10
71.580211597726
 20
1005.58525879579
 30
0.0
 11
70.317223561892
 21
1007.812106122128
 31
0.0
  0
LINE
  5
153D
330
1D
100
AcDbEntity
  8
0
100
AcDbLine
 10
70.317223561892
 20
1007.812106122128
 30
0.0
 11
69.00867037638
 21
1009.725685271379
 31
0.0
  0
LINE
  5
153E
330
1D
100
AcDbEntity
  8
0
100
AcDbLine
 10
69.00867037638
 20
1009.725685271379
 30
0.0
 11
67.977896576287
 21
1010.97613217641
 31
0.0
  0
LINE
  5
153F
330
1D
100
AcDbEntity
  8
0
100
AcDbLine
 10
67.977896576287
 20
1010.97613217641
 30
0.0
 11
66.440184841721
 21
1012.665925291318
 31
0.0
  0
LINE
  5
1540
330
1D
100
AcDbEntity
  8
0
100
AcDbLine
 10
66.440184841721
 20
1012.665925291318
 30
0.0
 11
65.625639946763
 21
1013.512279610451
 31
0.0
  0
LINE
  5
1541
330
1D
100
AcDbEntity
  8
0
100
AcDbLine
 10
65.625639946763
 20
1013.512279610451
 30
0.0
 11
61.412895223068
 21
1017.409475396485
 31
0.0
  0
LINE
  5
1542
330
1D
100
AcDbEntity
  8
0
100
AcDbLine
 10
61.412895223068
 20
1017.409475396485
 30
0.0
 11
60.263795223068
 21
1018.373475396485
 31
0.0
  0
LINE
  5
1543
330
1D
100
AcDbEntity
  8
0
100
AcDbLine
 10
62.887395223068
 20
1008.194475396485
 30
0.0
 11
62.769195223068
 21
1009.010475396485
 31
0.0
  0
LINE
  5
1544
330
1D
100
AcDbEntity
  8
0
100
AcDbLine
 10
66.018195223068
 20
1007.928475396485
 30
0.0
 11
64.873699317824
 21
1008.89796352213
 31
0.0
  0
LINE
  5
1545
330
1D
100
AcDbEntity
  8
0
100
AcDbLine
 10
64.977798006079
 20
1008.812969705743
 30
0.0
 11
65.560721765961
 21
1009.433147991632
 31
0.0
  0
LINE
  5
1546
330
1D
100
AcDbEntity
  8
0
100
AcDbLine
 10
52.288261642226
 20
1022.337209146021
 30
0.0
 11
49.940959231315
 21
1024.621516669631
 31
0.0
  0
LINE
  5
1547
330
1D
100
AcDbEntity
  8
0
100
AcDbLine
 10
49.940959231315
 20
1024.621516669631
 30
0.0
 11
47.18113889169
 21
1026.891462222098
 31
0.0
  0
LINE
  5
1548
330
1D
100
AcDbEntity
  8
0
100
AcDbLine
 10
32.153499277343
 20
1042.792740678736
 30
0.0
 11
25.40855957199
 21
1048.589658904765
 31
0.0
  0
LINE
  5
1549
330
1D
100
AcDbEntity
  8
0
100
AcDbLine
 10
7.579165223068
 20
1062.074475396485
 30
0.0
 11
9.472519596554
 21
1061.173217702257
 31
0.0
  0
LINE
  5
154A
330
1D
100
AcDbEntity
  8
0
100
AcDbLine
 10
9.472519596554
 20
1061.173217702257
 30
0.0
 11
10.450175223068
 21
1060.648475396485
 31
0.0
  0
LINE
  5
154B
330
1D
100
AcDbEntity
  8
0
100
AcDbLine
 10
53.539795223068
 20
1016.667475396485
 30
0.0
 11
53.134095223068
 21
1017.498475396485
 31
0.0
  0
LINE
  5
154C
330
1D
100
AcDbEntity
  8
0
100
AcDbLine
 10
38.772395223068
 20
1026.587475396484
 30
0.0
 11
38.338595223068
 21
1026.929475396485
 31
0.0
  0
LINE
  5
154D
330
1D
100
AcDbEntity
  8
0
100
AcDbLine
 10
35.872395223068
 20
1029.326475396485
 30
0.0
 11
35.459995223068
 21
1029.772475396485
 31
0.0
  0
LINE
  5
154E
330
1D
100
AcDbEntity
  8
0
100
AcDbLine
 10
35.459995223068
 20
1029.772475396485
 30
0.0
 11
35.441895223068
 21
1030.035475396485
 31
0.0
  0
LWPOLYLINE
  5
154F
330
1D
100
AcDbEntity
  8
0
100
AcDbPolyline
 90
        2
 70
     0
 43
0.0
 10
36.313695223068
 20
1028.809475396485
 10
36.750995223068
 20
1028.386475396484
  0
LWPOLYLINE
  5
1550
330
1D
100
AcDbEntity
  8
0
100
AcDbPolyline
 90
        2
 70
     0
 43
0.0
 10
36.967918049377
 20
1028.177106632485
 10
37.362095223068
 20
1027.762475396485
  0
LINE
  5
1551
330
1D
100
AcDbEntity
  8
0
100
AcDbLine
 10
33.822982219237
 20
1031.55256332834
 30
0.0
 11
35.091895223068
 21
1030.418475396485
 31
0.0
  0
LINE
  5
1552
330
1D
100
AcDbEntity
  8
0
100
AcDbLine
 10
41.06393266591
 20
1024.944906496097
 30
0.0
 11
39.063739027814
 21
1026.759099489046
 31
0.0
  0
LINE
  5
1553
330
1D
100
AcDbEntity
  8
0
100
AcDbLine
 10
36.952395223068
 20
1035.877475396484
 30
0.0
 11
30.630395223068
 21
1041.174475396484
 31
0.0
  0
LINE
  5
1554
330
1D
100
AcDbEntity
  8
0
100
AcDbLine
 10
15.297195223068
 20
1052.351475396485
 30
0.0
 11
14.751895223068
 21
1052.434475396485
 31
0.0
  0
LINE
  5
1555
330
1D
100
AcDbEntity
  8
0
100
AcDbLine
 10
23.861395223068
 20
1043.316475396485
 30
0.0
 11
22.982144374352
 21
1043.573590289091
 31
0.0
  0
LINE
  5
1556
330
1D
100
AcDbEntity
  8
0
100
AcDbLine
 10
22.982144374352
 20
1043.573590289091
 30
0.0
 11
22.262495223068
 21
1043.702475396485
 31
0.0
  0
LINE
  5
1557
330
1D
100
AcDbEntity
  8
0
100
AcDbLine
 10
30.739795223068
 20
1035.524475396485
 30
0.0
 11
29.920595223068
 21
1035.565475396485
 31
0.0
  0
ENDSEC
  0
SECTION
  2
OBJECTS
  0
DICTIONARY
  5
C
330
0
100
AcDbDictionary
281
     1
  3
ACAD_GROUP
350
D
  3
ACAD_LAYOUT
350
1A
  3
ACAD_MLEADERSTYLE
350
155A
  3
ACAD_MLINESTYLE
350
17
  3
ACAD_PLOTSETTINGS
350
19
  3
ACAD_PLOTSTYLENAME
350
E
  3
ACAD_SCALELIST
350
CF5
  3
AcDbVariableDictionary
350
1558
  3
DWGPROPS
350
2F2E
  0
DICTIONARY
  5
D
102
{ACAD_REACTORS
330
C
102
}
330
C
100
AcDbDictionary
281
     1
  0
DICTIONARY
  5
1A
102
{ACAD_REACTORS
330
C
102
}
330
C
100
AcDbDictionary
281
     1
  3
Layout1
350
1C
  3
Model
350
1E
  0
DICTIONARY
  5
155A
102
{ACAD_REACTORS
330
C
102
}
330
C
100
AcDbDictionary
281
     1
  0
DICTIONARY
  5
17
102
{ACAD_REACTORS
330
C
102
}
330
C
100
AcDbDictionary
281
     1
  3
Standard
350
18
  0
DICTIONARY
  5
19
102
{ACAD_REACTORS
330
C
102
}
330
C
100
AcDbDictionary
281
     1
  0
ACDBDICTIONARYWDFLT
  5
E
102
{ACAD_REACTORS
330
C
102
}
330
C
100
AcDbDictionary
281
     1
  3
Normal
350
F
100
AcDbDictionaryWithDefault
340
F
  0
DICTIONARY
  5
CF5
102
{ACAD_REACTORS
330
C
102
}
330
C
100
AcDbDictionary
281
     1
  3
A0
350
CF6
  3
A1
350
CF7
  3
A2
350
CF8
  3
A3
350
CF9
  3
A4
350
CFA
  3
A5
350
CFB
  3
A6
350
CFC
  3
A7
350
CFD
  3
A8
350
CFE
  3
A9
350
CFF
  3
B0
350
D00
  3
B1
350
D01
  3
B2
350
D02
  3
B3
350
D03
  3
B4
350
D04
  3
B5
350
D05
  3
B6
350
D06
  3
B7
350
D07
  3
B8
350
D08
  3
B9
350
D09
  3
C0
350
D0A
  3
C1
350
D0B
  3
C2
350
D0C
  3
C3
350
D0D
  3
C4
350
D0E
  3
C5
350
D0F
  3
C6
350
D10
  3
C7
350
D11
  3
C8
350
D12
  3
C9
350
D13
  3
D0
350
D14
  3
D1
350
D15
  3
D2
350
D16
  0
DICTIONARY
  5
1558
102
{ACAD_REACTORS
330
C
102
}
330
C
100
AcDbDictionary
281
     1
  3
CANNOSCALE
350
155B
  0
XRECORD
  5
2F2E
102
{ACAD_REACTORS
330
C
102
}
330
C
100
AcDbXrecord
280
     1
  1
DWGPROPS COOKIE
  2

  3

  4

  6

  7

  8
MARTIN
  9

300
=
301
=
302
=
303
=
304
=
305
=
306
=
307
=
308
=
309
=
 40
0.0
 41
2456213.787689155
 42
2456213.794645
  1

 90
        0
  0
LAYOUT
  5
1C
102
{ACAD_REACTORS
330
1A
102
}
330
1A
100
AcDbPlotSettings
  1

  2
none_device
  4

  6

 40
0.0
 41
0.0
 42
0.0
 43
0.0
 44
0.0
 45
0.0
 46
0.0
 47
0.0
 48
0.0
 49
0.0
140
0.0
141
0.0
142
1.0
143
1.0
 70
   688
 72
     0
 73
     0
 74
     5
  7

 75
    16
147
1.0
148
0.0
149
0.0
100
AcDbLayout
  1
Layout1
 70
     1
 71
     1
 10
0.0
 20
0.0
 11
12.0
 21
9.0
 12
0.0
 22
0.0
 32
0.0
 14
1.000000000000E+20
 24
1.000000000000E+20
 34
1.000000000000E+20
 15
-1.000000000000E+20
 25
-1.000000000000E+20
 35
-1.000000000000E+20
146
0.0
 13
0.0
 23
0.0
 33
0.0
 16
1.0
 26
0.0
 36
0.0
 17
0.0
 27
1.0
 37
0.0
 76
     0
330
1B
  0
LAYOUT
  5
1E
102
{ACAD_REACTORS
330
1A
102
}
330
1A
100
AcDbPlotSettings
  1

  2
none_device
  4

  6

 40
0.0
 41
0.0
 42
0.0
 43
0.0
 44
0.0
 45
0.0
 46
0.0
 47
0.0
 48
0.0
 49
0.0
140
0.0
141
0.0
142
1.0
143
1.0
 70
  1712
 72
     0
 73
     0
 74
     0
  7

 75
     0
147
1.0
148
0.0
149
0.0
100
AcDbLayout
  1
Model
 70
     1
 71
     0
 10
0.0
 20
0.0
 11
12.0
 21
9.0
 12
0.0
 22
0.0
 32
0.0
 14
0.364212223068
 24
199.893
 34
0.0
 15
208.8217
 25
1257.893
 35
0.0
146
0.0
 13
0.0
 23
0.0
 33
0.0
 16
1.0
 26
0.0
 36
0.0
 17
0.0
 27
1.0
 37
0.0
 76
     0
330
1D
331
CF0
  0
MLINESTYLE
  5
18
102
{ACAD_REACTORS
330
17
102
}
330
17
100
AcDbMlineStyle
  2
Standard
 70
     0
  3

 62
   256
 51
90.0
 52
90.0
 71
     2
 49
0.5
 62
   256
  6
BYLAYER
 49
-0.5
 62
   256
  6
BYLAYER
  0
ACDBPLACEHOLDER
  5
F
102
{ACAD_REACTORS
330
E
102
}
330
E
  0
SCALE
  5
CF6
102
{ACAD_REACTORS
330
CF5
102
}
330
CF5
100
AcDbScale
 70
     0
300
1:1
140
1.0
141
1.0
290
     1
  0
SCALE
  5
CF7
102
{ACAD_REACTORS
330
CF5
102
}
330
CF5
100
AcDbScale
 70
     0
300
1:2
140
1.0
141
2.0
290
     0
  0
SCALE
  5
CF8
102
{ACAD_REACTORS
330
CF5
102
}
330
CF5
100
AcDbScale
 70
     0
300
1:4
140
1.0
141
4.0
290
     0
  0
SCALE
  5
CF9
102
{ACAD_REACTORS
330
CF5
102
}
330
CF5
100
AcDbScale
 70
     0
300
1:5
140
1.0
141
5.0
290
     0
  0
SCALE
  5
CFA
102
{ACAD_REACTORS
330
CF5
102
}
330
CF5
100
AcDbScale
 70
     0
300
1:8
140
1.0
141
8.0
290
     0
  0
SCALE
  5
CFB
102
{ACAD_REACTORS
330
CF5
102
}
330
CF5
100
AcDbScale
 70
     0
300
1:10
140
1.0
141
10.0
290
     0
  0
SCALE
  5
CFC
102
{ACAD_REACTORS
330
CF5
102
}
330
CF5
100
AcDbScale
 70
     0
300
1:16
140
1.0
141
16.0
290
     0
  0
SCALE
  5
CFD
102
{ACAD_REACTORS
330
CF5
102
}
330
CF5
100
AcDbScale
 70
     0
300
1:20
140
1.0
141
20.0
290
     0
  0
SCALE
  5
CFE
102
{ACAD_REACTORS
330
CF5
102
}
330
CF5
100
AcDbScale
 70
     0
300
1:30
140
1.0
141
30.0
290
     0
  0
SCALE
  5
CFF
102
{ACAD_REACTORS
330
CF5
102
}
330
CF5
100
AcDbScale
 70
     0
300
1:40
140
1.0
141
40.0
290
     0
  0
SCALE
  5
D00
102
{ACAD_REACTORS
330
CF5
102
}
330
CF5
100
AcDbScale
 70
     0
300
1:50
140
1.0
141
50.0
290
     0
  0
SCALE
  5
D01
102
{ACAD_REACTORS
330
CF5
102
}
330
CF5
100
AcDbScale
 70
     0
300
1:100
140
1.0
141
100.0
290
     0
  0
SCALE
  5
D02
102
{ACAD_REACTORS
330
CF5
102
}
330
CF5
100
AcDbScale
 70
     0
300
2:1
140
2.0
141
1.0
290
     0
  0
SCALE
  5
D03
102
{ACAD_REACTORS
330
CF5
102
}
330
CF5
100
AcDbScale
 70
     0
300
4:1
140
4.0
141
1.0
290
     0
  0
SCALE
  5
D04
102
{ACAD_REACTORS
330
CF5
102
}
330
CF5
100
AcDbScale
 70
     0
300
8:1
140
8.0
141
1.0
290
     0
  0
SCALE
  5
D05
102
{ACAD_REACTORS
330
CF5
102
}
330
CF5
100
AcDbScale
 70
     0
300
10:1
140
10.0
141
1.0
290
     0
  0
SCALE
  5
D06
102
{ACAD_REACTORS
330
CF5
102
}
330
CF5
100
AcDbScale
 70
     0
300
100:1
140
100.0
141
1.0
290
     0
  0
SCALE
  5
D07
102
{ACAD_REACTORS
330
CF5
102
}
330
CF5
100
AcDbScale
 70
     0
300
1/128" = 1'-0"
140
0.0078125
141
12.0
290
     0
  0
SCALE
  5
D08
102
{ACAD_REACTORS
330
CF5
102
}
330
CF5
100
AcDbScale
 70
     0
300
1/64" = 1'-0"
140
0.015625
141
12.0
290
     0
  0
SCALE
  5
D09
102
{ACAD_REACTORS
330
CF5
102
}
330
CF5
100
AcDbScale
 70
     0
300
1/32" = 1'-0"
140
0.03125
141
12.0
290
     0
  0
SCALE
  5
D0A
102
{ACAD_REACTORS
330
CF5
102
}
330
CF5
100
AcDbScale
 70
     0
300
1/16" = 1'-0"
140
0.0625
141
12.0
290
     0
  0
SCALE
  5
D0B
102
{ACAD_REACTORS
330
CF5
102
}
330
CF5
100
AcDbScale
 70
     0
300
3/32" = 1'-0"
140
0.09375
141
12.0
290
     0
  0
SCALE
  5
D0C
102
{ACAD_REACTORS
330
CF5
102
}
330
CF5
100
AcDbScale
 70
     0
300
1/8" = 1'-0"
140
0.125
141
12.0
290
     0
  0
SCALE
  5
D0D
102
{ACAD_REACTORS
330
CF5
102
}
330
CF5
100
AcDbScale
 70
     0
300
3/16" = 1'-0"
140
0.1875
141
12.0
290
     0
  0
SCALE
  5
D0E
102
{ACAD_REACTORS
330
CF5
102
}
330
CF5
100
AcDbScale
 70
     0
300
1/4" = 1'-0"
140
0.25
141
12.0
290
     0
  0
SCALE
  5
D0F
102
{ACAD_REACTORS
330
CF5
102
}
330
CF5
100
AcDbScale
 70
     0
300
3/8" = 1'-0"
140
0.375
141
12.0
290
     0
  0
SCALE
  5
D10
102
{ACAD_REACTORS
330
CF5
102
}
330
CF5
100
AcDbScale
 70
     0
300
1/2" = 1'-0"
140
0.5
141
12.0
290
     0
  0
SCALE
  5
D11
102
{ACAD_REACTORS
330
CF5
102
}
330
CF5
100
AcDbScale
 70
     0
300
3/4" = 1'-0"
140
0.75
141
12.0
290
     0
  0
SCALE
  5
D12
102
{ACAD_REACTORS
330
CF5
102
}
330
CF5
100
AcDbScale
 70
     0
300
1" = 1'-0"
140
1.0
141
12.0
290
     0
  0
SCALE
  5
D13
102
{ACAD_REACTORS
330
CF5
102
}
330
CF5
100
AcDbScale
 70
     0
300
1-1/2" = 1'-0"
140
1.5
141
12.0
290
     0
  0
SCALE
  5
D14
102
{ACAD_REACTORS
330
CF5
102
}
330
CF5
100
AcDbScale
 70
     0
300
3" = 1'-0"
140
3.0
141
12.0
290
     0
  0
SCALE
  5
D15
102
{ACAD_REACTORS
330
CF5
102
}
330
CF5
100
AcDbScale
 70
     0
300
6" = 1'-0"
140
6.0
141
12.0
290
     0
  0
SCALE
  5
D16
102
{ACAD_REACTORS
330
CF5
102
}
330
CF5
100
AcDbScale
 70
     0
300
1'-0" = 1'-0"
140
12.0
141
12.0
290
     0
  0
DICTIONARYVAR
  5
155B
102
{ACAD_REACTORS
330
1558
102
}
330
1558
100
DictionaryVariables
280
     0
  1
1:1
  0
ENDSEC
  0
SECTION
  2
THUMBNAILIMAGE
 90
    16364
310
28000000B40000005500000001000800000000000000000000000000000000000000000000000000FFFFFF000000FF0000FFFF0000FF0000FFFF0000FF000000FF00FF000000000080808000C0C0C0000000FF007F7FFF000000A5005252A50000007F003F3F7F0000004C0026264C000000260013132600003FFF007F9FFF
310
000029A5005267A500001F7F003F4F7F0000134C00262F4C000009260013172600007FFF007FBFFF000052A500527CA500003F7F003F5F7F0000264C0026394C0000132600131C260000BFFF007FDFFF00007CA5005291A500005F7F003F6F7F0000394C0026424C00001C26001321260000FFFF007FFFFF0000A5A50052A5
310
A500007F7F003F7F7F00004C4C00264C4C00002626001326260000FFBF007FFFDF0000A57C0052A59100007F5F003F7F6F00004C3900264C420000261C001326210000FF7F007FFFBF0000A5520052A57C00007F3F003F7F5F00004C2600264C39000026130013261C0000FF3F007FFF9F0000A5290052A56700007F1F003F
310
7F4F00004C1300264C2F00002609001326170000FF00007FFF7F0000A5000052A55200007F00003F7F3F00004C0000264C260000260000132613003FFF00009FFF7F0029A5000067A552001F7F00004F7F3F00134C00002F4C260009260000172613007FFF0000BFFF7F0052A500007CA552003F7F00005F7F3F00264C0000
310
394C2600132600001C261300BFFF0000DFFF7F007CA5000091A552005F7F00006F7F3F00394C0000424C26001C26000021261300FFFF0000FFFF7F00A5A50000A5A552007F7F00007F7F3F004C4C00004C4C26002626000026261300FFBF0000FFDF7F00A57C0000A59152007F5F00007F6F3F004C3900004C422600261C00
310
0026211300FF7F0000FFBF7F00A5520000A57C52007F3F00007F5F3F004C2600004C39260026130000261C1300FF3F0000FF9F7F00A5290000A56752007F1F00007F4F3F004C1300004C2F26002609000026171300FF000000FF7F7F00A5000000A55252007F0000007F3F3F004C0000004C2626002600000026131300FF00
310
3F00FF7F9F00A5002900A55267007F001F007F3F4F004C0013004C262F002600090026131700FF007F00FF7FBF00A5005200A5527C007F003F007F3F5F004C0026004C2639002600130026131C00FF00BF00FF7FDF00A5007C00A55291007F005F007F3F6F004C0039004C26420026001C0026132100FF00FF00FF7FFF00A5
310
00A500A552A5007F007F007F3F7F004C004C004C264C002600260026132600BF00FF00DF7FFF007C00A5009152A5005F007F006F3F7F0039004C0042264C001C002600211326007F00FF00BF7FFF005200A5007C52A5003F007F005F3F7F0026004C0039264C00130026001C1326003F00FF009F7FFF002900A5006752A500
310
1F007F004F3F7F0013004C002F264C000900260017132600000000002D2D2D005B5B5B0089898900B7B7B700B3B3B30000000000000000000000000000000000000000000000000000000000000000000000000000000000000000000000000000000000000000000000000000000000000000000000000000000000000000
310
00000000000000000000000000000000000000070700000000000000000000000000000000000000000000000000000000000000000000000000000000000000000000000000000000000000000000000000000000000000000000000000000000000000000000000000000000000000000000000000000000000000000000
310
00000000000000000000000000000000000000000000000000000000000000000000000000000000000000000000000000000000000000000000000000000000000000000000000007070000000000000000000000000000000000000000000000000000000000000000000000000000000000000000000000000000000000
310
00000000000000000000000000000000000000000000000000000000000000000000000000000000000000000000000000000000000000000000000000000000000000000000000000000000000000000000000000000000000000000000000000000000000000000000000000000000000000000000000000000000000707
310
00000000000000000000000000000000000000000000000000000000000000000000000000000000000000000000000000000000000000000000000000000000000000000000000000000000000000000000000000000000000000000000000000000000000000000000000000000000000000000000000000000000000000
310
00000000000000000000000000000000000000000000000000000000000000000000000000000000000000000000000000000007070000000000000000000000000000000000000000000000000000000000000000000000000000000000000000000000000000000000000000000000000000000000000000000000000000
310
00000000000000000000000000000000000000000000000000000000000000000000000000000000000000000000000000000000000000000000000000000000000000000000000000000000000000000000000000000000000000000000000000000000000000000707000000000000000000000000000000000000000000
310
00000000000000000000000000000000000000000000000000000000000000000000000000000000000000000000000000000000000000000000000000000000000000000000000000000000000000000000000000000000000000000000000000000000000000000000000000000000000000000000000000000000000000
310
00000000000000000000000000000000000000000000000000000000000007070000000000000000000000000000000000000000000000000000000000000000000000000000000000000000000000000000000000000000000000000000000000000000000000000000000000000000000000000000000000000000000000
310
00000000000000000000000000000000000000000000000000000000000000000000000000000000000000000000000000000000000000000000000000000000000000000000000000000000000000000000000707000000000000000000000000000000000000000000000000000000000000000000000000000000000000
310
00000000000000000000000000000000000000000000000000000000000000000000000000000000000000000000000000000000000000000000000000000000000000000000000000000000000000000000000000000000000000000000000000000000000000000000000000000000000000000000000000000000000000
310
00000000000000000007070000000000000000000000000000000000000000000000000000000000000000000000000000000000000000000000000000000000000000000000000000000000000000000000000000000000000000000000000000000000000000000000000000000000000000000000000000000000000000
310
00000000000000000000000000000000000000000000000000000000000000000000000000000000000000000000000000000000000000000000000000000707000000000000000000000000000000000000000000000000000000000000000000000000000000000000000000000000000000000000000000000000000000
310
00000000000000000000000000000000000000000000000000000000000000000000000000000000000000000000000000000000000000000000000000000000000000000000000000000000000000000000000000000000000000000000000000000000000000000000000000000000000000070700000000000000000000
310
00000000000000000000000000000000000000000000000000000000000000000000000000000000000000000000000000000000000000000000000000000000000000000000000000000000000000000000000000000000000000000000000000000000000000000000000000000000000000000000000000000000000000
310
00000000000000000000000000000000000000000000000000000000000000000000000000000000000707000000000000000000000000000000000000000000000000000000000000000000000000000000000000000000000000000000000000000000000000000000000000000000000000000000000000000000000000
310
00000000000000000000000000000000000000000000000000000000000000000000000000000000000000000000000000000000000000000000000000000000000000000000000000000000000000000000000000000000000000000000070700000000000000000000000000000000000000000000000000000000000000
310
00000000000000000000000000000000000000000000000000000000000000000000000000000000000000000000000000000000000000000000000000000000000000000000000000000000000000000000000000000000000000000000000000000000000000000000000000000000000000000000000000000000000000
310
00000000000000000000000000000000000000000707000000000000000000000000000000000000000000000000000000000000000000000000000000000000000000000000000000000000000000000000000000000000000000000000000000000000000000000000000000000000000000000000000000000000000000
310
00000000000000000000000000000000000000000000000000000000000000000000000000000000000000000000000000000000000000000000000000000000000000000000000000070700000000000000000000000000000000000000000000000000000000000000000000000000000000000000000000000000000000
310
00000000000000000000000000000000000000000000000000000000000000000000000000000000000000000000000000000000000000000000000000000000000000000000000000000000000000000000000000000000000000000000000000000000000000000000000000000000000000000000000000000000000007
310
07000000000000000000000000000000000000000000000000000000000000000000000000000000000000000000000000000000000000000000000000000000000000000000000000000000000000000000000000000000000000000000000000000000000000000000000000000000000000000000000000000000000000
310
00000000000000000000000000000000000000000000000000000000000000000000000000000000000000000000000000000000070700000000000000000000000000000000000000000000000000000000000000000000000000000000000000000000000000000000000000000000000000000000000000000000000000
310
00000000000000000000000000000000000000000000000000000000000000000000000000000000000000000000000000000000000000000000000000000000000000000000000000000000000000000000000000000000000000000000000000000000000000000007070000000000000000000000000000000000000000
310
00000000000000000000000000000000000000000000000000000000000000000000000000000000000000000000000000000000000000000000000000000000000000000000000000000000000000000000000000000000000000000000000000000000000000000000000000000000000000000000000000000000000000
310
00000000000000000000000000000000000000000000000000000000070700070700000000000000000000000000000000000000000000000000000000000000000000000000000000000000000000000000000000000000000000000000000000000000000000000000000000000000000000000000000000000000000000
310
00000000000000000000000000000000000000000000000000000000000000000000000000000000000000000000000000000000000000000000000000000000000000000000000000000000000000000007070007070000000000000000000000000000000000000000000000000000000000000000000000000000000000
310
00000000000000000000000000000000000000000000000000000000000000000000000000000000000000000000000000000000000000000000000000000000000000000000000000000000000000000000000000000000000000000000000000000000000000000000000000000000000000000000000000000000000000
310
00000000000000070707070700000000000000000000000000000000000000000000000000000000000000000000000000000000000000000000000000000000000000000000000000000000000000000000000000000000000000000000000000000000000000000000000000000000000000000000000000000000000000
310
00000000000000000000000000000000000000000000000000000000000000000000000000000000000000000000000000000000000000000000000007000007070000000000000000000000000000000000000000000000000000000000000000000000000000000000000000000000000000000000000000000000000000
310
00000000000000000000000000000000000000000000000000000000000000000000000000000000000000000000000000000000000000000000000000000000000000000000000000000000000000000000000000000000000000000000000000000000000000000000000000000000000700000707000000000000000000
310
00000000000000000000000000000000000000000000000000000000000000000000000000000000000000000000000000000000000000000000000000000000000000000000000000000000000000000000000000000000000000000000000000000000000000000000000000000000000000000000000000000000000000
310
00000000000000000000000000000000000000000000000000000000000000000000000000000007000007070000000000000000000000000000000000000000000000000000000000000000000000000000000000000000000000000000000000000000000000000000000000000000000000000000000000000000000000
310
00000000000000000000000000000000000000000000000000000000000000000000000000000000000000000000000000000000000000000000000000000000000000000000000000000000000000000000000000000000000000000707070707000000000000000000000000000000000000000000000000000000000000
310
00000000000000000000000000000000000000000000000000000000000000000000000000000000000000000000000000000000000000000000000000000000000000000000000000000000000000000000000000000000000000000000000000000000000000000000000000000000000000000000000000000000000000
310
00000000000000000000000000000000000007070007070000000000000000000000000000000000000000000000000000000000000000000000000000000000000000000000000000000000000000000000000000000000000000000000000000000000000000000000000000000000000000000000000000000000000000
310
00000000000000000000000000000000000000000000000000000000000000000000000000000000000000000000000000000000000000000000000000000000000000000000000707000707000000000000000000000000000000000000000000000000000000000000000000000000000000000000000000000000000000
310
00000000000000000000000000000000000000000000000000000000000000000000000000000000000000000000000000000000000000000000000000000000000000000000000000000000000000000000000000000000000000000000000000000000000000000000000000000000000000000000000000000000070700
310
07070000000000000000000000000000000000000000000000000000000000000000000000000000000000000000000000000000000000000000000000000000000000000000000000000000000000000000000000000000000000000000000000000000000000000000000000000000000000000000000000000000000000
310
00000000000000000000000000000000000000000000000000000000000000000000000000000000000000000000000000000707000707000000000000000000000000000000000000000000000000000000000000000000000000000000000000000000000000000000000000000000000000000000000000000000000000
310
00000000000000000000000000000000000000000000000000000000000000000000000000000000000000000000000000000000000000000000000000000000000000000000000000000000000000000000000000000000000000000000000000000000000000070700070700000000000000000000000000000000000000
310
00000000000000000000000000000000000000000000000000000000000000000000000000000000000000000000000000000000000000000000000000000000000000000000000000000000000000000000000000000000000000000000000000000000000000000000000000000000000000000000000000000000000000
310
00000000000000000000000000000000000000000000000000000000000707000707000000000000000000000000000000000000000000000000000000000000000000000000000000000000000000000000000000000000000000000000000000000000000000000000000000000000000000000000000000000000000000
310
00000000000000000000000000000000000000000000000000000000000000000000000000000000000000000000000000000000000000000000000000000000000000000000000707070707070707070707070707070700000000000000000000000000000000000000000000000000000000000000000000000000000000
310
00000000000000000000000000000000000000000000000000000000000000000000000000000000000000000000000000000000000000000000000000000000000000000000000000000000000000000000000000000000000000000000000000000000000000000000000000000000000000000000000000000000070000
310
00000000000000070000070707000000000000000000000000000000000000000000000000000000000000000000000000000000000000000000000000000000000000000000000000000000000000000000000000000000000000000000000000000000000000000000000000000000000000000000000000000000000000
310
00000000000000000000000000000000000000000000000000000000000000000000000000000000000000000000000000000707070707070707070707070707070700000000000000000000000000000000000000000000000000000000000000000000000000000000000000000000000000000000000000000000000000
310
00000000000000000000000000000000000000000000000000000000000000000000000000000000000000000000000000000000000000000000000000000000000000000000000000000000000000000000000000000000000000000000000000000000000000000000000000000000000007070007070000000000000000
310
00000000000000000000000000000000000000000000000000000000000000000000000000000000000000000000000000000000000000000000000000000000000000000000000000000000000000000000000000000000000000000000000000000000000000000000000000000000000000000000000000000000000000
310
00000000000000000000000000000000000000000000000000000000000000000000000000000000070700070700000000000000000000000000000000000000000000000000000000000000000000000000000000000000000000000000000000000000000000000000000000000000000000000000000000000000000000
310
00000000000000000000000000000000000000000000000000000000000000000000000000000000000000000000000000000000000000000000000000000000000000000000000000000000000000000000000000000000000000000007070007070000000000000000000000000000000000000000000000000000000000
310
00000000000000000000000000000000000000000000000000000000000000000000000000000000000000000000000000000000000000000000000000000000000000000000000000000000000000000000000000000000000000000000000000000000000000000000000000000000000000000000000000000000000000
310
00000000000000000000000000000000000000070700070700000000000000000000000000000000000000000000000000000000000000000000000000000000000000000000000000000000000000000000000000000000000000000000000000000000000000000000000000000000000000000000000000000000000000
310
00000000000000000000000000000000000000000000000000000000000000000000000000000000000000000000000000000000000000000000000000000000000000000000000007070007070000000000000000000000000000000000000000000000000000000000000000000000000000000000000000000000000000
310
00000000000000000000000000000000000000000000000000000000000000000000000000000000000000000000000000000000000000000000000000000000000000000000000000000000000000000000000000000000000000000000000000000000000000000000000000000000000000000000000000000000000707
310
00070700000000000000000000000000000000000000000000000000000000000000000000000000000000000000000000000000000000000000000000000000000000000000000000000000000000000000000000000000000000000000000000000000000000000000000000000000000000000000000000000000000000
310
00000000000000000000000000000000000000000000000000000000000000000000000000000000000000000000000000000007070007070000000000000000000000000000000000000000000000000000000000000000000000000000000000000000000000000000000000000000000000000000000000000000000000
310
00000000000000000000000000000000000000000000000000000000000000000000000000000000000000000000000000000000000000000000000000000000000000000000000000000000000000000000000000000000000000000000000000000000000000000707000707000000000000000000000000000000000000
310
00000000000000000000000000000000000000000000000000000000000000000000000000000000000000000000000000000000000000000000000000000000000000000000000000000000000000000000000000000000000000000000000000000000000000000000000000000000000000000000000000000000000000
310
00000000000000000000000000000000000000000000000000000000000007070007070000000000000000000000000000000000000000000000000000000000000000000000000000000000000000000000000000000000000000000000000000000000000000000000000000000000000000000000000000000000000000
310
00000000000000000000000000000000000000000000000000000000000000000000000000000000000000000000000000000000000000000000000000000000000000000000000000000000000000000000000707000707000000000000000000000000000000000000000000000000000000000000000000000000000000
310
00000000000000000000000000000000000000000000000000000000000000000000000000000000000000000000000000000000000000000000000000000000000000000000000000000000000000000000000000000000000000000000000000000000000000000000000000000000000000000000000000000000000000
310
00000000000000000007070007070000000000000000000000000000000000000000000000000000000000000000000000000000000000000000000000000000000000000000000000000000000000000000000000000000000000000000000000000000000000000000000000000000000000000000000000000000000000
310
00000000000000000000000000000000000000000000000000000000000000000000000000000000000000000000000000000000000000000000000000000707000707000000000000000000000000000000000000000000000000000000000000000000000000000000000000000000000000000000000000000000000000
310
00000000000000000000000000000000000000000000000000000000000000000000000000000000000000000000000000000000000000000000000000000000000000000000000000000000000000000000000000000000000000000000000000000000000000000000000000000000000000070700070700000000000000
310
00000000000000000000000000000000000000000000000000000000000000000000000000000000000000000000000000000000000000000000000000000000000000000000000000000000000000000000000000000000000000000000000000000000000000000000000000000000000000000000000000000000000000
310
00000000000000000000000000000000000000000000000000000000000000000000000000000000000707000707000000000000000000000000000000000000000000000000000000000000000000000000000000000000000000000000000000000000000000000000000000000000000000000000000000000000000000
310
00000000000000000000000000000000000000000000000000000000000000000000000000000000000000000000000000000000000000000000000000000000000000000000000000000000000000000000000000000000000000000000070700070700000000000000000000000000000000000000000000000000000000
310
00000000000000000000000000000000000000000000000000000000000000000000000000000000000000000000000000000000000000000000000000000000000000000000000000000000000000000000000000000000000000000000000000000000000000000000000000000000000000000000000000000000000000
310
00000000000000000000000000000000000000000707000707000000000000000000000000000000000000000000000000000000000000000000000000000000000000000000000000000000000000000000000000000000000000000000000000000000000000000000000000000000000000000000000000000000000000
310
00000000000000000000000000000000000000000000000000000000000000000000000000000000000000000000000000000000000000000000000000000000000000000000000000070707000700000000000000000000000000000000000000000000000000000000000000000000000000000000000000000000000000
310
00000000000000000000000000000000000000000000000000000000000000000000000000000000000000000000000000000000000000000000000000000000000000000000000000000000000000000000000000000000000000000000000000000000000000000000000000000000000000000000000000000000000000
310
07070007000000000000000000000000000000000000000000000000000000000000000000000000000000000000000000000000000000000000000000000000000000000000000000000000000000000000000000000000000000000000000000000000000000000000000000000000000000000000000000000000000000
310
00000000000000000000000000000000000000000000000000000000000000000000000000000000000000000000000000000000070707000700000000000000000000000000000000000000000000000000000000000000000000000000000000000000000000000000000000000000000000000000000000000000000000
310
00000000000000000000000000000000000000000000000000000000000000000000000000000000000000000000000000000000000000000000000000000000000000000000000000000000000000000000000000000000000000000000000000000000000000000007070707000000000000000000000000000000000000
310
00000000000000000000000000000000000000000000000000000000000000000000000000000000000000000000000000000000000000000000000000000000000000000000000000000000000000000000000000000000000000000000000000000000000000000000000000000000000000000000000000000000000000
310
00000000000000000000000000000000000000000000000000000000000000070700070000000000000000000000000000000000000000000000000000000000000000000000000000000000000000000000000000000000000000000000000000000000000000000000000000000000000000000000000000000000000000
310
00000000000000000000000000000000000000000000000000000000000000000000000000000000000000000000000000000000000000000000000000000000000000000000000000000000000000000000000007070007000000000000000000000000000000000000000000000000000000000000000000000000000000
310
00000000000000000000000000000000000000000000000000000000000000000000000000000000000000000000000000000000000000000000000000000000000000000000000000000000000000000000000000000000000000000000000000000000000000000000000000000000000000000000000000000000000000
310
00000000000000000000070700070000000000000000000000000000000000000000000000000000000000000000000000000000000000000000000000000000000000000000000000000000000000000000000000000000000000000000000000000000000000000000000000000000000000000000000000000000000000
310
00000000000000000000000000000000000000000000000000000000000000000000000000000000000000000000000000000000000000000000000000000007070700000000000000000000000000000000000000000000000000000000000000000000000000000000000000000000000000000000000000000000000000
310
00000000000000000000000000000000000000000000000000000000000000000000000000000000000000000000000000000000000000000000000000000000000000000000000000000000000000000000000000000000000000000000000000000000000000000000000000000000000000070700070000000000000000
310
00000000000000000000000000000000000000000000000000000000000000000000000000000000000000000000000000000000000000000000000000000000000000000000000000000000000000000000000000000000000000000000000000000000000000000000000000000000000000000000000000000000000000
310
00000000000000000000000000000000000000000000000000000000000000000000000000000000000707070700000000000000000000000000000000000000000000000000000000000000000000000000000000000000000000000000000000000000000000000000000000000000000000000000000000000000000000
310
00000000000000000000000000000000000000000000000000000000000000000000000000000000000000000000000000000000000000000000000000000000000000000000000000000000000000000000000000000000000000000000070007070000000000000000000000000000000000000000000000000000000000
310
00000000000000000000000000000000000000000000000000000000000000000000000000000000000000000000000000000000000000000000000000000000000000000000000000000000000000000000000000000000000000000000000000000000000000000000000000000000000000000000000000000000000000
310
00000000000000000000000000000000000000070000070000000000000000000000000000000000000000000000000000000000000000000000000000000000000000000000000000000000000000000000000000000000000000000000000000000000000000000000000000000000000000000000000000000000000000
310
00000000000000000000000000000000000000000000000000000000000000000000000000000000000000000000000000000000000000000000000000000000000000000000000007070707000000000000000000000000000000000000000000000000000000000000000000000000000000000000000000000000000000
310
00000000000000000000000000000000000000000000000000000000000000000000000000000000000000000000000000000000000000000000000000000000000000000000000000000000000000000000000000000000000000000000000000000000000000000000000000000000000000000000000000000000070000
310
07070000000000000000000000000000000000000000000000000000000000000000000000000000000000000000000000000000000000000000000000000000000000000000000000000000000000000000000000000000000000000000000000000000000000000000000000000000000000000000000000000000000000
310
00000000000000000000000000000000000000000000000000000000000000000000000000000000000000000000000000000700070707000000000000000000000000000000000000000000000000000000000000000000000000000000000000000000000000000000000000000000000000000000000000000000000000
310
00000000000000000000000000000000000000000000000000000000000000000000000000000000000000000000000000000000000000000000000000000000000000000000000000000000000000000000000000000000000000000000000000000000000007000007070700000000000000000000000000000000000000
310
00000000000000000000000000000000000000000000000000000000000000000000000000000000000000000000000000000000000000000000000000000000000000000000000000000000000000000000000000000000000000000000000000000000000000000000000000000000000000000000000000000000000000
310
00000000000000000000000000000000000000000000000000000007000007000707000000000000000000000000000000000000000000000000000000000000000000000000000000000000000000000000000000000000000000000000000000000000000000000000000000000000000000000000000000000000000000
310
00000000000000000000000000000000000000000000000000000000000000000000000000000000000000000000000000000000000000000000000000000000000000000000000000000000000000000700070000070700000000000000000000000000000000000000000000000000000000000000000000000000000000
310
00000000000000000000000000000000000000000000000000000000000000000000000000000000000000000000000000000000000000000000000000000000000000000000000000000000000000000000000000000000000000000000000000000000000000000000000000000000000000000000000000000000000000
310
00000000000707000700000707000000000000000000000000000000000000000000000000000000000000000000000000000000000000000000000000000000000000000000000000000000000000000000000000000000000000000000000000000000000000000000000000000000000000000000000000000000000000
310
00000000000000000000000000000000000000000000000000000000000000000000000000000000000000000000000000000000000000000007070007000000070700000000000000000000000000000000000000000000000000000000000000000000000000000000000000000000000000000000000000000000000000
310
00000000000000000000000000000000000000000000000000000000000000000000000000000000000000000000000000000000000000000000000000000000000000000000000000000000000000000000000000000000000000000000000000000000000000000000000000070700000700000007070000000000000000
310
00000000000000000000000000000000000000000000000000000000000000000000000000000000000000000000000000000000000000000000000000000000000000000000000000000000000000000000000000000000000000000000000000000000000000000000000000000000000000000000000000000000000000
310
00000000000000000000000000000000000000000000000000000000000000000000070707000700000000070700000000000000000000000000000000000000000000000000000000000000000000000000000000000000000000000000000000000000000000000000000000000000000000000000000000000000000000
310
00000000000000000000000000000000000000000000000000000000000000000000000000000000000000000000000000000000000000000000000000000000000000000000000000000000000000000000000000000707070707070000000007070000000000000000000000000000000000000000000000000000000000
310
00000000000000000000000000000000000000000000000000000000000000000000000000000000000000000000000000000000000000000000000000000000000000000000000000000000000000000000000000000000000000000000000000000000000000000000000000000000000000000000000000000000000000
310
00000000000000000000000707070707070000000000070700000000000000000000000000000000000000000000000000000000000000000000000000000000000000000000000000000000000000000000000000000000000000000000000000000000000000000000000000000000000000000000000000000000000000
310
00000000000000000000000000000000000000000000000000000000000000000000000000000000000000000000000000000000000000000000000000000007070707070700000000000007070000000000000000000000000000000000000000000000000000000000000000000000000000000000000000000000000000
310
00000000000000000000000000000000000000000000000000000000000000000000000000000000000000000000000000000000000000000000000000000000000000000000000000000000000000000000000000000000000000000000000000000000000000000000000000000000000000070707000700000000000000
310
00070700000000000000000000000000000000000000000000000000000000000000000000000000000000000000000000000000000000000000000000000000000000000000000000000000000000000000000000000000000000000000000000000000000000000000000000000000000000000000000000000000000000
310
00000000000000000000000000000000000000000000000000000000000000000000000000000000070700070700000000000000000007070000000000000000000000000000000000000000000000000000000000000000000000000000000000000000000000000000000000000000000000000000000000000000000000
310
00000000000000000000000000000000000000000000000000000000000000000000000000000000000000000000000000000000000000000000000000000000000000000000000000000000000000000000000000000000000000000007070707000000000000000000000707000000000000000000000000000000000000
310
00000000000000000000000000000000000000000000000000000000000000000000000000000000000000000000000000000000000000000000000000000000000000000000000000000000000000000000000000000000000000000000000000000000000000000000000000000000000000000000000000000000000000
310
00000000000000000000000000000000000000070700000000000000000000000007070707070000000000000000000000000000000000000000000000000000000000000000000000000000000000000000000000000000000000000000000000000000000000000000000000000000000000000000000000000000000000
310
00000000000000000000000000000000000000000000000000000000000000000000000000000000000000000000000000000000000000000000000000000000000000000000000000000000000000000000000000000700000007000000000000000000000000000000000000000000000000000000000000000000000000
310
00000000000000000000000000000000000000000000000000000000000000000000000000000000000000000000000000000000000000000000000000000000000000000000000000000000000000000000000000000000000000000000000000000000000000000000000000000000000000000000000000000000000000
310
00000000000000000000000007000000070000000000000000000000000000000000000000000000000000000000000000000000000000000000000000000000000000000000000000000000000000000000000000000000000000000000000000000000000000000000000000000000000000000000000000000000000000
310
00000000000000000000000000000000000000000000000000000000000000000000000000000000000000000000000000000000000000000000000000000000000700000007000000000000000000000000000000000000000000000000000000000000000000000000000000000000000000000000000000000000000000
310
00000000000000000000000000000000000000000000000000000000000000000000000000000000000000000000000000000000000000000000000000000000000000000000000000000000000000000000000000000000000000000000000000000000000000000000000000000000000000000000070707070700000000
310
00000000000000000000000000000000000000000000000000000000000000000000000000000000000000000000000000000000000000000000000000000000000000000000000000000000000000000000000000000000000000000000000000000000000000000000000000000000000000000000000000000000000000
310
00000000000000000000000000000000000000000000000000000000000000000000000000000000000000000707000000000000000000000000000000000000000000000000000000000000000000000000000000000000000000000000000000000000000000000000000000000000000000000000000000000000000000
310
00000000000000000000000000000000000000000000000000000000000000000000000000000000000000000000000000000000000000000000000000000000000000000000000000000000000000000000000000000000000000000000000000070700000000000000000000000000000000000000000000000000000000
310
00000000000000000000000000000000000000000000000000000000000000000000000000000000000000000000000000000000000000000000000000000000000000000000000000000000000000000000000000000000000000000000000000000000000000000000000000000000000000000000000000000000000000
310
000000000000000000000000000000000000000000000000000000000000000000000000000000000000000000000000000000000000000000000000000000000000000000000000000000000000000000000000000000000000000000000000000000000000000000000000
  0
ENDSEC
  0
EOF
