  0
SECTION
  2
HEADER
  9
$ACADVER
  1
AC1015
  9
$ACADMAINTVER
 70
     6
  9
$DWGCODEPAGE
  3
ANSI_1252
  9
$INSBASE
 10
0.0
 20
0.0
 30
0.0
  9
$EXTMIN
 10
-38.081141426729
 20
0.0
 30
0.0
  9
$EXTMAX
 10
231.0
 20
179.34
 30
0.0
  9
$LIMMIN
 10
0.0
 20
0.0
  9
$LIMMAX
 10
12.0
 20
9.0
  9
$ORTHOMODE
 70
     0
  9
$REGENMODE
 70
     1
  9
$FILLMODE
 70
     1
  9
$QTEXTMODE
 70
     0
  9
$MIRRTEXT
 70
     1
  9
$LTSCALE
 40
1.0
  9
$ATTMODE
 70
     1
  9
$TEXTSIZE
 40
0.2
  9
$TRACEWID
 40
0.05
  9
$TEXTSTYLE
  7
Standard
  9
$CLAYER
  8
0
  9
$CELTYPE
  6
Continuous
  9
$CECOLOR
 62
   256
  9
$CELTSCALE
 40
1.0
  9
$DISPSILH
 70
     0
  9
$DIMSCALE
 40
1.0
  9
$DIMASZ
 40
0.18
  9
$DIMEXO
 40
0.0625
  9
$DIMDLI
 40
0.38
  9
$DIMRND
 40
0.0
  9
$DIMDLE
 40
0.0
  9
$DIMEXE
 40
0.18
  9
$DIMTP
 40
0.0
  9
$DIMTM
 40
0.0
  9
$DIMTXT
 40
0.18
  9
$DIMCEN
 40
0.09
  9
$DIMTSZ
 40
0.0
  9
$DIMTOL
 70
     0
  9
$DIMLIM
 70
     0
  9
$DIMTIH
 70
     1
  9
$DIMTOH
 70
     1
  9
$DIMSE1
 70
     0
  9
$DIMSE2
 70
     0
  9
$DIMTAD
 70
     0
  9
$DIMZIN
 70
     0
  9
$DIMBLK
  1

  9
$DIMASO
 70
     1
  9
$DIMSHO
 70
     1
  9
$DIMPOST
  1

  9
$DIMAPOST
  1

  9
$DIMALT
 70
     0
  9
$DIMALTD
 70
     2
  9
$DIMALTF
 40
25.4
  9
$DIMLFAC
 40
1.0
  9
$DIMTOFL
 70
     0
  9
$DIMTVP
 40
0.0
  9
$DIMTIX
 70
     0
  9
$DIMSOXD
 70
     0
  9
$DIMSAH
 70
     0
  9
$DIMBLK1
  1

  9
$DIMBLK2
  1

  9
$DIMSTYLE
  2
Standard
  9
$DIMCLRD
 70
     0
  9
$DIMCLRE
 70
     0
  9
$DIMCLRT
 70
     0
  9
$DIMTFAC
 40
1.0
  9
$DIMGAP
 40
0.09
  9
$DIMJUST
 70
     0
  9
$DIMSD1
 70
     0
  9
$DIMSD2
 70
     0
  9
$DIMTOLJ
 70
     1
  9
$DIMTZIN
 70
     0
  9
$DIMALTZ
 70
     0
  9
$DIMALTTZ
 70
     0
  9
$DIMUPT
 70
     0
  9
$DIMDEC
 70
     4
  9
$DIMTDEC
 70
     4
  9
$DIMALTU
 70
     2
  9
$DIMALTTD
 70
     2
  9
$DIMTXSTY
  7
Standard
  9
$DIMAUNIT
 70
     0
  9
$DIMADEC
 70
     0
  9
$DIMALTRND
 40
0.0
  9
$DIMAZIN
 70
     0
  9
$DIMDSEP
 70
    46
  9
$DIMATFIT
 70
     3
  9
$DIMFRAC
 70
     0
  9
$DIMLDRBLK
  1

  9
$DIMLUNIT
 70
     2
  9
$DIMLWD
 70
    -2
  9
$DIMLWE
 70
    -2
  9
$DIMTMOVE
 70
     0
  9
$LUNITS
 70
     2
  9
$LUPREC
 70
     4
  9
$SKETCHINC
 40
0.1
  9
$FILLETRAD
 40
0.0
  9
$AUNITS
 70
     0
  9
$AUPREC
 70
     0
  9
$MENU
  1
.
  9
$ELEVATION
 40
0.0
  9
$PELEVATION
 40
0.0
  9
$THICKNESS
 40
0.0
  9
$LIMCHECK
 70
     0
  9
$CHAMFERA
 40
0.0
  9
$CHAMFERB
 40
0.0
  9
$CHAMFERC
 40
0.0
  9
$CHAMFERD
 40
0.0
  9
$SKPOLY
 70
     0
  9
$TDCREATE
 40
2455655.862912141
  9
$TDUCREATE
 40
2455655.779578808
  9
$TDUPDATE
 40
2456213.93214735
  9
$TDUUPDATE
 40
2456213.848814016
  9
$TDINDWG
 40
0.005333125
  9
$TDUSRTIMER
 40
0.005333125
  9
$USRTIMER
 70
     1
  9
$ANGBASE
 50
0.0
  9
$ANGDIR
 70
     0
  9
$PDMODE
 70
     0
  9
$PDSIZE
 40
0.0
  9
$PLINEWID
 40
0.0
  9
$SPLFRAME
 70
     0
  9
$SPLINETYPE
 70
     6
  9
$SPLINESEGS
 70
     8
  9
$HANDSEED
  5
F30
  9
$SURFTAB1
 70
     6
  9
$SURFTAB2
 70
     6
  9
$SURFTYPE
 70
     6
  9
$SURFU
 70
     6
  9
$SURFV
 70
     6
  9
$UCSBASE
  2

  9
$UCSNAME
  2

  9
$UCSORG
 10
0.0
 20
0.0
 30
0.0
  9
$UCSXDIR
 10
1.0
 20
0.0
 30
0.0
  9
$UCSYDIR
 10
0.0
 20
1.0
 30
0.0
  9
$UCSORTHOREF
  2

  9
$UCSORTHOVIEW
 70
     1
  9
$UCSORGTOP
 10
0.0
 20
0.0
 30
0.0
  9
$UCSORGBOTTOM
 10
0.0
 20
0.0
 30
0.0
  9
$UCSORGLEFT
 10
0.0
 20
0.0
 30
0.0
  9
$UCSORGRIGHT
 10
0.0
 20
0.0
 30
0.0
  9
$UCSORGFRONT
 10
0.0
 20
0.0
 30
0.0
  9
$UCSORGBACK
 10
0.0
 20
0.0
 30
0.0
  9
$PUCSBASE
  2

  9
$PUCSNAME
  2

  9
$PUCSORG
 10
0.0
 20
0.0
 30
0.0
  9
$PUCSXDIR
 10
1.0
 20
0.0
 30
0.0
  9
$PUCSYDIR
 10
0.0
 20
1.0
 30
0.0
  9
$PUCSORTHOREF
  2

  9
$PUCSORTHOVIEW
 70
     0
  9
$PUCSORGTOP
 10
0.0
 20
0.0
 30
0.0
  9
$PUCSORGBOTTOM
 10
0.0
 20
0.0
 30
0.0
  9
$PUCSORGLEFT
 10
0.0
 20
0.0
 30
0.0
  9
$PUCSORGRIGHT
 10
0.0
 20
0.0
 30
0.0
  9
$PUCSORGFRONT
 10
0.0
 20
0.0
 30
0.0
  9
$PUCSORGBACK
 10
0.0
 20
0.0
 30
0.0
  9
$USERI1
 70
     0
  9
$USERI2
 70
     0
  9
$USERI3
 70
     0
  9
$USERI4
 70
     0
  9
$USERI5
 70
     0
  9
$USERR1
 40
0.0
  9
$USERR2
 40
0.0
  9
$USERR3
 40
0.0
  9
$USERR4
 40
0.0
  9
$USERR5
 40
0.0
  9
$WORLDVIEW
 70
     1
  9
$SHADEDGE
 70
     3
  9
$SHADEDIF
 70
    70
  9
$TILEMODE
 70
     1
  9
$MAXACTVP
 70
    64
  9
$PINSBASE
 10
0.0
 20
0.0
 30
0.0
  9
$PLIMCHECK
 70
     0
  9
$PEXTMIN
 10
1.000000000000E+20
 20
1.000000000000E+20
 30
1.000000000000E+20
  9
$PEXTMAX
 10
-1.000000000000E+20
 20
-1.000000000000E+20
 30
-1.000000000000E+20
  9
$PLIMMIN
 10
0.0
 20
0.0
  9
$PLIMMAX
 10
12.0
 20
9.0
  9
$UNITMODE
 70
     0
  9
$VISRETAIN
 70
     1
  9
$PLINEGEN
 70
     0
  9
$PSLTSCALE
 70
     1
  9
$TREEDEPTH
 70
  3020
  9
$CMLSTYLE
  2
Standard
  9
$CMLJUST
 70
     0
  9
$CMLSCALE
 40
1.0
  9
$PROXYGRAPHICS
 70
     1
  9
$MEASUREMENT
 70
     0
  9
$CELWEIGHT
370
    -1
  9
$ENDCAPS
280
     0
  9
$JOINSTYLE
280
     0
  9
$LWDISPLAY
290
     0
  9
$INSUNITS
 70
     0
  9
$HYPERLINKBASE
  1

  9
$STYLESHEET
  1

  9
$XEDIT
290
     1
  9
$CEPSNTYPE
380
     0
  9
$PSTYLEMODE
290
     1
  9
$FINGERPRINTGUID
  2
{19AC2363-6B1B-4717-AC89-00479FEC8032}
  9
$VERSIONGUID
  2
{9ADFF3B9-DD4E-487D-8E3B-B5BB12D63447}
  9
$EXTNAMES
290
     1
  9
$PSVPSCALE
 40
0.0
  9
$OLESTARTUP
290
     0
  0
ENDSEC
  0
SECTION
  2
CLASSES
  0
CLASS
  1
ACDBDICTIONARYWDFLT
  2
AcDbDictionaryWithDefault
  3
ObjectDBX Classes
 90
        0
280
     0
281
     0
  0
CLASS
  1
ACDBPLACEHOLDER
  2
AcDbPlaceHolder
  3
ObjectDBX Classes
 90
        0
280
     0
281
     0
  0
CLASS
  1
LAYOUT
  2
AcDbLayout
  3
ObjectDBX Classes
 90
        0
280
     0
281
     0
  0
CLASS
  1
DICTIONARYVAR
  2
AcDbDictionaryVar
  3
ObjectDBX Classes
 90
        0
280
     0
281
     0
  0
CLASS
  1
SCALE
  2
AcDbScale
  3
ObjectDBX Classes
 90
     1153
280
     0
281
     0
  0
ENDSEC
  0
SECTION
  2
TABLES
  0
TABLE
  2
VPORT
  5
8
330
0
100
AcDbSymbolTable
 70
     1
  0
VPORT
  5
4F5
330
8
100
AcDbSymbolTableRecord
100
AcDbViewportTableRecord
  2
*Active
 70
     0
 10
0.0
 20
0.0
 11
1.0
 21
1.0
 12
96.459429286635
 22
89.67
 13
0.0
 23
0.0
 14
1.0
 24
1.0
 15
0.0
 25
0.0
 16
0.0
 26
0.0
 36
1.0
 17
0.0
 27
0.0
 37
0.0
 40
182.9268
 41
1.863448275862
 42
50.0
 43
0.0
 44
0.0
 50
0.0
 51
0.0
 71
    16
 72
   100
 73
     1
 74
     3
 75
     0
 76
     0
 77
     0
 78
     0
281
     0
 65
     1
110
0.0
120
0.0
130
0.0
111
1.0
121
0.0
131
0.0
112
0.0
122
1.0
132
0.0
 79
     1
146
0.0
  0
ENDTAB
  0
TABLE
  2
LTYPE
  5
5
330
0
100
AcDbSymbolTable
 70
     1
  0
LTYPE
  5
13
330
5
100
AcDbSymbolTableRecord
100
AcDbLinetypeTableRecord
  2
ByBlock
 70
     0
  3

 72
    65
 73
     0
 40
0.0
  0
LTYPE
  5
14
330
5
100
AcDbSymbolTableRecord
100
AcDbLinetypeTableRecord
  2
ByLayer
 70
     0
  3

 72
    65
 73
     0
 40
0.0
  0
LTYPE
  5
15
330
5
100
AcDbSymbolTableRecord
100
AcDbLinetypeTableRecord
  2
Continuous
 70
     0
  3
Solid line
 72
    65
 73
     0
 40
0.0
  0
ENDTAB
  0
TABLE
  2
LAYER
  5
2
330
0
100
AcDbSymbolTable
 70
     1
  0
LAYER
  5
10
330
2
100
AcDbSymbolTableRecord
100
AcDbLayerTableRecord
  2
0
 70
     0
 62
     7
  6
Continuous
370
    -3
390
F
  0
ENDTAB
  0
TABLE
  2
STYLE
  5
3
330
0
100
AcDbSymbolTable
 70
     1
  0
STYLE
  5
11
330
3
100
AcDbSymbolTableRecord
100
AcDbTextStyleTableRecord
  2
Standard
 70
     0
 40
0.0
 41
1.0
 50
0.0
 71
     0
 42
0.2
  3
txt
  4

  0
ENDTAB
  0
TABLE
  2
VIEW
  5
6
330
0
100
AcDbSymbolTable
 70
     0
  0
ENDTAB
  0
TABLE
  2
UCS
  5
7
330
0
100
AcDbSymbolTable
 70
     0
  0
ENDTAB
  0
TABLE
  2
APPID
  5
9
330
0
100
AcDbSymbolTable
 70
     1
  0
APPID
  5
12
330
9
100
AcDbSymbolTableRecord
100
AcDbRegAppTableRecord
  2
ACAD
 70
     0
  0
ENDTAB
  0
TABLE
  2
DIMSTYLE
  5
A
330
0
100
AcDbSymbolTable
 70
     1
100
AcDbDimStyleTable
  0
DIMSTYLE
105
4EC
330
A
100
AcDbSymbolTableRecord
100
AcDbDimStyleTableRecord
  2
Standard
 70
     0
340
11
  0
ENDTAB
  0
TABLE
  2
BLOCK_RECORD
  5
1
330
0
100
AcDbSymbolTable
 70
     1
  0
BLOCK_RECORD
  5
1E
330
1
100
AcDbSymbolTableRecord
100
AcDbBlockTableRecord
  2
*Model_Space
340
21
  0
BLOCK_RECORD
  5
1A
330
1
100
AcDbSymbolTableRecord
100
AcDbBlockTableRecord
  2
*Paper_Space
340
1D
  0
ENDTAB
  0
ENDSEC
  0
SECTION
  2
BLOCKS
  0
BLOCK
  5
1F
330
1E
100
AcDbEntity
  8
0
100
AcDbBlockBegin
  2
*Model_Space
 70
     0
 10
0.0
 20
0.0
 30
0.0
  3
*Model_Space
  1
*Model_Space
  0
ENDBLK
  5
20
330
1E
100
AcDbEntity
  8
0
100
AcDbBlockEnd
  0
BLOCK
  5
1B
330
1A
100
AcDbEntity
 67
     1
  8
0
100
AcDbBlockBegin
  2
*Paper_Space
 70
     0
 10
0.0
 20
0.0
 30
0.0
  3
*Paper_Space
  1
*Paper_Space
  0
ENDBLK
  5
1C
330
1A
100
AcDbEntity
 67
     1
  8
0
100
AcDbBlockEnd
  0
ENDSEC
  0
SECTION
  2
ENTITIES
  0
LINE
  5
2D
330
1E
100
AcDbEntity
  8
0
100
AcDbLine
 10
162.3
 20
0.0
 30
0.0
 11
165.7
 21
0.0
 31
0.0
  0
LINE
  5
3A
330
1E
100
AcDbEntity
  8
0
100
AcDbLine
 10
165.7
 20
0.0
 30
0.0
 11
166.72
 21
0.0
 31
0.0
  0
LINE
  5
3B
330
1E
100
AcDbEntity
  8
0
100
AcDbLine
 10
165.7
 20
0.0
 30
0.0
 11
171.3
 21
0.0
 31
0.0
  0
LINE
  5
3C
330
1E
100
AcDbEntity
  8
0
100
AcDbLine
 10
165.62
 20
0.0
 30
0.0
 11
166.72
 21
0.0
 31
0.0
  0
LINE
  5
3D
330
1E
100
AcDbEntity
  8
0
100
AcDbLine
 10
162.26
 20
0.0
 30
0.0
 11
165.62
 21
0.0
 31
0.0
  0
LINE
  5
40
330
1E
100
AcDbEntity
  8
0
100
AcDbLine
 10
42.122
 20
135.349
 30
0.0
 11
42.307596080983
 21
135.262635460131
 31
0.0
  0
LINE
  5
44
330
1E
100
AcDbEntity
  8
0
100
AcDbLine
 10
43.6303
 20
134.646
 30
0.0
 11
43.841504238881
 21
135.099044587188
 31
0.0
  0
LINE
  5
45
330
1E
100
AcDbEntity
  8
0
100
AcDbLine
 10
43.450427840939
 20
134.729749999986
 30
0.0
 11
43.8156
 21
134.559
 31
0.0
  0
LINE
  5
46
330
1E
100
AcDbEntity
  8
0
100
AcDbLine
 10
43.450427840939
 20
134.729749999986
 30
0.0
 11
43.8156
 21
134.559
 31
0.0
  0
LINE
  5
47
330
1E
100
AcDbEntity
  8
0
100
AcDbLine
 10
43.8156
 20
134.559
 30
0.0
 11
44.6094
 21
134.189
 31
0.0
  0
LINE
  5
4C
330
1E
100
AcDbEntity
  8
0
100
AcDbLine
 10
42.3073
 20
135.262
 30
0.0
 11
43.6303
 21
134.646
 31
0.0
  0
LINE
  5
4D
330
1E
100
AcDbEntity
  8
0
100
AcDbLine
 10
42.3073
 20
135.262
 30
0.0
 11
42.729995986905
 21
136.169206010703
 31
0.0
  0
LINE
  5
4E
330
1E
100
AcDbEntity
  8
0
100
AcDbLine
 10
42.3073
 20
135.262
 30
0.0
 11
43.450427840939
 21
134.729749999986
 31
0.0
  0
LINE
  5
4F
330
1E
100
AcDbEntity
  8
0
100
AcDbLine
 10
42.3073
 20
135.262
 30
0.0
 11
43.450427840939
 21
134.729749999986
 31
0.0
  0
LINE
  5
50
330
1E
100
AcDbEntity
  8
0
100
AcDbLine
 10
43.8416
 20
135.099
 30
0.0
 11
44.052804266598
 21
135.552044646643
 31
0.0
  0
LINE
  5
57
330
1E
100
AcDbEntity
  8
0
100
AcDbLine
 10
39.7801
 20
136.441
 30
0.0
 11
40.0977
 21
136.293
 31
0.0
  0
LINE
  5
58
330
1E
100
AcDbEntity
  8
0
100
AcDbLine
 10
39.6611
 20
136.496
 30
0.0
 11
39.7801
 21
136.441
 31
0.0
  0
LINE
  5
59
330
1E
100
AcDbEntity
  8
0
100
AcDbLine
 10
39.6611
 20
136.496
 30
0.0
 11
40.0837
 21
137.403
 31
0.0
  0
LINE
  5
5C
330
1E
100
AcDbEntity
  8
0
100
AcDbLine
 10
42.5186
 20
135.715
 30
0.0
 11
43.8416
 21
135.099
 31
0.0
  0
LINE
  5
5D
330
1E
100
AcDbEntity
  8
0
100
AcDbLine
 10
42.5186
 20
135.715
 30
0.0
 11
42.730091380095
 21
136.168910747151
 31
0.0
  0
LINE
  5
5E
330
1E
100
AcDbEntity
  8
0
100
AcDbLine
 10
44.0529
 20
135.552
 30
0.0
 11
44.4754524053
 21
136.458397906779
 31
0.0
  0
LINE
  5
5F
330
1E
100
AcDbEntity
  8
0
100
AcDbLine
 10
44.053020416731
 20
135.552258300441
 30
0.0
 11
44.9129
 21
135.151
 31
0.0
  0
LINE
  5
60
330
1E
100
AcDbEntity
  8
0
100
AcDbLine
 10
44.052671970402
 20
135.551760864101
 30
0.0
 11
44.2382
 21
135.465
 31
0.0
  0
LINE
  5
61
330
1E
100
AcDbEntity
  8
0
100
AcDbLine
 10
42.7299
 20
136.169
 30
0.0
 11
44.0529
 21
135.552
 31
0.0
  0
LINE
  5
62
330
1E
100
AcDbEntity
  8
0
100
AcDbLine
 10
42.7299
 20
136.169
 30
0.0
 11
42.941487200205
 21
136.622866060071
 31
0.0
  0
LINE
  5
63
330
1E
100
AcDbEntity
  8
0
100
AcDbLine
 10
41.3281
 20
135.72
 30
0.0
 11
42.122
 21
135.349
 31
0.0
  0
LINE
  5
64
330
1E
100
AcDbEntity
  8
0
100
AcDbLine
 10
40.627
 20
136.046
 30
0.0
 11
41.3281
 21
135.72
 31
0.0
  0
LINE
  5
65
330
1E
100
AcDbEntity
  8
0
100
AcDbLine
 10
40.0977
 20
136.293
 30
0.0
 11
40.627
 21
136.046
 31
0.0
  0
LINE
  5
69
330
1E
100
AcDbEntity
  8
0
100
AcDbLine
 10
52.4502
 20
131.084
 30
0.0
 11
52.821833886792
 21
131.881174913339
 31
0.0
  0
LINE
  5
6A
330
1E
100
AcDbEntity
  8
0
100
AcDbLine
 10
51.6067
 20
130.926
 30
0.0
 11
51.817844732284
 21
131.378863361684
 31
0.0
  0
LINE
  5
6B
330
1E
100
AcDbEntity
  8
0
100
AcDbLine
 10
51.127
 20
131.701
 30
0.0
 11
52.4502
 21
131.084
 31
0.0
  0
LINE
  5
6C
330
1E
100
AcDbEntity
  8
0
100
AcDbLine
 10
51.127
 20
131.701
 30
0.0
 11
51.338323682523
 21
132.154247174275
 31
0.0
  0
LINE
  5
6D
330
1E
100
AcDbEntity
  8
0
100
AcDbLine
 10
50.8234
 20
132.394
 30
0.0
 11
52.1464
 21
131.778
 31
0.0
  0
LINE
  5
6E
330
1E
100
AcDbEntity
  8
0
100
AcDbLine
 10
50.8234
 20
132.394
 30
0.0
 11
51.218878995205
 21
133.242892317244
 31
0.0
  0
LINE
  5
6F
330
1E
100
AcDbEntity
  8
0
100
AcDbLine
 10
50.8234
 20
132.394
 30
0.0
 11
51.044095727872
 21
132.867721512672
 31
0.0
  0
LINE
  5
70
330
1E
100
AcDbEntity
  8
0
100
AcDbLine
 10
51.6969
 20
132.539
 30
0.0
 11
53.0199
 21
131.922
 31
0.0
  0
LINE
  5
71
330
1E
100
AcDbEntity
  8
0
100
AcDbLine
 10
51.6969
 20
132.539
 30
0.0
 11
51.966447707138
 21
133.117194501942
 31
0.0
  0
LINE
  5
72
330
1E
100
AcDbEntity
  8
0
100
AcDbLine
 10
52.1464
 20
131.778
 30
0.0
 11
52.357537810396
 21
132.230902094472
 31
0.0
  0
LINE
  5
73
330
1E
100
AcDbEntity
  8
0
100
AcDbLine
 10
53.0199
 20
131.922
 30
0.0
 11
53.231334866148
 21
132.375539295228
 31
0.0
  0
LINE
  5
74
330
1E
100
AcDbEntity
  8
0
100
AcDbLine
 10
53.3783
 20
132.307
 30
0.0
 11
53.801007725208
 21
133.213123740774
 31
0.0
  0
LINE
  5
75
330
1E
100
AcDbEntity
  8
0
100
AcDbLine
 10
52.0553
 20
132.924
 30
0.0
 11
53.3783
 21
132.307
 31
0.0
  0
LINE
  5
76
330
1E
100
AcDbEntity
  8
0
100
AcDbLine
 10
52.0553
 20
132.924
 30
0.0
 11
52.477946182823
 21
133.829991817432
 31
0.0
  0
LINE
  5
77
330
1E
100
AcDbEntity
  8
0
100
AcDbLine
 10
50.461
 20
131.46
 30
0.0
 11
51.6067
 21
130.926
 31
0.0
  0
LINE
  5
78
330
1E
100
AcDbEntity
  8
0
100
AcDbLine
 10
49.7994
 20
131.769
 30
0.0
 11
50.9452
 21
131.235
 31
0.0
  0
LINE
  5
79
330
1E
100
AcDbEntity
  8
0
100
AcDbLine
 10
49.7994
 20
131.769
 30
0.0
 11
50.222217981787
 21
132.67546732489
 31
0.0
  0
LINE
  5
7A
330
1E
100
AcDbEntity
  8
0
100
AcDbLine
 10
49.7994
 20
131.769
 30
0.0
 11
50.461
 21
131.46
 31
0.0
  0
LINE
  5
7B
330
1E
100
AcDbEntity
  8
0
100
AcDbLine
 10
50.9452
 20
131.235
 30
0.0
 11
51.6067
 21
130.926
 31
0.0
  0
LINE
  5
7C
330
1E
100
AcDbEntity
  8
0
100
AcDbLine
 10
50.9452
 20
131.235
 30
0.0
 11
51.156230995614
 21
131.687369767009
 31
0.0
  0
LINE
  5
7D
330
1E
100
AcDbEntity
  8
0
100
AcDbLine
 10
53.4468
 20
131.171
 30
0.0
 11
54.0422
 21
130.894
 31
0.0
  0
LINE
  5
7E
330
1E
100
AcDbEntity
  8
0
100
AcDbLine
 10
53.4468
 20
131.171
 30
0.0
 11
54.0422
 21
130.894
 31
0.0
  0
LINE
  5
7F
330
1E
100
AcDbEntity
  8
0
100
AcDbLine
 10
54.5714
 20
130.647
 30
0.0
 11
54.836
 21
130.524
 31
0.0
  0
LINE
  5
80
330
1E
100
AcDbEntity
  8
0
100
AcDbLine
 10
54.9682
 20
130.462
 30
0.0
 11
57.145599162199
 21
129.573497847927
 31
0.0
  0
LINE
  5
81
330
1E
100
AcDbEntity
  8
0
100
AcDbLine
 10
49.1468
 20
133.176
 30
0.0
 11
50.4037
 21
132.591
 31
0.0
  0
LINE
  5
82
330
1E
100
AcDbEntity
  8
0
100
AcDbLine
 10
49.1468
 20
133.176
 30
0.0
 11
50.222217981787
 21
132.67546732489
 31
0.0
  0
LINE
  5
83
330
1E
100
AcDbEntity
  8
0
100
AcDbLine
 10
46.2764
 20
133.412
 30
0.0
 11
46.698891108375
 21
134.317766550373
 31
0.0
  0
LINE
  5
84
330
1E
100
AcDbEntity
  8
0
100
AcDbLine
 10
44.6094
 20
134.189
 30
0.0
 11
45.3105
 21
133.863
 31
0.0
  0
LINE
  5
85
330
1E
100
AcDbEntity
  8
0
100
AcDbLine
 10
45.3105
 20
133.863
 30
0.0
 11
45.8399
 21
133.616
 31
0.0
  0
LINE
  5
86
330
1E
100
AcDbEntity
  8
0
100
AcDbLine
 10
46.698891108375
 20
134.317766550373
 30
0.0
 11
47.8237
 21
133.793
 31
0.0
  0
LINE
  5
87
330
1E
100
AcDbEntity
  8
0
100
AcDbLine
 10
47.8237
 20
133.793
 30
0.0
 11
49.1468
 21
133.176
 31
0.0
  0
LINE
  5
88
330
1E
100
AcDbEntity
  8
0
100
AcDbLine
 10
46.3683
 20
134.472
 30
0.0
 11
47.8237
 21
133.793
 31
0.0
  0
LINE
  5
89
330
1E
100
AcDbEntity
  8
0
100
AcDbLine
 10
46.495065442951
 20
134.41285905197
 30
0.0
 11
46.63370782494
 21
134.3481770557
 31
0.0
  0
LINE
  5
8A
330
1E
100
AcDbEntity
  8
0
100
AcDbLine
 10
46.495065442951
 20
134.41285905197
 30
0.0
 11
46.58
 21
134.373
 31
0.0
  0
LINE
  5
8B
330
1E
100
AcDbEntity
  8
0
100
AcDbLine
 10
46.495065442951
 20
134.41285905197
 30
0.0
 11
46.58
 21
134.373
 31
0.0
  0
LINE
  5
8C
330
1E
100
AcDbEntity
  8
0
100
AcDbLine
 10
46.495065442951
 20
134.41285905197
 30
0.0
 11
46.63370782494
 21
134.3481770557
 31
0.0
  0
LINE
  5
8D
330
1E
100
AcDbEntity
  8
0
100
AcDbLine
 10
46.58
 20
134.373
 30
0.0
 11
46.63370782494
 21
134.3481770557
 31
0.0
  0
LINE
  5
8E
330
1E
100
AcDbEntity
  8
0
100
AcDbLine
 10
45.8399
 20
133.616
 30
0.0
 11
46.1573
 21
133.467
 31
0.0
  0
LINE
  5
8F
330
1E
100
AcDbEntity
  8
0
100
AcDbLine
 10
46.1573
 20
133.467
 30
0.0
 11
46.2764
 21
133.412
 31
0.0
  0
LINE
  5
90
330
1E
100
AcDbEntity
  8
0
100
AcDbLine
 10
55.4828
 20
132.429
 30
0.0
 11
61.3043
 21
129.715
 31
0.0
  0
LINE
  5
91
330
1E
100
AcDbEntity
  8
0
100
AcDbLine
 10
44.9129
 20
135.151
 30
0.0
 11
46.3683
 21
134.472
 31
0.0
  0
LINE
  5
92
330
1E
100
AcDbEntity
  8
0
100
AcDbLine
 10
44.2382
 20
135.465
 30
0.0
 11
45.0321
 21
135.095
 31
0.0
  0
LINE
  5
93
330
1E
100
AcDbEntity
  8
0
100
AcDbLine
 10
45.0321
 20
135.095
 30
0.0
 11
45.282047784456
 21
134.97877838007
 31
0.0
  0
LINE
  5
94
330
1E
100
AcDbEntity
  8
0
100
AcDbLine
 10
45.0321
 20
135.095
 30
0.0
 11
45.282047784456
 21
134.97877838007
 31
0.0
  0
LINE
  5
95
330
1E
100
AcDbEntity
  8
0
100
AcDbLine
 10
49.9921
 20
134.989
 30
0.0
 11
55.4828
 21
132.429
 31
0.0
  0
LINE
  5
96
330
1E
100
AcDbEntity
  8
0
100
AcDbLine
 10
58.7069
 20
128.167
 30
0.0
 11
59.8528
 21
127.632
 31
0.0
  0
LINE
  5
97
330
1E
100
AcDbEntity
  8
0
100
AcDbLine
 10
58.7069
 20
128.167
 30
0.0
 11
59.021010986206
 21
128.840785160898
 31
0.0
  0
LINE
  5
98
330
1E
100
AcDbEntity
  8
0
100
AcDbLine
 10
58.693
 20
128.173
 30
0.0
 11
59.062895709879
 21
128.966352563599
 31
0.0
  0
LINE
  5
99
330
1E
100
AcDbEntity
  8
0
100
AcDbLine
 10
58.9904
 20
128.587
 30
0.0
 11
60.3134
 21
127.97
 31
0.0
  0
LINE
  5
9A
330
1E
100
AcDbEntity
  8
0
100
AcDbLine
 10
58.9904
 20
128.587
 30
0.0
 11
59.311207966853
 21
129.27468962018
 31
0.0
  0
LINE
  5
9B
330
1E
100
AcDbEntity
  8
0
100
AcDbLine
 10
57.5472
 20
128.707
 30
0.0
 11
58.693
 21
128.173
 31
0.0
  0
LINE
  5
9C
330
1E
100
AcDbEntity
  8
0
100
AcDbLine
 10
56.8857
 20
129.016
 30
0.0
 11
58.0314
 21
128.482
 31
0.0
  0
LINE
  5
9D
330
1E
100
AcDbEntity
  8
0
100
AcDbLine
 10
56.8857
 20
129.016
 30
0.0
 11
57.227600136006
 21
129.749394399643
 31
0.0
  0
LINE
  5
9E
330
1E
100
AcDbEntity
  8
0
100
AcDbLine
 10
56.8857
 20
129.016
 30
0.0
 11
57.5472
 21
128.707
 31
0.0
  0
LINE
  5
9F
330
1E
100
AcDbEntity
  8
0
100
AcDbLine
 10
56.8857
 20
129.016
 30
0.0
 11
57.149283802108
 21
129.581401601068
 31
0.0
  0
LINE
  5
A0
330
1E
100
AcDbEntity
  8
0
100
AcDbLine
 10
58.0314
 20
128.482
 30
0.0
 11
58.693
 21
128.173
 31
0.0
  0
LINE
  5
A1
330
1E
100
AcDbEntity
  8
0
100
AcDbLine
 10
58.0314
 20
128.482
 30
0.0
 11
58.406529136924
 21
129.286133439142
 31
0.0
  0
LINE
  5
A2
330
1E
100
AcDbEntity
  8
0
100
AcDbLine
 10
66.2447
 20
125.204
 30
0.0
 11
66.299741038987
 21
125.178302333661
 31
0.0
  0
LINE
  5
A3
330
1E
100
AcDbEntity
  8
0
100
AcDbLine
 10
66.2447
 20
125.204
 30
0.0
 11
66.507710333844
 21
125.76810473827
 31
0.0
  0
LINE
  5
A4
330
1E
100
AcDbEntity
  8
0
100
AcDbLine
 10
66.2996
 20
125.178
 30
0.0
 11
67.4453
 21
124.644
 31
0.0
  0
LINE
  5
A5
330
1E
100
AcDbEntity
  8
0
100
AcDbLine
 10
66.2996
 20
125.178
 30
0.0
 11
66.511033616
 21
125.631232831175
 31
0.0
  0
LINE
  5
A6
330
1E
100
AcDbEntity
  8
0
100
AcDbLine
 10
66.2996
 20
125.178
 30
0.0
 11
66.9611
 21
124.869
 31
0.0
  0
LINE
  5
A7
330
1E
100
AcDbEntity
  8
0
100
AcDbLine
 10
65.7792
 20
125.42
 30
0.0
 11
66.10995963324
 21
126.129888753782
 31
0.0
  0
LINE
  5
A8
330
1E
100
AcDbEntity
  8
0
100
AcDbLine
 10
65.1176
 20
125.729
 30
0.0
 11
65.7792
 21
125.42
 31
0.0
  0
LINE
  5
A9
330
1E
100
AcDbEntity
  8
0
100
AcDbLine
 10
65.1176
 20
125.729
 30
0.0
 11
65.480094752533
 21
126.506570972955
 31
0.0
  0
LINE
  5
AA
330
1E
100
AcDbEntity
  8
0
100
AcDbLine
 10
60.3134
 20
127.97
 30
0.0
 11
60.524847371276
 21
128.423262317227
 31
0.0
  0
LINE
  5
AB
330
1E
100
AcDbEntity
  8
0
100
AcDbLine
 10
60.4525
 20
128.457
 30
0.0
 11
61.7756
 21
127.84
 31
0.0
  0
LINE
  5
AC
330
1E
100
AcDbEntity
  8
0
100
AcDbLine
 10
60.4525
 20
128.457
 30
0.0
 11
60.788168818039
 21
129.17663073626
 31
0.0
  0
LINE
  5
AD
330
1E
100
AcDbEntity
  8
0
100
AcDbLine
 10
60.4525
 20
128.457
 30
0.0
 11
60.734550666826
 21
129.061680322159
 31
0.0
  0
LINE
  5
AE
330
1E
100
AcDbEntity
  8
0
100
AcDbLine
 10
60.5143
 20
127.324
 30
0.0
 11
60.871232913225
 21
128.089731122562
 31
0.0
  0
LINE
  5
AF
330
1E
100
AcDbEntity
  8
0
100
AcDbLine
 10
59.8528
 20
127.632
 30
0.0
 11
60.5143
 21
127.324
 31
0.0
  0
LINE
  5
B0
330
1E
100
AcDbEntity
  8
0
100
AcDbLine
 10
59.8528
 20
127.632
 30
0.0
 11
60.064488534336
 21
128.086083427297
 31
0.0
  0
LINE
  5
B1
330
1E
100
AcDbEntity
  8
0
100
AcDbLine
 10
58.994258785374
 20
128.819140042451
 30
0.0
 11
59.081992664347
 21
128.783339651953
 31
0.0
  0
LINE
  5
B2
330
1E
100
AcDbEntity
  8
0
100
AcDbLine
 10
61.7756
 20
127.84
 30
0.0
 11
61.986766126566
 21
128.292659436104
 31
0.0
  0
LINE
  5
B3
330
1E
100
AcDbEntity
  8
0
100
AcDbLine
 10
62.134
 20
128.224
 30
0.0
 11
62.556728670733
 21
129.130776005726
 31
0.0
  0
LINE
  5
B4
330
1E
100
AcDbEntity
  8
0
100
AcDbLine
 10
60.8109
 20
128.841
 30
0.0
 11
62.134
 21
128.224
 31
0.0
  0
LINE
  5
B5
330
1E
100
AcDbEntity
  8
0
100
AcDbLine
 10
60.8109
 20
128.841
 30
0.0
 11
61.233735313024
 21
129.747897459496
 31
0.0
  0
LINE
  5
B6
330
1E
100
AcDbEntity
  8
0
100
AcDbLine
 10
63.9718
 20
126.264
 30
0.0
 11
65.1176
 21
125.729
 31
0.0
  0
LINE
  5
B7
330
1E
100
AcDbEntity
  8
0
100
AcDbLine
 10
63.9718
 20
126.264
 30
0.0
 11
64.300899586081
 21
126.969936523385
 31
0.0
  0
LINE
  5
B8
330
1E
100
AcDbEntity
  8
0
100
AcDbLine
 10
63.9718
 20
126.264
 30
0.0
 11
64.182343252439
 21
126.715626735296
 31
0.0
  0
LINE
  5
B9
330
1E
100
AcDbEntity
  8
0
100
AcDbLine
 10
60.587486639703
 20
128.169012862332
 30
0.0
 11
64.177048172336
 21
126.704268500291
 31
0.0
  0
LINE
  5
BA
330
1E
100
AcDbEntity
  8
0
100
AcDbLine
 10
60.587486639703
 20
128.169012862332
 30
0.0
 11
64.177048172336
 21
126.704268500291
 31
0.0
  0
LINE
  5
BB
330
1E
100
AcDbEntity
  8
0
100
AcDbLine
 10
66.02603915949
 20
125.949775479549
 30
0.0
 11
66.532501502662
 21
125.743110165414
 31
0.0
  0
LINE
  5
BC
330
1E
100
AcDbEntity
  8
0
100
AcDbLine
 10
58.994258785374
 20
128.819140042451
 30
0.0
 11
59.081992664347
 21
128.783339651953
 31
0.0
  0
LINE
  5
BD
330
1E
100
AcDbEntity
  8
0
100
AcDbLine
 10
62.556728670733
 20
129.130776005726
 30
0.0
 11
63.823408830284
 21
128.539904078587
 31
0.0
  0
LINE
  5
BE
330
1E
100
AcDbEntity
  8
0
100
AcDbLine
 10
66.4858
 20
125.643
 30
0.0
 11
67.8089
 21
125.026
 31
0.0
  0
LINE
  5
BF
330
1E
100
AcDbEntity
  8
0
100
AcDbLine
 10
66.4858
 20
125.643
 30
0.0
 11
66.775606416471
 21
126.264234149587
 31
0.0
  0
LINE
  5
C0
330
1E
100
AcDbEntity
  8
0
100
AcDbLine
 10
66.9611
 20
124.869
 30
0.0
 11
68.107
 21
124.335
 31
0.0
  0
LINE
  5
C1
330
1E
100
AcDbEntity
  8
0
100
AcDbLine
 10
66.4643
 20
127.308
 30
0.0
 11
71.3597
 21
125.025
 31
0.0
  0
LINE
  5
C2
330
1E
100
AcDbEntity
  8
0
100
AcDbLine
 10
60.5104
 20
130.085
 30
0.0
 11
63.823408830286
 21
128.539904078586
 31
0.0
  0
LINE
  5
C3
330
1E
100
AcDbEntity
  8
0
100
AcDbLine
 10
61.3043
 20
129.715
 30
0.0
 11
66.4643
 21
127.308
 31
0.0
  0
LINE
  5
C4
330
1E
100
AcDbEntity
  8
0
100
AcDbLine
 10
68.107
 20
124.335
 30
0.0
 11
68.430448792739
 21
125.028815264121
 31
0.0
  0
LINE
  5
C5
330
1E
100
AcDbEntity
  8
0
100
AcDbLine
 10
69.4919
 20
124.793
 30
0.0
 11
69.914491548044
 21
125.698981880095
 31
0.0
  0
LINE
  5
C6
330
1E
100
AcDbEntity
  8
0
100
AcDbLine
 10
69.4919
 20
124.793
 30
0.0
 11
69.900628726487
 21
125.669261775195
 31
0.0
  0
LINE
  5
C7
330
1E
100
AcDbEntity
  8
0
100
AcDbLine
 10
67.4453
 20
124.644
 30
0.0
 11
68.107
 21
124.335
 31
0.0
  0
LINE
  5
C8
330
1E
100
AcDbEntity
  8
0
100
AcDbLine
 10
67.4453
 20
124.644
 30
0.0
 11
67.656628931113
 21
125.097008426803
 31
0.0
  0
LINE
  5
C9
330
1E
100
AcDbEntity
  8
0
100
AcDbLine
 10
71.058
 20
123.511
 30
0.0
 11
72.2038
 21
122.977
 31
0.0
  0
LINE
  5
CA
330
1E
100
AcDbEntity
  8
0
100
AcDbLine
 10
71.058
 20
123.511
 30
0.0
 11
71.386240591073
 21
124.215093932342
 31
0.0
  0
LINE
  5
CB
330
1E
100
AcDbEntity
  8
0
100
AcDbLine
 10
71.058
 20
123.511
 30
0.0
 11
71.208972878759
 21
123.834845041635
 31
0.0
  0
LINE
  5
CC
330
1E
100
AcDbEntity
  8
0
100
AcDbLine
 10
67.8089
 20
125.026
 30
0.0
 11
68.161837849571
 21
125.782563803884
 31
0.0
  0
LINE
  5
CD
330
1E
100
AcDbEntity
  8
0
100
AcDbLine
 10
68.1687
 20
125.41
 30
0.0
 11
69.4919
 21
124.793
 31
0.0
  0
LINE
  5
CE
330
1E
100
AcDbEntity
  8
0
100
AcDbLine
 10
68.1687
 20
125.41
 30
0.0
 11
68.591364217102
 21
126.31603047603
 31
0.0
  0
LINE
  5
CF
330
1E
100
AcDbEntity
  8
0
100
AcDbLine
 10
68.1687
 20
125.41
 30
0.0
 11
68.530474513275
 21
126.18550623217
 31
0.0
  0
LINE
  5
D0
330
1E
100
AcDbEntity
  8
0
100
AcDbLine
 10
68.406879483767
 20
124.978257813617
 30
0.0
 11
71.208972878759
 21
123.834845041635
 31
0.0
  0
LINE
  5
D1
330
1E
100
AcDbEntity
  8
0
100
AcDbLine
 10
84.3493
 20
117.865
 30
0.0
 11
85.0108
 21
117.556
 31
0.0
  0
LINE
  5
D2
330
1E
100
AcDbEntity
  8
0
100
AcDbLine
 10
84.277000000015
 20
117.898767673234
 30
0.0
 11
85.0882
 21
117.52
 31
0.0
  0
LINE
  5
D3
330
1E
100
AcDbEntity
  8
0
100
AcDbLine
 10
84.199600000009
 20
117.934767673237
 30
0.0
 11
85.0108
 21
117.556
 31
0.0
  0
LINE
  5
D4
330
1E
100
AcDbEntity
  8
0
100
AcDbLine
 10
84.199600000009
 20
117.934767673237
 30
0.0
 11
85.0108
 21
117.556
 31
0.0
  0
LINE
  5
D5
330
1E
100
AcDbEntity
  8
0
100
AcDbLine
 10
84.277000000015
 20
117.898767673234
 30
0.0
 11
85.0882
 21
117.52
 31
0.0
  0
LINE
  5
D6
330
1E
100
AcDbEntity
  8
0
100
AcDbLine
 10
85.0882
 20
117.52
 30
0.0
 11
85.478954428689
 21
118.358090357521
 31
0.0
  0
LINE
  5
D7
330
1E
100
AcDbEntity
  8
0
100
AcDbLine
 10
84.4267
 20
117.829
 30
0.0
 11
85.0882
 21
117.52
 31
0.0
  0
LINE
  5
D8
330
1E
100
AcDbEntity
  8
0
100
AcDbLine
 10
84.4267
 20
117.829
 30
0.0
 11
84.796301293093
 21
118.621283855535
 31
0.0
  0
LINE
  5
D9
330
1E
100
AcDbEntity
  8
0
100
AcDbLine
 10
86.5089
 20
117.961
 30
0.0
 11
86.9058
 21
117.776
 31
0.0
  0
LINE
  5
DA
330
1E
100
AcDbEntity
  8
0
100
AcDbLine
 10
87.303
 20
117.591
 30
0.0
 11
88.427
 21
117.067
 31
0.0
  0
LINE
  5
DB
330
1E
100
AcDbEntity
  8
0
100
AcDbLine
 10
88.427
 20
117.067
 30
0.0
 11
88.891
 21
116.851
 31
0.0
  0
LINE
  5
DC
330
1E
100
AcDbEntity
  8
0
100
AcDbLine
 10
88.891
 20
116.851
 30
0.0
 11
89.975
 21
117.448
 31
0.0
  0
LINE
  5
DD
330
1E
100
AcDbEntity
  8
0
100
AcDbLine
 10
83.2035
 20
118.399
 30
0.0
 11
84.3493
 21
117.865
 31
0.0
  0
LINE
  5
DE
330
1E
100
AcDbEntity
  8
0
100
AcDbLine
 10
83.2809
 20
118.363
 30
0.0
 11
84.4267
 21
117.829
 31
0.0
  0
LINE
  5
DF
330
1E
100
AcDbEntity
  8
0
100
AcDbLine
 10
83.3207
 20
118.345
 30
0.0
 11
83.74328285997
 21
119.250963253983
 31
0.0
  0
LINE
  5
E0
330
1E
100
AcDbEntity
  8
0
100
AcDbLine
 10
81.2272
 20
119.321
 30
0.0
 11
81.513458295073
 21
119.187339511377
 31
0.0
  0
LINE
  5
E1
330
1E
100
AcDbEntity
  8
0
100
AcDbLine
 10
81.2272
 20
119.321
 30
0.0
 11
81.473061118311
 21
119.848032232792
 31
0.0
  0
LINE
  5
E2
330
1E
100
AcDbEntity
  8
0
100
AcDbLine
 10
81.2272
 20
119.321
 30
0.0
 11
81.513436648896
 21
119.187293084643
 31
0.0
  0
LINE
  5
E3
330
1E
100
AcDbEntity
  8
0
100
AcDbLine
 10
81.834576558607
 20
119.037282151762
 30
0.0
 11
81.8887
 21
119.012
 31
0.0
  0
LINE
  5
E4
330
1E
100
AcDbEntity
  8
0
100
AcDbLine
 10
81.8887
 20
119.012
 30
0.0
 11
82.031734461823
 21
118.945344617669
 31
0.0
  0
LINE
  5
E5
330
1E
100
AcDbEntity
  8
0
100
AcDbLine
 10
81.834576558607
 20
119.037282151762
 30
0.0
 11
81.8887
 21
119.012
 31
0.0
  0
LINE
  5
E6
330
1E
100
AcDbEntity
  8
0
100
AcDbLine
 10
81.965908046417
 20
118.976080463578
 30
0.0
 11
82.373
 21
118.786
 31
0.0
  0
LINE
  5
E7
330
1E
100
AcDbEntity
  8
0
100
AcDbLine
 10
81.965908046416
 20
118.976080463578
 30
0.0
 11
82.373
 21
118.786
 31
0.0
  0
LINE
  5
E8
330
1E
100
AcDbEntity
  8
0
100
AcDbLine
 10
82.373
 20
118.786
 30
0.0
 11
83.0346
 21
118.478
 31
0.0
  0
LINE
  5
E9
330
1E
100
AcDbEntity
  8
0
100
AcDbLine
 10
81.5133
 20
119.187
 30
0.0
 11
82.6592
 21
118.653
 31
0.0
  0
LINE
  5
EA
330
1E
100
AcDbEntity
  8
0
100
AcDbLine
 10
81.5133
 20
119.187
 30
0.0
 11
81.875445659611
 21
119.963730250651
 31
0.0
  0
LINE
  5
EB
330
1E
100
AcDbEntity
  8
0
100
AcDbLine
 10
82.6592
 20
118.653
 30
0.0
 11
83.3207
 21
118.345
 31
0.0
  0
LINE
  5
EC
330
1E
100
AcDbEntity
  8
0
100
AcDbLine
 10
82.6592
 20
118.653
 30
0.0
 11
83.063038320957
 21
119.519255177348
 31
0.0
  0
LINE
  5
ED
330
1E
100
AcDbEntity
  8
0
100
AcDbLine
 10
79.9516
 20
119.916
 30
0.0
 11
80.347145931264
 21
120.763899239856
 31
0.0
  0
LINE
  5
EE
330
1E
100
AcDbEntity
  8
0
100
AcDbLine
 10
79.9516
 20
119.916
 30
0.0
 11
80.154495220903
 21
120.350929776736
 31
0.0
  0
LINE
  5
EF
330
1E
100
AcDbEntity
  8
0
100
AcDbLine
 10
79.2901
 20
120.224
 30
0.0
 11
79.9516
 21
119.916
 31
0.0
  0
LINE
  5
F0
330
1E
100
AcDbEntity
  8
0
100
AcDbLine
 10
79.2901
 20
120.224
 30
0.0
 11
79.712524181409
 21
121.130015664137
 31
0.0
  0
LINE
  5
F1
330
1E
100
AcDbEntity
  8
0
100
AcDbLine
 10
82.9366
 20
119.627
 30
0.0
 11
85.3843
 21
118.486
 31
0.0
  0
LINE
  5
F2
330
1E
100
AcDbEntity
  8
0
100
AcDbLine
 10
85.463953533174
 20
118.325916426882
 30
0.0
 11
86.9058
 21
117.776
 31
0.0
  0
LINE
  5
F3
330
1E
100
AcDbEntity
  8
0
100
AcDbLine
 10
85.511029712343
 20
118.426885447153
 30
0.0
 11
87.303
 21
117.591
 31
0.0
  0
LINE
  5
F4
330
1E
100
AcDbEntity
  8
0
100
AcDbLine
 10
85.3843
 20
118.486
 30
0.0
 11
87.303
 21
117.591
 31
0.0
  0
LINE
  5
F5
330
1E
100
AcDbEntity
  8
0
100
AcDbLine
 10
85.3843
 20
118.486
 30
0.0
 11
86.5089
 21
117.961
 31
0.0
  0
LINE
  5
F6
330
1E
100
AcDbEntity
  8
0
100
AcDbLine
 10
72.8653
 20
122.668
 30
0.0
 11
73.200583967406
 21
123.387117275414
 31
0.0
  0
LINE
  5
F7
330
1E
100
AcDbEntity
  8
0
100
AcDbLine
 10
76.9098
 20
120.782
 30
0.0
 11
77.240667154453
 21
121.491728053744
 31
0.0
  0
LINE
  5
F8
330
1E
100
AcDbEntity
  8
0
100
AcDbLine
 10
76.147297006339
 20
121.13802993682
 30
0.0
 11
76.9098
 21
120.782
 31
0.0
  0
LINE
  5
F9
330
1E
100
AcDbEntity
  8
0
100
AcDbLine
 10
76.147297006339
 20
121.13802993682
 30
0.0
 11
76.9098
 21
120.782
 31
0.0
  0
LINE
  5
FA
330
1E
100
AcDbEntity
  8
0
100
AcDbLine
 10
76.033608824742
 20
121.191018929552
 30
0.0
 11
76.2482
 21
121.091
 31
0.0
  0
LINE
  5
FB
330
1E
100
AcDbEntity
  8
0
100
AcDbLine
 10
76.2482
 20
121.091
 30
0.0
 11
76.9098
 21
120.782
 31
0.0
  0
LINE
  5
FC
330
1E
100
AcDbEntity
  8
0
100
AcDbLine
 10
76.2482
 20
121.091
 30
0.0
 11
76.556660657067
 21
121.752299941558
 31
0.0
  0
LINE
  5
FD
330
1E
100
AcDbEntity
  8
0
100
AcDbLine
 10
76.0336
 20
121.191
 30
0.0
 11
76.391610626439
 21
121.958952278436
 31
0.0
  0
LINE
  5
FE
330
1E
100
AcDbEntity
  8
0
100
AcDbLine
 10
75.0629
 20
121.643
 30
0.0
 11
75.34550913707
 21
121.511414793322
 31
0.0
  0
LINE
  5
FF
330
1E
100
AcDbEntity
  8
0
100
AcDbLine
 10
74.8877
 20
121.725
 30
0.0
 11
75.068300000072
 21
121.640838729349
 31
0.0
  0
LINE
  5
100
330
1E
100
AcDbEntity
  8
0
100
AcDbLine
 10
75.3721
 20
121.499
 30
0.0
 11
76.0336
 21
121.191
 31
0.0
  0
LINE
  5
101
330
1E
100
AcDbEntity
  8
0
100
AcDbLine
 10
75.3721
 20
121.499
 30
0.0
 11
75.583355691719
 21
121.952154956325
 31
0.0
  0
LINE
  5
102
330
1E
100
AcDbEntity
  8
0
100
AcDbLine
 10
78.1442
 20
120.758
 30
0.0
 11
79.2901
 21
120.224
 31
0.0
  0
LINE
  5
103
330
1E
100
AcDbEntity
  8
0
100
AcDbLine
 10
78.1442
 20
120.758
 30
0.0
 11
78.4818578815
 21
121.482294532844
 31
0.0
  0
LINE
  5
104
330
1E
100
AcDbEntity
  8
0
100
AcDbLine
 10
78.1442
 20
120.758
 30
0.0
 11
78.286554212801
 21
121.063357534085
 31
0.0
  0
LINE
  5
105
330
1E
100
AcDbEntity
  8
0
100
AcDbLine
 10
75.5987
 20
121.945
 30
0.0
 11
76.021501564628
 21
122.851932367097
 31
0.0
  0
LINE
  5
106
330
1E
100
AcDbEntity
  8
0
100
AcDbLine
 10
74.5787
 20
121.869
 30
0.0
 11
74.679602993682
 21
121.82197006317
 31
0.0
  0
LINE
  5
107
330
1E
100
AcDbEntity
  8
0
100
AcDbLine
 10
74.5787
 20
121.869
 30
0.0
 11
74.679602993682
 21
121.82197006317
 31
0.0
  0
LINE
  5
108
330
1E
100
AcDbEntity
  8
0
100
AcDbLine
 10
74.2755
 20
122.562
 30
0.0
 11
75.5987
 21
121.945
 31
0.0
  0
LINE
  5
109
330
1E
100
AcDbEntity
  8
0
100
AcDbLine
 10
74.2755
 20
122.562
 30
0.0
 11
74.698291478864
 21
123.468803443961
 31
0.0
  0
LINE
  5
10A
330
1E
100
AcDbEntity
  8
0
100
AcDbLine
 10
74.2755
 20
122.562
 30
0.0
 11
74.585832777755
 21
123.22760194732
 31
0.0
  0
LINE
  5
10B
330
1E
100
AcDbEntity
  8
0
100
AcDbLine
 10
73.9171
 20
122.178
 30
0.0
 11
75.0629
 21
121.643
 31
0.0
  0
LINE
  5
10C
330
1E
100
AcDbEntity
  8
0
100
AcDbLine
 10
73.9171
 20
122.178
 30
0.0
 11
74.14664797834
 21
122.670392906685
 31
0.0
  0
LINE
  5
10D
330
1E
100
AcDbEntity
  8
0
100
AcDbLine
 10
73.9171
 20
122.178
 30
0.0
 11
74.5787
 21
121.869
 31
0.0
  0
LINE
  5
10E
330
1E
100
AcDbEntity
  8
0
100
AcDbLine
 10
74.2262
 20
122.034
 30
0.0
 11
75.3721
 21
121.499
 31
0.0
  0
LINE
  5
10F
330
1E
100
AcDbEntity
  8
0
100
AcDbLine
 10
74.2262
 20
122.034
 30
0.0
 11
74.437313782755
 21
122.486547230986
 31
0.0
  0
LINE
  5
110
330
1E
100
AcDbEntity
  8
0
100
AcDbLine
 10
74.2262
 20
122.034
 30
0.0
 11
74.8877
 21
121.725
 31
0.0
  0
LINE
  5
111
330
1E
100
AcDbEntity
  8
0
100
AcDbLine
 10
76.323187284039
 20
121.812180485047
 30
0.0
 11
78.286554212801
 21
121.063357534085
 31
0.0
  0
LINE
  5
112
330
1E
100
AcDbEntity
  8
0
100
AcDbLine
 10
73.9141
 20
122.731
 30
0.0
 11
74.287835927815
 21
122.588458106151
 31
0.0
  0
LINE
  5
113
330
1E
100
AcDbEntity
  8
0
100
AcDbLine
 10
73.9141
 20
122.731
 30
0.0
 11
74.287835927815
 21
122.588458106151
 31
0.0
  0
LINE
  5
114
330
1E
100
AcDbEntity
  8
0
100
AcDbLine
 10
72.054100000013
 20
123.046767673235
 30
0.0
 11
72.8653
 21
122.668
 31
0.0
  0
LINE
  5
115
330
1E
100
AcDbEntity
  8
0
100
AcDbLine
 10
72.054100000013
 20
123.046767673235
 30
0.0
 11
72.8653
 21
122.668
 31
0.0
  0
LINE
  5
116
330
1E
100
AcDbEntity
  8
0
100
AcDbLine
 10
72.2038
 20
122.977
 30
0.0
 11
72.8653
 21
122.668
 31
0.0
  0
LINE
  5
117
330
1E
100
AcDbEntity
  8
0
100
AcDbLine
 10
72.2038
 20
122.977
 30
0.0
 11
72.568717732044
 21
123.759675793441
 31
0.0
  0
LINE
  5
118
330
1E
100
AcDbEntity
  8
0
100
AcDbLine
 10
73.057621674299
 20
123.080491654447
 30
0.0
 11
73.9141
 21
122.731
 31
0.0
  0
LINE
  5
119
330
1E
100
AcDbEntity
  8
0
100
AcDbLine
 10
74.3367
 20
123.637
 30
0.0
 11
77.132525406505
 21
122.333614799019
 31
0.0
  0
LINE
  5
11A
330
1E
100
AcDbEntity
  8
0
100
AcDbLine
 10
74.3367
 20
123.637
 30
0.0
 11
77.132525406505
 21
122.333614799019
 31
0.0
  0
LINE
  5
11B
330
1E
100
AcDbEntity
  8
0
100
AcDbLine
 10
75.792
 20
122.959
 30
0.0
 11
79.6289
 21
121.169
 31
0.0
  0
LINE
  5
11C
330
1E
100
AcDbEntity
  8
0
100
AcDbLine
 10
80.154495220903
 20
120.350929776736
 30
0.0
 11
81.768895652306
 21
119.735201724395
 31
0.0
  0
LINE
  5
11D
330
1E
100
AcDbEntity
  8
0
100
AcDbLine
 10
80.154495220903
 20
120.350929776736
 30
0.0
 11
81.768895652306
 21
119.735201724395
 31
0.0
  0
LINE
  5
11E
330
1E
100
AcDbEntity
  8
0
100
AcDbLine
 10
79.6289
 20
121.169
 30
0.0
 11
82.9366
 21
119.627
 31
0.0
  0
LINE
  5
11F
330
1E
100
AcDbEntity
  8
0
100
AcDbLine
 10
73.499253329906
 20
124.027703521967
 30
0.0
 11
74.550888743919
 21
123.537511349652
 31
0.0
  0
LINE
  5
120
330
1E
100
AcDbEntity
  8
0
100
AcDbLine
 10
76.6778
 20
123.649
 30
0.0
 11
80.5808
 21
121.829
 31
0.0
  0
LINE
  5
121
330
1E
100
AcDbEntity
  8
0
100
AcDbLine
 10
80.5808
 20
121.829
 30
0.0
 11
83.8885
 21
120.287
 31
0.0
  0
LINE
  5
122
330
1E
100
AcDbEntity
  8
0
100
AcDbLine
 10
83.8885
 20
120.287
 30
0.0
 11
86.4684
 21
119.083
 31
0.0
  0
LINE
  5
123
330
1E
100
AcDbEntity
  8
0
100
AcDbLine
 10
86.4684
 20
119.083
 30
0.0
 11
88.321
 21
118.22
 31
0.0
  0
LINE
  5
124
330
1E
100
AcDbEntity
  8
0
100
AcDbLine
 10
88.321
 20
118.22
 30
0.0
 11
89.512
 21
117.664
 31
0.0
  0
LINE
  5
125
330
1E
100
AcDbEntity
  8
0
100
AcDbLine
 10
102.047
 20
98.3108
 30
0.0
 11
102.244
 21
98.7518
 31
0.0
  0
LINE
  5
126
330
1E
100
AcDbEntity
  8
0
100
AcDbLine
 10
102.047
 20
98.3108
 30
0.0
 11
158.83
 21
30.6488
 31
0.0
  0
LINE
  5
127
330
1E
100
AcDbEntity
  8
0
100
AcDbLine
 10
102.244
 20
98.7518
 30
0.0
 11
102.796
 21
99.9878
 31
0.0
  0
LINE
  5
128
330
1E
100
AcDbEntity
  8
0
100
AcDbLine
 10
102.796
 20
99.9878
 30
0.0
 11
103.664
 21
101.93
 31
0.0
  0
LINE
  5
129
330
1E
100
AcDbEntity
  8
0
100
AcDbLine
 10
103.664
 20
101.93
 30
0.0
 11
104.807
 21
104.489
 31
0.0
  0
LINE
  5
12A
330
1E
100
AcDbEntity
  8
0
100
AcDbLine
 10
105.473938388635
 20
105.98001421803
 30
0.0
 11
105.557
 21
106.166
 31
0.0
  0
LINE
  5
12B
330
1E
100
AcDbEntity
  8
0
100
AcDbLine
 10
104.807
 20
104.489
 30
0.0
 11
106.11
 21
107.402
 31
0.0
  0
LINE
  5
12C
330
1E
100
AcDbEntity
  8
0
100
AcDbLine
 10
105.473938388635
 20
105.98001421803
 30
0.0
 11
105.557
 21
106.166
 31
0.0
  0
LINE
  5
12D
330
1E
100
AcDbEntity
  8
0
100
AcDbLine
 10
106.11
 20
107.402
 30
0.0
 11
107.49
 21
110.491
 31
0.0
  0
LINE
  5
12E
330
1E
100
AcDbEntity
  8
0
100
AcDbLine
 10
105.557
 20
106.166
 30
0.0
 11
106.503
 21
108.284
 31
0.0
  0
LINE
  5
12F
330
1E
100
AcDbEntity
  8
0
100
AcDbLine
 10
106.503
 20
108.284
 30
0.0
 11
107.49
 21
110.491
 31
0.0
  0
LINE
  5
130
330
1E
100
AcDbEntity
  8
0
100
AcDbLine
 10
107.49
 20
110.491
 30
0.0
 11
108.909
 21
113.668
 31
0.0
  0
LINE
  5
131
330
1E
100
AcDbEntity
  8
0
100
AcDbLine
 10
107.49
 20
110.491
 30
0.0
 11
108.514
 21
112.785
 31
0.0
  0
LINE
  5
132
330
1E
100
AcDbEntity
  8
0
100
AcDbLine
 10
107.49
 20
110.491
 30
0.0
 11
108.909
 21
113.668
 31
0.0
  0
LINE
  5
133
330
1E
100
AcDbEntity
  8
0
100
AcDbLine
 10
108.909
 20
113.668
 30
0.0
 11
110.211
 21
116.58
 31
0.0
  0
LINE
  5
134
330
1E
100
AcDbEntity
  8
0
100
AcDbLine
 10
108.909
 20
113.668
 30
0.0
 11
110.056885714297
 21
116.23531428574
 31
0.0
  0
LINE
  5
135
330
1E
100
AcDbEntity
  8
0
100
AcDbLine
 10
108.909
 20
113.668
 30
0.0
 11
110.056885714297
 21
116.23531428574
 31
0.0
  0
LINE
  5
136
330
1E
100
AcDbEntity
  8
0
100
AcDbLine
 10
108.514
 20
112.785
 30
0.0
 11
109.461
 21
114.904
 31
0.0
  0
LINE
  5
137
330
1E
100
AcDbEntity
  8
0
100
AcDbLine
 10
158.83
 20
30.6488
 30
0.0
 11
159.206
 21
31.0034
 31
0.0
  0
LINE
  5
138
330
1E
100
AcDbEntity
  8
0
100
AcDbLine
 10
158.83
 20
30.6488
 30
0.0
 11
160.076071635719
 21
30.536662721819
 31
0.0
  0
LINE
  5
139
330
1E
100
AcDbEntity
  8
0
100
AcDbLine
 10
159.206
 20
31.0034
 30
0.0
 11
160.087
 21
31.7574
 31
0.0
  0
LINE
  5
13A
330
1E
100
AcDbEntity
  8
0
100
AcDbLine
 10
110.211
 20
116.58
 30
0.0
 11
111.354
 21
119.14
 31
0.0
  0
LINE
  5
13B
330
1E
100
AcDbEntity
  8
0
100
AcDbLine
 10
109.461
 20
114.904
 30
0.0
 11
110.056885714297
 21
116.23531428574
 31
0.0
  0
LINE
  5
13C
330
1E
100
AcDbEntity
  8
0
100
AcDbLine
 10
109.461
 20
114.904
 30
0.0
 11
110.056885714297
 21
116.23531428574
 31
0.0
  0
LINE
  5
13D
330
1E
100
AcDbEntity
  8
0
100
AcDbLine
 10
110.630919354827
 20
117.520501792088
 30
0.0
 11
110.881
 21
118.081
 31
0.0
  0
LINE
  5
13E
330
1E
100
AcDbEntity
  8
0
100
AcDbLine
 10
90.173012408227
 20
117.901107566091
 30
0.0
 11
103.584932312935
 21
101.753081495602
 31
0.0
  0
LINE
  5
13F
330
1E
100
AcDbEntity
  8
0
100
AcDbLine
 10
110.630919354827
 20
117.520501792088
 30
0.0
 11
110.881
 21
118.081
 31
0.0
  0
LINE
  5
140
330
1E
100
AcDbEntity
  8
0
100
AcDbLine
 10
111.354
 20
119.14
 30
0.0
 11
112.223
 21
121.081
 31
0.0
  0
LINE
  5
141
330
1E
100
AcDbEntity
  8
0
100
AcDbLine
 10
110.881
 20
118.081
 30
0.0
 11
110.937924202995
 21
118.208106701371
 31
0.0
  0
LINE
  5
142
330
1E
100
AcDbEntity
  8
0
100
AcDbLine
 10
110.881
 20
118.081
 30
0.0
 11
110.937924202995
 21
118.208106701371
 31
0.0
  0
LINE
  5
143
330
1E
100
AcDbEntity
  8
0
100
AcDbLine
 10
112.223
 20
121.081
 30
0.0
 11
112.734
 21
122.229
 31
0.0
  0
LINE
  5
144
330
1E
100
AcDbEntity
  8
0
100
AcDbLine
 10
112.932
 20
122.67
 30
0.0
 11
177.161
 21
46.1305
 31
0.0
  0
LINE
  5
145
330
1E
100
AcDbEntity
  8
0
100
AcDbLine
 10
112.734
 20
122.229
 30
0.0
 11
112.932
 21
122.67
 31
0.0
  0
LINE
  5
146
330
1E
100
AcDbEntity
  8
0
100
AcDbLine
 10
111.40724091381
 20
119.258919003112
 30
0.0
 11
111.433
 21
119.317
 31
0.0
  0
LINE
  5
147
330
1E
100
AcDbEntity
  8
0
100
AcDbLine
 10
111.40724091381
 20
119.258919003112
 30
0.0
 11
112.223
 21
121.081
 31
0.0
  0
LINE
  5
148
330
1E
100
AcDbEntity
  8
0
100
AcDbLine
 10
89.975
 20
117.448
 30
0.0
 11
90.184802508261
 21
117.897934776309
 31
0.0
  0
LINE
  5
149
330
1E
100
AcDbEntity
  8
0
100
AcDbLine
 10
89.512
 20
117.664
 30
0.0
 11
89.975
 21
117.448
 31
0.0
  0
LINE
  5
14A
330
1E
100
AcDbEntity
  8
0
100
AcDbLine
 10
73.245766000272
 20
124.145859969641
 30
0.0
 11
74.3367
 21
123.637
 31
0.0
  0
LINE
  5
14B
330
1E
100
AcDbEntity
  8
0
100
AcDbLine
 10
73.245766000272
 20
124.145859969641
 30
0.0
 11
74.3367
 21
123.637
 31
0.0
  0
LINE
  5
14C
330
1E
100
AcDbEntity
  8
0
100
AcDbLine
 10
71.3597
 20
125.025
 30
0.0
 11
75.792
 21
122.959
 31
0.0
  0
LINE
  5
14D
330
1E
100
AcDbEntity
  8
0
100
AcDbLine
 10
72.1793
 20
125.746
 30
0.0
 11
76.6778
 21
123.649
 31
0.0
  0
LINE
  5
14E
330
1E
100
AcDbEntity
  8
0
100
AcDbLine
 10
67.2177
 20
128.06
 30
0.0
 11
72.1793
 21
125.746
 31
0.0
  0
LINE
  5
14F
330
1E
100
AcDbEntity
  8
0
100
AcDbLine
 10
58.315755741433
 20
131.10826790651
 30
0.0
 11
60.5104
 21
130.085
 31
0.0
  0
LINE
  5
150
330
1E
100
AcDbEntity
  8
0
100
AcDbLine
 10
98.236732246179
 20
135.165808432848
 30
0.0
 11
98.85
 21
136.481
 31
0.0
  0
LINE
  5
151
330
1E
100
AcDbEntity
  8
0
100
AcDbLine
 10
98.236732246179
 20
135.165808432848
 30
0.0
 11
111.433
 21
119.317
 31
0.0
  0
LINE
  5
152
330
1E
100
AcDbEntity
  8
0
100
AcDbLine
 10
98.236732246179
 20
135.165808432848
 30
0.0
 11
98.85
 21
136.481
 31
0.0
  0
LINE
  5
153
330
1E
100
AcDbEntity
  8
0
100
AcDbLine
 10
58.315755741431
 20
131.108267906511
 30
0.0
 11
60.5104
 21
130.085
 31
0.0
  0
LINE
  5
154
330
1E
100
AcDbEntity
  8
0
100
AcDbLine
 10
61.9915
 20
130.498
 30
0.0
 11
67.2177
 21
128.06
 31
0.0
  0
LINE
  5
155
330
1E
100
AcDbEntity
  8
0
100
AcDbLine
 10
56.3685
 20
133.12
 30
0.0
 11
61.9915
 21
130.498
 31
0.0
  0
LINE
  5
156
330
1E
100
AcDbEntity
  8
0
100
AcDbLine
 10
44.2642
 20
136.006
 30
0.0
 11
44.4755
 21
136.459
 31
0.0
  0
LINE
  5
157
330
1E
100
AcDbEntity
  8
0
100
AcDbLine
 10
44.4755
 20
136.459
 30
0.0
 11
44.897915483554
 21
137.364604420492
 31
0.0
  0
LINE
  5
158
330
1E
100
AcDbEntity
  8
0
100
AcDbLine
 10
50.4808
 20
135.865
 30
0.0
 11
56.3685
 21
133.12
 31
0.0
  0
LINE
  5
159
330
1E
100
AcDbEntity
  8
0
100
AcDbLine
 10
159.897
 20
30.0244
 30
0.0
 11
160.784
 21
30.7682
 31
0.0
  0
LINE
  5
15A
330
1E
100
AcDbEntity
  8
0
100
AcDbLine
 10
159.569
 20
29.7489
 30
0.0
 11
159.941
 21
28.9728
 31
0.0
  0
LINE
  5
15B
330
1E
100
AcDbEntity
  8
0
100
AcDbLine
 10
159.569
 20
29.7489
 30
0.0
 11
159.883
 21
30.3749
 31
0.0
  0
LINE
  5
15C
330
1E
100
AcDbEntity
  8
0
100
AcDbLine
 10
159.569
 20
29.7489
 30
0.0
 11
159.897
 21
30.0244
 31
0.0
  0
LINE
  5
15D
330
1E
100
AcDbEntity
  8
0
100
AcDbLine
 10
159.883
 20
30.3749
 30
0.0
 11
161.032
 21
31.3391
 31
0.0
  0
LINE
  5
15E
330
1E
100
AcDbEntity
  8
0
100
AcDbLine
 10
160.087
 20
31.7574
 30
0.0
 11
161.511
 21
32.9992
 31
0.0
  0
LINE
  5
15F
330
1E
100
AcDbEntity
  8
0
100
AcDbLine
 10
160.784
 20
30.7682
 30
0.0
 11
162.228
 21
31.9803
 31
0.0
  0
LINE
  5
160
330
1E
100
AcDbEntity
  8
0
100
AcDbLine
 10
159.941
 20
28.9728
 30
0.0
 11
165.654
 21
22.1635
 31
0.0
  0
LINE
  5
161
330
1E
100
AcDbEntity
  8
0
100
AcDbLine
 10
161.0
 20
9.0
 30
0.0
 11
162.0
 21
10.0
 31
0.0
  0
LINE
  5
162
330
1E
100
AcDbEntity
  8
0
100
AcDbLine
 10
161.0
 20
9.0
 30
0.0
 11
162.3
 21
9.0
 31
0.0
  0
LINE
  5
163
330
1E
100
AcDbEntity
  8
0
100
AcDbLine
 10
161.0
 20
9.0
 30
0.0
 11
161.0
 21
0.0
 31
0.0
  0
LINE
  5
188
330
1E
100
AcDbEntity
  8
0
100
AcDbLine
 10
0.0459
 20
158.279
 30
0.0
 11
1.1705
 21
157.755
 31
0.0
  0
LINE
  5
189
330
1E
100
AcDbEntity
  8
0
100
AcDbLine
 10
-0.4173
 20
158.496
 30
0.0
 11
0.0459
 21
158.279
 31
0.0
  0
LINE
  5
18A
330
1E
100
AcDbEntity
  8
0
100
AcDbLine
 10
2.69054567476
 20
155.942785467119
 30
0.0
 11
3.2788
 21
155.668
 31
0.0
  0
LINE
  5
18B
330
1E
100
AcDbEntity
  8
0
100
AcDbLine
 10
2.69054567476
 20
155.942785467119
 30
0.0
 11
3.2788
 21
155.668
 31
0.0
  0
LINE
  5
18C
330
1E
100
AcDbEntity
  8
0
100
AcDbLine
 10
2.5399
 20
156.013
 30
0.0
 11
2.930632069956
 21
156.851141555643
 31
0.0
  0
LINE
  5
18D
330
1E
100
AcDbEntity
  8
0
100
AcDbLine
 10
2.5399
 20
156.013
 30
0.0
 11
3.2014
 21
155.705
 31
0.0
  0
LINE
  5
18E
330
1E
100
AcDbEntity
  8
0
100
AcDbLine
 10
2.5399
 20
156.013
 30
0.0
 11
3.584697006339
 21
155.52602993682
 31
0.0
  0
LINE
  5
18F
330
1E
100
AcDbEntity
  8
0
100
AcDbLine
 10
2.5399
 20
156.013
 30
0.0
 11
3.584697006339
 21
155.52602993682
 31
0.0
  0
LINE
  5
190
330
1E
100
AcDbEntity
  8
0
100
AcDbLine
 10
1.569248561972
 20
157.568969994284
 30
0.0
 11
2.91556133024
 21
156.818813998727
 31
0.0
  0
LINE
  5
191
330
1E
100
AcDbEntity
  8
0
100
AcDbLine
 10
1.569248561972
 20
157.568969994284
 30
0.0
 11
2.91556133024
 21
156.818813998727
 31
0.0
  0
LINE
  5
192
330
1E
100
AcDbEntity
  8
0
100
AcDbLine
 10
1.1705
 20
157.755
 30
0.0
 11
1.569248561972
 21
157.568969994284
 31
0.0
  0
LINE
  5
193
330
1E
100
AcDbEntity
  8
0
100
AcDbLine
 10
3.2788
 20
155.668
 30
0.0
 11
4.264400000063
 21
155.208661197387
 31
0.0
  0
LINE
  5
194
330
1E
100
AcDbEntity
  8
0
100
AcDbLine
 10
3.2788
 20
155.668
 30
0.0
 11
4.264400000063
 21
155.208661197387
 31
0.0
  0
LINE
  5
195
330
1E
100
AcDbEntity
  8
0
100
AcDbLine
 10
3.2014
 20
155.705
 30
0.0
 11
3.570996281992
 21
156.497366851597
 31
0.0
  0
LINE
  5
196
330
1E
100
AcDbEntity
  8
0
100
AcDbLine
 10
3.2014
 20
155.705
 30
0.0
 11
4.3472
 21
155.17
 31
0.0
  0
LINE
  5
197
330
1E
100
AcDbEntity
  8
0
100
AcDbLine
 10
4.928216957583
 20
154.899646954054
 30
0.0
 11
5.255
 21
154.747
 31
0.0
  0
LINE
  5
198
330
1E
100
AcDbEntity
  8
0
100
AcDbLine
 10
4.928216957583
 20
154.899646954054
 30
0.0
 11
5.255
 21
154.747
 31
0.0
  0
LINE
  5
199
330
1E
100
AcDbEntity
  8
0
100
AcDbLine
 10
4.347227678306
 20
155.170059364448
 30
0.0
 11
4.4246
 21
155.134
 31
0.0
  0
LINE
  5
19A
330
1E
100
AcDbEntity
  8
0
100
AcDbLine
 10
5.404699999978
 20
154.677232326769
 30
0.0
 11
5.7393
 21
154.521
 31
0.0
  0
LINE
  5
19B
330
1E
100
AcDbEntity
  8
0
100
AcDbLine
 10
5.404699999977
 20
154.677232326769
 30
0.0
 11
5.7393
 21
154.521
 31
0.0
  0
LINE
  5
19C
330
1E
100
AcDbEntity
  8
0
100
AcDbLine
 10
5.255
 20
154.747
 30
0.0
 11
5.709795752502
 21
154.53504247527
 31
0.0
  0
LINE
  5
19D
330
1E
100
AcDbEntity
  8
0
100
AcDbLine
 10
5.255
 20
154.747
 30
0.0
 11
5.709795752502
 21
154.53504247527
 31
0.0
  0
LINE
  5
19E
330
1E
100
AcDbEntity
  8
0
100
AcDbLine
 10
4.9688
 20
154.881
 30
0.0
 11
5.372651641592
 21
155.746703507115
 31
0.0
  0
LINE
  5
19F
330
1E
100
AcDbEntity
  8
0
100
AcDbLine
 10
4.9688
 20
154.881
 30
0.0
 11
6.1147
 21
154.346
 31
0.0
  0
LINE
  5
1A0
330
1E
100
AcDbEntity
  8
0
100
AcDbLine
 10
4.3073
 20
155.189
 30
0.0
 11
4.729778674288
 21
156.0951325405
 31
0.0
  0
LINE
  5
1A1
330
1E
100
AcDbEntity
  8
0
100
AcDbLine
 10
4.3073
 20
155.189
 30
0.0
 11
4.9688
 21
154.881
 31
0.0
  0
LINE
  5
1A2
330
1E
100
AcDbEntity
  8
0
100
AcDbLine
 10
4.3073
 20
155.189
 30
0.0
 11
5.27260000008
 21
154.73916127058
 31
0.0
  0
LINE
  5
1A3
330
1E
100
AcDbEntity
  8
0
100
AcDbLine
 10
4.3073
 20
155.189
 30
0.0
 11
5.27260000008
 21
154.73916127058
 31
0.0
  0
LINE
  5
1A4
330
1E
100
AcDbEntity
  8
0
100
AcDbLine
 10
3.0889
 20
156.86
 30
0.0
 11
5.5367
 21
155.719
 31
0.0
  0
LINE
  5
1A5
330
1E
100
AcDbEntity
  8
0
100
AcDbLine
 10
1.1705
 20
157.755
 30
0.0
 11
3.0889
 21
156.86
 31
0.0
  0
LINE
  5
1A6
330
1E
100
AcDbEntity
  8
0
100
AcDbLine
 10
6.114780662276
 20
154.346173024972
 30
0.0
 11
6.4008
 21
154.213
 31
0.0
  0
LINE
  5
1A7
330
1E
100
AcDbEntity
  8
0
100
AcDbLine
 10
5.7393
 20
154.521
 30
0.0
 11
5.949338071082
 21
154.423204496004
 31
0.0
  0
LINE
  5
1A8
330
1E
100
AcDbEntity
  8
0
100
AcDbLine
 10
5.7393
 20
154.521
 30
0.0
 11
5.949338071082
 21
154.423204496004
 31
0.0
  0
LINE
  5
1A9
330
1E
100
AcDbEntity
  8
0
100
AcDbLine
 10
6.114829019175
 20
154.346276753151
 30
0.0
 11
6.4008
 21
154.213
 31
0.0
  0
LINE
  5
1AA
330
1E
100
AcDbEntity
  8
0
100
AcDbLine
 10
6.1147
 20
154.346
 30
0.0
 11
6.476749037172
 21
155.122614889248
 31
0.0
  0
LINE
  5
1AB
330
1E
100
AcDbEntity
  8
0
100
AcDbLine
 10
6.4008
 20
154.213
 30
0.0
 11
6.646601592997
 21
154.73990463328
 31
0.0
  0
LINE
  5
1AC
330
1E
100
AcDbEntity
  8
0
100
AcDbLine
 10
6.370145323017
 20
154.89394412048
 30
0.0
 11
7.879402428412
 21
154.05299668751
 31
0.0
  0
LINE
  5
1AD
330
1E
100
AcDbEntity
  8
0
100
AcDbLine
 10
6.370145323017
 20
154.89394412048
 30
0.0
 11
7.879402428412
 21
154.05299668751
 31
0.0
  0
LINE
  5
1AE
330
1E
100
AcDbEntity
  8
0
100
AcDbLine
 10
8.338
 20
153.309
 30
0.0
 11
8.760799467823
 21
154.215927869336
 31
0.0
  0
LINE
  5
1AF
330
1E
100
AcDbEntity
  8
0
100
AcDbLine
 10
8.338
 20
153.309
 30
0.0
 11
9.4838
 21
152.775
 31
0.0
  0
LINE
  5
1B0
330
1E
100
AcDbEntity
  8
0
100
AcDbLine
 10
7.6765
 20
153.618
 30
0.0
 11
8.072119719617
 21
154.466157751946
 31
0.0
  0
LINE
  5
1B1
330
1E
100
AcDbEntity
  8
0
100
AcDbLine
 10
7.6765
 20
153.618
 30
0.0
 11
8.338
 21
153.309
 31
0.0
  0
LINE
  5
1B2
330
1E
100
AcDbEntity
  8
0
100
AcDbLine
 10
7.6765
 20
153.618
 30
0.0
 11
7.879402428412
 21
154.05299668751
 31
0.0
  0
LINE
  5
1B3
330
1E
100
AcDbEntity
  8
0
100
AcDbLine
 10
6.75528947392
 20
155.150894736732
 30
0.0
 11
7.2567
 21
154.917
 31
0.0
  0
LINE
  5
1B4
330
1E
100
AcDbEntity
  8
0
100
AcDbLine
 10
7.2567
 20
154.917
 30
0.0
 11
10.4321
 21
153.436
 31
0.0
  0
LINE
  5
1B5
330
1E
100
AcDbEntity
  8
0
100
AcDbLine
 10
6.75528947392
 20
155.150894736732
 30
0.0
 11
7.2567
 21
154.917
 31
0.0
  0
LINE
  5
1B6
330
1E
100
AcDbEntity
  8
0
100
AcDbLine
 10
5.5367
 20
155.719
 30
0.0
 11
8.8443
 21
154.177
 31
0.0
  0
LINE
  5
1B7
330
1E
100
AcDbEntity
  8
0
100
AcDbLine
 10
5.43
 20
156.872
 30
0.0
 11
8.7378
 21
155.33
 31
0.0
  0
LINE
  5
1B8
330
1E
100
AcDbEntity
  8
0
100
AcDbLine
 10
2.85
 20
158.075
 30
0.0
 11
5.43
 21
156.872
 31
0.0
  0
LINE
  5
1B9
330
1E
100
AcDbEntity
  8
0
100
AcDbLine
 10
0.9977
 20
158.939
 30
0.0
 11
2.85
 21
158.075
 31
0.0
  0
LINE
  5
1BA
330
1E
100
AcDbEntity
  8
0
100
AcDbLine
 10
-0.1931
 20
159.494
 30
0.0
 11
0.9977
 21
158.939
 31
0.0
  0
LINE
  5
1BB
330
1E
100
AcDbEntity
  8
0
100
AcDbLine
 10
-0.6562
 20
159.711
 30
0.0
 11
8.2188
 21
178.743
 31
0.0
  0
LINE
  5
1BC
330
1E
100
AcDbEntity
  8
0
100
AcDbLine
 10
-0.6562
 20
159.711
 30
0.0
 11
-0.1931
 21
159.494
 31
0.0
  0
LINE
  5
1BD
330
1E
100
AcDbEntity
  8
0
100
AcDbLine
 10
-0.6562
 20
159.711
 30
0.0
 11
-0.4173
 21
158.496
 31
0.0
  0
LINE
  5
1BE
330
1E
100
AcDbEntity
  8
0
100
AcDbLine
 10
-0.6562
 20
159.711
 30
0.0
 11
8.2188
 21
178.743
 31
0.0
  0
LINE
  5
1BF
330
1E
100
AcDbEntity
  8
0
100
AcDbLine
 10
-0.6562
 20
159.711
 30
0.0
 11
-0.1931
 21
159.494
 31
0.0
  0
LINE
  5
1C0
330
1E
100
AcDbEntity
  8
0
100
AcDbLine
 10
8.8443
 20
154.177
 30
0.0
 11
12.6813
 21
152.387
 31
0.0
  0
LINE
  5
1C1
330
1E
100
AcDbEntity
  8
0
100
AcDbLine
 10
8.7378
 20
155.33
 30
0.0
 11
12.6407
 21
153.51
 31
0.0
  0
LINE
  5
1C2
330
1E
100
AcDbEntity
  8
0
100
AcDbLine
 10
8.6819
 20
178.527
 30
0.0
 11
9.8726
 21
177.972
 31
0.0
  0
LINE
  5
1C3
330
1E
100
AcDbEntity
  8
0
100
AcDbLine
 10
8.2188
 20
178.743
 30
0.0
 11
8.6819
 21
178.527
 31
0.0
  0
LINE
  5
1C4
330
1E
100
AcDbEntity
  8
0
100
AcDbLine
 10
8.2188
 20
178.743
 30
0.0
 11
9.303
 21
179.34
 31
0.0
  0
LINE
  5
1C5
330
1E
100
AcDbEntity
  8
0
100
AcDbLine
 10
10.2956
 20
151.845
 30
0.0
 11
10.626316470745
 21
152.554404828988
 31
0.0
  0
LINE
  5
1C6
330
1E
100
AcDbEntity
  8
0
100
AcDbLine
 10
10.2956
 20
151.845
 30
0.0
 11
10.9572
 21
151.537
 31
0.0
  0
LINE
  5
1C7
330
1E
100
AcDbEntity
  8
0
100
AcDbLine
 10
10.2956
 20
151.845
 30
0.0
 11
11.172129961638
 21
151.436493280228
 31
0.0
  0
LINE
  5
1C8
330
1E
100
AcDbEntity
  8
0
100
AcDbLine
 10
9.4838
 20
152.775
 30
0.0
 11
9.82133232729
 21
153.49902521223
 31
0.0
  0
LINE
  5
1C9
330
1E
100
AcDbEntity
  8
0
100
AcDbLine
 10
9.4838
 20
152.775
 30
0.0
 11
9.625917875238
 21
153.079850577148
 31
0.0
  0
LINE
  5
1CA
330
1E
100
AcDbEntity
  8
0
100
AcDbLine
 10
9.4838
 20
152.775
 30
0.0
 11
9.625917875238
 21
153.079850577148
 31
0.0
  0
LINE
  5
1CB
330
1E
100
AcDbEntity
  8
0
100
AcDbLine
 10
9.625917875238
 20
153.079850577148
 30
0.0
 11
11.461451662254
 21
152.05710407438
 31
0.0
  0
LINE
  5
1CC
330
1E
100
AcDbEntity
  8
0
100
AcDbLine
 10
10.4321
 20
153.436
 30
0.0
 11
11.289924297891
 21
153.036091088552
 31
0.0
  0
LINE
  5
1CD
330
1E
100
AcDbEntity
  8
0
100
AcDbLine
 10
10.4321
 20
153.436
 30
0.0
 11
11.289924297891
 21
153.036091088552
 31
0.0
  0
LINE
  5
1CE
330
1E
100
AcDbEntity
  8
0
100
AcDbLine
 10
9.8726
 20
177.972
 30
0.0
 11
11.725
 21
177.108
 31
0.0
  0
LINE
  5
1CF
330
1E
100
AcDbEntity
  8
0
100
AcDbLine
 10
10.9572
 20
151.537
 30
0.0
 11
11.26549713566
 21
152.197949372713
 31
0.0
  0
LINE
  5
1D0
330
1E
100
AcDbEntity
  8
0
100
AcDbLine
 10
10.9572
 20
151.537
 30
0.0
 11
11.172256298961
 21
151.436764280662
 31
0.0
  0
LINE
  5
1D1
330
1E
100
AcDbEntity
  8
0
100
AcDbLine
 10
11.8334
 20
151.128
 30
0.0
 11
12.04463068445
 21
151.580851396383
 31
0.0
  0
LINE
  5
1D2
330
1E
100
AcDbEntity
  8
0
100
AcDbLine
 10
11.8334
 20
151.128
 30
0.0
 11
12.9792
 21
150.593
 31
0.0
  0
LINE
  5
1D3
330
1E
100
AcDbEntity
  8
0
100
AcDbLine
 10
11.1719
 20
151.436
 30
0.0
 11
11.530142541676
 21
152.204449749241
 31
0.0
  0
LINE
  5
1D4
330
1E
100
AcDbEntity
  8
0
100
AcDbLine
 10
11.1719
 20
151.436
 30
0.0
 11
11.8334
 21
151.128
 31
0.0
  0
LINE
  5
1D5
330
1E
100
AcDbEntity
  8
0
100
AcDbLine
 10
11.1719
 20
151.436
 30
0.0
 11
12.167999999992
 21
150.971767673245
 31
0.0
  0
LINE
  5
1D6
330
1E
100
AcDbEntity
  8
0
100
AcDbLine
 10
11.1719
 20
151.436
 30
0.0
 11
12.167999999992
 21
150.971767673245
 31
0.0
  0
LINE
  5
1D7
330
1E
100
AcDbEntity
  8
0
100
AcDbLine
 10
11.1719
 20
151.436
 30
0.0
 11
11.530142541676
 21
152.204449749241
 31
0.0
  0
LINE
  5
1D8
330
1E
100
AcDbEntity
  8
0
100
AcDbLine
 10
12.0293
 20
151.588
 30
0.0
 11
12.451715230142
 21
152.494103658599
 31
0.0
  0
LINE
  5
1D9
330
1E
100
AcDbEntity
  8
0
100
AcDbLine
 10
12.0293
 20
151.588
 30
0.0
 11
13.3525
 21
150.971
 31
0.0
  0
LINE
  5
1DA
330
1E
100
AcDbEntity
  8
0
100
AcDbLine
 10
12.979543949021
 20
150.593737702088
 30
0.0
 11
13.2883
 21
150.45
 31
0.0
  0
LINE
  5
1DB
330
1E
100
AcDbEntity
  8
0
100
AcDbLine
 10
13.2883
 20
150.45
 30
0.0
 11
13.506455630994
 21
150.917642261162
 31
0.0
  0
LINE
  5
1DC
330
1E
100
AcDbEntity
  8
0
100
AcDbLine
 10
12.979604477655
 20
150.593867523942
 30
0.0
 11
13.2883
 21
150.45
 31
0.0
  0
LINE
  5
1DD
330
1E
100
AcDbEntity
  8
0
100
AcDbLine
 10
12.9792
 20
150.593
 30
0.0
 11
13.190631447171
 21
151.046478307962
 31
0.0
  0
LINE
  5
1DE
330
1E
100
AcDbEntity
  8
0
100
AcDbLine
 10
13.3525
 20
150.971
 30
0.0
 11
13.774971865093
 21
151.877225143651
 31
0.0
  0
LINE
  5
1DF
330
1E
100
AcDbEntity
  8
0
100
AcDbLine
 10
13.3525
 20
150.971
 30
0.0
 11
13.774971865093
 21
151.877225143651
 31
0.0
  0
LINE
  5
1E0
330
1E
100
AcDbEntity
  8
0
100
AcDbLine
 10
13.3525
 20
150.971
 30
0.0
 11
13.662621430871
 21
151.636227347573
 31
0.0
  0
LINE
  5
1E1
330
1E
100
AcDbEntity
  8
0
100
AcDbLine
 10
13.714
 20
150.802
 30
0.0
 11
14.531938608048
 21
150.37071876052
 31
0.0
  0
LINE
  5
1E2
330
1E
100
AcDbEntity
  8
0
100
AcDbLine
 10
13.714
 20
150.802
 30
0.0
 11
14.531938608048
 21
150.37071876052
 31
0.0
  0
LINE
  5
1E3
330
1E
100
AcDbEntity
  8
0
100
AcDbLine
 10
13.364499365784
 20
150.996739292672
 30
0.0
 11
13.714
 21
150.802
 31
0.0
  0
LINE
  5
1E4
330
1E
100
AcDbEntity
  8
0
100
AcDbLine
 10
12.6813
 20
152.387
 30
0.0
 11
17.1137
 21
150.321
 31
0.0
  0
LINE
  5
1E5
330
1E
100
AcDbEntity
  8
0
100
AcDbLine
 10
12.6407
 20
153.51
 30
0.0
 11
17.1392
 21
151.412
 31
0.0
  0
LINE
  5
1E6
330
1E
100
AcDbEntity
  8
0
100
AcDbLine
 10
15.0015
 20
149.651
 30
0.0
 11
15.366195948303
 21
150.433292657683
 31
0.0
  0
LINE
  5
1E7
330
1E
100
AcDbEntity
  8
0
100
AcDbLine
 10
15.0015
 20
149.651
 30
0.0
 11
16.1475
 21
149.116
 31
0.0
  0
LINE
  5
1E8
330
1E
100
AcDbEntity
  8
0
100
AcDbLine
 10
14.34
 20
149.959
 30
0.0
 11
14.675109478396
 21
150.677828069489
 31
0.0
  0
LINE
  5
1E9
330
1E
100
AcDbEntity
  8
0
100
AcDbLine
 10
14.34
 20
149.959
 30
0.0
 11
15.0015
 21
149.651
 31
0.0
  0
LINE
  5
1EA
330
1E
100
AcDbEntity
  8
0
100
AcDbLine
 10
14.34
 20
149.959
 30
0.0
 11
15.486
 21
149.424
 31
0.0
  0
LINE
  5
1EB
330
1E
100
AcDbEntity
  8
0
100
AcDbLine
 10
15.182005068442
 20
151.221388441612
 30
0.0
 11
18.3044
 21
149.765
 31
0.0
  0
LINE
  5
1EC
330
1E
100
AcDbEntity
  8
0
100
AcDbLine
 10
15.182005068442
 20
151.221388441611
 30
0.0
 11
18.3044
 21
149.765
 31
0.0
  0
LINE
  5
1ED
330
1E
100
AcDbEntity
  8
0
100
AcDbLine
 10
14.3049
 20
175.905
 30
0.0
 11
17.6128
 21
174.363
 31
0.0
  0
LINE
  5
1EE
330
1E
100
AcDbEntity
  8
0
100
AcDbLine
 10
11.725
 20
177.108
 30
0.0
 11
14.3049
 21
175.905
 31
0.0
  0
LINE
  5
1EF
330
1E
100
AcDbEntity
  8
0
100
AcDbLine
 10
15.486
 20
149.424
 30
0.0
 11
16.1475
 21
149.116
 31
0.0
  0
LINE
  5
1F0
330
1E
100
AcDbEntity
  8
0
100
AcDbLine
 10
16.1475
 20
149.116
 30
0.0
 11
16.47578670609
 21
149.819804438518
 31
0.0
  0
LINE
  5
1F1
330
1E
100
AcDbEntity
  8
0
100
AcDbLine
 10
16.1475
 20
149.116
 30
0.0
 11
16.298322097387
 21
149.439343161932
 31
0.0
  0
LINE
  5
1F2
330
1E
100
AcDbEntity
  8
0
100
AcDbLine
 10
16.298322097387
 20
149.439343161932
 30
0.0
 11
18.975283480404
 21
148.027839643271
 31
0.0
  0
LINE
  5
1F3
330
1E
100
AcDbEntity
  8
0
100
AcDbLine
 10
16.298322097387
 20
149.439343161932
 30
0.0
 11
18.975283480404
 21
148.027839643271
 31
0.0
  0
LINE
  5
1F4
330
1E
100
AcDbEntity
  8
0
100
AcDbLine
 10
16.781740770341
 20
150.475730567745
 30
0.0
 11
17.1137
 21
150.321
 31
0.0
  0
LINE
  5
1F5
330
1E
100
AcDbEntity
  8
0
100
AcDbLine
 10
17.1137
 20
150.321
 30
0.0
 11
22.0091
 21
148.038
 31
0.0
  0
LINE
  5
1F6
330
1E
100
AcDbEntity
  8
0
100
AcDbLine
 10
17.1392
 20
151.412
 30
0.0
 11
22.1008
 21
149.099
 31
0.0
  0
LINE
  5
1F7
330
1E
100
AcDbEntity
  8
0
100
AcDbLine
 10
15.2569
 20
176.565
 30
0.0
 11
18.5645
 21
175.022
 31
0.0
  0
LINE
  5
1F8
330
1E
100
AcDbEntity
  8
0
100
AcDbLine
 10
12.8091
 20
177.706
 30
0.0
 11
15.2569
 21
176.565
 31
0.0
  0
LINE
  5
1F9
330
1E
100
AcDbEntity
  8
0
100
AcDbLine
 10
10.8907
 20
178.6
 30
0.0
 11
12.8091
 21
177.706
 31
0.0
  0
LINE
  5
1FA
330
1E
100
AcDbEntity
  8
0
100
AcDbLine
 10
9.7661
 20
179.125
 30
0.0
 11
10.8907
 21
178.6
 31
0.0
  0
LINE
  5
1FB
330
1E
100
AcDbEntity
  8
0
100
AcDbLine
 10
9.303
 20
179.34
 30
0.0
 11
54.8021
 21
160.331
 31
0.0
  0
LINE
  5
1FC
330
1E
100
AcDbEntity
  8
0
100
AcDbLine
 10
9.303
 20
179.34
 30
0.0
 11
9.7661
 21
179.125
 31
0.0
  0
LINE
  5
1FD
330
1E
100
AcDbEntity
  8
0
100
AcDbLine
 10
17.146723321563
 20
148.991999647469
 30
0.0
 11
17.298
 21
147.995
 31
0.0
  0
LINE
  5
200
330
1E
100
AcDbEntity
  8
0
100
AcDbLine
 10
17.6128
 20
174.363
 30
0.0
 11
21.5158
 21
172.542
 31
0.0
  0
LINE
  5
201
330
1E
100
AcDbEntity
  8
0
100
AcDbLine
 10
18.7307
 20
147.36
 30
0.0
 11
19.01220721422
 21
147.228927857929
 31
0.0
  0
LINE
  5
202
330
1E
100
AcDbEntity
  8
0
100
AcDbLine
 10
18.7307
 20
147.36
 30
0.0
 11
19.01220721422
 21
147.228927857929
 31
0.0
  0
LINE
  5
203
330
1E
100
AcDbEntity
  8
0
100
AcDbLine
 10
18.7307
 20
147.36
 30
0.0
 11
19.153737391656
 21
147.162826248456
 31
0.0
  0
LINE
  5
204
330
1E
100
AcDbEntity
  8
0
100
AcDbLine
 10
19.3375
 20
147.077
 30
0.0
 11
19.548734256312
 21
147.530055372878
 31
0.0
  0
LINE
  5
205
330
1E
100
AcDbEntity
  8
0
100
AcDbLine
 10
19.3375
 20
147.077
 30
0.0
 11
20.4832
 21
146.543
 31
0.0
  0
LINE
  5
206
330
1E
100
AcDbEntity
  8
0
100
AcDbLine
 10
18.6759
 20
147.386
 30
0.0
 11
18.998980760301
 21
148.078643560892
 31
0.0
  0
LINE
  5
207
330
1E
100
AcDbEntity
  8
0
100
AcDbLine
 10
18.6759
 20
147.386
 30
0.0
 11
19.3375
 21
147.077
 31
0.0
  0
LINE
  5
208
330
1E
100
AcDbEntity
  8
0
100
AcDbLine
 10
19.3966
 20
147.601
 30
0.0
 11
19.749509196994
 21
148.35800943463
 31
0.0
  0
LINE
  5
209
330
1E
100
AcDbEntity
  8
0
100
AcDbLine
 10
19.3966
 20
147.601
 30
0.0
 11
20.7197
 21
146.984
 31
0.0
  0
LINE
  5
20A
330
1E
100
AcDbEntity
  8
0
100
AcDbLine
 10
19.3966
 20
147.601
 30
0.0
 11
19.707735397045
 21
148.268402360202
 31
0.0
  0
LINE
  5
20B
330
1E
100
AcDbEntity
  8
0
100
AcDbLine
 10
20.483395946715
 20
146.543420266644
 30
0.0
 11
20.538
 21
146.518
 31
0.0
  0
LINE
  5
20C
330
1E
100
AcDbEntity
  8
0
100
AcDbLine
 10
20.538
 20
146.518
 30
0.0
 11
20.800793713036
 21
147.081329241714
 31
0.0
  0
LINE
  5
20D
330
1E
100
AcDbEntity
  8
0
100
AcDbLine
 10
20.483406651311
 20
146.543443225868
 30
0.0
 11
20.538
 21
146.518
 31
0.0
  0
LINE
  5
20E
330
1E
100
AcDbEntity
  8
0
100
AcDbLine
 10
20.4832
 20
146.543
 30
0.0
 11
20.694329618854
 21
146.995830946389
 31
0.0
  0
LINE
  5
20F
330
1E
100
AcDbEntity
  8
0
100
AcDbLine
 10
20.7197
 20
146.984
 30
0.0
 11
21.009550818205
 21
147.605745780176
 31
0.0
  0
LINE
  5
210
330
1E
100
AcDbEntity
  8
0
100
AcDbLine
 10
19.4594
 20
148.124
 30
0.0
 11
19.881994717528
 21
149.029988675059
 31
0.0
  0
LINE
  5
211
330
1E
100
AcDbEntity
  8
0
100
AcDbLine
 10
19.4594
 20
148.124
 30
0.0
 11
19.82067998421
 21
148.898537779684
 31
0.0
  0
LINE
  5
212
330
1E
100
AcDbEntity
  8
0
100
AcDbLine
 10
18.1362
 20
148.741
 30
0.0
 11
18.558867386893
 21
149.647037270851
 31
0.0
  0
LINE
  5
213
330
1E
100
AcDbEntity
  8
0
100
AcDbLine
 10
18.1362
 20
148.741
 30
0.0
 11
19.4594
 21
148.124
 31
0.0
  0
LINE
  5
214
330
1E
100
AcDbEntity
  8
0
100
AcDbLine
 10
18.1362
 20
148.741
 30
0.0
 11
18.544483976844
 21
149.616204739195
 31
0.0
  0
LINE
  5
215
330
1E
100
AcDbEntity
  8
0
100
AcDbLine
 10
21.0036
 20
146.3
 30
0.0
 11
21.334189789646
 21
147.009049199844
 31
0.0
  0
LINE
  5
216
330
1E
100
AcDbEntity
  8
0
100
AcDbLine
 10
21.0036
 20
146.3
 30
0.0
 11
21.6653
 21
145.992
 31
0.0
  0
LINE
  5
217
330
1E
100
AcDbEntity
  8
0
100
AcDbLine
 10
21.0036
 20
146.3
 30
0.0
 11
22.1495
 21
145.766
 31
0.0
  0
LINE
  5
218
330
1E
100
AcDbEntity
  8
0
100
AcDbLine
 10
21.0036
 20
146.3
 30
0.0
 11
21.255875002054
 21
146.841079591533
 31
0.0
  0
LINE
  5
219
330
1E
100
AcDbEntity
  8
0
100
AcDbLine
 10
20.766118902541
 20
147.083571072299
 30
0.0
 11
21.249982114984
 21
146.828440523443
 31
0.0
  0
LINE
  5
21A
330
1E
100
AcDbEntity
  8
0
100
AcDbLine
 10
20.766118902541
 20
147.083571072299
 30
0.0
 11
21.249982114984
 21
146.828440523443
 31
0.0
  0
LINE
  5
21B
330
1E
100
AcDbEntity
  8
0
100
AcDbLine
 10
18.3044
 20
149.765
 30
0.0
 11
23.0012
 21
147.575
 31
0.0
  0
LINE
  5
21C
330
1E
100
AcDbEntity
  8
0
100
AcDbLine
 10
21.6653
 20
145.992
 30
0.0
 11
22.027451616872
 21
146.768406447909
 31
0.0
  0
LINE
  5
21D
330
1E
100
AcDbEntity
  8
0
100
AcDbLine
 10
21.6653
 20
145.992
 30
0.0
 11
22.811
 21
145.458
 31
0.0
  0
LINE
  5
21E
330
1E
100
AcDbEntity
  8
0
100
AcDbLine
 10
22.0091
 20
148.038
 30
0.0
 11
27.1689
 21
145.632
 31
0.0
  0
LINE
  5
21F
330
1E
100
AcDbEntity
  8
0
100
AcDbLine
 10
21.5158
 20
172.542
 30
0.0
 11
26.0142
 21
170.445
 31
0.0
  0
LINE
  5
220
330
1E
100
AcDbEntity
  8
0
100
AcDbLine
 10
18.5645
 20
175.022
 30
0.0
 11
22.4016
 21
173.233
 31
0.0
  0
LINE
  5
221
330
1E
100
AcDbEntity
  8
0
100
AcDbLine
 10
17.8807
 20
146.074
 30
0.0
 11
18.202252157683
 21
145.484612846192
 31
0.0
  0
LINE
  5
222
330
1E
100
AcDbEntity
  8
0
100
AcDbLine
 10
17.8807
 20
146.074
 30
0.0
 11
18.202252157683
 21
145.484612846192
 31
0.0
  0
LINE
  5
223
330
1E
100
AcDbEntity
  8
0
100
AcDbLine
 10
18.224215673415
 20
145.444354948006
 30
0.0
 11
18.8229
 21
144.347
 31
0.0
  0
LINE
  5
224
330
1E
100
AcDbEntity
  8
0
100
AcDbLine
 10
17.298
 20
147.995
 30
0.0
 11
17.8807
 21
146.074
 31
0.0
  0
LINE
  5
22C
330
1E
100
AcDbEntity
  8
0
100
AcDbLine
 10
22.1495
 20
145.766
 30
0.0
 11
22.811
 21
145.458
 31
0.0
  0
LINE
  5
22D
330
1E
100
AcDbEntity
  8
0
100
AcDbLine
 10
22.246539990619
 20
147.927282410669
 30
0.0
 11
22.5105
 21
147.804
 31
0.0
  0
LINE
  5
22E
330
1E
100
AcDbEntity
  8
0
100
AcDbLine
 10
22.811
 20
145.458
 30
0.0
 11
23.139952539204
 21
146.163231899004
 31
0.0
  0
LINE
  5
22F
330
1E
100
AcDbEntity
  8
0
100
AcDbLine
 10
22.5105
 20
147.804
 30
0.0
 11
23.472099803464
 21
147.355807370996
 31
0.0
  0
LINE
  5
230
330
1E
100
AcDbEntity
  8
0
100
AcDbLine
 10
22.246539990619
 20
147.927282410669
 30
0.0
 11
22.5105
 21
147.804
 31
0.0
  0
LINE
  5
231
330
1E
100
AcDbEntity
  8
0
100
AcDbLine
 10
25.4299
 20
144.787
 30
0.0
 11
25.641623668168
 21
145.241158791278
 31
0.0
  0
LINE
  5
232
330
1E
100
AcDbEntity
  8
0
100
AcDbLine
 10
25.4299
 20
144.787
 30
0.0
 11
26.753
 21
144.17
 31
0.0
  0
LINE
  5
233
330
1E
100
AcDbEntity
  8
0
100
AcDbLine
 10
25.846
 20
143.491
 30
0.0
 11
26.202567923422
 21
144.255435727924
 31
0.0
  0
LINE
  5
234
330
1E
100
AcDbEntity
  8
0
100
AcDbLine
 10
25.846
 20
143.491
 30
0.0
 11
26.5075
 21
143.182
 31
0.0
  0
LINE
  5
235
330
1E
100
AcDbEntity
  8
0
100
AcDbLine
 10
25.494
 20
145.31
 30
0.0
 11
25.916387049951
 21
146.216043210554
 31
0.0
  0
LINE
  5
236
330
1E
100
AcDbEntity
  8
0
100
AcDbLine
 10
25.494
 20
145.31
 30
0.0
 11
26.8171
 21
144.693
 31
0.0
  0
LINE
  5
237
330
1E
100
AcDbEntity
  8
0
100
AcDbLine
 10
23.015911681876
 20
145.89730426829
 30
0.0
 11
26.579913286918
 21
144.018083731922
 31
0.0
  0
LINE
  5
238
330
1E
100
AcDbEntity
  8
0
100
AcDbLine
 10
23.656185432078
 20
147.269968768251
 30
0.0
 11
25.916387049951
 21
146.216043210554
 31
0.0
  0
LINE
  5
239
330
1E
100
AcDbEntity
  8
0
100
AcDbLine
 10
23.656185432078
 20
147.269968768251
 30
0.0
 11
25.916387049951
 21
146.216043210554
 31
0.0
  0
LINE
  5
23A
330
1E
100
AcDbEntity
  8
0
100
AcDbLine
 10
23.0012
 20
147.575
 30
0.0
 11
26.308933333336
 21
146.032999999999
 31
0.0
  0
LINE
  5
23B
330
1E
100
AcDbEntity
  8
0
100
AcDbLine
 10
23.0012
 20
147.575
 30
0.0
 11
26.308933333337
 21
146.032999999998
 31
0.0
  0
LINE
  5
23C
330
1E
100
AcDbEntity
  8
0
100
AcDbLine
 10
22.1008
 20
149.099
 30
0.0
 11
27.3269
 21
146.662
 31
0.0
  0
LINE
  5
23D
330
1E
100
AcDbEntity
  8
0
100
AcDbLine
 10
26.5075
 20
143.182
 30
0.0
 11
26.71858507381
 21
143.634788971625
 31
0.0
  0
LINE
  5
23E
330
1E
100
AcDbEntity
  8
0
100
AcDbLine
 10
26.5075
 20
143.182
 30
0.0
 11
27.6534
 21
142.647
 31
0.0
  0
LINE
  5
23F
330
1E
100
AcDbEntity
  8
0
100
AcDbLine
 10
26.4694
 20
143.751
 30
0.0
 11
26.68051586981
 21
144.203801457431
 31
0.0
  0
LINE
  5
240
330
1E
100
AcDbEntity
  8
0
100
AcDbLine
 10
26.4694
 20
143.751
 30
0.0
 11
27.7924
 21
143.134
 31
0.0
  0
LINE
  5
241
330
1E
100
AcDbEntity
  8
0
100
AcDbLine
 10
26.753
 20
144.17
 30
0.0
 11
27.088988551432
 21
144.890713728994
 31
0.0
  0
LINE
  5
242
330
1E
100
AcDbEntity
  8
0
100
AcDbLine
 10
26.753
 20
144.17
 30
0.0
 11
27.035399512879
 21
144.775762324716
 31
0.0
  0
LINE
  5
243
330
1E
100
AcDbEntity
  8
0
100
AcDbLine
 10
26.8171
 20
144.693
 30
0.0
 11
27.239501350407
 21
145.599073885812
 31
0.0
  0
LINE
  5
244
330
1E
100
AcDbEntity
  8
0
100
AcDbLine
 10
26.0142
 20
170.445
 30
0.0
 11
30.9759
 21
168.131
 31
0.0
  0
LINE
  5
245
330
1E
100
AcDbEntity
  8
0
100
AcDbLine
 10
22.4016
 20
173.233
 30
0.0
 11
26.8338
 21
171.166
 31
0.0
  0
LINE
  5
246
330
1E
100
AcDbEntity
  8
0
100
AcDbLine
 10
27.6534
 20
142.647
 30
0.0
 11
27.967307100186
 21
143.320798934726
 31
0.0
  0
LINE
  5
247
330
1E
100
AcDbEntity
  8
0
100
AcDbLine
 10
27.7924
 20
143.134
 30
0.0
 11
28.113360963019
 21
143.822397286116
 31
0.0
  0
LINE
  5
248
330
1E
100
AcDbEntity
  8
0
100
AcDbLine
 10
27.6673
 20
142.641
 30
0.0
 11
28.037024987791
 21
143.433986398753
 31
0.0
  0
LINE
  5
249
330
1E
100
AcDbEntity
  8
0
100
AcDbLine
 10
27.6673
 20
142.641
 30
0.0
 11
28.3288
 21
142.333
 31
0.0
  0
LINE
  5
24A
330
1E
100
AcDbEntity
  8
0
100
AcDbLine
 10
27.6673
 20
142.641
 30
0.0
 11
28.813
 21
142.107
 31
0.0
  0
LINE
  5
24B
330
1E
100
AcDbEntity
  8
0
100
AcDbLine
 10
27.6673
 20
142.641
 30
0.0
 11
27.972350143509
 21
143.29527174989
 31
0.0
  0
LINE
  5
24C
330
1E
100
AcDbEntity
  8
0
100
AcDbLine
 10
27.1689
 20
145.632
 30
0.0
 11
32.9905
 21
142.917
 31
0.0
  0
LINE
  5
24D
330
1E
100
AcDbEntity
  8
0
100
AcDbLine
 10
27.3269
 20
146.662
 30
0.0
 11
32.9501
 21
144.039
 31
0.0
  0
LINE
  5
24E
330
1E
100
AcDbEntity
  8
0
100
AcDbLine
 10
26.8338
 20
171.166
 30
0.0
 11
31.7292
 21
168.883
 31
0.0
  0
LINE
  5
24F
330
1E
100
AcDbEntity
  8
0
100
AcDbLine
 10
26.1987
 20
142.348
 30
0.0
 11
27.729424996408
 21
142.612044123172
 31
0.0
  0
LINE
  5
259
330
1E
100
AcDbEntity
  8
0
100
AcDbLine
 10
28.3288
 20
142.333
 30
0.0
 11
28.703715186948
 21
143.136674812197
 31
0.0
  0
LINE
  5
25A
330
1E
100
AcDbEntity
  8
0
100
AcDbLine
 10
28.3288
 20
142.333
 30
0.0
 11
29.4745
 21
141.799
 31
0.0
  0
LINE
  5
25B
330
1E
100
AcDbEntity
  8
0
100
AcDbLine
 10
27.88400128317
 20
143.330466492827
 30
0.0
 11
27.968087660974
 21
143.286129574524
 31
0.0
  0
LINE
  5
25F
330
1E
100
AcDbEntity
  8
0
100
AcDbLine
 10
28.813
 20
142.107
 30
0.0
 11
29.4745
 21
141.799
 31
0.0
  0
LINE
  5
260
330
1E
100
AcDbEntity
  8
0
100
AcDbLine
 10
29.4745
 20
141.799
 30
0.0
 11
29.816212976354
 21
142.53150196753
 31
0.0
  0
LINE
  5
261
330
1E
100
AcDbEntity
  8
0
100
AcDbLine
 10
29.4745
 20
141.799
 30
0.0
 11
29.737735905277
 21
142.363277132807
 31
0.0
  0
LINE
  5
262
330
1E
100
AcDbEntity
  8
0
100
AcDbLine
 10
29.733900266773
 20
142.35505499041
 30
0.0
 11
31.8145
 21
141.258
 31
0.0
  0
LINE
  5
263
330
1E
100
AcDbEntity
  8
0
100
AcDbLine
 10
30.9759
 20
168.131
 30
0.0
 11
36.2019
 21
165.694
 31
0.0
  0
LINE
  5
268
330
1E
100
AcDbEntity
  8
0
100
AcDbLine
 10
31.9469
 20
141.197
 30
0.0
 11
32.2115
 21
141.073
 31
0.0
  0
LINE
  5
269
330
1E
100
AcDbEntity
  8
0
100
AcDbLine
 10
31.8145
 20
141.258
 30
0.0
 11
34.12148933093
 21
140.183656125149
 31
0.0
  0
LINE
  5
26A
330
1E
100
AcDbEntity
  8
0
100
AcDbLine
 10
32.234286807097
 20
143.269672601816
 30
0.0
 11
32.9905
 21
142.917
 31
0.0
  0
LINE
  5
26B
330
1E
100
AcDbEntity
  8
0
100
AcDbLine
 10
32.234286807093
 20
143.269672601818
 30
0.0
 11
32.9905
 21
142.917
 31
0.0
  0
LINE
  5
26C
330
1E
100
AcDbEntity
  8
0
100
AcDbLine
 10
32.234286807086
 20
143.269672601821
 30
0.0
 11
33.9166
 21
142.485
 31
0.0
  0
LINE
  5
26D
330
1E
100
AcDbEntity
  8
0
100
AcDbLine
 10
32.234286807093
 20
143.269672601818
 30
0.0
 11
33.9166
 21
142.485
 31
0.0
  0
LINE
  5
26E
330
1E
100
AcDbEntity
  8
0
100
AcDbLine
 10
32.9905
 20
142.917
 30
0.0
 11
38.4812
 21
140.357
 31
0.0
  0
LINE
  5
26F
330
1E
100
AcDbEntity
  8
0
100
AcDbLine
 10
32.9905
 20
142.917
 30
0.0
 11
34.672251211867
 21
142.132895404524
 31
0.0
  0
LINE
  5
270
330
1E
100
AcDbEntity
  8
0
100
AcDbLine
 10
32.9501
 20
144.039
 30
0.0
 11
38.8377
 21
141.294
 31
0.0
  0
LINE
  5
271
330
1E
100
AcDbEntity
  8
0
100
AcDbLine
 10
31.7292
 20
168.883
 30
0.0
 11
36.8892
 21
166.477
 31
0.0
  0
LINE
  5
279
330
1E
100
AcDbEntity
  8
0
100
AcDbLine
 10
42.9412
 20
136.623
 30
0.0
 11
44.2642
 21
136.006
 31
0.0
  0
LINE
  5
27A
330
1E
100
AcDbEntity
  8
0
100
AcDbLine
 10
42.9412
 20
136.623
 30
0.0
 11
43.202020165525
 21
137.182164860307
 31
0.0
  0
LINE
  5
27B
330
1E
100
AcDbEntity
  8
0
100
AcDbLine
 10
41.8699
 20
136.57
 30
0.0
 11
42.7299960304
 21
136.169205990435
 31
0.0
  0
LINE
  5
27C
330
1E
100
AcDbEntity
  8
0
100
AcDbLine
 10
98.387
 20
136.697
 30
0.0
 11
98.85
 21
136.481
 31
0.0
  0
LINE
  5
27E
330
1E
100
AcDbEntity
  8
0
100
AcDbLine
 10
33.91
 20
139.73
 30
0.0
 11
34.281764592617
 21
140.527455284447
 31
0.0
  0
LINE
  5
27F
330
1E
100
AcDbEntity
  8
0
100
AcDbLine
 10
33.91
 20
139.73
 30
0.0
 11
35.2331
 21
139.113
 31
0.0
  0
LINE
  5
280
330
1E
100
AcDbEntity
  8
0
100
AcDbLine
 10
33.91
 20
139.73
 30
0.0
 11
34.239659438008
 21
140.437137436237
 31
0.0
  0
LINE
  5
281
330
1E
100
AcDbEntity
  8
0
100
AcDbLine
 10
33.91
 20
139.73
 30
0.0
 11
34.12148933093
 21
140.183656125149
 31
0.0
  0
LINE
  5
282
330
1E
100
AcDbEntity
  8
0
100
AcDbLine
 10
33.91
 20
139.73
 30
0.0
 11
34.542175782328
 21
139.435198051775
 31
0.0
  0
LINE
  5
283
330
1E
100
AcDbEntity
  8
0
100
AcDbLine
 10
34.3309
 20
138.982
 30
0.0
 11
34.542175782328
 21
139.435198051775
 31
0.0
  0
LINE
  5
284
330
1E
100
AcDbEntity
  8
0
100
AcDbLine
 10
34.3309
 20
138.982
 30
0.0
 11
34.9924
 21
138.674
 31
0.0
  0
LINE
  5
285
330
1E
100
AcDbEntity
  8
0
100
AcDbLine
 10
34.3309
 20
138.982
 30
0.0
 11
35.375697006331
 21
138.495029936824
 31
0.0
  0
LINE
  5
286
330
1E
100
AcDbEntity
  8
0
100
AcDbLine
 10
34.3309
 20
138.982
 30
0.0
 11
35.375697006331
 21
138.495029936824
 31
0.0
  0
LINE
  5
287
330
1E
100
AcDbEntity
  8
0
100
AcDbLine
 10
34.1856
 20
140.705
 30
0.0
 11
34.396938741998
 21
141.158333103694
 31
0.0
  0
LINE
  5
288
330
1E
100
AcDbEntity
  8
0
100
AcDbLine
 10
34.1856
 20
140.705
 30
0.0
 11
35.5086
 21
140.088
 31
0.0
  0
LINE
  5
289
330
1E
100
AcDbEntity
  8
0
100
AcDbLine
 10
34.2497
 20
141.227
 30
0.0
 11
34.672251211867
 21
142.132895404524
 31
0.0
  0
LINE
  5
28A
330
1E
100
AcDbEntity
  8
0
100
AcDbLine
 10
34.2497
 20
141.227
 30
0.0
 11
35.5727
 21
140.61
 31
0.0
  0
LINE
  5
28B
330
1E
100
AcDbEntity
  8
0
100
AcDbLine
 10
34.2497
 20
141.227
 30
0.0
 11
34.622403013782
 21
142.026027284634
 31
0.0
  0
LINE
  5
28C
330
1E
100
AcDbEntity
  8
0
100
AcDbLine
 10
33.9166
 20
142.485
 30
0.0
 11
38.6135
 21
140.295
 31
0.0
  0
LINE
  5
28E
330
1E
100
AcDbEntity
  8
0
100
AcDbLine
 10
35.375697006331
 20
138.495029936824
 30
0.0
 11
36.1382
 21
138.139
 31
0.0
  0
LINE
  5
28F
330
1E
100
AcDbEntity
  8
0
100
AcDbLine
 10
35.375697006331
 20
138.495029936824
 30
0.0
 11
36.1382
 21
138.139
 31
0.0
  0
LINE
  5
290
330
1E
100
AcDbEntity
  8
0
100
AcDbLine
 10
36.1382
 20
138.139
 30
0.0
 11
36.560773652281
 21
139.045443482708
 31
0.0
  0
LINE
  5
291
330
1E
100
AcDbEntity
  8
0
100
AcDbLine
 10
35.2331
 20
139.113
 30
0.0
 11
35.444376239648
 21
139.566199032752
 31
0.0
  0
LINE
  5
292
330
1E
100
AcDbEntity
  8
0
100
AcDbLine
 10
34.9924
 20
138.674
 30
0.0
 11
35.203588926083
 21
139.126761871821
 31
0.0
  0
LINE
  5
293
330
1E
100
AcDbEntity
  8
0
100
AcDbLine
 10
34.9924
 20
138.674
 30
0.0
 11
36.1382
 21
138.139
 31
0.0
  0
LINE
  5
294
330
1E
100
AcDbEntity
  8
0
100
AcDbLine
 10
34.6363
 20
139.943
 30
0.0
 11
34.847626975643
 21
140.396254237361
 31
0.0
  0
LINE
  5
295
330
1E
100
AcDbEntity
  8
0
100
AcDbLine
 10
34.6363
 20
139.943
 30
0.0
 11
35.9595
 21
139.326
 31
0.0
  0
LINE
  5
296
330
1E
100
AcDbEntity
  8
0
100
AcDbLine
 10
35.5086
 20
140.088
 30
0.0
 11
35.777834034247
 21
140.665521656519
 31
0.0
  0
LINE
  5
297
330
1E
100
AcDbEntity
  8
0
100
AcDbLine
 10
35.824955678466
 20
139.388737187414
 30
0.0
 11
36.3791
 21
139.13
 31
0.0
  0
LINE
  5
298
330
1E
100
AcDbEntity
  8
0
100
AcDbLine
 10
35.9595
 20
139.326
 30
0.0
 11
36.354717972044
 21
140.173764059767
 31
0.0
  0
LINE
  5
299
330
1E
100
AcDbEntity
  8
0
100
AcDbLine
 10
35.824955678466
 20
139.388737187414
 30
0.0
 11
36.3791
 21
139.13
 31
0.0
  0
LINE
  5
29A
330
1E
100
AcDbEntity
  8
0
100
AcDbLine
 10
36.560773652281
 20
139.045443482708
 30
0.0
 11
40.4145
 21
137.249
 31
0.0
  0
LINE
  5
29B
330
1E
100
AcDbEntity
  8
0
100
AcDbLine
 10
43.1525
 20
137.076
 30
0.0
 11
44.4755
 21
136.459
 31
0.0
  0
LINE
  5
29C
330
1E
100
AcDbEntity
  8
0
100
AcDbLine
 10
43.1525
 20
137.076
 30
0.0
 11
43.574903459223
 21
137.981578641875
 31
0.0
  0
LINE
  5
29D
330
1E
100
AcDbEntity
  8
0
100
AcDbLine
 10
40.4145
 20
137.249
 30
0.0
 11
41.8699
 21
136.57
 31
0.0
  0
LINE
  5
29E
330
1E
100
AcDbEntity
  8
0
100
AcDbLine
 10
44.2366
 20
137.673
 30
0.0
 11
49.9921
 21
134.989
 31
0.0
  0
LINE
  5
29F
330
1E
100
AcDbEntity
  8
0
100
AcDbLine
 10
92.763
 20
139.319
 30
0.0
 11
95.344
 21
138.115
 31
0.0
  0
LINE
  5
2A0
330
1E
100
AcDbEntity
  8
0
100
AcDbLine
 10
44.6592
 20
138.58
 30
0.0
 11
50.4808
 21
135.865
 31
0.0
  0
LINE
  5
2A1
330
1E
100
AcDbEntity
  8
0
100
AcDbLine
 10
38.6135
 20
140.295
 30
0.0
 11
44.2366
 21
137.673
 31
0.0
  0
LINE
  5
2A2
330
1E
100
AcDbEntity
  8
0
100
AcDbLine
 10
38.4812
 20
140.357
 30
0.0
 11
44.2366
 21
137.673
 31
0.0
  0
LINE
  5
2A3
330
1E
100
AcDbEntity
  8
0
100
AcDbLine
 10
38.4812
 20
140.357
 30
0.0
 11
43.574903459223
 21
137.981578641875
 31
0.0
  0
LINE
  5
2A4
330
1E
100
AcDbEntity
  8
0
100
AcDbLine
 10
97.196
 20
137.253
 30
0.0
 11
98.387
 21
136.697
 31
0.0
  0
LINE
  5
2A5
330
1E
100
AcDbEntity
  8
0
100
AcDbLine
 10
98.611
 20
137.696
 30
0.0
 11
98.85
 21
136.481
 31
0.0
  0
LINE
  5
2A6
330
1E
100
AcDbEntity
  8
0
100
AcDbLine
 10
95.344
 20
138.115
 30
0.0
 11
97.196
 21
137.253
 31
0.0
  0
LINE
  5
2A7
330
1E
100
AcDbEntity
  8
0
100
AcDbLine
 10
95.105
 20
139.33
 30
0.0
 11
97.023
 21
138.436
 31
0.0
  0
LINE
  5
2A8
330
1E
100
AcDbEntity
  8
0
100
AcDbLine
 10
97.023
 20
138.436
 30
0.0
 11
98.148
 21
137.912
 31
0.0
  0
LINE
  5
2A9
330
1E
100
AcDbEntity
  8
0
100
AcDbLine
 10
98.148
 20
137.912
 30
0.0
 11
98.611
 21
137.696
 31
0.0
  0
LINE
  5
2AA
330
1E
100
AcDbEntity
  8
0
100
AcDbLine
 10
93.389157181356
 20
140.394
 30
0.0
 11
145.268
 21
140.394
 31
0.0
  0
LINE
  5
2AB
330
1E
100
AcDbEntity
  8
0
100
AcDbLine
 10
145.268
 20
140.394
 30
0.0
 11
150.518
 21
140.358
 31
0.0
  0
LINE
  5
2AC
330
1E
100
AcDbEntity
  8
0
100
AcDbLine
 10
159.031
 20
139.707
 30
0.0
 11
161.45
 21
139.257
 31
0.0
  0
LINE
  5
2AD
330
1E
100
AcDbEntity
  8
0
100
AcDbLine
 10
156.512
 20
140.027
 30
0.0
 11
159.031
 21
139.707
 31
0.0
  0
LINE
  5
2AF
330
1E
100
AcDbEntity
  8
0
100
AcDbLine
 10
152.985
 20
140.279
 30
0.0
 11
156.512
 21
140.027
 31
0.0
  0
LINE
  5
2B0
330
1E
100
AcDbEntity
  8
0
100
AcDbLine
 10
150.518
 20
140.358
 30
0.0
 11
152.985
 21
140.279
 31
0.0
  0
LINE
  5
2B2
330
1E
100
AcDbEntity
  8
0
100
AcDbLine
 10
35.5727
 20
140.61
 30
0.0
 11
35.995353817177
 21
141.516008182568
 31
0.0
  0
LINE
  5
2B3
330
1E
100
AcDbEntity
  8
0
100
AcDbLine
 10
36.804568362414
 20
141.138717630215
 30
0.0
 11
38.4812
 21
140.357
 31
0.0
  0
LINE
  5
2B4
330
1E
100
AcDbEntity
  8
0
100
AcDbLine
 10
38.8377
 20
141.294
 30
0.0
 11
44.6592
 21
138.58
 31
0.0
  0
LINE
  5
2B5
330
1E
100
AcDbEntity
  8
0
100
AcDbLine
 10
53.5343
 20
157.612
 30
0.0
 11
59.3558
 21
154.897
 31
0.0
  0
LINE
  5
2B6
330
1E
100
AcDbEntity
  8
0
100
AcDbLine
 10
54.8021
 20
160.331
 30
0.0
 11
98.611
 21
137.696
 31
0.0
  0
LINE
  5
2B7
330
1E
100
AcDbEntity
  8
0
100
AcDbLine
 10
53.9569
 20
158.518
 30
0.0
 11
59.7123
 21
155.834
 31
0.0
  0
LINE
  5
2B8
330
1E
100
AcDbEntity
  8
0
100
AcDbLine
 10
47.7127
 20
160.327
 30
0.0
 11
53.5343
 21
157.612
 31
0.0
  0
LINE
  5
2B9
330
1E
100
AcDbEntity
  8
0
100
AcDbLine
 10
36.2019
 20
165.694
 30
0.0
 11
41.825
 21
163.072
 31
0.0
  0
LINE
  5
2BA
330
1E
100
AcDbEntity
  8
0
100
AcDbLine
 10
41.825
 20
163.072
 30
0.0
 11
47.7127
 21
160.327
 31
0.0
  0
LINE
  5
2BB
330
1E
100
AcDbEntity
  8
0
100
AcDbLine
 10
36.8892
 20
166.477
 30
0.0
 11
42.7107
 21
163.763
 31
0.0
  0
LINE
  5
2BC
330
1E
100
AcDbEntity
  8
0
100
AcDbLine
 10
42.7107
 20
163.763
 30
0.0
 11
48.2015
 21
161.202
 31
0.0
  0
LINE
  5
2BD
330
1E
100
AcDbEntity
  8
0
100
AcDbLine
 10
48.2015
 20
161.202
 30
0.0
 11
53.9569
 21
158.518
 31
0.0
  0
LINE
  5
2BE
330
1E
100
AcDbEntity
  8
0
100
AcDbLine
 10
59.3558
 20
154.897
 30
0.0
 11
65.2435
 21
152.151
 31
0.0
  0
LINE
  5
2BF
330
1E
100
AcDbEntity
  8
0
100
AcDbLine
 10
70.8666
 20
149.53
 30
0.0
 11
76.0927
 21
147.093
 31
0.0
  0
LINE
  5
2C0
330
1E
100
AcDbEntity
  8
0
100
AcDbLine
 10
65.2435
 20
152.151
 30
0.0
 11
70.8666
 21
149.53
 31
0.0
  0
LINE
  5
2C1
330
1E
100
AcDbEntity
  8
0
100
AcDbLine
 10
81.0543
 20
144.779
 30
0.0
 11
85.5528
 21
142.681
 31
0.0
  0
LINE
  5
2C2
330
1E
100
AcDbEntity
  8
0
100
AcDbLine
 10
76.0927
 20
147.093
 30
0.0
 11
81.0543
 21
144.779
 31
0.0
  0
LINE
  5
2C3
330
1E
100
AcDbEntity
  8
0
100
AcDbLine
 10
85.5528
 20
142.681
 30
0.0
 11
89.456
 21
140.862
 31
0.0
  0
LINE
  5
2C4
330
1E
100
AcDbEntity
  8
0
100
AcDbLine
 10
85.5122
 20
143.803
 30
0.0
 11
89.349
 21
142.015
 31
0.0
  0
LINE
  5
2C5
330
1E
100
AcDbEntity
  8
0
100
AcDbLine
 10
89.456
 20
140.862
 30
0.0
 11
92.763
 21
139.319
 31
0.0
  0
LINE
  5
2C6
330
1E
100
AcDbEntity
  8
0
100
AcDbLine
 10
89.349
 20
142.015
 30
0.0
 11
92.657
 21
140.472
 31
0.0
  0
LINE
  5
2C7
330
1E
100
AcDbEntity
  8
0
100
AcDbLine
 10
92.657
 20
140.472
 30
0.0
 11
95.105
 21
139.33
 31
0.0
  0
LINE
  5
2C8
330
1E
100
AcDbEntity
  8
0
100
AcDbLine
 10
81.0799
 20
145.871
 30
0.0
 11
85.5122
 21
143.803
 31
0.0
  0
LINE
  5
2C9
330
1E
100
AcDbEntity
  8
0
100
AcDbLine
 10
76.1845
 20
148.153
 30
0.0
 11
81.0799
 21
145.871
 31
0.0
  0
LINE
  5
2CA
330
1E
100
AcDbEntity
  8
0
100
AcDbLine
 10
71.0246
 20
150.559
 30
0.0
 11
76.1845
 21
148.153
 31
0.0
  0
LINE
  5
2CB
330
1E
100
AcDbEntity
  8
0
100
AcDbLine
 10
65.203
 20
153.274
 30
0.0
 11
71.0246
 21
150.559
 31
0.0
  0
LINE
  5
2CC
330
1E
100
AcDbEntity
  8
0
100
AcDbLine
 10
59.7123
 20
155.834
 30
0.0
 11
65.203
 21
153.274
 31
0.0
  0
LINE
  5
2CD
330
1E
100
AcDbEntity
  8
0
100
AcDbLine
 10
146.773
 20
160.0
 30
0.0
 11
152.078
 21
159.964
 31
0.0
  0
LINE
  5
2CE
330
1E
100
AcDbEntity
  8
0
100
AcDbLine
 10
152.078
 20
159.964
 30
0.0
 11
154.714
 21
159.882
 31
0.0
  0
LINE
  5
2CF
330
1E
100
AcDbEntity
  8
0
100
AcDbLine
 10
154.714
 20
159.882
 30
0.0
 11
158.643
 21
159.62
 31
0.0
  0
LINE
  5
2D0
330
1E
100
AcDbEntity
  8
0
100
AcDbLine
 10
158.643
 20
159.62
 30
0.0
 11
161.567
 21
159.285
 31
0.0
  0
LINE
  5
2D1
330
1E
100
AcDbEntity
  8
0
100
AcDbLine
 10
55.442733792799
 20
160.0
 30
0.0
 11
146.773
 21
160.0
 31
0.0
  0
LINE
  5
2D2
330
1E
100
AcDbEntity
  8
0
100
AcDbLine
 10
93.389157181356
 20
140.394
 30
0.0
 11
145.268
 21
140.394
 31
0.0
  0
LINE
  5
2DB
330
1E
100
AcDbEntity
  8
0
100
AcDbLine
 10
162.3
 20
9.0
 30
0.0
 11
165.7
 21
9.0
 31
0.0
  0
LINE
  5
2DC
330
1E
100
AcDbEntity
  8
0
100
AcDbLine
 10
162.0
 20
10.0
 30
0.0
 11
163.2
 21
10.0
 31
0.0
  0
LINE
  5
2DD
330
1E
100
AcDbEntity
  8
0
100
AcDbLine
 10
161.032
 20
31.3391
 30
0.0
 11
164.184
 21
33.9837
 31
0.0
  0
LINE
  5
2DE
330
1E
100
AcDbEntity
  8
0
100
AcDbLine
 10
161.511
 20
32.9992
 30
0.0
 11
163.401
 21
34.5522
 31
0.0
  0
LINE
  5
2DF
330
1E
100
AcDbEntity
  8
0
100
AcDbLine
 10
163.401
 20
34.5522
 30
0.0
 11
165.666
 21
36.4597
 31
0.0
  0
LINE
  5
2E0
330
1E
100
AcDbEntity
  8
0
100
AcDbLine
 10
162.228
 20
31.9803
 30
0.0
 11
164.1
 21
33.5505
 31
0.0
  0
LINE
  5
2E1
330
1E
100
AcDbEntity
  8
0
100
AcDbLine
 10
164.184
 20
33.9837
 30
0.0
 11
166.219
 21
35.6917
 31
0.0
  0
LINE
  5
2E2
330
1E
100
AcDbEntity
  8
0
100
AcDbLine
 10
164.1
 20
33.5505
 30
0.0
 11
166.267
 21
35.3687
 31
0.0
  0
LINE
  5
2E3
330
1E
100
AcDbEntity
  8
0
100
AcDbLine
 10
163.2
 20
10.0
 30
0.0
 11
166.6
 21
10.0
 31
0.0
  0
LINE
  5
2E4
330
1E
100
AcDbEntity
  8
0
100
AcDbLine
 10
165.7
 20
9.0
 30
0.0
 11
171.3
 21
9.0
 31
0.0
  0
LINE
  5
2E5
330
1E
100
AcDbEntity
  8
0
100
AcDbLine
 10
165.666
 20
36.4597
 30
0.0
 11
167.971
 21
38.4555
 31
0.0
  0
LINE
  5
2E6
330
1E
100
AcDbEntity
  8
0
100
AcDbLine
 10
165.654
 20
22.1635
 30
0.0
 11
171.3
 21
15.4
 31
0.0
  0
LINE
  5
2E7
330
1E
100
AcDbEntity
  8
0
100
AcDbLine
 10
164.892
 20
138.31
 30
0.0
 11
168.107
 21
137.022
 31
0.0
  0
LINE
  5
2E9
330
1E
100
AcDbEntity
  8
0
100
AcDbLine
 10
164.465
 20
158.809
 30
0.0
 11
166.528972577802
 21
158.323841179774
 31
0.0
  0
LINE
  5
2EA
330
1E
100
AcDbEntity
  8
0
100
AcDbLine
 10
164.465
 20
158.809
 30
0.0
 11
166.528972577802
 21
158.323841179774
 31
0.0
  0
LINE
  5
2EB
330
1E
100
AcDbEntity
  8
0
100
AcDbLine
 10
161.567
 20
159.285
 30
0.0
 11
164.465
 21
158.809
 31
0.0
  0
LINE
  5
2EC
330
1E
100
AcDbEntity
  8
0
100
AcDbLine
 10
161.45
 20
139.257
 30
0.0
 11
164.892
 21
138.31
 31
0.0
  0
LINE
  5
2ED
330
1E
100
AcDbEntity
  8
0
100
AcDbLine
 10
161.0
 20
6.58
 30
0.0
 11
161.0
 21
0.0
 31
0.0
  0
LINE
  5
2EE
330
1E
100
AcDbEntity
  8
0
100
AcDbLine
 10
161.0
 20
0.0
 30
0.0
 11
162.26
 21
0.0
 31
0.0
  0
LINE
  5
2EF
330
1E
100
AcDbEntity
  8
0
100
AcDbLine
 10
161.0
 20
0.0
 30
0.0
 11
161.0
 21
6.58
 31
0.0
  0
LINE
  5
2F0
330
1E
100
AcDbEntity
  8
0
100
AcDbLine
 10
161.0
 20
0.0
 30
0.0
 11
161.0
 21
9.0
 31
0.0
  0
LINE
  5
2F1
330
1E
100
AcDbEntity
  8
0
100
AcDbLine
 10
161.0
 20
0.0
 30
0.0
 11
162.3
 21
0.0
 31
0.0
  0
LINE
  5
2FA
330
1E
100
AcDbEntity
  8
0
100
AcDbLine
 10
166.72
 20
0.0
 30
0.0
 11
167.8
 21
0.0
 31
0.0
  0
LINE
  5
313
330
1E
100
AcDbEntity
  8
0
100
AcDbLine
 10
167.8
 20
0.0
 30
0.0
 11
170.68
 21
0.0
 31
0.0
  0
LINE
  5
314
330
1E
100
AcDbEntity
  8
0
100
AcDbLine
 10
170.68
 20
0.0
 30
0.0
 11
175.36
 21
0.0
 31
0.0
  0
LINE
  5
318
330
1E
100
AcDbEntity
  8
0
100
AcDbLine
 10
171.3
 20
0.0
 30
0.0
 11
178.6
 21
0.0
 31
0.0
  0
LINE
  5
31C
330
1E
100
AcDbEntity
  8
0
100
AcDbLine
 10
171.3
 20
9.0
 30
0.0
 11
178.6
 21
9.0
 31
0.0
  0
LINE
  5
31D
330
1E
100
AcDbEntity
  8
0
100
AcDbLine
 10
166.6
 20
10.0
 30
0.0
 11
172.0
 21
10.0
 31
0.0
  0
LINE
  5
325
330
1E
100
AcDbEntity
  8
0
100
AcDbLine
 10
175.36
 20
0.0
 30
0.0
 11
181.48
 21
0.0
 31
0.0
  0
LINE
  5
328
330
1E
100
AcDbEntity
  8
0
100
AcDbLine
 10
172.0
 20
10.0
 30
0.0
 11
179.1
 21
10.0
 31
0.0
  0
LINE
  5
32A
330
1E
100
AcDbEntity
  8
0
100
AcDbLine
 10
167.971
 20
38.4555
 30
0.0
 11
170.365
 21
40.4079
 31
0.0
  0
LINE
  5
32B
330
1E
100
AcDbEntity
  8
0
100
AcDbLine
 10
170.365
 20
40.4079
 30
0.0
 11
172.591
 21
42.2272
 31
0.0
  0
LINE
  5
32C
330
1E
100
AcDbEntity
  8
0
100
AcDbLine
 10
168.419
 20
37.5374
 30
0.0
 11
172.817820210424
 21
41.09392320544
 31
0.0
  0
LINE
  5
32D
330
1E
100
AcDbEntity
  8
0
100
AcDbLine
 10
170.929
 20
39.2806
 30
0.0
 11
173.095
 21
41.0987
 31
0.0
  0
LINE
  5
32E
330
1E
100
AcDbEntity
  8
0
100
AcDbLine
 10
168.598
 20
37.3246
 30
0.0
 11
170.929
 21
39.2806
 31
0.0
  0
LINE
  5
32F
330
1E
100
AcDbEntity
  8
0
100
AcDbLine
 10
166.219
 20
35.6917
 30
0.0
 11
168.419
 21
37.5374
 31
0.0
  0
LINE
  5
330
330
1E
100
AcDbEntity
  8
0
100
AcDbLine
 10
166.267
 20
35.3687
 30
0.0
 11
168.598
 21
37.3246
 31
0.0
  0
LINE
  5
331
330
1E
100
AcDbEntity
  8
0
100
AcDbLine
 10
172.591
 20
42.2272
 30
0.0
 11
174.52
 21
43.8684
 31
0.0
  0
LINE
  5
332
330
1E
100
AcDbEntity
  8
0
100
AcDbLine
 10
172.817820210424
 20
41.09392320544
 30
0.0
 11
172.861
 21
41.1293
 31
0.0
  0
LINE
  5
333
330
1E
100
AcDbEntity
  8
0
100
AcDbLine
 10
172.861
 20
41.1293
 30
0.0
 11
174.622
 21
42.6374
 31
0.0
  0
LINE
  5
334
330
1E
100
AcDbEntity
  8
0
100
AcDbLine
 10
174.622
 20
42.6374
 30
0.0
 11
176.006
 21
43.7909
 31
0.0
  0
LINE
  5
335
330
1E
100
AcDbEntity
  8
0
100
AcDbLine
 10
174.52
 20
43.8684
 30
0.0
 11
175.944
 21
45.1101
 31
0.0
  0
LINE
  5
336
330
1E
100
AcDbEntity
  8
0
100
AcDbLine
 10
173.095
 20
41.0987
 30
0.0
 11
174.967
 21
42.669
 31
0.0
  0
LINE
  5
337
330
1E
100
AcDbEntity
  8
0
100
AcDbLine
 10
175.944
 20
45.1101
 30
0.0
 11
176.825
 21
45.8642
 31
0.0
  0
LINE
  5
338
330
1E
100
AcDbEntity
  8
0
100
AcDbLine
 10
174.967
 20
42.669
 30
0.0
 11
176.411
 21
43.8811
 31
0.0
  0
LINE
  5
339
330
1E
100
AcDbEntity
  8
0
100
AcDbLine
 10
174.4
 20
17.1
 30
0.0
 11
176.7
 21
18.3
 31
0.0
  0
LINE
  5
33A
330
1E
100
AcDbEntity
  8
0
100
AcDbLine
 10
172.7
 20
16.2
 30
0.0
 11
174.4
 21
17.1
 31
0.0
  0
LINE
  5
33B
330
1E
100
AcDbEntity
  8
0
100
AcDbLine
 10
171.7
 20
15.6
 30
0.0
 11
172.7
 21
16.2
 31
0.0
  0
LINE
  5
33C
330
1E
100
AcDbEntity
  8
0
100
AcDbLine
 10
171.3
 20
15.4
 30
0.0
 11
171.7
 21
15.6
 31
0.0
  0
LINE
  5
33D
330
1E
100
AcDbEntity
  8
0
100
AcDbLine
 10
169.0
 20
10.0
 30
0.0
 11
171.3
 21
15.4
 31
0.0
  0
LINE
  5
341
330
1E
100
AcDbEntity
  8
0
100
AcDbLine
 10
178.6
 20
0.0
 30
0.0
 11
187.0
 21
0.0
 31
0.0
  0
LINE
  5
342
330
1E
100
AcDbEntity
  8
0
100
AcDbLine
 10
178.6
 20
9.0
 30
0.0
 11
187.0
 21
9.0
 31
0.0
  0
LINE
  5
343
330
1E
100
AcDbEntity
  8
0
100
AcDbLine
 10
176.006
 20
43.7909
 30
0.0
 11
176.758
 21
44.5
 31
0.0
  0
LINE
  5
345
330
1E
100
AcDbEntity
  8
0
100
AcDbLine
 10
176.758
 20
44.5
 30
0.0
 11
177.094
 21
44.7663
 31
0.0
  0
LINE
  5
346
330
1E
100
AcDbEntity
  8
0
100
AcDbLine
 10
176.411
 20
43.8811
 30
0.0
 11
177.298
 21
44.6248
 31
0.0
  0
LINE
  5
347
330
1E
100
AcDbEntity
  8
0
100
AcDbLine
 10
177.094
 20
44.7663
 30
0.0
 11
177.161
 21
46.1305
 31
0.0
  0
LINE
  5
348
330
1E
100
AcDbEntity
  8
0
100
AcDbLine
 10
177.298
 20
44.6248
 30
0.0
 11
177.626
 21
44.9003
 31
0.0
  0
LINE
  5
349
330
1E
100
AcDbEntity
  8
0
100
AcDbLine
 10
177.043612477089
 20
44.726364888835
 30
0.0
 11
177.626
 21
44.9003
 31
0.0
  0
LINE
  5
34A
330
1E
100
AcDbEntity
  8
0
100
AcDbLine
 10
177.043612477089
 20
44.726364888835
 30
0.0
 11
177.094
 21
44.7663
 31
0.0
  0
LINE
  5
34B
330
1E
100
AcDbEntity
  8
0
100
AcDbLine
 10
176.825
 20
45.8642
 30
0.0
 11
177.161
 21
46.1305
 31
0.0
  0
LINE
  5
34C
330
1E
100
AcDbEntity
  8
0
100
AcDbLine
 10
177.626
 20
44.9003
 30
0.0
 11
178.326
 21
44.3997
 31
0.0
  0
LINE
  5
34D
330
1E
100
AcDbEntity
  8
0
100
AcDbLine
 10
178.326
 20
44.3997
 30
0.0
 11
184.039
 21
37.5904
 31
0.0
  0
LINE
  5
34E
330
1E
100
AcDbEntity
  8
0
100
AcDbLine
 10
176.7
 20
18.3
 30
0.0
 11
179.3
 21
19.7
 31
0.0
  0
LINE
  5
355
330
1E
100
AcDbEntity
  8
0
100
AcDbLine
 10
181.48
 20
0.0
 30
0.0
 11
188.44
 21
0.0
 31
0.0
  0
LINE
  5
358
330
1E
100
AcDbEntity
  8
0
100
AcDbLine
 10
179.1
 20
10.0
 30
0.0
 11
187.3
 21
10.0
 31
0.0
  0
LINE
  5
359
330
1E
100
AcDbEntity
  8
0
100
AcDbLine
 10
179.3
 20
19.7
 30
0.0
 11
182.1
 21
21.2
 31
0.0
  0
LINE
  5
35D
330
1E
100
AcDbEntity
  8
0
100
AcDbLine
 10
184.9
 20
22.7
 30
0.0
 11
187.4
 21
24.1
 31
0.0
  0
LINE
  5
35E
330
1E
100
AcDbEntity
  8
0
100
AcDbLine
 10
182.1
 20
21.2
 30
0.0
 11
184.9
 21
22.7
 31
0.0
  0
LINE
  5
35F
330
1E
100
AcDbEntity
  8
0
100
AcDbLine
 10
184.039
 20
37.5904
 30
0.0
 11
192.9
 21
27.0
 31
0.0
  0
LINE
  5
360
330
1E
100
AcDbEntity
  8
0
100
AcDbLine
 10
187.0
 20
0.0
 30
0.0
 11
196.0
 21
0.0
 31
0.0
  0
LINE
  5
361
330
1E
100
AcDbEntity
  8
0
100
AcDbLine
 10
187.0
 20
9.0
 30
0.0
 11
196.0
 21
9.0
 31
0.0
  0
LINE
  5
36E
330
1E
100
AcDbEntity
  8
0
100
AcDbLine
 10
188.44
 20
0.0
 30
0.0
 11
196.0
 21
0.0
 31
0.0
  0
LINE
  5
371
330
1E
100
AcDbEntity
  8
0
100
AcDbLine
 10
187.3
 20
10.0
 30
0.0
 11
196.0
 21
10.0
 31
0.0
  0
LINE
  5
372
330
1E
100
AcDbEntity
  8
0
100
AcDbLine
 10
189.7
 20
25.3
 30
0.0
 11
191.4
 21
26.2
 31
0.0
  0
LINE
  5
373
330
1E
100
AcDbEntity
  8
0
100
AcDbLine
 10
187.4
 20
24.1
 30
0.0
 11
189.7
 21
25.3
 31
0.0
  0
LINE
  5
39D
330
1E
100
AcDbEntity
  8
0
100
AcDbLine
 10
196.0
 20
0.0
 30
0.0
 11
205.0
 21
0.0
 31
0.0
  0
LINE
  5
39E
330
1E
100
AcDbEntity
  8
0
100
AcDbLine
 10
196.0
 20
0.0
 30
0.0
 11
203.56
 21
0.0
 31
0.0
  0
LINE
  5
39F
330
1E
100
AcDbEntity
  8
0
100
AcDbLine
 10
196.0
 20
9.0
 30
0.0
 11
205.0
 21
9.0
 31
0.0
  0
LINE
  5
3A0
330
1E
100
AcDbEntity
  8
0
100
AcDbLine
 10
196.0
 20
10.0
 30
0.0
 11
204.7
 21
10.0
 31
0.0
  0
LINE
  5
3A1
330
1E
100
AcDbEntity
  8
0
100
AcDbLine
 10
192.9
 20
27.0
 30
0.0
 11
196.0
 21
27.0
 31
0.0
  0
LINE
  5
3A2
330
1E
100
AcDbEntity
  8
0
100
AcDbLine
 10
192.5
 20
26.8
 30
0.0
 11
192.9
 21
27.0
 31
0.0
  0
LINE
  5
3A3
330
1E
100
AcDbEntity
  8
0
100
AcDbLine
 10
191.4
 20
26.2
 30
0.0
 11
192.5
 21
26.8
 31
0.0
  0
LINE
  5
3A4
330
1E
100
AcDbEntity
  8
0
100
AcDbLine
 10
196.0
 20
27.0
 30
0.0
 11
203.0
 21
26.5
 31
0.0
  0
LINE
  5
3CF
330
1E
100
AcDbEntity
  8
0
100
AcDbLine
 10
203.56
 20
0.0
 30
0.0
 11
210.52
 21
0.0
 31
0.0
  0
LINE
  5
3DB
330
1E
100
AcDbEntity
  8
0
100
AcDbLine
 10
210.52
 20
0.0
 30
0.0
 11
216.64
 21
0.0
 31
0.0
  0
LINE
  5
3DD
330
1E
100
AcDbEntity
  8
0
100
AcDbLine
 10
205.0
 20
0.0
 30
0.0
 11
213.4
 21
0.0
 31
0.0
  0
LINE
  5
3DE
330
1E
100
AcDbEntity
  8
0
100
AcDbLine
 10
205.0
 20
9.0
 30
0.0
 11
213.4
 21
9.0
 31
0.0
  0
LINE
  5
3DF
330
1E
100
AcDbEntity
  8
0
100
AcDbLine
 10
213.4
 20
0.0
 30
0.0
 11
220.7
 21
0.0
 31
0.0
  0
LINE
  5
3EE
330
1E
100
AcDbEntity
  8
0
100
AcDbLine
 10
216.64
 20
0.0
 30
0.0
 11
221.32
 21
0.0
 31
0.0
  0
LINE
  5
3F6
330
1E
100
AcDbEntity
  8
0
100
AcDbLine
 10
220.7
 20
0.0
 30
0.0
 11
226.3
 21
0.0
 31
0.0
  0
LINE
  5
3F7
330
1E
100
AcDbEntity
  8
0
100
AcDbLine
 10
220.7
 20
9.0
 30
0.0
 11
226.3
 21
9.0
 31
0.0
  0
LINE
  5
3F8
330
1E
100
AcDbEntity
  8
0
100
AcDbLine
 10
213.4
 20
9.0
 30
0.0
 11
220.7
 21
9.0
 31
0.0
  0
LINE
  5
3F9
330
1E
100
AcDbEntity
  8
0
100
AcDbLine
 10
220.0
 20
10.0
 30
0.0
 11
225.4
 21
10.0
 31
0.0
  0
LINE
  5
3FA
330
1E
100
AcDbEntity
  8
0
100
AcDbLine
 10
212.9
 20
10.0
 30
0.0
 11
220.0
 21
10.0
 31
0.0
  0
LINE
  5
3FB
330
1E
100
AcDbEntity
  8
0
100
AcDbLine
 10
204.7
 20
10.0
 30
0.0
 11
212.9
 21
10.0
 31
0.0
  0
LINE
  5
413
330
1E
100
AcDbEntity
  8
0
100
AcDbLine
 10
221.32
 20
0.0
 30
0.0
 11
224.2
 21
0.0
 31
0.0
  0
LINE
  5
414
330
1E
100
AcDbEntity
  8
0
100
AcDbLine
 10
224.2
 20
0.0
 30
0.0
 11
225.28
 21
0.0
 31
0.0
  0
LINE
  5
416
330
1E
100
AcDbEntity
  8
0
100
AcDbLine
 10
221.0
 20
15.0
 30
0.0
 11
223.0
 21
10.0
 31
0.0
  0
LINE
  5
417
330
1E
100
AcDbEntity
  8
0
100
AcDbLine
 10
220.0
 20
16.0
 30
0.0
 11
220.0
 21
59.58
 31
0.0
  0
LINE
  5
41C
330
1E
100
AcDbEntity
  8
0
100
AcDbLine
 10
226.3
 20
0.0
 30
0.0
 11
229.7
 21
0.0
 31
0.0
  0
LINE
  5
423
330
1E
100
AcDbEntity
  8
0
100
AcDbLine
 10
231.0
 20
0.0
 30
0.0
 11
231.0
 21
9.0
 31
0.0
  0
LINE
  5
424
330
1E
100
AcDbEntity
  8
0
100
AcDbLine
 10
229.7
 20
0.0
 30
0.0
 11
231.0
 21
0.0
 31
0.0
  0
LINE
  5
425
330
1E
100
AcDbEntity
  8
0
100
AcDbLine
 10
226.38
 20
0.0
 30
0.0
 11
229.74
 21
0.0
 31
0.0
  0
LINE
  5
426
330
1E
100
AcDbEntity
  8
0
100
AcDbLine
 10
226.3
 20
9.0
 30
0.0
 11
229.7
 21
9.0
 31
0.0
  0
LINE
  5
427
330
1E
100
AcDbEntity
  8
0
100
AcDbLine
 10
229.7
 20
9.0
 30
0.0
 11
231.0
 21
9.0
 31
0.0
  0
LINE
  5
428
330
1E
100
AcDbEntity
  8
0
100
AcDbLine
 10
228.8
 20
10.0
 30
0.0
 11
230.0
 21
10.0
 31
0.0
  0
LINE
  5
429
330
1E
100
AcDbEntity
  8
0
100
AcDbLine
 10
225.4
 20
10.0
 30
0.0
 11
228.8
 21
10.0
 31
0.0
  0
LINE
  5
42A
330
1E
100
AcDbEntity
  8
0
100
AcDbLine
 10
231.0
 20
9.0
 30
0.0
 11
231.0
 21
0.0
 31
0.0
  0
LINE
  5
42B
330
1E
100
AcDbEntity
  8
0
100
AcDbLine
 10
230.0
 20
10.0
 30
0.0
 11
231.0
 21
9.0
 31
0.0
  0
LINE
  5
42C
330
1E
100
AcDbEntity
  8
0
100
AcDbLine
 10
229.74
 20
0.0
 30
0.0
 11
231.0
 21
0.0
 31
0.0
  0
LINE
  5
42D
330
1E
100
AcDbEntity
  8
0
100
AcDbLine
 10
225.28
 20
0.0
 30
0.0
 11
226.0
 21
0.0
 31
0.0
  0
LINE
  5
42E
330
1E
100
AcDbEntity
  8
0
100
AcDbLine
 10
225.28
 20
0.0
 30
0.0
 11
226.38
 21
0.0
 31
0.0
  0
LINE
  5
42F
330
1E
100
AcDbEntity
  8
0
100
AcDbLine
 10
225.28
 20
0.0
 30
0.0
 11
226.3
 21
0.0
 31
0.0
  0
LINE
  5
431
330
1E
100
AcDbEntity
  8
0
100
AcDbLine
 10
203.0
 20
26.5
 30
0.0
 11
215.0
 21
21.0
 31
0.0
  0
LINE
  5
432
330
1E
100
AcDbEntity
  8
0
100
AcDbLine
 10
215.0
 20
21.0
 30
0.0
 11
221.0
 21
15.0
 31
0.0
  0
LINE
  5
434
330
1E
100
AcDbEntity
  8
0
100
AcDbLine
 10
216.0
 20
20.0
 30
0.0
 11
216.0
 21
51.58
 31
0.0
  0
LINE
  5
437
330
1E
100
AcDbEntity
  8
0
100
AcDbLine
 10
196.0
 20
51.58
 30
0.0
 11
201.12
 21
51.58
 31
0.0
  0
LINE
  5
438
330
1E
100
AcDbEntity
  8
0
100
AcDbLine
 10
201.12
 20
51.58
 30
0.0
 11
205.92
 21
51.58
 31
0.0
  0
LINE
  5
439
330
1E
100
AcDbEntity
  8
0
100
AcDbLine
 10
205.92
 20
51.58
 30
0.0
 11
210.16
 21
51.58
 31
0.0
  0
LINE
  5
43A
330
1E
100
AcDbEntity
  8
0
100
AcDbLine
 10
210.16
 20
51.58
 30
0.0
 11
213.36
 21
51.58
 31
0.0
  0
LINE
  5
43B
330
1E
100
AcDbEntity
  8
0
100
AcDbLine
 10
213.36
 20
51.58
 30
0.0
 11
215.28
 21
51.58
 31
0.0
  0
LINE
  5
43C
330
1E
100
AcDbEntity
  8
0
100
AcDbLine
 10
215.28
 20
51.58
 30
0.0
 11
216.0
 21
51.58
 31
0.0
  0
LINE
  5
43D
330
1E
100
AcDbEntity
  8
0
100
AcDbLine
 10
216.0
 20
51.58
 30
0.0
 11
216.0
 21
20.0
 31
0.0
  0
LINE
  5
441
330
1E
100
AcDbEntity
  8
0
100
AcDbLine
 10
190.88
 20
51.58
 30
0.0
 11
196.0
 21
51.58
 31
0.0
  0
LINE
  5
442
330
1E
100
AcDbEntity
  8
0
100
AcDbLine
 10
186.08
 20
51.58
 30
0.0
 11
190.88
 21
51.58
 31
0.0
  0
LINE
  5
443
330
1E
100
AcDbEntity
  8
0
100
AcDbLine
 10
181.84
 20
51.58
 30
0.0
 11
186.08
 21
51.58
 31
0.0
  0
LINE
  5
444
330
1E
100
AcDbEntity
  8
0
100
AcDbLine
 10
178.64
 20
51.58
 30
0.0
 11
181.84
 21
51.58
 31
0.0
  0
LINE
  5
445
330
1E
100
AcDbEntity
  8
0
100
AcDbLine
 10
176.72
 20
51.58
 30
0.0
 11
178.64
 21
51.58
 31
0.0
  0
LINE
  5
446
330
1E
100
AcDbEntity
  8
0
100
AcDbLine
 10
176.0
 20
47.51402394557
 30
0.0
 11
176.0
 21
51.58
 31
0.0
  0
LINE
  5
447
330
1E
100
AcDbEntity
  8
0
100
AcDbLine
 10
175.168
 20
59.58
 30
0.0
 11
179.008
 21
59.58
 31
0.0
  0
LINE
  5
448
330
1E
100
AcDbEntity
  8
0
100
AcDbLine
 10
172.864
 20
59.58
 30
0.0
 11
175.168
 21
59.58
 31
0.0
  0
LINE
  5
449
330
1E
100
AcDbEntity
  8
0
100
AcDbLine
 10
172.0
 20
52.280686979402
 30
0.0
 11
172.0
 21
59.58
 31
0.0
  0
LINE
  5
44A
330
1E
100
AcDbEntity
  8
0
100
AcDbLine
 10
171.085
 20
135.386
 30
0.0
 11
173.809
 21
133.408
 31
0.0
  0
LINE
  5
44E
330
1E
100
AcDbEntity
  8
0
100
AcDbLine
 10
166.528972577802
 20
158.323841179774
 30
0.0
 11
172.928
 21
156.414
 31
0.0
  0
LINE
  5
44F
330
1E
100
AcDbEntity
  8
0
100
AcDbLine
 10
168.107
 20
137.022
 30
0.0
 11
171.085
 21
135.386
 31
0.0
  0
LINE
  5
451
330
1E
100
AcDbEntity
  8
0
100
AcDbLine
 10
172.928
 20
156.414
 30
0.0
 11
176.965
 21
154.628
 31
0.0
  0
LINE
  5
455
330
1E
100
AcDbEntity
  8
0
100
AcDbLine
 10
176.26
 20
131.112
 30
0.0
 11
178.414
 21
128.523
 31
0.0
  0
LINE
  5
456
330
1E
100
AcDbEntity
  8
0
100
AcDbLine
 10
173.809
 20
133.408
 30
0.0
 11
176.26
 21
131.112
 31
0.0
  0
LINE
  5
457
330
1E
100
AcDbEntity
  8
0
100
AcDbLine
 10
173.44
 20
60.0
 30
0.0
 11
184.384
 21
60.0
 31
0.0
  0
LINE
  5
458
330
1E
100
AcDbEntity
  8
0
100
AcDbLine
 10
172.576
 20
60.0
 30
0.0
 11
173.44
 21
60.0
 31
0.0
  0
LINE
  5
459
330
1E
100
AcDbEntity
  8
0
100
AcDbLine
 10
172.0
 20
59.58
 30
0.0
 11
172.0
 21
52.280686979402
 31
0.0
  0
LINE
  5
45A
330
1E
100
AcDbEntity
  8
0
100
AcDbLine
 10
172.0
 20
59.58
 30
0.0
 11
172.576
 21
60.0
 31
0.0
  0
LINE
  5
45B
330
1E
100
AcDbEntity
  8
0
100
AcDbLine
 10
172.0
 20
59.58
 30
0.0
 11
172.864
 21
59.58
 31
0.0
  0
LINE
  5
45C
330
1E
100
AcDbEntity
  8
0
100
AcDbLine
 10
199.394639467686
 20
52.0
 30
0.0
 11
201.04
 21
52.0
 31
0.0
  0
LINE
  5
45D
330
1E
100
AcDbEntity
  8
0
100
AcDbLine
 10
203.0
 20
52.0
 30
0.0
 11
203.0
 21
72.7165
 31
0.0
  0
LINE
  5
45E
330
1E
100
AcDbEntity
  8
0
100
AcDbLine
 10
201.04
 20
52.0
 30
0.0
 11
205.68
 21
52.0
 31
0.0
  0
LINE
  5
45F
330
1E
100
AcDbEntity
  8
0
100
AcDbLine
 10
205.68
 20
52.0
 30
0.0
 11
209.76
 21
52.0
 31
0.0
  0
LINE
  5
460
330
1E
100
AcDbEntity
  8
0
100
AcDbLine
 10
209.76
 20
52.0
 30
0.0
 11
212.88
 21
52.0
 31
0.0
  0
LINE
  5
461
330
1E
100
AcDbEntity
  8
0
100
AcDbLine
 10
212.88
 20
52.0
 30
0.0
 11
214.8
 21
52.0
 31
0.0
  0
LINE
  5
462
330
1E
100
AcDbEntity
  8
0
100
AcDbLine
 10
214.8
 20
52.0
 30
0.0
 11
215.52
 21
52.0
 31
0.0
  0
LINE
  5
463
330
1E
100
AcDbEntity
  8
0
100
AcDbLine
 10
215.52
 20
52.0
 30
0.0
 11
216.0
 21
51.58
 31
0.0
  0
LINE
  5
464
330
1E
100
AcDbEntity
  8
0
100
AcDbLine
 10
189.0
 20
52.0
 30
0.0
 11
189.0
 21
72.7165
 31
0.0
  0
LINE
  5
465
330
1E
100
AcDbEntity
  8
0
100
AcDbLine
 10
190.96
 20
52.0
 30
0.0
 11
199.394639467686
 21
52.0
 31
0.0
  0
LINE
  5
466
330
1E
100
AcDbEntity
  8
0
100
AcDbLine
 10
186.32
 20
52.0
 30
0.0
 11
190.96
 21
52.0
 31
0.0
  0
LINE
  5
467
330
1E
100
AcDbEntity
  8
0
100
AcDbLine
 10
182.24
 20
52.0
 30
0.0
 11
186.32
 21
52.0
 31
0.0
  0
LINE
  5
468
330
1E
100
AcDbEntity
  8
0
100
AcDbLine
 10
179.12
 20
52.0
 30
0.0
 11
182.24
 21
52.0
 31
0.0
  0
LINE
  5
469
330
1E
100
AcDbEntity
  8
0
100
AcDbLine
 10
184.096
 20
59.58
 30
0.0
 11
189.0
 21
59.58
 31
0.0
  0
LINE
  5
46A
330
1E
100
AcDbEntity
  8
0
100
AcDbLine
 10
184.25
 20
113.596
 30
0.0
 11
184.544
 21
111.201
 31
0.0
  0
LINE
  5
46B
330
1E
100
AcDbEntity
  8
0
100
AcDbLine
 10
183.835
 20
115.94
 30
0.0
 11
184.25
 21
113.596
 31
0.0
  0
LINE
  5
46C
330
1E
100
AcDbEntity
  8
0
100
AcDbLine
 10
182.964
 20
119.35
 30
0.0
 11
183.835
 21
115.94
 31
0.0
  0
LINE
  5
46D
330
1E
100
AcDbEntity
  8
0
100
AcDbLine
 10
181.773
 20
122.605
 30
0.0
 11
182.964
 21
119.35
 31
0.0
  0
LINE
  5
46E
330
1E
100
AcDbEntity
  8
0
100
AcDbLine
 10
180.255
 20
125.675
 30
0.0
 11
181.773
 21
122.605
 31
0.0
  0
LINE
  5
474
330
1E
100
AcDbEntity
  8
0
100
AcDbLine
 10
176.965
 20
154.628
 30
0.0
 11
180.824
 21
152.442
 31
0.0
  0
LINE
  5
478
330
1E
100
AcDbEntity
  8
0
100
AcDbLine
 10
178.414
 20
128.523
 30
0.0
 11
180.255
 21
125.675
 31
0.0
  0
LINE
  5
47A
330
1E
100
AcDbEntity
  8
0
100
AcDbLine
 10
184.464
 20
149.864
 30
0.0
 11
186.402
 21
148.248
 31
0.0
  0
LINE
  5
47D
330
1E
100
AcDbEntity
  8
0
100
AcDbLine
 10
184.881
 20
101.148
 30
0.0
 11
184.881
 21
60.0
 31
0.0
  0
LINE
  5
47E
330
1E
100
AcDbEntity
  8
0
100
AcDbLine
 10
184.848
 20
105.712
 30
0.0
 11
184.881
 21
101.148
 31
0.0
  0
LINE
  5
481
330
1E
100
AcDbEntity
  8
0
100
AcDbLine
 10
188.251
 20
146.519
 30
0.0
 11
190.009
 21
144.68
 31
0.0
  0
LINE
  5
482
330
1E
100
AcDbEntity
  8
0
100
AcDbLine
 10
186.402
 20
148.248
 30
0.0
 11
188.251
 21
146.519
 31
0.0
  0
LINE
  5
483
330
1E
100
AcDbEntity
  8
0
100
AcDbLine
 10
184.776
 20
107.934
 30
0.0
 11
184.848
 21
105.712
 31
0.0
  0
LINE
  5
484
330
1E
100
AcDbEntity
  8
0
100
AcDbLine
 10
184.544
 20
111.201
 30
0.0
 11
184.776
 21
107.934
 31
0.0
  0
LINE
  5
485
330
1E
100
AcDbEntity
  8
0
100
AcDbLine
 10
184.881
 20
60.0
 30
0.0
 11
184.881
 21
101.148
 31
0.0
  0
LINE
  5
486
330
1E
100
AcDbEntity
  8
0
100
AcDbLine
 10
184.384
 20
60.0
 30
0.0
 11
189.0
 21
60.0
 31
0.0
  0
LINE
  5
487
330
1E
100
AcDbEntity
  8
0
100
AcDbLine
 10
179.008
 20
59.58
 30
0.0
 11
184.096
 21
59.58
 31
0.0
  0
LINE
  5
488
330
1E
100
AcDbEntity
  8
0
100
AcDbLine
 10
203.0
 20
60.0
 30
0.0
 11
216.895331270392
 21
60.0
 31
0.0
  0
LINE
  5
489
330
1E
100
AcDbEntity
  8
0
100
AcDbLine
 10
203.0
 20
59.58
 30
0.0
 11
207.904
 21
59.58
 31
0.0
  0
LINE
  5
48A
330
1E
100
AcDbEntity
  8
0
100
AcDbLine
 10
207.904
 20
59.58
 30
0.0
 11
212.992
 21
59.58
 31
0.0
  0
LINE
  5
48B
330
1E
100
AcDbEntity
  8
0
100
AcDbLine
 10
212.992
 20
59.58
 30
0.0
 11
216.832
 21
59.58
 31
0.0
  0
LINE
  5
48C
330
1E
100
AcDbEntity
  8
0
100
AcDbLine
 10
216.832
 20
59.58
 30
0.0
 11
219.136
 21
59.58
 31
0.0
  0
LINE
  5
48D
330
1E
100
AcDbEntity
  8
0
100
AcDbLine
 10
216.256
 20
60.0
 30
0.0
 11
218.56
 21
60.0
 31
0.0
  0
LINE
  5
48E
330
1E
100
AcDbEntity
  8
0
100
AcDbLine
 10
218.56
 20
60.0
 30
0.0
 11
219.424
 21
60.0
 31
0.0
  0
LINE
  5
48F
330
1E
100
AcDbEntity
  8
0
100
AcDbLine
 10
219.136
 20
59.58
 30
0.0
 11
220.0
 21
59.58
 31
0.0
  0
LINE
  5
490
330
1E
100
AcDbEntity
  8
0
100
AcDbLine
 10
220.0
 20
59.58
 30
0.0
 11
220.0
 21
16.0
 31
0.0
  0
LINE
  5
491
330
1E
100
AcDbEntity
  8
0
100
AcDbLine
 10
219.424
 20
60.0
 30
0.0
 11
220.0
 21
59.58
 31
0.0
  0
LINE
  5
494
330
1E
100
AcDbEntity
  8
0
100
AcDbLine
 10
203.0
 20
72.7165
 30
0.0
 11
203.0
 21
52.0
 31
0.0
  0
LINE
  5
4A0
330
1E
100
AcDbEntity
  8
0
100
AcDbLine
 10
196.0
 20
73.0
 30
0.0
 11
197.764
 21
73.0
 31
0.0
  0
LINE
  5
4A2
330
1E
100
AcDbEntity
  8
0
100
AcDbLine
 10
197.764
 20
73.0
 30
0.0
 11
199.388
 21
73.0
 31
0.0
  0
LINE
  5
4A3
330
1E
100
AcDbEntity
  8
0
100
AcDbLine
 10
199.388
 20
73.0
 30
0.0
 11
200.816
 21
73.0
 31
0.0
  0
LINE
  5
4A4
330
1E
100
AcDbEntity
  8
0
100
AcDbLine
 10
200.816
 20
73.0
 30
0.0
 11
201.908
 21
73.0
 31
0.0
  0
LINE
  5
4A5
330
1E
100
AcDbEntity
  8
0
100
AcDbLine
 10
201.908
 20
73.0
 30
0.0
 11
202.58
 21
73.0
 31
0.0
  0
LINE
  5
4A6
330
1E
100
AcDbEntity
  8
0
100
AcDbLine
 10
202.832
 20
73.0
 30
0.0
 11
203.0
 21
72.7165
 31
0.0
  0
LINE
  5
4A7
330
1E
100
AcDbEntity
  8
0
100
AcDbLine
 10
202.58
 20
73.0
 30
0.0
 11
202.832
 21
73.0
 31
0.0
  0
LINE
  5
4A8
330
1E
100
AcDbEntity
  8
0
100
AcDbLine
 10
194.236
 20
73.0
 30
0.0
 11
196.0
 21
73.0
 31
0.0
  0
LINE
  5
4A9
330
1E
100
AcDbEntity
  8
0
100
AcDbLine
 10
192.612
 20
73.0
 30
0.0
 11
194.236
 21
73.0
 31
0.0
  0
LINE
  5
4AA
330
1E
100
AcDbEntity
  8
0
100
AcDbLine
 10
191.184
 20
73.0
 30
0.0
 11
192.612
 21
73.0
 31
0.0
  0
LINE
  5
4AB
330
1E
100
AcDbEntity
  8
0
100
AcDbLine
 10
190.092
 20
73.0
 30
0.0
 11
191.184
 21
73.0
 31
0.0
  0
LINE
  5
4B5
330
1E
100
AcDbEntity
  8
0
100
AcDbLine
 10
190.009
 20
144.68
 30
0.0
 11
191.666
 21
142.738
 31
0.0
  0
LINE
  5
4B7
330
1E
100
AcDbEntity
  8
0
100
AcDbLine
 10
191.666
 20
142.738
 30
0.0
 11
193.219
 21
140.695
 31
0.0
  0
LINE
  5
4B8
330
1E
100
AcDbEntity
  8
0
100
AcDbLine
 10
193.219
 20
140.695
 30
0.0
 11
194.666
 21
138.562
 31
0.0
  0
LINE
  5
4BD
330
1E
100
AcDbEntity
  8
0
100
AcDbLine
 10
196.001
 20
136.34
 30
0.0
 11
197.224
 21
134.035
 31
0.0
  0
LINE
  5
4BF
330
1E
100
AcDbEntity
  8
0
100
AcDbLine
 10
194.666
 20
138.562
 30
0.0
 11
196.001
 21
136.34
 31
0.0
  0
LINE
  5
4C0
330
1E
100
AcDbEntity
  8
0
100
AcDbLine
 10
197.224
 20
134.035
 30
0.0
 11
198.332
 21
131.656
 31
0.0
  0
LINE
  5
4D1
330
1E
100
AcDbEntity
  8
0
100
AcDbLine
 10
203.635
 20
108.395
 30
0.0
 11
204.216
 21
101.148
 31
0.0
  0
LINE
  5
4D2
330
1E
100
AcDbEntity
  8
0
100
AcDbLine
 10
204.216
 20
101.148
 30
0.0
 11
205.815
 21
78.509
 31
0.0
  0
LINE
  5
4D3
330
1E
100
AcDbEntity
  8
0
100
AcDbLine
 10
205.815
 20
78.509
 30
0.0
 11
207.0
 21
60.0
 31
0.0
  0
LINE
  5
4D4
330
1E
100
AcDbEntity
  8
0
100
AcDbLine
 10
200.22
 20
126.524
 30
0.0
 11
200.988
 21
123.932
 31
0.0
  0
LINE
  5
4D8
330
1E
100
AcDbEntity
  8
0
100
AcDbLine
 10
199.326
 20
129.202
 30
0.0
 11
200.22
 21
126.524
 31
0.0
  0
LINE
  5
4DB
330
1E
100
AcDbEntity
  8
0
100
AcDbLine
 10
202.558
 20
116.902
 30
0.0
 11
203.272
 21
111.866
 31
0.0
  0
LINE
  5
4DC
330
1E
100
AcDbEntity
  8
0
100
AcDbLine
 10
201.856
 20
120.552
 30
0.0
 11
202.558
 21
116.902
 31
0.0
  0
LINE
  5
4DD
330
1E
100
AcDbEntity
  8
0
100
AcDbLine
 10
200.984
 20
123.9455
 30
0.0
 11
201.856
 21
120.552
 31
0.0
  0
LINE
  5
4DF
330
1E
100
AcDbEntity
  8
0
100
AcDbLine
 10
203.272
 20
111.866
 30
0.0
 11
203.635
 21
108.395
 31
0.0
  0
LINE
  5
4E0
330
1E
100
AcDbEntity
  8
0
100
AcDbLine
 10
198.332
 20
131.656
 30
0.0
 11
199.326
 21
129.202
 31
0.0
  0
LINE
  5
4E1
330
1E
100
AcDbEntity
  8
0
100
AcDbLine
 10
189.42
 20
73.0
 30
0.0
 11
190.092
 21
73.0
 31
0.0
  0
LINE
  5
4E2
330
1E
100
AcDbEntity
  8
0
100
AcDbLine
 10
189.168
 20
73.0
 30
0.0
 11
189.42
 21
73.0
 31
0.0
  0
LINE
  5
4E4
330
1E
100
AcDbEntity
  8
0
100
AcDbLine
 10
189.0
 20
72.7165
 30
0.0
 11
189.0
 21
52.0
 31
0.0
  0
LINE
  5
4E5
330
1E
100
AcDbEntity
  8
0
100
AcDbLine
 10
189.0
 20
72.7165
 30
0.0
 11
189.168
 21
73.0
 31
0.0
  0
LINE
  5
4E6
330
1E
100
AcDbEntity
  8
0
100
AcDbLine
 10
177.2
 20
52.0
 30
0.0
 11
179.12
 21
52.0
 31
0.0
  0
LINE
  5
4E7
330
1E
100
AcDbEntity
  8
0
100
AcDbLine
 10
176.48
 20
52.0
 30
0.0
 11
177.2
 21
52.0
 31
0.0
  0
LINE
  5
4E8
330
1E
100
AcDbEntity
  8
0
100
AcDbLine
 10
176.0
 20
51.58
 30
0.0
 11
176.0
 21
47.51402394557
 31
0.0
  0
LINE
  5
4E9
330
1E
100
AcDbEntity
  8
0
100
AcDbLine
 10
176.0
 20
51.58
 30
0.0
 11
176.48
 21
52.0
 31
0.0
  0
LINE
  5
4EA
330
1E
100
AcDbEntity
  8
0
100
AcDbLine
 10
176.0
 20
51.58
 30
0.0
 11
176.72
 21
51.58
 31
0.0
  0
LINE
  5
4EB
330
1E
100
AcDbEntity
  8
0
100
AcDbLine
 10
166.0
 20
0.0
 30
0.0
 11
166.72
 21
0.0
 31
0.0
  0
LINE
  5
4F1
330
1E
100
AcDbEntity
  8
0
100
AcDbLine
 10
180.824
 20
152.442
 30
0.0
 11
184.464
 21
149.864
 31
0.0
  0
LINE
  5
5BA
330
1E
100
AcDbEntity
  8
0
100
AcDbLine
 10
-9.465141426729
 20
140.395706151842
 30
0.0
 11
33.586692203065
 21
140.395706151842
 31
0.0
  0
LINE
  5
5BB
330
1E
100
AcDbEntity
  8
0
100
AcDbLine
 10
-9.465141426729
 20
140.395706151842
 30
0.0
 11
33.586692203065
 21
140.395706151842
 31
0.0
  0
LINE
  5
5BD
330
1E
100
AcDbEntity
  8
0
100
AcDbLine
 10
-14.004941426729
 20
141.777706151842
 30
0.0
 11
-12.804441426729
 21
141.277706151842
 31
0.0
  0
LINE
  5
5BE
330
1E
100
AcDbEntity
  8
0
100
AcDbLine
 10
-21.652241426729
 20
160.001706151842
 30
0.0
 11
-0.602574980743
 21
160.001706151842
 31
0.0
  0
LINE
  5
5BF
330
1E
100
AcDbEntity
  8
0
100
AcDbLine
 10
-21.652241426729
 20
160.001706151842
 30
0.0
 11
-0.602574980743
 21
160.001706151842
 31
0.0
  0
LINE
  5
5C0
330
1E
100
AcDbEntity
  8
0
100
AcDbLine
 10
-38.081141426729
 20
151.897706151842
 30
0.0
 11
-38.081141426729
 21
158.854706151842
 31
0.0
  0
LINE
  5
5C1
330
1E
100
AcDbEntity
  8
0
100
AcDbLine
 10
-38.081141426729
 20
158.854706151842
 30
0.0
 11
-38.081141426729
 21
151.897706151842
 31
0.0
  0
LINE
  5
5C2
330
1E
100
AcDbEntity
  8
0
100
AcDbLine
 10
-25.944241426729
 20
142.887706151842
 30
0.0
 11
-24.144941426729
 21
143.254706151842
 31
0.0
  0
LINE
  5
5C6
330
1E
100
AcDbEntity
  8
0
100
AcDbLine
 10
-34.991541426729
 20
142.901706151842
 30
0.0
 11
-33.473241426729
 21
141.791706151842
 31
0.0
  0
LINE
  5
5C8
330
1E
100
AcDbEntity
  8
0
100
AcDbLine
 10
-28.882441426729
 20
142.349706151842
 30
0.0
 11
-27.207041426729
 21
142.638706151842
 31
0.0
  0
LINE
  5
5CC
330
1E
100
AcDbEntity
  8
0
100
AcDbLine
 10
-32.361741426729
 20
141.902706151842
 30
0.0
 11
-31.464941426729
 21
142.003706151842
 31
0.0
  0
LINE
  5
5D1
330
1E
100
AcDbEntity
  8
0
100
AcDbLine
 10
-33.041341426729
 20
140.847706151842
 30
0.0
 11
-32.940941426729
 21
140.664706151842
 31
0.0
  0
LINE
  5
5D2
330
1E
100
AcDbEntity
  8
0
100
AcDbLine
 10
-32.940941426729
 20
140.664706151842
 30
0.0
 11
-32.769041426729
 21
140.560706151842
 31
0.0
  0
LINE
  5
5D3
330
1E
100
AcDbEntity
  8
0
100
AcDbLine
 10
-33.334241426729
 20
141.800706151842
 30
0.0
 11
-32.980441426729
 21
141.834706151842
 31
0.0
  0
LINE
  5
5D6
330
1E
100
AcDbEntity
  8
0
100
AcDbLine
 10
-33.473241426729
 20
141.791706151842
 30
0.0
 11
-33.334241426729
 21
141.800706151842
 31
0.0
  0
LINE
  5
5D7
330
1E
100
AcDbEntity
  8
0
100
AcDbLine
 10
-32.980441426729
 20
141.834706151842
 30
0.0
 11
-32.361741426729
 21
141.902706151842
 31
0.0
  0
LINE
  5
5D8
330
1E
100
AcDbEntity
  8
0
100
AcDbLine
 10
-33.041941426729
 20
141.059706151842
 30
0.0
 11
-32.851325139254
 21
141.848897048154
 31
0.0
  0
LINE
  5
5D9
330
1E
100
AcDbEntity
  8
0
100
AcDbLine
 10
-33.041941426729
 20
141.059706151842
 30
0.0
 11
-33.041341426729
 21
140.847706151842
 31
0.0
  0
LINE
  5
5DF
330
1E
100
AcDbEntity
  8
0
100
AcDbLine
 10
-30.300441426729
 20
142.146706151842
 30
0.0
 11
-28.882441426729
 21
142.349706151842
 31
0.0
  0
LINE
  5
5EA
330
1E
100
AcDbEntity
  8
0
100
AcDbLine
 10
-31.464941426729
 20
142.003706151842
 30
0.0
 11
-30.300441426729
 21
142.146706151842
 31
0.0
  0
LINE
  5
5F3
330
1E
100
AcDbEntity
  8
0
100
AcDbLine
 10
-36.856925753314
 20
145.446061099848
 30
0.0
 11
-36.258241426729
 21
144.348706151842
 31
0.0
  0
LINE
  5
5F4
330
1E
100
AcDbEntity
  8
0
100
AcDbLine
 10
-37.200441426729
 20
146.075706151842
 30
0.0
 11
-36.878889269046
 21
145.486318998034
 31
0.0
  0
LINE
  5
5F5
330
1E
100
AcDbEntity
  8
0
100
AcDbLine
 10
-37.200441426729
 20
146.075706151842
 30
0.0
 11
-36.878889269046
 21
145.486318998034
 31
0.0
  0
LINE
  5
5F6
330
1E
100
AcDbEntity
  8
0
100
AcDbLine
 10
-36.258241426729
 20
144.348706151842
 30
0.0
 11
-34.991541426729
 21
142.901706151842
 31
0.0
  0
LINE
  5
5F7
330
1E
100
AcDbEntity
  8
0
100
AcDbLine
 10
-36.856925753314
 20
145.446061099848
 30
0.0
 11
-36.258241426729
 21
144.348706151842
 31
0.0
  0
LINE
  5
5F8
330
1E
100
AcDbEntity
  8
0
100
AcDbLine
 10
-37.984641426729
 20
149.324706151842
 30
0.0
 11
-37.783141426729
 21
147.996706151842
 31
0.0
  0
LINE
  5
5F9
330
1E
100
AcDbEntity
  8
0
100
AcDbLine
 10
-37.783141426729
 20
147.996706151842
 30
0.0
 11
-37.200441426729
 21
146.075706151842
 31
0.0
  0
LINE
  5
5FA
330
1E
100
AcDbEntity
  8
0
100
AcDbLine
 10
-38.081141426729
 20
151.897706151842
 30
0.0
 11
-37.984641426729
 21
149.324706151842
 31
0.0
  0
LINE
  5
5FC
330
1E
100
AcDbEntity
  8
0
100
AcDbLine
 10
-27.207041426729
 20
142.638706151842
 30
0.0
 11
-25.944241426729
 21
142.887706151842
 31
0.0
  0
LINE
  5
5FD
330
1E
100
AcDbEntity
  8
0
100
AcDbLine
 10
-16.478641426729
 20
142.780706151842
 30
0.0
 11
-15.339741426729
 21
142.339706151842
 31
0.0
  0
LINE
  5
622
330
1E
100
AcDbEntity
  8
0
100
AcDbLine
 10
-15.339741426729
 20
142.339706151842
 30
0.0
 11
-14.004941426729
 21
141.777706151842
 31
0.0
  0
LINE
  5
629
330
1E
100
AcDbEntity
  8
0
100
AcDbLine
 10
-24.144941426729
 20
143.254706151842
 30
0.0
 11
-22.839441426729
 21
143.484706151842
 31
0.0
  0
LINE
  5
62A
330
1E
100
AcDbEntity
  8
0
100
AcDbLine
 10
-22.839441426729
 20
143.484706151842
 30
0.0
 11
-21.649441426729
 21
143.615706151842
 31
0.0
  0
LINE
  5
62B
330
1E
100
AcDbEntity
  8
0
100
AcDbLine
 10
-21.649441426729
 20
143.615706151842
 30
0.0
 11
-20.010941426729
 21
143.604706151842
 31
0.0
  0
LINE
  5
62C
330
1E
100
AcDbEntity
  8
0
100
AcDbLine
 10
-17.698941426729
 20
143.176706151842
 30
0.0
 11
-16.478641426729
 21
142.780706151842
 31
0.0
  0
LINE
  5
62D
330
1E
100
AcDbEntity
  8
0
100
AcDbLine
 10
-20.010941426729
 20
143.604706151842
 30
0.0
 11
-17.698941426729
 21
143.176706151842
 31
0.0
  0
LINE
  5
62E
330
1E
100
AcDbEntity
  8
0
100
AcDbLine
 10
-38.081141426729
 20
158.854706151842
 30
0.0
 11
-37.987441426729
 21
159.244706151842
 31
0.0
  0
LINE
  5
637
330
1E
100
AcDbEntity
  8
0
100
AcDbLine
 10
-37.369741426729
 20
159.661706151842
 30
0.0
 11
-32.130941426729
 21
159.900706151842
 31
0.0
  0
LINE
  5
638
330
1E
100
AcDbEntity
  8
0
100
AcDbLine
 10
-37.728241426729
 20
159.537706151842
 30
0.0
 11
-37.369741426729
 21
159.661706151842
 31
0.0
  0
LINE
  5
639
330
1E
100
AcDbEntity
  8
0
100
AcDbLine
 10
-37.987441426729
 20
159.244706151842
 30
0.0
 11
-37.728241426729
 21
159.537706151842
 31
0.0
  0
LINE
  5
63A
330
1E
100
AcDbEntity
  8
0
100
AcDbLine
 10
-32.130941426729
 20
159.900706151842
 30
0.0
 11
-28.638341426729
 21
159.971706151842
 31
0.0
  0
LINE
  5
63B
330
1E
100
AcDbEntity
  8
0
100
AcDbLine
 10
-28.638341426729
 20
159.971706151842
 30
0.0
 11
-21.652241426729
 21
160.001706151842
 31
0.0
  0
LINE
  5
63C
330
1E
100
AcDbEntity
  8
0
100
AcDbLine
 10
-11.098141426729
 20
135.045706151842
 30
0.0
 11
-9.796622085351
 21
140.43261288052
 31
0.0
  0
LINE
  5
649
330
1E
100
AcDbEntity
  8
0
100
AcDbLine
 10
-11.796641426729
 20
134.812706151842
 30
0.0
 11
-11.628841426729
 21
134.766706151842
 31
0.0
  0
LINE
  5
64B
330
1E
100
AcDbEntity
  8
0
100
AcDbLine
 10
-11.628612276334
 20
134.766710837944
 30
0.0
 11
-11.562841426729
 21
134.748706151842
 31
0.0
  0
LINE
  5
64D
330
1E
100
AcDbEntity
  8
0
100
AcDbLine
 10
-11.562841426729
 20
134.748706151842
 30
0.0
 11
-11.365441426729
 21
134.751706151842
 31
0.0
  0
LINE
  5
64E
330
1E
100
AcDbEntity
  8
0
100
AcDbLine
 10
-11.195041426729
 20
134.859706151842
 30
0.0
 11
-11.098141426729
 21
135.045706151842
 31
0.0
  0
LINE
  5
650
330
1E
100
AcDbEntity
  8
0
100
AcDbLine
 10
-11.365441426729
 20
134.751706151842
 30
0.0
 11
-11.195041426729
 21
134.859706151842
 31
0.0
  0
LINE
  5
653
330
1E
100
AcDbEntity
  8
0
100
AcDbLine
 10
-11.777041426729
 20
140.893706151842
 30
0.0
 11
-10.901141426729
 21
140.632706151842
 31
0.0
  0
LINE
  5
654
330
1E
100
AcDbEntity
  8
0
100
AcDbLine
 10
-12.804441426729
 20
141.277706151842
 30
0.0
 11
-11.777041426729
 21
140.893706151842
 31
0.0
  0
LINE
  5
655
330
1E
100
AcDbEntity
  8
0
100
AcDbLine
 10
-9.947541426729
 20
140.449706151842
 30
0.0
 11
-9.735641426729
 21
140.425706151842
 31
0.0
  0
LINE
  5
656
330
1E
100
AcDbEntity
  8
0
100
AcDbLine
 10
-10.901141426729
 20
140.632706151842
 30
0.0
 11
-9.947541426729
 21
140.449706151842
 31
0.0
  0
LINE
  5
657
330
1E
100
AcDbEntity
  8
0
100
AcDbLine
 10
-9.790612215594
 20
140.431932196829
 30
0.0
 11
-9.735641426729
 21
140.425706151842
 31
0.0
  0
LINE
  5
658
330
1E
100
AcDbEntity
  8
0
100
AcDbLine
 10
-9.735641426729
 20
140.425706151842
 30
0.0
 11
-9.465141426729
 21
140.395706151842
 31
0.0
  0
LINE
  5
F26
330
1E
100
AcDbEntity
  8
0
100
AcDbLine
 10
-32.769041426729
 20
140.560706151842
 30
0.0
 11
-11.796641426729
 21
134.812706151842
 31
0.0
  0
ENDSEC
  0
SECTION
  2
OBJECTS
  0
DICTIONARY
  5
C
330
0
100
AcDbDictionary
281
     1
  3
ACAD_GROUP
350
D
  3
ACAD_LAYOUT
350
19
  3
ACAD_MLEADERSTYLE
350
F29
  3
ACAD_MLINESTYLE
350
16
  3
ACAD_PLOTSETTINGS
350
18
  3
ACAD_PLOTSTYLENAME
350
E
  3
ACAD_SCALELIST
350
4F6
  3
AcDbVariableDictionary
350
4F3
  3
DWGPROPS
350
F2F
  0
DICTIONARY
  5
D
102
{ACAD_REACTORS
330
C
102
}
330
C
100
AcDbDictionary
281
     1
  0
DICTIONARY
  5
19
102
{ACAD_REACTORS
330
C
102
}
330
C
100
AcDbDictionary
281
     1
  3
Layout1
350
1D
  3
Model
350
21
  0
DICTIONARY
  5
F29
102
{ACAD_REACTORS
330
C
102
}
330
C
100
AcDbDictionary
281
     1
  0
DICTIONARY
  5
16
102
{ACAD_REACTORS
330
C
102
}
330
C
100
AcDbDictionary
281
     1
  3
Standard
350
17
  0
DICTIONARY
  5
18
102
{ACAD_REACTORS
330
C
102
}
330
C
100
AcDbDictionary
281
     1
  0
ACDBDICTIONARYWDFLT
  5
E
102
{ACAD_REACTORS
330
C
102
}
330
C
100
AcDbDictionary
281
     1
  3
Normal
350
F
100
AcDbDictionaryWithDefault
340
F
  0
DICTIONARY
  5
4F6
102
{ACAD_REACTORS
330
C
102
}
330
C
100
AcDbDictionary
281
     1
  3
A0
350
4F7
  3
A1
350
4F8
  3
A2
350
4F9
  3
A3
350
4FA
  3
A4
350
4FB
  3
A5
350
4FC
  3
A6
350
4FD
  3
A7
350
4FE
  3
A8
350
4FF
  3
A9
350
500
  3
B0
350
501
  3
B1
350
502
  3
B2
350
503
  3
B3
350
504
  3
B4
350
505
  3
B5
350
506
  3
B6
350
507
  3
B7
350
508
  3
B8
350
509
  3
B9
350
50A
  3
C0
350
50B
  3
C1
350
50C
  3
C2
350
50D
  3
C3
350
50E
  3
C4
350
50F
  3
C5
350
510
  3
C6
350
511
  3
C7
350
512
  3
C8
350
513
  3
C9
350
514
  3
D0
350
515
  3
D1
350
516
  3
D2
350
517
  0
DICTIONARY
  5
4F3
102
{ACAD_REACTORS
330
C
102
}
330
C
100
AcDbDictionary
281
     1
  3
CANNOSCALE
350
F2A
  3
DIMASSOC
350
4F4
  0
XRECORD
  5
F2F
102
{ACAD_REACTORS
330
C
102
}
330
C
100
AcDbXrecord
280
     1
  1
DWGPROPS COOKIE
  2

  3

  4

  6

  7

  8
MARTIN
  9

300
=
301
=
302
=
303
=
304
=
305
=
306
=
307
=
308
=
309
=
 40
0.0
 41
2455655.779578808
 42
2456213.848814016
  1

 90
        0
  0
LAYOUT
  5
1D
102
{ACAD_REACTORS
330
19
102
}
330
19
100
AcDbPlotSettings
  1

  2
C:\Programme\AutoCAD LT 2002 Deu\plotters\DWF ePlot (optimized for plotting).pc3
  4

  6

 40
0.0
 41
0.0
 42
0.0
 43
0.0
 44
0.0
 45
0.0
 46
0.0
 47
0.0
 48
0.0
 49
0.0
140
0.0
141
0.0
142
1.0
143
1.0
 70
   688
 72
     0
 73
     0
 74
     5
  7

 75
    16
147
1.0
148
0.0
149
0.0
100
AcDbLayout
  1
Layout1
 70
     1
 71
     1
 10
0.0
 20
0.0
 11
12.0
 21
9.0
 12
0.0
 22
0.0
 32
0.0
 14
1.000000000000E+20
 24
1.000000000000E+20
 34
1.000000000000E+20
 15
-1.000000000000E+20
 25
-1.000000000000E+20
 35
-1.000000000000E+20
146
0.0
 13
0.0
 23
0.0
 33
0.0
 16
1.0
 26
0.0
 36
0.0
 17
0.0
 27
1.0
 37
0.0
 76
     0
330
1A
  0
LAYOUT
  5
21
102
{ACAD_REACTORS
330
19
102
}
330
19
100
AcDbPlotSettings
  1

  2
C:\Programme\AutoCAD LT 2002 Deu\plotters\DWF ePlot (optimized for plotting).pc3
  4

  6

 40
0.0
 41
0.0
 42
0.0
 43
0.0
 44
0.0
 45
0.0
 46
0.0
 47
0.0
 48
0.0
 49
0.0
140
0.0
141
0.0
142
1.0
143
1.0
 70
  1712
 72
     0
 73
     0
 74
     0
  7

 75
     0
147
1.0
148
0.0
149
0.0
100
AcDbLayout
  1
Model
 70
     1
 71
     0
 10
0.0
 20
0.0
 11
12.0
 21
9.0
 12
0.0
 22
0.0
 32
0.0
 14
-38.081141426729
 24
0.0
 34
0.0
 15
231.0
 25
179.34
 35
0.0
146
0.0
 13
0.0
 23
0.0
 33
0.0
 16
1.0
 26
0.0
 36
0.0
 17
0.0
 27
1.0
 37
0.0
 76
     0
330
1E
331
4F5
  0
MLINESTYLE
  5
17
102
{ACAD_REACTORS
330
16
102
}
330
16
100
AcDbMlineStyle
  2
STANDARD
 70
     0
  3

 62
   256
 51
90.0
 52
90.0
 71
     2
 49
0.5
 62
   256
  6
BYLAYER
 49
-0.5
 62
   256
  6
BYLAYER
  0
ACDBPLACEHOLDER
  5
F
102
{ACAD_REACTORS
330
E
102
}
330
E
  0
SCALE
  5
4F7
102
{ACAD_REACTORS
330
4F6
102
}
330
4F6
100
AcDbScale
 70
     0
300
1:1
140
1.0
141
1.0
290
     1
  0
SCALE
  5
4F8
102
{ACAD_REACTORS
330
4F6
102
}
330
4F6
100
AcDbScale
 70
     0
300
1:2
140
1.0
141
2.0
290
     0
  0
SCALE
  5
4F9
102
{ACAD_REACTORS
330
4F6
102
}
330
4F6
100
AcDbScale
 70
     0
300
1:4
140
1.0
141
4.0
290
     0
  0
SCALE
  5
4FA
102
{ACAD_REACTORS
330
4F6
102
}
330
4F6
100
AcDbScale
 70
     0
300
1:5
140
1.0
141
5.0
290
     0
  0
SCALE
  5
4FB
102
{ACAD_REACTORS
330
4F6
102
}
330
4F6
100
AcDbScale
 70
     0
300
1:8
140
1.0
141
8.0
290
     0
  0
SCALE
  5
4FC
102
{ACAD_REACTORS
330
4F6
102
}
330
4F6
100
AcDbScale
 70
     0
300
1:10
140
1.0
141
10.0
290
     0
  0
SCALE
  5
4FD
102
{ACAD_REACTORS
330
4F6
102
}
330
4F6
100
AcDbScale
 70
     0
300
1:16
140
1.0
141
16.0
290
     0
  0
SCALE
  5
4FE
102
{ACAD_REACTORS
330
4F6
102
}
330
4F6
100
AcDbScale
 70
     0
300
1:20
140
1.0
141
20.0
290
     0
  0
SCALE
  5
4FF
102
{ACAD_REACTORS
330
4F6
102
}
330
4F6
100
AcDbScale
 70
     0
300
1:30
140
1.0
141
30.0
290
     0
  0
SCALE
  5
500
102
{ACAD_REACTORS
330
4F6
102
}
330
4F6
100
AcDbScale
 70
     0
300
1:40
140
1.0
141
40.0
290
     0
  0
SCALE
  5
501
102
{ACAD_REACTORS
330
4F6
102
}
330
4F6
100
AcDbScale
 70
     0
300
1:50
140
1.0
141
50.0
290
     0
  0
SCALE
  5
502
102
{ACAD_REACTORS
330
4F6
102
}
330
4F6
100
AcDbScale
 70
     0
300
1:100
140
1.0
141
100.0
290
     0
  0
SCALE
  5
503
102
{ACAD_REACTORS
330
4F6
102
}
330
4F6
100
AcDbScale
 70
     0
300
2:1
140
2.0
141
1.0
290
     0
  0
SCALE
  5
504
102
{ACAD_REACTORS
330
4F6
102
}
330
4F6
100
AcDbScale
 70
     0
300
4:1
140
4.0
141
1.0
290
     0
  0
SCALE
  5
505
102
{ACAD_REACTORS
330
4F6
102
}
330
4F6
100
AcDbScale
 70
     0
300
8:1
140
8.0
141
1.0
290
     0
  0
SCALE
  5
506
102
{ACAD_REACTORS
330
4F6
102
}
330
4F6
100
AcDbScale
 70
     0
300
10:1
140
10.0
141
1.0
290
     0
  0
SCALE
  5
507
102
{ACAD_REACTORS
330
4F6
102
}
330
4F6
100
AcDbScale
 70
     0
300
100:1
140
100.0
141
1.0
290
     0
  0
SCALE
  5
508
102
{ACAD_REACTORS
330
4F6
102
}
330
4F6
100
AcDbScale
 70
     0
300
1/128" = 1'-0"
140
0.0078125
141
12.0
290
     0
  0
SCALE
  5
509
102
{ACAD_REACTORS
330
4F6
102
}
330
4F6
100
AcDbScale
 70
     0
300
1/64" = 1'-0"
140
0.015625
141
12.0
290
     0
  0
SCALE
  5
50A
102
{ACAD_REACTORS
330
4F6
102
}
330
4F6
100
AcDbScale
 70
     0
300
1/32" = 1'-0"
140
0.03125
141
12.0
290
     0
  0
SCALE
  5
50B
102
{ACAD_REACTORS
330
4F6
102
}
330
4F6
100
AcDbScale
 70
     0
300
1/16" = 1'-0"
140
0.0625
141
12.0
290
     0
  0
SCALE
  5
50C
102
{ACAD_REACTORS
330
4F6
102
}
330
4F6
100
AcDbScale
 70
     0
300
3/32" = 1'-0"
140
0.09375
141
12.0
290
     0
  0
SCALE
  5
50D
102
{ACAD_REACTORS
330
4F6
102
}
330
4F6
100
AcDbScale
 70
     0
300
1/8" = 1'-0"
140
0.125
141
12.0
290
     0
  0
SCALE
  5
50E
102
{ACAD_REACTORS
330
4F6
102
}
330
4F6
100
AcDbScale
 70
     0
300
3/16" = 1'-0"
140
0.1875
141
12.0
290
     0
  0
SCALE
  5
50F
102
{ACAD_REACTORS
330
4F6
102
}
330
4F6
100
AcDbScale
 70
     0
300
1/4" = 1'-0"
140
0.25
141
12.0
290
     0
  0
SCALE
  5
510
102
{ACAD_REACTORS
330
4F6
102
}
330
4F6
100
AcDbScale
 70
     0
300
3/8" = 1'-0"
140
0.375
141
12.0
290
     0
  0
SCALE
  5
511
102
{ACAD_REACTORS
330
4F6
102
}
330
4F6
100
AcDbScale
 70
     0
300
1/2" = 1'-0"
140
0.5
141
12.0
290
     0
  0
SCALE
  5
512
102
{ACAD_REACTORS
330
4F6
102
}
330
4F6
100
AcDbScale
 70
     0
300
3/4" = 1'-0"
140
0.75
141
12.0
290
     0
  0
SCALE
  5
513
102
{ACAD_REACTORS
330
4F6
102
}
330
4F6
100
AcDbScale
 70
     0
300
1" = 1'-0"
140
1.0
141
12.0
290
     0
  0
SCALE
  5
514
102
{ACAD_REACTORS
330
4F6
102
}
330
4F6
100
AcDbScale
 70
     0
300
1-1/2" = 1'-0"
140
1.5
141
12.0
290
     0
  0
SCALE
  5
515
102
{ACAD_REACTORS
330
4F6
102
}
330
4F6
100
AcDbScale
 70
     0
300
3" = 1'-0"
140
3.0
141
12.0
290
     0
  0
SCALE
  5
516
102
{ACAD_REACTORS
330
4F6
102
}
330
4F6
100
AcDbScale
 70
     0
300
6" = 1'-0"
140
6.0
141
12.0
290
     0
  0
SCALE
  5
517
102
{ACAD_REACTORS
330
4F6
102
}
330
4F6
100
AcDbScale
 70
     0
300
1'-0" = 1'-0"
140
12.0
141
12.0
290
     0
  0
DICTIONARYVAR
  5
F2A
102
{ACAD_REACTORS
330
4F3
102
}
330
4F3
100
DictionaryVariables
280
     0
  1
1:1
  0
DICTIONARYVAR
  5
4F4
102
{ACAD_REACTORS
330
4F3
102
}
330
4F3
100
DictionaryVariables
280
     0
  1
1
  0
ENDSEC
  0
SECTION
  2
THUMBNAILIMAGE
 90
    16364
310
28000000B40000005500000001000800000000000000000000000000000000000000000000000000FFFFFF000000FF0000FFFF0000FF0000FFFF0000FF000000FF00FF000000000080808000C0C0C0000000FF007F7FFF000000A5005252A50000007F003F3F7F0000004C0026264C000000260013132600003FFF007F9FFF
310
000029A5005267A500001F7F003F4F7F0000134C00262F4C000009260013172600007FFF007FBFFF000052A500527CA500003F7F003F5F7F0000264C0026394C0000132600131C260000BFFF007FDFFF00007CA5005291A500005F7F003F6F7F0000394C0026424C00001C26001321260000FFFF007FFFFF0000A5A50052A5
310
A500007F7F003F7F7F00004C4C00264C4C00002626001326260000FFBF007FFFDF0000A57C0052A59100007F5F003F7F6F00004C3900264C420000261C001326210000FF7F007FFFBF0000A5520052A57C00007F3F003F7F5F00004C2600264C39000026130013261C0000FF3F007FFF9F0000A5290052A56700007F1F003F
310
7F4F00004C1300264C2F00002609001326170000FF00007FFF7F0000A5000052A55200007F00003F7F3F00004C0000264C260000260000132613003FFF00009FFF7F0029A5000067A552001F7F00004F7F3F00134C00002F4C260009260000172613007FFF0000BFFF7F0052A500007CA552003F7F00005F7F3F00264C0000
310
394C2600132600001C261300BFFF0000DFFF7F007CA5000091A552005F7F00006F7F3F00394C0000424C26001C26000021261300FFFF0000FFFF7F00A5A50000A5A552007F7F00007F7F3F004C4C00004C4C26002626000026261300FFBF0000FFDF7F00A57C0000A59152007F5F00007F6F3F004C3900004C422600261C00
310
0026211300FF7F0000FFBF7F00A5520000A57C52007F3F00007F5F3F004C2600004C39260026130000261C1300FF3F0000FF9F7F00A5290000A56752007F1F00007F4F3F004C1300004C2F26002609000026171300FF000000FF7F7F00A5000000A55252007F0000007F3F3F004C0000004C2626002600000026131300FF00
310
3F00FF7F9F00A5002900A55267007F001F007F3F4F004C0013004C262F002600090026131700FF007F00FF7FBF00A5005200A5527C007F003F007F3F5F004C0026004C2639002600130026131C00FF00BF00FF7FDF00A5007C00A55291007F005F007F3F6F004C0039004C26420026001C0026132100FF00FF00FF7FFF00A5
310
00A500A552A5007F007F007F3F7F004C004C004C264C002600260026132600BF00FF00DF7FFF007C00A5009152A5005F007F006F3F7F0039004C0042264C001C002600211326007F00FF00BF7FFF005200A5007C52A5003F007F005F3F7F0026004C0039264C00130026001C1326003F00FF009F7FFF002900A5006752A500
310
1F007F004F3F7F0013004C002F264C000900260017132600000000002D2D2D005B5B5B0089898900B7B7B700B3B3B30000000000000000000000000000000000000000000000000000000000000000000000000000000000000000000000000000000000000000000000000000000000000000000000000000000000000000
310
00000000000007070707070707070707070707070707070707070707070000000000000000000000000000000000000000000000000000000000000000000000000000000000000000000000000000000000000000000000000000000000000000000000000000000000000000000000000000000000000000000000000000
310
00000000000000000000000000000000000000000000000000000000000000000000000000000000000000000000000000000000000000000000000700000000000000000000000000000000000000000007000000000000000000000000000000000000000000000000000000000000000000000000000000000000000000
310
00000000000000000000000000000000000000000000000000000000000000000000000000000000000000000000000000000000000000000000000000000000000000000000000000000000000000000000000000000000000000000000000000000000000000000000000000000000070000000000000000000000000000
310
00000000000000070000000000000000000000000000000000000000000000000000000000000000000000000000000000000000000000000000000000000000000000000000000000000000000000000000000000000000000000000000000000000000000000000000000000000000000000000000000000000000000000
310
00000000000000000000000000000000000000000000000000000000000000000000000000000700000000000000000000000000000000000000000007000000000000000000000000000000000000000000000000000000000000000000000000000000000000000000000000000000000000000000000000000000000000
310
00000000000000000000000000000000000000000000000000000000000000000000000000000000000000000000000000000000000000000000000000000000000000000000000000000000000000000000000000000000000000070000000000000000000000000000000000000000000700000000000000000000000000
310
00000000000000000000000000000000000000000000000000000000000000000000000000000000000000000000000000000000000000000000000000000000000000000000000000000000000000000000000000000000000000000000000000000000000000000000000000000000000000000000000000000000000000
310
00000000000000000000000000000000000707070707070707070707070707070707070707070707000000000000000000000000000000000000000000000000000000000000000000000000000000000000000000000000000000000000000000000000000000000000000000000000000000000000000000000000000000
310
00000000000000000000000000000000000000000000000000000000000000000000000000000000000000000000000000000000000000000000000000000000000000000000070000000000000000000000000000000000000000000700000000000000000000000000000000000000000000000000000000000000000000
310
00000000000000000000000000000000000000000000000000000000000000000000000000000000000000000000000000000000000000000000000000000000000000000000000000000000000000000000000000000000000000000000000000000000000000000000000000000000000000000000000000000000070000
310
00000000000000000000000000000000000700000000000000000000000000000000000000000000000000000000000000000000000000000000000000000000000000000000000000000000000000000000000000000000000000000000000000000000000000000000000000000000000000000000000000000000000000
310
00000000000000000000000000000000000000000000000000000000000000000000000000000000000000000000000000000700000000000000000000000000000000000000070000000000000000000000000000000000000000000000000000000000000000000000000000000000000000000000000000000000000000
310
00000000000000000000000000000000000000000000000000000000000000000000000000000000000000000000000000000000000000000000000000000000000000000000000000000000000000000000000000000000000000000000000000000000000000070000000000000000000000000000000000000007000000
310
00000000000000000000000000000000000000000000000000000000000000000000000000000000000000000000000000000000000000000000000000000000000000000000000000000000000000000000000000000000000000000000000000000000000000000000000000000000000000000000000000000000000000
310
00000000000000000000000000000000000000000000000000000000000700000000000000000000000000000000000000070000000000000000000000000000000000000000000000000000000000000000000000000000000000000000000000000000000000000000000000000000000000000000000000000000000000
310
00000000000000000000000000000000000000000000000000000000000000000000000000000000000000000000000000000000000000000000000000000000000000000000000000000000000000000000000700000000000000000000000000000000000700000000000000000000000000000000000000000000000000
310
00000000000000000000000000000000000000000000000000000000000000000000000000000000000000000000000000000000000000000000000000000000000000000000000000000000000000000000000000000000000000000000000000000000000000000000000000000000000000000000000000000000000000
310
00000000000000000007000000000000000000000000000000000007000000000000000000000000000000000000000000000000000000000000000000000000000000000000000000000000000000000000000000000000000000000000000000000000000000000000000000000000000000000000000000000000000000
310
00000000000000000000000000000000000000000000000000000000000000000000000000000000000000000000000000000000000000000000000000000700000000000000000000000000000000000700000000000000000000000000000000000000000000000000000000000000000000000000000000000000000000
310
00000000000000000000000000000000000000000000000000000000000000000000000000000000000000000000000000000000000000000000000000000000000000000000000000000000000000000000000000000000000000000000000000000000000000000000000000000000000000000700000000000000000000
310
00000000000700000000000000000000000000000000000000000000000000000000000000000000000000000000000000000000000000000000000000000000000000000000000000000000000000000000000000000000000000000000000000000000000000000000000000000000000000000000000000000000000000
310
00000000000000000000000000000000000000000000000000000000000000000000000000000000000007000000000000000000000000000000070000000000000000000000000000000000000000000000000000000000000000000000000000000000000000000000000000000000000000000000000000000000000000
310
00000000000000000000000000000000000000000000000000000000000000000000000000000000000000000000000000000000000000000000000000000000000000000000000000000000000000000000000000000000000000000000000700000000000000000000000000000007000000000000000000000000000000
310
00000000000000000000000000000000000000000000000000000000000000000000000000000000000000000000000000000000000000000000000000000000000000000000000000000000000000000000000000000000000000000000000000000000000000000000000000000000000000000000000000000000000000
310
00000000000000000000000000000000000000000007000000000000000000000000000000070000000000000000000000000000000000000000000000000000000000000000000000000000000000000000000000000000000000000000000000000000000000000000000000000000000000000000000000000000000000
310
00000000000000000000000000000000000000000000000000000000000000000000000000000000000000000000000000000000000000000000000000000000000000000000000000000007000000000000000000000000000700000000000000000000000000000000000000000000000000000000000000000000000000
310
00000000000000000000000000000000000000000000000000000000000000000000000000000000000000000000000000000000000000000000000000000000000000000000000000000000000000000000000000000000000000000000000000000000000000000000000000000000000000000000000000000000000000
310
00070000000000000000000000000007000000000000000000000000000000000000000000000000000000000000000000000000000000000000000000000000000000000000000000000000000000000000000000000000000000000000000000000000000000000000000000000000000000000000000000000000000000
310
00000000000000000000000000000000000000000000000000000000000000000000000000000000000000000000000000000000000007000000000000000000000000000700000000000000000000000000000000000000000000000000000000000000000000000000000000000000000000000000000000000000000000
310
00000000000000000000000000000000000000000000000000000000000000000000000000000000000000000000000000000000000000000000000000000000000000000000000000000000000000000000000000000000000000000000000000000000000000000000000007000000000000000000000007000000000000
310
00000000000000000000000000000000000000000000000000000000000000000000000000000000000000000000000000000000000000000000000000000000000000000000000000000000000000000000000000000000000000000000000000000000000000000000000000000000000000000000000000000000000000
310
00000000000000000000000000000000000000000000000000000000000000000000070000000000000000000000070000000000000000000000000000000000000000000000000000000000000000000000000000000000000000000000000000000000000000000000000000000000000000000000000000000000000000
310
00000000000000000000000000000000000000000000000000000000000000000000000000000000000000000000000000000000000000000000000000000000000000000000000000000000000000000000000000000007000000000000000000000007000000000000000000000000000000000000000000000000000000
310
00000000000000000000000000000000000000000000000000000000000000000000000000000000000000000000000000000000000000000000000000000000000000000000000000000000000000000000000000000000000000000000000000000000000000000000000000000000000000000000000000000000000000
310
00000000000000000000000000070000000000000000000000070000000000000000000000000000000000000000000000000000000000000000000000000000000000000000000000000000000000000000000000000000000000000000000000000000000000000000000000000000000000000000000000000000000000
310
00000000000000000000000000000000000000000000000000000000000000000000000000000000000000000000000000000000000000000000000000000000000000070000000000000000000700000000000000000000000000000000000000000000000000000000000000000000000000000000000000000000000000
310
00000000000000000000000000000000000000000000000000000000000000000000000000000000000000000000000000000000000000000000000000000000000000000000000000000000000000000000000000000000000000000000000000000000000000000000000000000000000000000000000007070707070707
310
07070707000000000000000000000000000000000000000000000000000000000000000000000000000000000000000000000000000000000000000000000000000000000000000000000000000000000000000000000000000000000000000000000000000000000000000000000000000000000000000000000000000000
310
00000000000000000000000000000000000000000000000000000000000000000000000000000000000000000000070000000000000000000700000000000000000000000000000000000000000000000000000000000000000000000000000000000000000000000000000000000000000000000000000000000000000000
310
00000000000000000000000000000000000000000000000000000000000000000000000000000000000000000000000000000000000000000000000000000000000000000000000000000000000000000000000000000000000000000000000000000007000000000000000000070000000000000000000000000000000000
310
00000000000000000000000000000000000000000000000000000000000000000000000000000000000000000000000000000000000000000000000000000000000000000000000000000000000000000000000000000000000000000000000000000000000000000000000000000000000000000000000000000000000000
310
00000000000000000000000000000000000000000000000000070000000000000000000700000000000000000000000000000000000000000000000000000000000000000000000000000000000000000000000000000000000000000000000000000000000000000000000000000000000000000000000000000000000000
310
00000000000000000000000000000000000000000000000000000000000000000000000000000000000000000000000000000000000000000000000000000000000000000000000000000000000007000000000000000000070000000000000000000000000000000000000000000000000000000000000000000000000000
310
00000000000000000000000000000000000000000000000000000000000000000000000000000000000000000000000000000000000000000000000000000000000000000000000000000000000000000000000000000000000000000000000000000000000000000000000000000000000000000000000000000000000000
310
00000000070000000000000000000700000000000000000000000000000000000000000000000000000000000000000000000000000000000000000000000000000000000000000000000000000000000000000000000000000000000000000000000000000000000000000000000000000000000000000000000000000000
310
00000000000000000000000000000000000000000000000000000000000000000000000000000000000000000000000000000000000000000007000000000000000000070000000000000000000000000000000000000000000000000000000000000000000000000000000000000000000000000000000000000000000000
310
00000000000000000000000000000000000000000000000000000000000000000000000000000000000000000000000000000000000000000000000000000000000000000000000000000000000000000000000000000000000000000000000000000000000000000000000000000700000000000000000007000000000000
310
00000000000000000000000000000000000000000000000000000000000000000000000000000000000000000000000000000000000000000000000000000000000000000000000000000000000000000000000000000000000000000000000000000000000000000000000000000000000000000000000000000000000000
310
00000000000000000000000000000000000000000000000000000000000000000000000007000000000000000000070000000000000000000000000000000000000000000000000000000000000000000000000000000000000000000000000000000000000000000000000000000000000000000000000000000000000000
310
00000000000000000000000000000000000000000000000000000000000000000000000000000000000000000000000000000000000000000000000000000000000000000000000000000000000000000000000000000000000700000000000000000007000000000000000000000000000000000000000000000000000000
310
00000000000000000000000000000000000000000000000000000000000000000000000000000000000000000000000000000000000000000000000000000000000000000000000000000000000000000000000000000000000000000000000000000000000000000000000000000000000000000000000000000000000000
310
00000000000000000000000000000007000000000000000000070000000000000000000000000000000000000000000000000000000000000000000000000000000000000000000000000000000000000000000000000000000000000000000000000000000000000000000000000000000000000000000000000000000000
310
00000000000000000000000000000000000000000000000000000000000000000000000000000000000000000000000000000000000000000000000000000000000000000700000000000000000007000000000000000000000000000000000000000000000000000000000000000000000000000000000000000000000000
310
00000000000000000000000000000000000000000000000000000000000000000000000000000000000000000000000000000000000000000000000000000000000000000000000000000000000000000000000000000000000000000000000000000000000000000000000000000000000000000000000000070000000000
310
00000000070000000000000000000000000000000000000000000000000000000000000000000000000000000000000000000000000000000000000000000000000000000000000000000000000000000000000000000000000000000000000000000000000000000000000000000000000000000000000000000000000000
310
00000000000000000000000000000000000000000000000000000000000000000000000000000000000000000000000700000000000000000007000000000000000000000000000000000000000000000000000000000000000000000000000000000000000000000000000000000000000000000000000000000000000000
310
00000000000000000000000000000000000000000000000000000000000000000000000000000000000000000000000000000000000000000000000000000000000000000000000000000000000000000000000000000000000000000000000000000000070000000000000000000700000000000000000000000000000000
310
00000000000000000000000000000000000000000000000000000000000000000000000000000000000000000000000000000000000000000000000000000000000000000000000000000000000000000000000000000000000000000000000000000000000000000000000000000000000000000000000000000000000000
310
00000000000000000000000000000000000000000000000000000700000000000000000007000000000000000000000000000000000000000000000000000000000000000000000000000000000000000000000000000000000000000000000000000000000000000000000000000000000000000000000000000000000000
310
00000000000000000000000000000000000000000000000000000000000000000000000000000000000000000000000000000000000000000000000000000000000000000000000000000000000000070000000000000000000700000000000000000000000000000000000000000000000000000000000000000000000000
310
00000000000000000000000000000000000000000000000000000000000000000000000000000000000000000000000000000000000000000000000000000000000000000000000000000000000000000000000000000000000000000000000000000000000000000000000000000000000000000000000000000000000000
310
00000000000700000000000000000007000000000000000000000000000000000000000000000000000000000000000000000000000000000000000000000000000000000000000000000000000000000000000000000000000000000000000000000000000000000000000000000000000000000000000000000000000000
310
00000000000000000000000000000000000000000000000000000000000000000000000000000000000000000000000000000000000000000000070000000000000000000700000000000000000000000000000000000000000000000000000000000000000000000000000000000000000000000000000000000000000000
310
00000000000000000000000000000000000000000000000000000000000000000000000000000000000000000000000000000000000000000000000000000000000000000000000000000000000000000000000000000000000000000000000000000000000000000000000000000007000000000000000000070000000000
310
00000000000000000000000000000000000000000000000000000000000000000000000000000000000000000000000000000000000000000000000000000000000000000000000000000000000000000000000000000000000000000000000000000000000000000000000000000000000000000000000000000000000000
310
00000000000000000000000000000000000000000000000000000000000000000000000000070000000000000000000700000000000000000000000000000000000000000000000000000000000000000000000000000000000000000000000000000000000000000000000000000000000000000000000000000000000000
310
00000000000000000000000000000000000000000000000000000000000000000000000000000000000000000000000000000000000000000000000000000000000000000000000000000000000000000000000000000000000007000000000000000000070000000000000000000000000000000000000000000000000000
310
00000000000000000000000000000000000000000000000000000000000000000000000000000000000000000000000000000000000000000000000000000000000000000000000000000000000000000000000000000000000000000000000000000000000000000000000000000000000000000000000000000000000000
310
00000000000000000000000000000000070000000000000000000700000000000000000000000000000000000000000000000000000000000000000000000000000000000000000000000000000000000000000000000000000000000000000000000000000000000000000000000000000000000000000000000000000000
310
00000000000000000000000000000000000000000000000000000000000000000000000000000000000000000000000000000000000000000000000000000000000000000007000000000000000000070000000000000000000000000000000000000000000000000000000000000000000000000000000000000000000000
310
00000000000000000000000000000000000000000000000000000000000000000000000000000000000000000000000000000000000000000000000000000000000000000000000000000000000000000000000000000000000000000000000000000000000000000000000000000000000000000000000000000700000000
310
00000000000700000000000000000000000000000000000000000000000000000000000000000000000000000000000000000000000000000000000000000000000000000000000000000000000000000000000000000000000000000000000000000000000000000000000000000000000000000000000000000000000000
310
00000000000000000000000000000000000000000000000000000000000000000000000000000000000000000000000007000000000000000000070000000000000000000000000000000000000000000000000000000000000000000000000000000000000000000000000000000000000000000000000000000000000000
310
00000000000000000000000000000000000000000000000000000000000000000000000000000000000000000000000000000000000000000000000000000000000000000000000000000000000000000000000000000000000000000000000000000000000700000000000000000007000000000000000000000000000000
310
00000000000000000000000000000000000000000000000000000000000000000000000000000000000000000000000000000000000000000000000000000000000000000000000000000000000000000000000000000000000000000000000000000000000000000000000000000000000000000000000000000000000000
310
00000000000000000000000000000000000000000000000000000007000000000000000000070000000000000000000000000000000000000000000000000000000000000000000000000000000000000000000000000000000000000000000000000000000000000000000000000000000000000000000000000000000000
310
00000000000000000000000000000000000000000000000000000000000000000000000000000000000000000000000000000000000000000000000000000000000000000000000000000000000000000700000000000000000007000000000000000000000000000000000000000000000000000000000000000000000000
310
00000000000000000000000000000000000000000000000000000000000000000000000000000000000000000000000000000000000000000000000000000000000000000000000000000000000000000000000000000000000000000000000000000000000000000000000000000000000000000000000000000000000000
310
00000000000007000000000000000000070000000000000000000000000000000000000000000000000000000000000000000000000000000000000000000000000000000000000000000000000000000000000000000000000000000000000000000000000000000000000000000000000000000000000000000000000000
310
00000000000000000000000000000000000000000000000000000000000000000000000000000000000000000000000000000000000000000000000700000000000000000007000000000000000000000000000000000000000000000000000000000000000000000000000000000000000000000000000000000000000000
310
00000000000000000000000000000000000000000000000000000000000000000000000000000000000000000000000000000000000000000000000000000000000000000000000000000000000000000000000000000000000000000000000000000000000000000000000000000000070000000000000000000700000000
310
00000000000000000000000000000000000000000000000000000000000000000000000000000000000000000000000000000000000000000000000000000000000000000000000000000000000000000000000000000000000000000000000000000000000000000000000000000000000000000000000000000000000000
310
00000000000000000000000000000000000000000000000000000000000000000000000000000707070707070707070707000000000000000000000000000000000000000000000000000000000000000000000000000000000000000000000000000000000000000000000000000000000000000000000000000000000000
310
00000000000000000000000000000000000000000000000000000000000000000000000000000000000000000000000000000000000000000000000000000000000000000000000000000000000000000000000000000000000000000000000707070707070700000000000000000000000000000000000000000000000000
310
00000000000000000000000000000000000000000000000000000000000000000000000000000000000000000000000000000000000000000000000000000000000000000000000000000000000000000000000000000000000000000000000000000000000000000000000000000000000000000000000000000000000000
310
00000000000000000000000000000000000000000007070707070707000000000000000000000000000000000000000000000000000000000000000000000000000000000000000000000000000000000000000000000000000000000000000000000000000000000000000000000000000000000000000000000000000000
310
00000000000000000000000000000000000000000000000000000000000000000000000000000000000000000000000000000000000000000000000000000000000000000000000000000707070707070700000000000000000000000000000000000000000000000000000000000000000000000000000000000000000000
310
00000000000000000000000000000000000000000000000000000000000000000000000000000000000000000000000000000000000000000000000000000000000000000000000000000000000000000000000000000000000000000000000000000000000000000000000000000000000000000000000000000000000000
310
07000000000007000000000000000000000000000000000000000000000000000000000000000000000000000000000000000000000000000000000000000000000000000000000000000000000000000000000000000000000000000000000000000000000000000000000000000000000000000000000000000000000000
310
00000000000000000000000000000000000000000000000000000000000000000000000000000000000000000000000000000000000700000000000700000000000000000000000000000000000000000000000000000000000000000000000000000000000000000000000000000000000000000000000000000000000000
310
00000000000000000000000000000000000000000000000000000000000000000000000000000000000000000000000000000000000000000000000000000000000000000000000000000000000000000000000000000000000000000000000000000000000000000007070707070707070700000000000000000000000000
310
00000000000000000000000000000000000000000000000000000000000000000000000000000000000000000000000000000000000000000000000000000000000000000000000000000000000000000000000000000000000000000000000000000000000000000000000000000000000000000000000000000000000000
310
00000000000000000000000000000000000000000000000000000000000000070707070707070707000000000000000000000000000000000000000000000000000000000000000000000000000000000000000000000000000000000000000000000000000000000000000000000000000000000000000000000000000000
310
00000000000000000000000000000000000000000000000000000000000000000000000000000000000000000000000000000000000000000000000000000000000000000000000000000000000000000000000000070707000007070000000000000000000000000000000000000000000000000000000000000000000000
310
00000000000000000000000000000000000000000000000000000000000000000000000000000000000000000000000000000000000000000000000000000000000000000000000000000000000000000000000000000000000000000000000000000000000000000000000000000000000000000000000000000000000000
310
00000000000000000000070000070707070700000000000000000000000000000000000000000000000000000000000000000000000000000000000000000000000000000000000000000000000000000000000000000000000000000000000000000000000000000000000000000000000000000000000000000000000000
310
00000000000000000000000000000000000000000000000000000000000000000000000000000000000000000000000000000000000000000000000000000707070707000007070000000000000000000000000000000000000000000000000000000000000000000000000000000000000000000000000000000000000000
310
00000000000000000000000000000000000000000000000000000000000000000000000000000000000000000000000000000000000000000000000000000000000000000000000000000000000000000000000000000000000000000000000000000000000000000000000000000000000007000000070000000707000000
310
00000000000000000000000000000000000000000000000000000000000000000000000000000000000000000000000000000000000000000000000000000000000000000000000000000000000000000000000000000000000000000000000000000000000000000000000000000000000000000000000000000000000000
310
00000000000000000000000000000000000000000000000000000000000000000000000000000000070000070707070707070000000000000000000000000000000000000000000000000000000000000000000000000000000000000000000000000000000000000000000000000000000000000000000000000000000000
310
00000000000000000000000000000000000000000000000000000000000000000000000000000000000000000000000000000000000000000000000000000000000000000000000000000000000000000000000000000000000000000700000700000700070000000000000000000000000000000000000000000000000000
310
00000000000000000000000000000000000000000000000000000000000000000000000000000000000000000000000000000000000000000000000000000000000000000000000000000000000000000000000000000000000000000000000000000000000000000000000000000000000000000000000000000000000000
310
00000000000000000000000000000000000700000700000007070700000000000000000000000000000000000000000000000000000000000000000000000000000000000000000000000000000000000000000000000000000000000000000000000000000000000000000000000000000000000000000000000000000000
310
00000000000000000000000000000000000000000000000000000000000000000000000000000000000000000000000000000000000000000000000000000000000000000007000007000000000700070000000000000000000000000000000000000000000000000000000000000000000000000000000000000000000000
310
00000000000000000000000000000000000000000000000000000000000000000000000000000000000000000000000000000000000000000000000000000000000000000000000000000000000000000000000000000000000000000000000000000000000000000000000000000000000000000000000000000700000700
310
00000007000700000000000000000000000000000000000000000000000000000000000000000000000000000000000000000000000000000000000000000000000000000000000000000000000000000000000000000000000000000000000000000000000000000000000000000000000000000000000000000000000000
310
00000000000000000000000000000000000000000000000000000000000000000000000000000000000000000000000707000700000000000700070000000000000000000000000000000000000000000000000000000000000000000000000000000000000000000000000000000000000000000000000000000000000000
310
00000000000000000000000000000000000000000000000000000000000000000000000000000000000000000000000000000000000000000000000000000000000000000000000000000000000000000000000000000000000000000000000000000007000707000000000000070007000000000000000000000000000000
310
00000000000000000000000000000000000000000000000000000000000000000000000000000000000000000000000000000000000000000000000000000000000000000000000000000000000000000000000000000000000000000000000000000000000000000000000000000000000000000000000000000000000000
310
00000000000000000000000000000000000000000000070707070007000000000000070700070000000000000000000000000000000000000000000000000000000000000000000000000000000000000000000000000000000000000000000000000000000000000000000000000000000000000000000000000000000000
310
00000000000000000000000000000000000000000000000000000000000000000000000000000000000000000000000000000000000000000000000000000000000000070000000000070707000000070000000000000707000707000000000000000000000000000000000000000000000000000000000000000000000000
310
00000000000000000000000000000000000000000000000000000000000000000000000000000000000000000000000000000000000000000000000000000000000000000000000000000000000000000000000000000000000000000000000000000000000000000000000000000000000000000007070707070707070707
310
07000007070707070707070707000707000000000000000000000000000000000000000000000000000000000000000000000000000000000000000000000000000000000000000000000000000000000000000000000000000000000000000000000000000000000000000000000000000000000000000000000000000000
310
00000000000000000000000000000000000000000000000000000000000000000000000000000000000000070000000007070700000007070700000000000000000000070000000000000000000000000000000000000000000000000000000000000000000000000000000000000000000000000000000000000000000000
310
00000000000000000000000000000000000000000000000000000000000000000000000000000000000000000000000000000000000000000000000000000000000000000000000000000000000000000000000000000000000000000000000007070707070700000007070707070707070707070707070700000000000000
310
00000000000000000000000000000000000000000000000000000000000000000000000000000000000000000000000000000000000000000000000000000000000000000000000000000000000000000000000000000000000000000000000000000000000000000000000000000000000000000000000000000000000000
310
00000000000000000000000000000000000000000000000000000700000707070000000000000000000000000000000000000000000000000000000000000000000000000000000000000000000000000000000000000000000000000000000000000000000000000000000000000000000000000000000000000000000000
310
00000000000000000000000000000000000000000000000000000000000000000000000000000000000000000000000000000000000000000000000000000000000000000000000000000000000000000707070000000000000000000000000000000000000000000000000000000000000000000000000000000000000000
310
00000000000000000000000000000000000000000000000000000000000000000000000000000000000000000000000000000000000000000000000000000000000000000000000000000000000000000000000000000000000000000000000000000000000000000000000000000000000000000000000000000000000000
310
000000000000000000000000000000000000000000000000000000000000000000000000000000000000000000000000000000000000000000000000000000000000000000000000000000000000000000000000000000000000000000000000000000000000000000000000
  0
ENDSEC
  0
EOF
