  0
SECTION
  2
HEADER
  9
$ACADVER
  1
AC1015
  9
$ACADMAINTVER
 70
     6
  9
$DWGCODEPAGE
  3
ANSI_1252
  9
$INSBASE
 10
0.0
 20
0.0
 30
0.0
  9
$EXTMIN
 10
0.0
 20
0.0
 30
0.0
  9
$EXTMAX
 10
152.0
 20
967.0
 30
0.0
  9
$LIMMIN
 10
0.0
 20
0.0
  9
$LIMMAX
 10
12.0
 20
9.0
  9
$ORTHOMODE
 70
     0
  9
$REGENMODE
 70
     1
  9
$FILLMODE
 70
     1
  9
$QTEXTMODE
 70
     0
  9
$MIRRTEXT
 70
     1
  9
$LTSCALE
 40
1.0
  9
$ATTMODE
 70
     1
  9
$TEXTSIZE
 40
0.2
  9
$TRACEWID
 40
0.05
  9
$TEXTSTYLE
  7
Standard
  9
$CLAYER
  8
0
  9
$CELTYPE
  6
ByBlock
  9
$CECOLOR
 62
   256
  9
$CELTSCALE
 40
1.0
  9
$DISPSILH
 70
     0
  9
$DIMSCALE
 40
1.0
  9
$DIMASZ
 40
0.18
  9
$DIMEXO
 40
0.0625
  9
$DIMDLI
 40
0.38
  9
$DIMRND
 40
0.0
  9
$DIMDLE
 40
0.0
  9
$DIMEXE
 40
0.18
  9
$DIMTP
 40
0.0
  9
$DIMTM
 40
0.0
  9
$DIMTXT
 40
0.18
  9
$DIMCEN
 40
0.09
  9
$DIMTSZ
 40
0.0
  9
$DIMTOL
 70
     0
  9
$DIMLIM
 70
     0
  9
$DIMTIH
 70
     1
  9
$DIMTOH
 70
     1
  9
$DIMSE1
 70
     0
  9
$DIMSE2
 70
     0
  9
$DIMTAD
 70
     0
  9
$DIMZIN
 70
     0
  9
$DIMBLK
  1

  9
$DIMASO
 70
     1
  9
$DIMSHO
 70
     1
  9
$DIMPOST
  1

  9
$DIMAPOST
  1

  9
$DIMALT
 70
     0
  9
$DIMALTD
 70
     2
  9
$DIMALTF
 40
25.4
  9
$DIMLFAC
 40
1.0
  9
$DIMTOFL
 70
     0
  9
$DIMTVP
 40
0.0
  9
$DIMTIX
 70
     0
  9
$DIMSOXD
 70
     0
  9
$DIMSAH
 70
     0
  9
$DIMBLK1
  1

  9
$DIMBLK2
  1

  9
$DIMSTYLE
  2
Standard
  9
$DIMCLRD
 70
     0
  9
$DIMCLRE
 70
     0
  9
$DIMCLRT
 70
     0
  9
$DIMTFAC
 40
1.0
  9
$DIMGAP
 40
0.09
  9
$DIMJUST
 70
     0
  9
$DIMSD1
 70
     0
  9
$DIMSD2
 70
     0
  9
$DIMTOLJ
 70
     1
  9
$DIMTZIN
 70
     0
  9
$DIMALTZ
 70
     0
  9
$DIMALTTZ
 70
     0
  9
$DIMUPT
 70
     0
  9
$DIMDEC
 70
     4
  9
$DIMTDEC
 70
     4
  9
$DIMALTU
 70
     2
  9
$DIMALTTD
 70
     2
  9
$DIMTXSTY
  7
Standard
  9
$DIMAUNIT
 70
     0
  9
$DIMADEC
 70
     0
  9
$DIMALTRND
 40
0.0
  9
$DIMAZIN
 70
     0
  9
$DIMDSEP
 70
    46
  9
$DIMATFIT
 70
     3
  9
$DIMFRAC
 70
     0
  9
$DIMLDRBLK
  1

  9
$DIMLUNIT
 70
     2
  9
$DIMLWD
 70
    -2
  9
$DIMLWE
 70
    -2
  9
$DIMTMOVE
 70
     2
  9
$LUNITS
 70
     2
  9
$LUPREC
 70
     4
  9
$SKETCHINC
 40
0.1
  9
$FILLETRAD
 40
0.5
  9
$AUNITS
 70
     0
  9
$AUPREC
 70
     0
  9
$MENU
  1
.
  9
$ELEVATION
 40
0.0
  9
$PELEVATION
 40
0.0
  9
$THICKNESS
 40
0.0
  9
$LIMCHECK
 70
     0
  9
$CHAMFERA
 40
0.5
  9
$CHAMFERB
 40
0.5
  9
$CHAMFERC
 40
1.0
  9
$CHAMFERD
 40
0.0
  9
$SKPOLY
 70
     0
  9
$TDCREATE
 40
2455870.864331667
  9
$TDUCREATE
 40
2455870.822665
  9
$TDUPDATE
 40
2455870.868002998
  9
$TDUUPDATE
 40
2455870.826336331
  9
$TDINDWG
 40
0.003669537
  9
$TDUSRTIMER
 40
0.003669537
  9
$USRTIMER
 70
     1
  9
$ANGBASE
 50
0.0
  9
$ANGDIR
 70
     0
  9
$PDMODE
 70
     0
  9
$PDSIZE
 40
0.0
  9
$PLINEWID
 40
0.0
  9
$SPLFRAME
 70
     0
  9
$SPLINETYPE
 70
     6
  9
$SPLINESEGS
 70
     8
  9
$HANDSEED
  5
3F20
  9
$SURFTAB1
 70
     6
  9
$SURFTAB2
 70
     6
  9
$SURFTYPE
 70
     6
  9
$SURFU
 70
     6
  9
$SURFV
 70
     6
  9
$UCSBASE
  2

  9
$UCSNAME
  2

  9
$UCSORG
 10
0.0
 20
0.0
 30
0.0
  9
$UCSXDIR
 10
1.0
 20
0.0
 30
0.0
  9
$UCSYDIR
 10
0.0
 20
1.0
 30
0.0
  9
$UCSORTHOREF
  2

  9
$UCSORTHOVIEW
 70
     0
  9
$UCSORGTOP
 10
0.0
 20
0.0
 30
0.0
  9
$UCSORGBOTTOM
 10
0.0
 20
0.0
 30
0.0
  9
$UCSORGLEFT
 10
0.0
 20
0.0
 30
0.0
  9
$UCSORGRIGHT
 10
0.0
 20
0.0
 30
0.0
  9
$UCSORGFRONT
 10
0.0
 20
0.0
 30
0.0
  9
$UCSORGBACK
 10
0.0
 20
0.0
 30
0.0
  9
$PUCSBASE
  2

  9
$PUCSNAME
  2

  9
$PUCSORG
 10
0.0
 20
0.0
 30
0.0
  9
$PUCSXDIR
 10
1.0
 20
0.0
 30
0.0
  9
$PUCSYDIR
 10
0.0
 20
1.0
 30
0.0
  9
$PUCSORTHOREF
  2

  9
$PUCSORTHOVIEW
 70
     0
  9
$PUCSORGTOP
 10
0.0
 20
0.0
 30
0.0
  9
$PUCSORGBOTTOM
 10
0.0
 20
0.0
 30
0.0
  9
$PUCSORGLEFT
 10
0.0
 20
0.0
 30
0.0
  9
$PUCSORGRIGHT
 10
0.0
 20
0.0
 30
0.0
  9
$PUCSORGFRONT
 10
0.0
 20
0.0
 30
0.0
  9
$PUCSORGBACK
 10
0.0
 20
0.0
 30
0.0
  9
$USERI1
 70
     0
  9
$USERI2
 70
     0
  9
$USERI3
 70
     0
  9
$USERI4
 70
     0
  9
$USERI5
 70
     0
  9
$USERR1
 40
0.0
  9
$USERR2
 40
0.0
  9
$USERR3
 40
0.0
  9
$USERR4
 40
0.0
  9
$USERR5
 40
0.0
  9
$WORLDVIEW
 70
     1
  9
$SHADEDGE
 70
     3
  9
$SHADEDIF
 70
    70
  9
$TILEMODE
 70
     1
  9
$MAXACTVP
 70
    64
  9
$PINSBASE
 10
0.0
 20
0.0
 30
0.0
  9
$PLIMCHECK
 70
     0
  9
$PEXTMIN
 10
1.000000000000E+20
 20
1.000000000000E+20
 30
1.000000000000E+20
  9
$PEXTMAX
 10
-1.000000000000E+20
 20
-1.000000000000E+20
 30
-1.000000000000E+20
  9
$PLIMMIN
 10
0.0
 20
0.0
  9
$PLIMMAX
 10
12.0
 20
9.0
  9
$UNITMODE
 70
     0
  9
$VISRETAIN
 70
     1
  9
$PLINEGEN
 70
     0
  9
$PSLTSCALE
 70
     1
  9
$TREEDEPTH
 70
  3020
  9
$CMLSTYLE
  2
Standard
  9
$CMLJUST
 70
     0
  9
$CMLSCALE
 40
1.0
  9
$PROXYGRAPHICS
 70
     1
  9
$MEASUREMENT
 70
     0
  9
$CELWEIGHT
370
    -1
  9
$ENDCAPS
280
     0
  9
$JOINSTYLE
280
     0
  9
$LWDISPLAY
290
     0
  9
$INSUNITS
 70
     0
  9
$HYPERLINKBASE
  1

  9
$STYLESHEET
  1

  9
$XEDIT
290
     1
  9
$CEPSNTYPE
380
     0
  9
$PSTYLEMODE
290
     1
  9
$FINGERPRINTGUID
  2
{470A5A4F-8A53-409D-A6C7-E5082EAB56DF}
  9
$VERSIONGUID
  2
{FAEB1C32-E019-11D5-929B-00C0DF256EC4}
  9
$EXTNAMES
290
     1
  9
$PSVPSCALE
 40
0.0
  9
$OLESTARTUP
290
     0
  0
ENDSEC
  0
SECTION
  2
CLASSES
  0
CLASS
  1
ACDBDICTIONARYWDFLT
  2
AcDbDictionaryWithDefault
  3
ObjectDBX Classes
 90
        0
280
     0
281
     0
  0
CLASS
  1
SCALE
  2
AcDbScale
  3
ObjectDBX Classes
 90
     1153
280
     0
281
     0
  0
CLASS
  1
DICTIONARYVAR
  2
AcDbDictionaryVar
  3
ObjectDBX Classes
 90
        0
280
     0
281
     0
  0
CLASS
  1
ACDBPLACEHOLDER
  2
AcDbPlaceHolder
  3
ObjectDBX Classes
 90
        0
280
     0
281
     0
  0
CLASS
  1
LAYOUT
  2
AcDbLayout
  3
ObjectDBX Classes
 90
        0
280
     0
281
     0
  0
ENDSEC
  0
SECTION
  2
TABLES
  0
TABLE
  2
VPORT
  5
8
330
0
100
AcDbSymbolTable
 70
     1
  0
VPORT
  5
339D
330
8
100
AcDbSymbolTableRecord
100
AcDbViewportTableRecord
  2
*Active
 70
     0
 10
0.0
 20
0.0
 11
1.0
 21
1.0
 12
76.0
 22
483.5
 13
0.0
 23
0.0
 14
0.5
 24
0.5
 15
0.5
 25
0.5
 16
0.0
 26
0.0
 36
1.0
 17
0.0
 27
0.0
 37
0.0
 40
986.34
 41
2.271724137931
 42
50.0
 43
0.0
 44
0.0
 50
0.0
 51
0.0
 71
    16
 72
   100
 73
     1
 74
     3
 75
     0
 76
     0
 77
     0
 78
     0
281
     0
 65
     1
110
0.0
120
0.0
130
0.0
111
1.0
121
0.0
131
0.0
112
0.0
122
1.0
132
0.0
 79
     0
146
0.0
  0
ENDTAB
  0
TABLE
  2
LTYPE
  5
5
330
0
100
AcDbSymbolTable
 70
     1
  0
LTYPE
  5
14
330
5
100
AcDbSymbolTableRecord
100
AcDbLinetypeTableRecord
  2
ByBlock
 70
     0
  3

 72
    65
 73
     0
 40
0.0
  0
LTYPE
  5
15
330
5
100
AcDbSymbolTableRecord
100
AcDbLinetypeTableRecord
  2
ByLayer
 70
     0
  3

 72
    65
 73
     0
 40
0.0
  0
LTYPE
  5
16
330
5
100
AcDbSymbolTableRecord
100
AcDbLinetypeTableRecord
  2
Continuous
 70
     0
  3
Solid line
 72
    65
 73
     0
 40
0.0
  0
ENDTAB
  0
TABLE
  2
LAYER
  5
2
330
0
100
AcDbSymbolTable
 70
     1
  0
LAYER
  5
10
330
2
100
AcDbSymbolTableRecord
100
AcDbLayerTableRecord
  2
0
 70
     0
 62
     7
  6
Continuous
370
    -3
390
F
  0
ENDTAB
  0
TABLE
  2
STYLE
  5
3
330
0
100
AcDbSymbolTable
 70
     1
  0
STYLE
  5
11
330
3
100
AcDbSymbolTableRecord
100
AcDbTextStyleTableRecord
  2
Standard
 70
     0
 40
0.0
 41
1.0
 50
0.0
 71
     0
 42
0.2
  3
txt
  4

  0
ENDTAB
  0
TABLE
  2
VIEW
  5
6
330
0
100
AcDbSymbolTable
 70
     0
  0
ENDTAB
  0
TABLE
  2
UCS
  5
7
330
0
100
AcDbSymbolTable
 70
     0
  0
ENDTAB
  0
TABLE
  2
APPID
  5
9
330
0
100
AcDbSymbolTable
 70
     1
  0
APPID
  5
12
330
9
100
AcDbSymbolTableRecord
100
AcDbRegAppTableRecord
  2
ACAD
 70
     0
  0
ENDTAB
  0
TABLE
  2
DIMSTYLE
  5
A
330
0
100
AcDbSymbolTable
 70
     1
100
AcDbDimStyleTable
  0
DIMSTYLE
105
20
330
A
100
AcDbSymbolTableRecord
100
AcDbDimStyleTableRecord
  2
Standard
 70
     0
340
11
  0
ENDTAB
  0
TABLE
  2
BLOCK_RECORD
  5
1
330
0
100
AcDbSymbolTable
 70
     2
  0
BLOCK_RECORD
  5
1D
330
1
100
AcDbSymbolTableRecord
100
AcDbBlockTableRecord
  2
*Model_Space
340
1E
  0
BLOCK_RECORD
  5
1B
330
1
100
AcDbSymbolTableRecord
100
AcDbBlockTableRecord
  2
*Paper_Space
340
1C
  0
ENDTAB
  0
ENDSEC
  0
SECTION
  2
BLOCKS
  0
BLOCK
  5
33A0
330
1D
100
AcDbEntity
  8
0
100
AcDbBlockBegin
  2
*Model_Space
 70
     0
 10
0.0
 20
0.0
 30
0.0
  3
*Model_Space
  1
*Model_Space
  0
ENDBLK
  5
33A1
330
1D
100
AcDbEntity
  8
0
100
AcDbBlockEnd
  0
BLOCK
  5
339E
330
1B
100
AcDbEntity
 67
     1
  8
0
100
AcDbBlockBegin
  2
*Paper_Space
 70
     0
 10
0.0
 20
0.0
 30
0.0
  3
*Paper_Space
  1
*Paper_Space
  0
ENDBLK
  5
339F
330
1B
100
AcDbEntity
 67
     1
  8
0
100
AcDbBlockEnd
  0
ENDSEC
  0
SECTION
  2
ENTITIES
  0
LINE
  5
FAD
330
1D
100
AcDbEntity
  8
0
100
AcDbLine
 10
54.5
 20
0.0
 30
0.0
 11
58.5
 21
0.0
 31
0.0
  0
LINE
  5
FC8
330
1D
100
AcDbEntity
  8
0
100
AcDbLine
 10
58.5
 20
0.0
 30
0.0
 11
61.03508
 21
0.0
 31
0.0
  0
LINE
  5
FC9
330
1D
100
AcDbEntity
  8
0
100
AcDbLine
 10
61.03508
 20
0.0
 30
0.0
 11
62.5
 21
0.0
 31
0.0
  0
LINE
  5
FCA
330
1D
100
AcDbEntity
  8
0
100
AcDbLine
 10
62.5
 20
0.0
 30
0.0
 11
67.5
 21
0.0
 31
0.0
  0
LINE
  5
FCB
330
1D
100
AcDbEntity
  8
0
100
AcDbLine
 10
67.5
 20
0.0
 30
0.0
 11
76.0
 21
0.0
 31
0.0
  0
LINE
  5
FCC
330
1D
100
AcDbEntity
  8
0
100
AcDbLine
 10
67.5
 20
0.0
 30
0.0
 11
76.0
 21
0.0
 31
0.0
  0
LINE
  5
FCD
330
1D
100
AcDbEntity
  8
0
100
AcDbLine
 10
76.0
 20
0.0
 30
0.0
 11
84.5
 21
0.0
 31
0.0
  0
LINE
  5
FCE
330
1D
100
AcDbEntity
  8
0
100
AcDbLine
 10
76.0
 20
0.0
 30
0.0
 11
84.5
 21
0.0
 31
0.0
  0
LINE
  5
1A44
330
1D
100
AcDbEntity
  8
0
100
AcDbLine
 10
84.5
 20
0.0
 30
0.0
 11
89.5
 21
0.0
 31
0.0
  0
LINE
  5
1A49
330
1D
100
AcDbEntity
  8
0
100
AcDbLine
 10
93.5
 20
0.0
 30
0.0
 11
97.5
 21
0.0
 31
0.0
  0
LINE
  5
1A4A
330
1D
100
AcDbEntity
  8
0
100
AcDbLine
 10
90.9649
 20
0.0
 30
0.0
 11
93.5
 21
0.0
 31
0.0
  0
LINE
  5
1A4B
330
1D
100
AcDbEntity
  8
0
100
AcDbLine
 10
89.5
 20
0.0
 30
0.0
 11
90.9649
 21
0.0
 31
0.0
  0
LINE
  5
37FE
330
1D
100
AcDbEntity
  8
0
100
AcDbLine
 10
12.148
 20
852.198
 30
0.0
 11
14.939
 21
849.423
 31
0.0
  0
LINE
  5
37FF
330
1D
100
AcDbEntity
  8
0
100
AcDbLine
 10
4.16
 20
864.364
 30
0.0
 11
5.939
 21
860.712
 31
0.0
  0
LINE
  5
3800
330
1D
100
AcDbEntity
  8
0
100
AcDbLine
 10
3.509
 20
865.809
 30
0.0
 11
4.16
 21
864.364
 31
0.0
  0
LINE
  5
3801
330
1D
100
AcDbEntity
  8
0
100
AcDbLine
 10
7.182169553172
 20
858.7498821384
 30
0.0
 11
8.116
 21
857.276
 31
0.0
  0
LINE
  5
3802
330
1D
100
AcDbEntity
  8
0
100
AcDbLine
 10
8.116
 20
857.276
 30
0.0
 11
8.934
 21
856.047
 31
0.0
  0
LINE
  5
3803
330
1D
100
AcDbEntity
  8
0
100
AcDbLine
 10
5.939
 20
860.712
 30
0.0
 11
6.283272479945
 21
860.16862827695
 31
0.0
  0
LINE
  5
3804
330
1D
100
AcDbEntity
  8
0
100
AcDbLine
 10
1.331
 20
872.641
 30
0.0
 11
2.034
 21
870.038
 31
0.0
  0
LINE
  5
3805
330
1D
100
AcDbEntity
  8
0
100
AcDbLine
 10
2.034
 20
870.038
 30
0.0
 11
3.509
 21
865.809
 31
0.0
  0
LINE
  5
3806
330
1D
100
AcDbEntity
  8
0
100
AcDbLine
 10
4.056
 20
867.781
 30
0.0
 11
4.183
 21
867.194
 31
0.0
  0
LINE
  5
3807
330
1D
100
AcDbEntity
  8
0
100
AcDbLine
 10
3.3756
 20
870.927
 30
0.0
 11
4.183
 21
867.194
 31
0.0
  0
LINE
  5
3808
330
1D
100
AcDbEntity
  8
0
100
AcDbLine
 10
4.183
 20
867.194
 30
0.0
 11
5.372
 21
863.575
 31
0.0
  0
LINE
  5
3809
330
1D
100
AcDbEntity
  8
0
100
AcDbLine
 10
8.429
 20
871.06
 30
0.0
 11
8.628651278432
 21
869.71839712677
 31
0.0
  0
LINE
  5
380A
330
1D
100
AcDbEntity
  8
0
100
AcDbLine
 10
8.706298173828
 20
869.19663088125
 30
0.0
 11
8.875
 21
868.063
 31
0.0
  0
LINE
  5
380B
330
1D
100
AcDbEntity
  8
0
100
AcDbLine
 10
0.547
 20
876.758
 30
0.0
 11
1.331
 21
872.641
 31
0.0
  0
LINE
  5
380C
330
1D
100
AcDbEntity
  8
0
100
AcDbLine
 10
8.3
 20
873.714
 30
0.0
 11
8.429
 21
871.06
 31
0.0
  0
LINE
  5
380D
330
1D
100
AcDbEntity
  8
0
100
AcDbLine
 10
8.3
 20
873.714
 30
0.0
 11
8.545
 21
877.399
 31
0.0
  0
LINE
  5
380E
330
1D
100
AcDbEntity
  8
0
100
AcDbLine
 10
3.0
 20
875.878
 30
0.0
 11
3.3756
 21
870.927
 31
0.0
  0
LINE
  5
380F
330
1D
100
AcDbEntity
  8
0
100
AcDbLine
 10
3.0
 20
875.878
 30
0.0
 11
3.1123
 21
878.85
 31
0.0
  0
LINE
  5
3810
330
1D
100
AcDbEntity
  8
0
100
AcDbLine
 10
0.22
 20
879.088
 30
0.0
 11
0.547
 21
876.758
 31
0.0
  0
LINE
  5
3811
330
1D
100
AcDbEntity
  8
0
100
AcDbLine
 10
0.0
 20
882.759
 30
0.0
 11
0.22
 21
879.088
 31
0.0
  0
LINE
  5
3812
330
1D
100
AcDbEntity
  8
0
100
AcDbLine
 10
0.0
 20
882.759
 30
0.0
 11
0.015
 21
883.327
 31
0.0
  0
LINE
  5
3813
330
1D
100
AcDbEntity
  8
0
100
AcDbLine
 10
0.11
 20
885.315
 30
0.0
 11
0.377
 21
887.957
 31
0.0
  0
LINE
  5
3814
330
1D
100
AcDbEntity
  8
0
100
AcDbLine
 10
0.377
 20
887.957
 30
0.0
 11
0.831
 21
890.27
 31
0.0
  0
LINE
  5
3815
330
1D
100
AcDbEntity
  8
0
100
AcDbLine
 10
0.015
 20
883.327
 30
0.0
 11
0.036007856298
 21
883.59569164271
 31
0.0
  0
LINE
  5
3816
330
1D
100
AcDbEntity
  8
0
100
AcDbLine
 10
8.545
 20
877.399
 30
0.0
 11
9.279
 21
881.029
 31
0.0
  0
LINE
  5
3817
330
1D
100
AcDbEntity
  8
0
100
AcDbLine
 10
5.043
 20
886.614
 30
0.0
 11
6.625
 21
890.195
 31
0.0
  0
LINE
  5
3818
330
1D
100
AcDbEntity
  8
0
100
AcDbLine
 10
3.7761
 20
882.838
 30
0.0
 11
5.043
 21
886.614
 31
0.0
  0
LINE
  5
3819
330
1D
100
AcDbEntity
  8
0
100
AcDbLine
 10
3.1123
 20
878.85
 30
0.0
 11
3.7761
 21
882.838
 31
0.0
  0
LINE
  5
381A
330
1D
100
AcDbEntity
  8
0
100
AcDbLine
 10
8.934
 20
856.047
 30
0.0
 11
12.148
 21
852.198
 31
0.0
  0
LINE
  5
381B
330
1D
100
AcDbEntity
  8
0
100
AcDbLine
 10
8.875
 20
868.063
 30
0.0
 11
8.969197309527
 21
867.69558303828
 31
0.0
  0
LINE
  5
381C
330
1D
100
AcDbEntity
  8
0
100
AcDbLine
 10
9.669
 20
864.966
 30
0.0
 11
10.826438574239
 21
861.86069954404
 31
0.0
  0
LINE
  5
381D
330
1D
100
AcDbEntity
  8
0
100
AcDbLine
 10
8.974104773973
 20
867.67644145467
 30
0.0
 11
9.669
 21
864.966
 31
0.0
  0
LINE
  5
381E
330
1D
100
AcDbEntity
  8
0
100
AcDbLine
 10
10.921
 20
861.607
 30
0.0
 11
11.873143525739
 21
859.69877847114
 31
0.0
  0
LINE
  5
381F
330
1D
100
AcDbEntity
  8
0
100
AcDbLine
 10
10.875184709587
 20
861.72991817931
 30
0.0
 11
10.921
 21
861.607
 31
0.0
  0
LINE
  5
3820
330
1D
100
AcDbEntity
  8
0
100
AcDbLine
 10
12.725
 20
857.965
 30
0.0
 11
14.174
 21
855.604
 31
0.0
  0
LINE
  5
3821
330
1D
100
AcDbEntity
  8
0
100
AcDbLine
 10
9.279
 20
881.029
 30
0.0
 11
10.509
 21
884.618
 31
0.0
  0
LINE
  5
3822
330
1D
100
AcDbEntity
  8
0
100
AcDbLine
 10
10.509
 20
884.618
 30
0.0
 11
12.534
 21
888.665
 31
0.0
  0
LINE
  5
3823
330
1D
100
AcDbEntity
  8
0
100
AcDbLine
 10
12.534
 20
888.665
 30
0.0
 11
15.18
 21
892.551
 31
0.0
  0
LINE
  5
3824
330
1D
100
AcDbEntity
  8
0
100
AcDbLine
 10
0.831
 20
890.27
 30
0.0
 11
1.467
 21
892.572
 31
0.0
  0
LINE
  5
3825
330
1D
100
AcDbEntity
  8
0
100
AcDbLine
 10
1.467
 20
892.572
 30
0.0
 11
2.596
 21
895.61
 31
0.0
  0
LINE
  5
3826
330
1D
100
AcDbEntity
  8
0
100
AcDbLine
 10
2.596
 20
895.61
 30
0.0
 11
4.043
 21
898.598
 31
0.0
  0
LINE
  5
3827
330
1D
100
AcDbEntity
  8
0
100
AcDbLine
 10
6.625
 20
890.195
 30
0.0
 11
9.111
 21
894.341
 31
0.0
  0
LINE
  5
3828
330
1D
100
AcDbEntity
  8
0
100
AcDbLine
 10
9.111
 20
894.341
 30
0.0
 11
11.824
 21
897.696
 31
0.0
  0
LINE
  5
3829
330
1D
100
AcDbEntity
  8
0
100
AcDbLine
 10
5.8
 20
901.52
 30
0.0
 11
6.137
 21
902.069
 31
0.0
  0
LINE
  5
382A
330
1D
100
AcDbEntity
  8
0
100
AcDbLine
 10
7.859
 20
904.364
 30
0.0
 11
9.317
 21
906.275
 31
0.0
  0
LINE
  5
382B
330
1D
100
AcDbEntity
  8
0
100
AcDbLine
 10
6.137
 20
902.069
 30
0.0
 11
7.859
 21
904.364
 31
0.0
  0
LINE
  5
382C
330
1D
100
AcDbEntity
  8
0
100
AcDbLine
 10
4.043
 20
898.598
 30
0.0
 11
5.8
 21
901.52
 31
0.0
  0
LINE
  5
382D
330
1D
100
AcDbEntity
  8
0
100
AcDbLine
 10
9.317
 20
906.275
 30
0.0
 11
13.138
 21
910.265
 31
0.0
  0
LINE
  5
382E
330
1D
100
AcDbEntity
  8
0
100
AcDbLine
 10
13.138
 20
910.265
 30
0.0
 11
17.564
 21
913.997
 31
0.0
  0
LINE
  5
382F
330
1D
100
AcDbEntity
  8
0
100
AcDbLine
 10
11.824
 20
897.696
 30
0.0
 11
15.131
 21
901.071
 31
0.0
  0
LINE
  5
3830
330
1D
100
AcDbEntity
  8
0
100
AcDbLine
 10
14.174
 20
855.604
 30
0.0
 11
17.397
 21
851.364
 31
0.0
  0
LINE
  5
3831
330
1D
100
AcDbEntity
  8
0
100
AcDbLine
 10
18.015
 20
846.746
 30
0.0
 11
21.335
 21
844.176
 31
0.0
  0
LINE
  5
3832
330
1D
100
AcDbEntity
  8
0
100
AcDbLine
 10
14.939
 20
849.423
 30
0.0
 11
18.015
 21
846.746
 31
0.0
  0
LINE
  5
3833
330
1D
100
AcDbEntity
  8
0
100
AcDbLine
 10
17.397
 20
851.364
 30
0.0
 11
19.671
 21
848.928
 31
0.0
  0
LINE
  5
3834
330
1D
100
AcDbEntity
  8
0
100
AcDbLine
 10
15.18
 20
892.551
 30
0.0
 11
18.416
 21
896.243
 31
0.0
  0
LINE
  5
3835
330
1D
100
AcDbEntity
  8
0
100
AcDbLine
 10
15.131
 20
901.071
 30
0.0
 11
17.449
 21
903.165
 31
0.0
  0
LINE
  5
3836
330
1D
100
AcDbEntity
  8
0
100
AcDbLine
 10
18.416
 20
896.243
 30
0.0
 11
22.212
 21
899.712
 31
0.0
  0
LINE
  5
3837
330
1D
100
AcDbEntity
  8
0
100
AcDbLine
 10
17.564
 20
913.997
 30
0.0
 11
22.821
 21
917.538
 31
0.0
  0
LINE
  5
3838
330
1D
100
AcDbEntity
  8
0
100
AcDbLine
 10
17.449
 20
903.165
 30
0.0
 11
19.868
 21
905.324
 31
0.0
  0
LINE
  5
3839
330
1D
100
AcDbEntity
  8
0
100
AcDbLine
 10
19.671
 20
848.928
 30
0.0
 11
21.154130782373
 21
847.6658422201
 31
0.0
  0
LINE
  5
383A
330
1D
100
AcDbEntity
  8
0
100
AcDbLine
 10
21.335
 20
844.176
 30
0.0
 11
24.878
 21
841.706
 31
0.0
  0
LINE
  5
383B
330
1D
100
AcDbEntity
  8
0
100
AcDbLine
 10
21.154130782373
 20
847.6658422201
 30
0.0
 11
22.365
 21
846.534
 31
0.0
  0
LINE
  5
383C
330
1D
100
AcDbEntity
  8
0
100
AcDbLine
 10
19.868
 20
905.324
 30
0.0
 11
24.383
 21
908.45
 31
0.0
  0
LINE
  5
383D
330
1D
100
AcDbEntity
  8
0
100
AcDbLine
 10
22.365
 20
846.534
 30
0.0
 11
23.529291273728
 21
845.59510002986
 31
0.0
  0
LINE
  5
383E
330
1D
100
AcDbEntity
  8
0
100
AcDbLine
 10
22.212
 20
899.712
 30
0.0
 11
26.546
 21
902.94
 31
0.0
  0
LINE
  5
383F
330
1D
100
AcDbEntity
  8
0
100
AcDbLine
 10
24.878
 20
841.706
 30
0.0
 11
25.358709279763
 21
841.40899002244
 31
0.0
  0
LINE
  5
3840
330
1D
100
AcDbEntity
  8
0
100
AcDbLine
 10
25.551
 20
841.256
 30
0.0
 11
28.754
 21
839.23
 31
0.0
  0
LINE
  5
3841
330
1D
100
AcDbEntity
  8
0
100
AcDbLine
 10
26.847
 20
842.843
 30
0.0
 11
29.54
 21
841.038
 31
0.0
  0
LINE
  5
3842
330
1D
100
AcDbEntity
  8
0
100
AcDbLine
 10
22.821
 20
917.538
 30
0.0
 11
28.047
 21
920.555
 31
0.0
  0
LINE
  5
3843
330
1D
100
AcDbEntity
  8
0
100
AcDbLine
 10
24.383
 20
908.45
 30
0.0
 11
28.678
 21
910.996
 31
0.0
  0
LINE
  5
3844
330
1D
100
AcDbEntity
  8
0
100
AcDbLine
 10
26.546
 20
902.94
 30
0.0
 11
31.366
 21
905.882
 31
0.0
  0
LINE
  5
3845
330
1D
100
AcDbEntity
  8
0
100
AcDbLine
 10
28.047
 20
920.555
 30
0.0
 11
34.006
 21
923.32
 31
0.0
  0
LINE
  5
3846
330
1D
100
AcDbEntity
  8
0
100
AcDbLine
 10
28.754
 20
839.23
 30
0.0
 11
33.201
 21
836.649
 31
0.0
  0
LINE
  5
3847
330
1D
100
AcDbEntity
  8
0
100
AcDbLine
 10
29.54
 20
841.038
 30
0.0
 11
34.276
 21
838.314
 31
0.0
  0
LINE
  5
3848
330
1D
100
AcDbEntity
  8
0
100
AcDbLine
 10
28.678
 20
910.996
 30
0.0
 11
33.46
 21
913.314
 31
0.0
  0
LINE
  5
3849
330
1D
100
AcDbEntity
  8
0
100
AcDbLine
 10
31.366
 20
905.882
 30
0.0
 11
36.626
 21
908.512
 31
0.0
  0
LINE
  5
384A
330
1D
100
AcDbEntity
  8
0
100
AcDbLine
 10
33.201
 20
836.649
 30
0.0
 11
36.623
 21
834.774
 31
0.0
  0
LINE
  5
384B
330
1D
100
AcDbEntity
  8
0
100
AcDbLine
 10
34.276
 20
838.314
 30
0.0
 11
40.898
 21
835.217
 31
0.0
  0
LINE
  5
384C
330
1D
100
AcDbEntity
  8
0
100
AcDbLine
 10
33.46
 20
913.314
 30
0.0
 11
36.754
 21
914.532
 31
0.0
  0
LINE
  5
384D
330
1D
100
AcDbEntity
  8
0
100
AcDbLine
 10
34.006
 20
923.32
 30
0.0
 11
40.367
 21
925.706
 31
0.0
  0
LINE
  5
384E
330
1D
100
AcDbEntity
  8
0
100
AcDbLine
 10
36.623
 20
834.774
 30
0.0
 11
43.474
 21
831.019
 31
0.0
  0
LINE
  5
384F
330
1D
100
AcDbEntity
  8
0
100
AcDbLine
 10
36.626
 20
908.512
 30
0.0
 11
42.277
 21
910.804
 31
0.0
  0
LINE
  5
3850
330
1D
100
AcDbEntity
  8
0
100
AcDbLine
 10
36.754
 20
914.532
 30
0.0
 11
40.073
 21
915.98
 31
0.0
  0
LINE
  5
3851
330
1D
100
AcDbEntity
  8
0
100
AcDbLine
 10
40.073
 20
915.98
 30
0.0
 11
43.608
 21
916.978
 31
0.0
  0
LINE
  5
3852
330
1D
100
AcDbEntity
  8
0
100
AcDbLine
 10
40.548
 20
925.762
 30
0.0
 11
47.219
 21
927.736
 31
0.0
  0
LINE
  5
3853
330
1D
100
AcDbEntity
  8
0
100
AcDbLine
 10
40.367
 20
925.706
 30
0.0
 11
40.548
 21
925.762
 31
0.0
  0
LINE
  5
3854
330
1D
100
AcDbEntity
  8
0
100
AcDbLine
 10
40.898
 20
835.217
 30
0.0
 11
44.539
 21
833.589
 31
0.0
  0
LINE
  5
3855
330
1D
100
AcDbEntity
  8
0
100
AcDbLine
 10
42.277
 20
910.804
 30
0.0
 11
46.734
 21
912.287
 31
0.0
  0
LINE
  5
3856
330
1D
100
AcDbEntity
  8
0
100
AcDbLine
 10
44.539
 20
833.589
 30
0.0
 11
48.188
 21
831.89
 31
0.0
  0
LINE
  5
3857
330
1D
100
AcDbEntity
  8
0
100
AcDbLine
 10
43.608
 20
916.978
 30
0.0
 11
47.178
 21
918.205
 31
0.0
  0
LINE
  5
3858
330
1D
100
AcDbEntity
  8
0
100
AcDbLine
 10
46.637391930495
 20
829.052487405
 30
0.0
 11
47.33
 21
828.608
 31
0.0
  0
LINE
  5
3859
330
1D
100
AcDbEntity
  8
0
100
AcDbLine
 10
47.33
 20
828.608
 30
0.0
 11
50.292
 21
826.225
 31
0.0
  0
LINE
  5
385A
330
1D
100
AcDbEntity
  8
0
100
AcDbLine
 10
47.178
 20
918.205
 30
0.0
 11
50.797
 21
918.934
 31
0.0
  0
LINE
  5
385B
330
1D
100
AcDbEntity
  8
0
100
AcDbLine
 10
46.734
 20
912.287
 30
0.0
 11
51.524
 21
913.598
 31
0.0
  0
LINE
  5
385C
330
1D
100
AcDbEntity
  8
0
100
AcDbLine
 10
47.219
 20
927.736
 30
0.0
 11
54.169
 21
929.292
 31
0.0
  0
LINE
  5
385D
330
1D
100
AcDbEntity
  8
0
100
AcDbLine
 10
48.188
 20
831.89
 30
0.0
 11
51.493
 21
830.216
 31
0.0
  0
LINE
  5
385E
330
1D
100
AcDbEntity
  8
0
100
AcDbLine
 10
49.085130337321
 20
864.32911234273
 30
0.0
 11
49.086409571177
 21
864.2404797113
 31
0.0
  0
LINE
  5
385F
330
1D
100
AcDbEntity
  8
0
100
AcDbLine
 10
50.292
 20
826.225
 30
0.0
 11
52.247
 21
824.096
 31
0.0
  0
LINE
  5
3860
330
1D
100
AcDbEntity
  8
0
100
AcDbLine
 10
50.797
 20
918.934
 30
0.0
 11
54.456
 21
919.897
 31
0.0
  0
LINE
  5
3861
330
1D
100
AcDbEntity
  8
0
100
AcDbLine
 10
51.493
 20
830.216
 30
0.0
 11
53.868
 21
828.902
 31
0.0
  0
LINE
  5
3862
330
1D
100
AcDbEntity
  8
0
100
AcDbLine
 10
51.379
 20
865.255
 30
0.0
 11
51.642
 21
868.009
 31
0.0
  0
LINE
  5
3863
330
1D
100
AcDbEntity
  8
0
100
AcDbLine
 10
51.379
 20
865.255
 30
0.0
 11
51.507
 21
863.142
 31
0.0
  0
LINE
  5
3864
330
1D
100
AcDbEntity
  8
0
100
AcDbLine
 10
51.507
 20
863.142
 30
0.0
 11
52.202
 21
860.959
 31
0.0
  0
LINE
  5
3865
330
1D
100
AcDbEntity
  8
0
100
AcDbLine
 10
51.642
 20
868.009
 30
0.0
 11
52.152
 21
869.705
 31
0.0
  0
LINE
  5
3866
330
1D
100
AcDbEntity
  8
0
100
AcDbLine
 10
52.247
 20
824.096
 30
0.0
 11
52.836390815752
 21
823.25266113428
 31
0.0
  0
LINE
  5
3867
330
1D
100
AcDbEntity
  8
0
100
AcDbLine
 10
52.836390815752
 20
823.25266113428
 30
0.0
 11
53.368
 21
822.492
 31
0.0
  0
LINE
  5
3868
330
1D
100
AcDbEntity
  8
0
100
AcDbLine
 10
54.126238069175
 20
821.06857301379
 30
0.0
 11
55.096
 21
818.727
 31
0.0
  0
LINE
  5
3869
330
1D
100
AcDbEntity
  8
0
100
AcDbLine
 10
53.868
 20
828.902
 30
0.0
 11
55.229
 21
828.055
 31
0.0
  0
LINE
  5
386A
330
1D
100
AcDbEntity
  8
0
100
AcDbLine
 10
52.202
 20
860.959
 30
0.0
 11
53.37
 21
858.946
 31
0.0
  0
LINE
  5
386B
330
1D
100
AcDbEntity
  8
0
100
AcDbLine
 10
53.37
 20
858.946
 30
0.0
 11
55.797
 21
856.022
 31
0.0
  0
LINE
  5
386C
330
1D
100
AcDbEntity
  8
0
100
AcDbLine
 10
55.495840870191
 20
817.40910344759
 30
0.0
 11
56.154
 21
814.331
 31
0.0
  0
LINE
  5
386D
330
1D
100
AcDbEntity
  8
0
100
AcDbLine
 10
55.229
 20
828.055
 30
0.0
 11
58.493
 21
826.13
 31
0.0
  0
LINE
  5
386E
330
1D
100
AcDbEntity
  8
0
100
AcDbLine
 10
55.797
 20
856.022
 30
0.0
 11
61.459
 21
852.557
 31
0.0
  0
LINE
  5
386F
330
1D
100
AcDbEntity
  8
0
100
AcDbLine
 10
52.152
 20
869.705
 30
0.0
 11
52.949
 21
871.012
 31
0.0
  0
LINE
  5
3870
330
1D
100
AcDbEntity
  8
0
100
AcDbLine
 10
52.949
 20
871.012
 30
0.0
 11
54.832
 21
873.627
 31
0.0
  0
LINE
  5
3871
330
1D
100
AcDbEntity
  8
0
100
AcDbLine
 10
54.832
 20
873.627
 30
0.0
 11
56.465
 21
874.812
 31
0.0
  0
LINE
  5
3872
330
1D
100
AcDbEntity
  8
0
100
AcDbLine
 10
54.456
 20
919.897
 30
0.0
 11
58.271
 21
920.389
 31
0.0
  0
LINE
  5
3873
330
1D
100
AcDbEntity
  8
0
100
AcDbLine
 10
54.169
 20
929.292
 30
0.0
 11
61.329
 21
930.413
 31
0.0
  0
LINE
  5
3874
330
1D
100
AcDbEntity
  8
0
100
AcDbLine
 10
54.855
 20
914.123
 30
0.0
 11
58.192
 21
914.87
 31
0.0
  0
LINE
  5
3875
330
1D
100
AcDbEntity
  8
0
100
AcDbLine
 10
56.408334065258
 20
812.83063579064
 30
0.0
 11
56.518
 21
812.103
 31
0.0
  0
LINE
  5
3876
330
1D
100
AcDbEntity
  8
0
100
AcDbLine
 10
56.372
 20
862.116
 30
0.0
 11
56.539181581548
 21
863.25245906558
 31
0.0
  0
LINE
  5
3877
330
1D
100
AcDbEntity
  8
0
100
AcDbLine
 10
56.372
 20
862.116
 30
0.0
 11
57.256
 21
861.012
 31
0.0
  0
LINE
  5
3878
330
1D
100
AcDbEntity
  8
0
100
AcDbLine
 10
56.465
 20
874.812
 30
0.0
 11
59.193
 21
876.889
 31
0.0
  0
LINE
  5
3879
330
1D
100
AcDbEntity
  8
0
100
AcDbLine
 10
57.549
 20
788.279
 30
0.0
 11
57.76
 21
783.518
 31
0.0
  0
LINE
  5
387A
330
1D
100
AcDbEntity
  8
0
100
AcDbLine
 10
56.518
 20
812.103
 30
0.0
 11
56.982787911641
 21
807.69796510295
 31
0.0
  0
LINE
  5
387B
330
1D
100
AcDbEntity
  8
0
100
AcDbLine
 10
56.986084569018
 20
807.65162679325
 30
0.0
 11
57.289
 21
800.565
 31
0.0
  0
LINE
  5
387C
330
1D
100
AcDbEntity
  8
0
100
AcDbLine
 10
57.289
 20
800.565
 30
0.0
 11
57.549
 21
788.279
 31
0.0
  0
LINE
  5
387D
330
1D
100
AcDbEntity
  8
0
100
AcDbLine
 10
57.46
 20
838.146
 30
0.0
 11
59.298
 21
837.351
 31
0.0
  0
LINE
  5
387E
330
1D
100
AcDbEntity
  8
0
100
AcDbLine
 10
57.76
 20
783.518
 30
0.0
 11
58.246
 21
773.999
 31
0.0
  0
LINE
  5
387F
330
1D
100
AcDbEntity
  8
0
100
AcDbLine
 10
57.369639893489
 20
838.76669447397
 30
0.0
 11
57.46
 21
838.146
 31
0.0
  0
LINE
  5
3880
330
1D
100
AcDbEntity
  8
0
100
AcDbLine
 10
58.246
 20
773.999
 30
0.0
 11
58.823
 21
766.613
 31
0.0
  0
LINE
  5
3881
330
1D
100
AcDbEntity
  8
0
100
AcDbLine
 10
58.493
 20
826.13
 30
0.0
 11
63.424
 21
823.063
 31
0.0
  0
LINE
  5
3882
330
1D
100
AcDbEntity
  8
0
100
AcDbLine
 10
58.823
 20
766.613
 30
0.0
 11
59.66
 21
756.94
 31
0.0
  0
LINE
  5
3883
330
1D
100
AcDbEntity
  8
0
100
AcDbLine
 10
59.504
 20
839.035
 30
0.0
 11
60.655
 21
838.191
 31
0.0
  0
LINE
  5
3884
330
1D
100
AcDbEntity
  8
0
100
AcDbLine
 10
59.298
 20
837.351
 30
0.0
 11
60.655
 21
838.191
 31
0.0
  0
LINE
  5
3885
330
1D
100
AcDbEntity
  8
0
100
AcDbLine
 10
59.66
 20
756.94
 30
0.0
 11
59.913
 21
754.429
 31
0.0
  0
LINE
  5
3886
330
1D
100
AcDbEntity
  8
0
100
AcDbLine
 10
59.913
 20
754.429
 30
0.0
 11
60.02
 21
753.213
 31
0.0
  0
LINE
  5
3887
330
1D
100
AcDbEntity
  8
0
100
AcDbLine
 10
60.02
 20
753.213
 30
0.0
 11
60.123
 21
751.868
 31
0.0
  0
LINE
  5
3888
330
1D
100
AcDbEntity
  8
0
100
AcDbLine
 10
60.245
 20
750.589
 30
0.0
 11
61.203
 21
742.617
 31
0.0
  0
LINE
  5
3889
330
1D
100
AcDbEntity
  8
0
100
AcDbLine
 10
60.123
 20
751.868
 30
0.0
 11
60.245
 21
750.589
 31
0.0
  0
LINE
  5
388A
330
1D
100
AcDbEntity
  8
0
100
AcDbLine
 10
60.555181232303
 20
750.73757772777
 30
0.0
 11
61.958
 21
746.434
 31
0.0
  0
LINE
  5
388B
330
1D
100
AcDbEntity
  8
0
100
AcDbLine
 10
60.655
 20
838.191
 30
0.0
 11
60.810180386685
 21
839.43939146901
 31
0.0
  0
LINE
  5
388C
330
1D
100
AcDbEntity
  8
0
100
AcDbLine
 10
58.705
 20
860.344
 30
0.0
 11
60.593
 21
860.123
 31
0.0
  0
LINE
  5
388D
330
1D
100
AcDbEntity
  8
0
100
AcDbLine
 10
60.593
 20
860.123
 30
0.0
 11
62.419
 21
860.4
 31
0.0
  0
LINE
  5
388E
330
1D
100
AcDbEntity
  8
0
100
AcDbLine
 10
57.256
 20
861.012
 30
0.0
 11
58.705
 21
860.344
 31
0.0
  0
LINE
  5
388F
330
1D
100
AcDbEntity
  8
0
100
AcDbLine
 10
57.601
 20
864.347
 30
0.0
 11
58.524
 21
864.699
 31
0.0
  0
LINE
  5
3890
330
1D
100
AcDbEntity
  8
0
100
AcDbLine
 10
58.524
 20
864.699
 30
0.0
 11
60.294
 21
864.881
 31
0.0
  0
LINE
  5
3891
330
1D
100
AcDbEntity
  8
0
100
AcDbLine
 10
59.193
 20
876.889
 30
0.0
 11
62.197
 21
878.433
 31
0.0
  0
LINE
  5
3892
330
1D
100
AcDbEntity
  8
0
100
AcDbLine
 10
61.203
 20
742.617
 30
0.0
 11
61.468
 21
741.392
 31
0.0
  0
LINE
  5
3893
330
1D
100
AcDbEntity
  8
0
100
AcDbLine
 10
61.908
 20
739.97
 30
0.0
 11
62.191
 21
739.28
 31
0.0
  0
LINE
  5
3894
330
1D
100
AcDbEntity
  8
0
100
AcDbLine
 10
61.685
 20
740.467
 30
0.0
 11
61.908
 21
739.97
 31
0.0
  0
LINE
  5
3895
330
1D
100
AcDbEntity
  8
0
100
AcDbLine
 10
62.191
 20
739.28
 30
0.0
 11
62.716
 21
738.458
 31
0.0
  0
LINE
  5
3896
330
1D
100
AcDbEntity
  8
0
100
AcDbLine
 10
61.468
 20
741.392
 30
0.0
 11
61.685
 21
740.467
 31
0.0
  0
LINE
  5
3897
330
1D
100
AcDbEntity
  8
0
100
AcDbLine
 10
61.958
 20
746.434
 30
0.0
 11
64.797
 21
743.531
 31
0.0
  0
LINE
  5
3898
330
1D
100
AcDbEntity
  8
0
100
AcDbLine
 10
62.716
 20
738.458
 30
0.0
 11
63.101
 21
737.893
 31
0.0
  0
LINE
  5
3899
330
1D
100
AcDbEntity
  8
0
100
AcDbLine
 10
61.459
 20
852.557
 30
0.0
 11
65.46
 21
850.996
 31
0.0
  0
LINE
  5
389A
330
1D
100
AcDbEntity
  8
0
100
AcDbLine
 10
62.419
 20
860.4
 30
0.0
 11
63.838
 21
861.173
 31
0.0
  0
LINE
  5
389B
330
1D
100
AcDbEntity
  8
0
100
AcDbLine
 10
62.197
 20
878.433
 30
0.0
 11
66.371
 21
879.865
 31
0.0
  0
LINE
  5
389C
330
1D
100
AcDbEntity
  8
0
100
AcDbLine
 10
62.126
 20
864.627
 30
0.0
 11
63.368
 21
864.059
 31
0.0
  0
LINE
  5
389D
330
1D
100
AcDbEntity
  8
0
100
AcDbLine
 10
58.192
 20
914.87
 30
0.0
 11
65.034
 21
915.814
 31
0.0
  0
LINE
  5
389E
330
1D
100
AcDbEntity
  8
0
100
AcDbLine
 10
58.271
 20
920.389
 30
0.0
 11
62.135
 21
921.11
 31
0.0
  0
LINE
  5
389F
330
1D
100
AcDbEntity
  8
0
100
AcDbLine
 10
61.329
 20
930.413
 30
0.0
 11
68.63
 21
931.093
 31
0.0
  0
LINE
  5
38A0
330
1D
100
AcDbEntity
  8
0
100
AcDbLine
 10
62.135
 20
921.11
 30
0.0
 11
68.863
 21
921.727
 31
0.0
  0
LINE
  5
38A1
330
1D
100
AcDbEntity
  8
0
100
AcDbLine
 10
66.284
 20
735.35
 30
0.0
 11
67.406
 21
734.791
 31
0.0
  0
LINE
  5
38A2
330
1D
100
AcDbEntity
  8
0
100
AcDbLine
 10
67.406
 20
734.791
 30
0.0
 11
68.673
 21
734.31
 31
0.0
  0
LINE
  5
38A3
330
1D
100
AcDbEntity
  8
0
100
AcDbLine
 10
63.101
 20
737.893
 30
0.0
 11
63.767
 21
737.129
 31
0.0
  0
LINE
  5
38A4
330
1D
100
AcDbEntity
  8
0
100
AcDbLine
 10
63.424
 20
823.063
 30
0.0
 11
65.4
 21
821.942
 31
0.0
  0
LINE
  5
38A5
330
1D
100
AcDbEntity
  8
0
100
AcDbLine
 10
63.767
 20
737.129
 30
0.0
 11
64.722
 21
736.301
 31
0.0
  0
LINE
  5
38A6
330
1D
100
AcDbEntity
  8
0
100
AcDbLine
 10
63.838
 20
861.173
 30
0.0
 11
64.522429040369
 21
862.16578811337
 31
0.0
  0
LINE
  5
38A7
330
1D
100
AcDbEntity
  8
0
100
AcDbLine
 10
64.722
 20
736.301
 30
0.0
 11
66.284
 21
735.35
 31
0.0
  0
LINE
  5
38A8
330
1D
100
AcDbEntity
  8
0
100
AcDbLine
 10
64.797
 20
743.531
 30
0.0
 11
67.557
 21
741.856
 31
0.0
  0
LINE
  5
38A9
330
1D
100
AcDbEntity
  8
0
100
AcDbLine
 10
65.46
 20
850.996
 30
0.0
 11
70.588
 21
849.864
 31
0.0
  0
LINE
  5
38AA
330
1D
100
AcDbEntity
  8
0
100
AcDbLine
 10
66.371
 20
879.865
 30
0.0
 11
71.906
 21
880.931
 31
0.0
  0
LINE
  5
38AB
330
1D
100
AcDbEntity
  8
0
100
AcDbLine
 10
65.034
 20
915.814
 30
0.0
 11
75.994
 21
916.429
 31
0.0
  0
LINE
  5
38AC
330
1D
100
AcDbEntity
  8
0
100
AcDbLine
 10
68.673
 20
734.31
 30
0.0
 11
70.041
 21
733.919
 31
0.0
  0
LINE
  5
38AD
330
1D
100
AcDbEntity
  8
0
100
AcDbLine
 10
70.041
 20
733.919
 30
0.0
 11
72.956
 21
733.413
 31
0.0
  0
LINE
  5
38AE
330
1D
100
AcDbEntity
  8
0
100
AcDbLine
 10
70.033
 20
740.844
 30
0.0
 11
73.157
 21
740.275
 31
0.0
  0
LINE
  5
38AF
330
1D
100
AcDbEntity
  8
0
100
AcDbLine
 10
68.63
 20
931.093
 30
0.0
 11
76.0
 21
931.301
 31
0.0
  0
LINE
  5
38B0
330
1D
100
AcDbEntity
  8
0
100
AcDbLine
 10
68.863
 20
921.727
 30
0.0
 11
75.822
 21
921.767
 31
0.0
  0
LINE
  5
38B1
330
1D
100
AcDbEntity
  8
0
100
AcDbLine
 10
68.863
 20
921.727
 30
0.0
 11
76.0
 21
921.767
 31
0.0
  0
LINE
  5
38B2
330
1D
100
AcDbEntity
  8
0
100
AcDbLine
 10
72.956
 20
733.413
 30
0.0
 11
76.0
 21
733.248
 31
0.0
  0
LINE
  5
38B3
330
1D
100
AcDbEntity
  8
0
100
AcDbLine
 10
76.0
 20
733.248
 30
0.0
 11
79.044
 21
733.413
 31
0.0
  0
LINE
  5
38B4
330
1D
100
AcDbEntity
  8
0
100
AcDbLine
 10
79.044
 20
733.413
 30
0.0
 11
81.959
 21
733.919
 31
0.0
  0
LINE
  5
38B5
330
1D
100
AcDbEntity
  8
0
100
AcDbLine
 10
81.959
 20
733.919
 30
0.0
 11
83.327
 21
734.31
 31
0.0
  0
LINE
  5
38B6
330
1D
100
AcDbEntity
  8
0
100
AcDbLine
 10
83.327
 20
734.31
 30
0.0
 11
84.594
 21
734.791
 31
0.0
  0
LINE
  5
38B7
330
1D
100
AcDbEntity
  8
0
100
AcDbLine
 10
72.863
 20
820.477
 30
0.0
 11
75.43
 21
820.097
 31
0.0
  0
LINE
  5
38B8
330
1D
100
AcDbEntity
  8
0
100
AcDbLine
 10
73.157
 20
740.275
 30
0.0
 11
76.0
 21
740.082
 31
0.0
  0
LINE
  5
38B9
330
1D
100
AcDbEntity
  8
0
100
AcDbLine
 10
73.084
 20
849.775
 30
0.0
 11
76.0
 21
849.707
 31
0.0
  0
LINE
  5
38BA
330
1D
100
AcDbEntity
  8
0
100
AcDbLine
 10
73.924538672273
 20
818.51237480149
 30
0.0
 11
76.0
 21
818.266
 31
0.0
  0
LINE
  5
38BB
330
1D
100
AcDbEntity
  8
0
100
AcDbLine
 10
84.594
 20
734.791
 30
0.0
 11
85.716
 21
735.35
 31
0.0
  0
LINE
  5
38BC
330
1D
100
AcDbEntity
  8
0
100
AcDbLine
 10
85.716
 20
735.35
 30
0.0
 11
87.278
 21
736.301
 31
0.0
  0
LINE
  5
38BD
330
1D
100
AcDbEntity
  8
0
100
AcDbLine
 10
71.906
 20
880.931
 30
0.0
 11
76.0
 21
881.172
 31
0.0
  0
LINE
  5
38BE
330
1D
100
AcDbEntity
  8
0
100
AcDbLine
 10
75.822
 20
921.767
 30
0.0
 11
76.0
 21
921.767
 31
0.0
  0
LINE
  5
38BF
330
1D
100
AcDbEntity
  8
0
100
AcDbLine
 10
76.0
 20
921.767
 30
0.0
 11
76.178
 21
921.767
 31
0.0
  0
LINE
  5
38C0
330
1D
100
AcDbEntity
  8
0
100
AcDbLine
 10
87.278
 20
736.301
 30
0.0
 11
88.233
 21
737.129
 31
0.0
  0
LINE
  5
38C1
330
1D
100
AcDbEntity
  8
0
100
AcDbLine
 10
88.233
 20
737.129
 30
0.0
 11
88.899
 21
737.893
 31
0.0
  0
LINE
  5
38C2
330
1D
100
AcDbEntity
  8
0
100
AcDbLine
 10
89.284
 20
738.458
 30
0.0
 11
89.809
 21
739.28
 31
0.0
  0
LINE
  5
38C3
330
1D
100
AcDbEntity
  8
0
100
AcDbLine
 10
88.899
 20
737.893
 30
0.0
 11
89.284
 21
738.458
 31
0.0
  0
LINE
  5
38C4
330
1D
100
AcDbEntity
  8
0
100
AcDbLine
 10
89.809
 20
739.28
 30
0.0
 11
90.092
 21
739.97
 31
0.0
  0
LINE
  5
38C5
330
1D
100
AcDbEntity
  8
0
100
AcDbLine
 10
90.092
 20
739.97
 30
0.0
 11
90.315
 21
740.467
 31
0.0
  0
LINE
  5
38C7
330
1D
100
AcDbEntity
  8
0
100
AcDbLine
 10
67.557
 20
741.856
 30
0.0
 11
70.033
 21
740.844
 31
0.0
  0
LINE
  5
38C8
330
1D
100
AcDbEntity
  8
0
100
AcDbLine
 10
76.0
 20
837.253
 30
0.0
 11
72.834854044154
 21
836.979335116816
 31
0.0
  0
LINE
  5
38C9
330
1D
100
AcDbEntity
  8
0
100
AcDbLine
 10
72.834854044154
 20
836.979335116816
 30
0.0
 11
70.613264423544
 21
836.509275852002
 31
0.0
  0
LINE
  5
38CA
330
1D
100
AcDbEntity
  8
0
100
AcDbLine
 10
70.613264423544
 20
836.509275852002
 30
0.0
 11
67.151304677977
 21
835.181889658653
 31
0.0
  0
LINE
  5
38CB
330
1D
100
AcDbEntity
  8
0
100
AcDbLine
 10
67.151304677977
 20
835.181889658653
 30
0.0
 11
65.200770192041
 21
833.879373274357
 31
0.0
  0
LINE
  5
38CC
330
1D
100
AcDbEntity
  8
0
100
AcDbLine
 10
65.200770192041
 20
833.879373274357
 30
0.0
 11
64.248772579002
 21
832.720303300251
 31
0.0
  0
LINE
  5
38CD
330
1D
100
AcDbEntity
  8
0
100
AcDbLine
 10
64.248772579002
 20
832.720303300251
 30
0.0
 11
63.337463513575
 21
830.262634349206
 31
0.0
  0
LINE
  5
38CE
330
1D
100
AcDbEntity
  8
0
100
AcDbLine
 10
63.337463513575
 20
830.262634349206
 30
0.0
 11
63.337463513575
 21
829.647212955272
 31
0.0
  0
LINE
  5
38CF
330
1D
100
AcDbEntity
  8
0
100
AcDbLine
 10
63.337463513575
 20
829.647212955272
 30
0.0
 11
63.406371700541
 21
828.920112775566
 31
0.0
  0
LINE
  5
38D0
330
1D
100
AcDbEntity
  8
0
100
AcDbLine
 10
63.406371700541
 20
828.920112775566
 30
0.0
 11
63.677993405103
 21
827.574244343954
 31
0.0
  0
LINE
  5
38D1
330
1D
100
AcDbEntity
  8
0
100
AcDbLine
 10
63.677993405103
 20
827.574244343954
 30
0.0
 11
63.980670332967
 21
826.867080976126
 31
0.0
  0
LINE
  5
38D2
330
1D
100
AcDbEntity
  8
0
100
AcDbLine
 10
63.980670332967
 20
826.867080976126
 30
0.0
 11
64.994212049903
 21
825.316693035219
 31
0.0
  0
LINE
  5
38D3
330
1D
100
AcDbEntity
  8
0
100
AcDbLine
 10
64.994212049903
 20
825.316693035219
 30
0.0
 11
65.625517761174
 21
824.591786792624
 31
0.0
  0
LINE
  5
38D4
330
1D
100
AcDbEntity
  8
0
100
AcDbLine
 10
65.625517761174
 20
824.591786792624
 30
0.0
 11
66.460311025469
 21
823.748775325077
 31
0.0
  0
LINE
  5
38D5
330
1D
100
AcDbEntity
  8
0
100
AcDbLine
 10
66.460311025469
 20
823.748775325077
 30
0.0
 11
67.560544008788
 21
822.840970803236
 31
0.0
  0
LINE
  5
38D6
330
1D
100
AcDbEntity
  8
0
100
AcDbLine
 10
67.560544008788
 20
822.840970803236
 30
0.0
 11
68.486035381235
 21
822.179911199068
 31
0.0
  0
LINE
  5
38D7
330
1D
100
AcDbEntity
  8
0
100
AcDbLine
 10
68.486035381235
 20
822.179911199068
 30
0.0
 11
69.829242287864
 21
821.371291656616
 31
0.0
  0
LINE
  5
38D8
330
1D
100
AcDbEntity
  8
0
100
AcDbLine
 10
69.829242287864
 20
821.371291656616
 30
0.0
 11
72.863
 21
820.477
 31
0.0
  0
LINE
  5
38D9
330
1D
100
AcDbEntity
  8
0
100
AcDbLine
 10
43.474
 20
831.019
 30
0.0
 11
46.637391930495
 21
829.052487405
 31
0.0
  0
LINE
  5
38DA
330
1D
100
AcDbEntity
  8
0
100
AcDbLine
 10
55.495840870191
 20
817.40910344759
 30
0.0
 11
55.096
 21
818.727
 31
0.0
  0
LINE
  5
38DB
330
1D
100
AcDbEntity
  8
0
100
AcDbLine
 10
54.126238069175
 20
821.06857301379
 30
0.0
 11
53.368
 21
822.492
 31
0.0
  0
LINE
  5
38DC
330
1D
100
AcDbEntity
  8
0
100
AcDbLine
 10
56.408334065258
 20
812.83063579064
 30
0.0
 11
56.154
 21
814.331
 31
0.0
  0
LINE
  5
38DD
330
1D
100
AcDbEntity
  8
0
100
AcDbLine
 10
73.924538672273
 20
818.51237480149
 30
0.0
 11
72.330482019268
 21
818.876589356665
 31
0.0
  0
LINE
  5
38DE
330
1D
100
AcDbEntity
  8
0
100
AcDbLine
 10
72.330482019268
 20
818.876589356665
 30
0.0
 11
69.869709486201
 21
819.691720258243
 31
0.0
  0
LINE
  5
38DF
330
1D
100
AcDbEntity
  8
0
100
AcDbLine
 10
69.869709486201
 20
819.691720258243
 30
0.0
 11
67.278208412315
 21
820.906726696445
 31
0.0
  0
LINE
  5
38E0
330
1D
100
AcDbEntity
  8
0
100
AcDbLine
 10
67.278208412315
 20
820.906726696445
 30
0.0
 11
65.4
 21
821.942
 31
0.0
  0
LINE
  5
38E1
330
1D
100
AcDbEntity
  8
0
100
AcDbLine
 10
23.529291273728
 20
845.59510002986
 30
0.0
 11
26.847
 21
842.843
 31
0.0
  0
LINE
  5
38E2
330
1D
100
AcDbEntity
  8
0
100
AcDbLine
 10
25.358709279763
 20
841.40899002244
 30
0.0
 11
25.551
 21
841.256
 31
0.0
  0
LINE
  5
38E3
330
1D
100
AcDbEntity
  8
0
100
AcDbLine
 10
6.283272479945
 20
860.16862827695
 30
0.0
 11
7.182169553172
 21
858.7498821384
 31
0.0
  0
LINE
  5
38E4
330
1D
100
AcDbEntity
  8
0
100
AcDbLine
 10
56.539181581548
 20
863.25245906558
 30
0.0
 11
57.601
 21
864.347
 31
0.0
  0
LINE
  5
38E5
330
1D
100
AcDbEntity
  8
0
100
AcDbLine
 10
60.294
 20
864.881
 30
0.0
 11
62.126
 21
864.627
 31
0.0
  0
LINE
  5
38E6
330
1D
100
AcDbEntity
  8
0
100
AcDbLine
 10
63.368
 20
864.059
 30
0.0
 11
64.293026805357
 21
863.115169354934
 31
0.0
  0
LINE
  5
38E7
330
1D
100
AcDbEntity
  8
0
100
AcDbLine
 10
64.293026805357
 20
863.115169354934
 30
0.0
 11
64.522429040369
 21
862.16578811337
 31
0.0
  0
LINE
  5
38E8
330
1D
100
AcDbEntity
  8
0
100
AcDbLine
 10
67.81726886517
 20
871.700967320339
 30
0.0
 11
69.64326886517
 21
871.977967320339
 31
0.0
  0
LINE
  5
38E9
330
1D
100
AcDbEntity
  8
0
100
AcDbLine
 10
69.35026886517
 20
876.204967320339
 30
0.0
 11
70.59226886517
 21
875.636967320339
 31
0.0
  0
LINE
  5
38EA
330
1D
100
AcDbEntity
  8
0
100
AcDbLine
 10
63.59626886517
 20
873.693967320339
 30
0.0
 11
64.48026886517
 21
872.589967320339
 31
0.0
  0
LINE
  5
38EB
330
1D
100
AcDbEntity
  8
0
100
AcDbLine
 10
65.92926886517
 20
871.921967320339
 30
0.0
 11
67.81726886517
 21
871.700967320339
 31
0.0
  0
LINE
  5
38EC
330
1D
100
AcDbEntity
  8
0
100
AcDbLine
 10
64.48026886517
 20
872.589967320339
 30
0.0
 11
65.92926886517
 21
871.921967320339
 31
0.0
  0
LINE
  5
38ED
330
1D
100
AcDbEntity
  8
0
100
AcDbLine
 10
63.59626886517
 20
873.693967320339
 30
0.0
 11
63.763450446718
 21
874.830426385919
 31
0.0
  0
LINE
  5
38EE
330
1D
100
AcDbEntity
  8
0
100
AcDbLine
 10
64.82526886517
 20
875.924967320339
 30
0.0
 11
65.74826886517
 21
876.276967320339
 31
0.0
  0
LINE
  5
38EF
330
1D
100
AcDbEntity
  8
0
100
AcDbLine
 10
65.74826886517
 20
876.276967320339
 30
0.0
 11
67.51826886517
 21
876.458967320339
 31
0.0
  0
LINE
  5
38F0
330
1D
100
AcDbEntity
  8
0
100
AcDbLine
 10
63.763450446718
 20
874.830426385919
 30
0.0
 11
64.82526886517
 21
875.924967320339
 31
0.0
  0
LINE
  5
38F1
330
1D
100
AcDbEntity
  8
0
100
AcDbLine
 10
67.51826886517
 20
876.458967320339
 30
0.0
 11
69.35026886517
 21
876.204967320339
 31
0.0
  0
LINE
  5
38F2
330
1D
100
AcDbEntity
  8
0
100
AcDbLine
 10
71.06226886517
 20
872.750967320339
 30
0.0
 11
71.746697905539
 21
873.743755433709
 31
0.0
  0
LINE
  5
38F3
330
1D
100
AcDbEntity
  8
0
100
AcDbLine
 10
69.64326886517
 20
871.977967320339
 30
0.0
 11
71.06226886517
 21
872.750967320339
 31
0.0
  0
LINE
  5
38F4
330
1D
100
AcDbEntity
  8
0
100
AcDbLine
 10
70.59226886517
 20
875.636967320339
 30
0.0
 11
71.517295670527
 21
874.693136675273
 31
0.0
  0
LINE
  5
38F5
330
1D
100
AcDbEntity
  8
0
100
AcDbLine
 10
71.517295670527
 20
874.693136675273
 30
0.0
 11
71.746697905539
 21
873.743755433709
 31
0.0
  0
LINE
  5
38F6
330
1D
100
AcDbEntity
  8
0
100
AcDbLine
 10
71.954922157062
 20
856.558454335593
 30
0.0
 11
72.838922157062
 21
855.454454335593
 31
0.0
  0
LINE
  5
38F7
330
1D
100
AcDbEntity
  8
0
100
AcDbLine
 10
74.287922157062
 20
854.786454335593
 30
0.0
 11
76.175922157062
 21
854.565454335593
 31
0.0
  0
LINE
  5
38F8
330
1D
100
AcDbEntity
  8
0
100
AcDbLine
 10
72.838922157062
 20
855.454454335593
 30
0.0
 11
74.287922157062
 21
854.786454335593
 31
0.0
  0
LINE
  5
38F9
330
1D
100
AcDbEntity
  8
0
100
AcDbLine
 10
71.954922157062
 20
856.558454335593
 30
0.0
 11
72.12210373861
 21
857.694913401173
 31
0.0
  0
LINE
  5
38FA
330
1D
100
AcDbEntity
  8
0
100
AcDbLine
 10
73.183922157062
 20
858.789454335593
 30
0.0
 11
74.106922157062
 21
859.141454335593
 31
0.0
  0
LINE
  5
38FB
330
1D
100
AcDbEntity
  8
0
100
AcDbLine
 10
74.106922157062
 20
859.141454335593
 30
0.0
 11
75.876922157062
 21
859.323454335593
 31
0.0
  0
LINE
  5
38FC
330
1D
100
AcDbEntity
  8
0
100
AcDbLine
 10
72.12210373861
 20
857.694913401173
 30
0.0
 11
73.183922157062
 21
858.789454335593
 31
0.0
  0
LINE
  5
38FD
330
1D
100
AcDbEntity
  8
0
100
AcDbLine
 10
70.588
 20
849.864
 30
0.0
 11
73.084
 21
849.775
 31
0.0
  0
LINE
  5
38FE
330
1D
100
AcDbEntity
  8
0
100
AcDbLine
 10
59.504
 20
839.035
 30
0.0
 11
58.539462872202
 21
838.932088627642
 31
0.0
  0
LINE
  5
38FF
330
1D
100
AcDbEntity
  8
0
100
AcDbLine
 10
58.539462872202
 20
838.932088627642
 30
0.0
 11
57.638459758681
 21
838.622219831987
 31
0.0
  0
LINE
  5
3900
330
1D
100
AcDbEntity
  8
0
100
AcDbLine
 10
57.638459758681
 20
838.622219831987
 30
0.0
 11
57.46
 21
838.146
 31
0.0
  0
LINE
  5
3901
330
1D
100
AcDbEntity
  8
0
100
AcDbLine
 10
50.396056563623
 20
835.021563480064
 30
0.0
 11
52.234056563623
 21
834.226563480064
 31
0.0
  0
LINE
  5
3902
330
1D
100
AcDbEntity
  8
0
100
AcDbLine
 10
52.234056563623
 20
834.226563480064
 30
0.0
 11
53.591056563623
 21
835.066563480064
 31
0.0
  0
LINE
  5
3903
330
1D
100
AcDbEntity
  8
0
100
AcDbLine
 10
52.440056563623
 20
835.910563480064
 30
0.0
 11
51.475519435826
 21
835.807652107707
 31
0.0
  0
LINE
  5
3904
330
1D
100
AcDbEntity
  8
0
100
AcDbLine
 10
51.475519435826
 20
835.807652107707
 30
0.0
 11
50.574516322305
 21
835.497783312051
 31
0.0
  0
LINE
  5
3905
330
1D
100
AcDbEntity
  8
0
100
AcDbLine
 10
50.305696457112
 20
835.642257954034
 30
0.0
 11
50.396056563623
 21
835.021563480064
 31
0.0
  0
LINE
  5
3906
330
1D
100
AcDbEntity
  8
0
100
AcDbLine
 10
50.574516322305
 20
835.497783312051
 30
0.0
 11
50.396056563623
 21
835.021563480064
 31
0.0
  0
LINE
  5
3907
330
1D
100
AcDbEntity
  8
0
100
AcDbLine
 10
53.591056563623
 20
835.066563480064
 30
0.0
 11
53.746236950308
 21
836.314954949074
 31
0.0
  0
LINE
  5
3908
330
1D
100
AcDbEntity
  8
0
100
AcDbLine
 10
52.440056563623
 20
835.910563480064
 30
0.0
 11
53.591056563623
 21
835.066563480064
 31
0.0
  0
LINE
  5
3909
330
1D
100
AcDbEntity
  8
0
100
AcDbLine
 10
48.364704581098
 20
842.566971718188
 30
0.0
 11
49.515704581098
 21
841.722971718188
 31
0.0
  0
LINE
  5
390A
330
1D
100
AcDbEntity
  8
0
100
AcDbLine
 10
49.515704581098
 20
841.722971718188
 30
0.0
 11
49.670884967783
 21
842.971363187198
 31
0.0
  0
LINE
  5
390B
330
1D
100
AcDbEntity
  8
0
100
AcDbLine
 10
46.49916433978
 20
842.154191550175
 30
0.0
 11
46.320704581098
 21
841.677971718188
 31
0.0
  0
LINE
  5
390C
330
1D
100
AcDbEntity
  8
0
100
AcDbLine
 10
46.230344474587
 20
842.298666192158
 30
0.0
 11
46.320704581098
 21
841.677971718188
 31
0.0
  0
LINE
  5
390D
330
1D
100
AcDbEntity
  8
0
100
AcDbLine
 10
47.400167453301
 20
842.464060345831
 30
0.0
 11
46.49916433978
 21
842.154191550175
 31
0.0
  0
LINE
  5
390E
330
1D
100
AcDbEntity
  8
0
100
AcDbLine
 10
48.364704581098
 20
842.566971718188
 30
0.0
 11
47.400167453301
 21
842.464060345831
 31
0.0
  0
LINE
  5
390F
330
1D
100
AcDbEntity
  8
0
100
AcDbLine
 10
48.158704581098
 20
840.882971718188
 30
0.0
 11
49.515704581098
 21
841.722971718188
 31
0.0
  0
LINE
  5
3910
330
1D
100
AcDbEntity
  8
0
100
AcDbLine
 10
46.320704581098
 20
841.677971718188
 30
0.0
 11
48.158704581098
 21
840.882971718188
 31
0.0
  0
LINE
  5
3911
330
1D
100
AcDbEntity
  8
0
100
AcDbLine
 10
37.531060560886
 20
841.683978788641
 30
0.0
 11
38.682060560886
 21
840.839978788641
 31
0.0
  0
LINE
  5
3912
330
1D
100
AcDbEntity
  8
0
100
AcDbLine
 10
38.682060560886
 20
840.839978788641
 30
0.0
 11
38.837240947571
 21
842.088370257651
 31
0.0
  0
LINE
  5
3913
330
1D
100
AcDbEntity
  8
0
100
AcDbLine
 10
35.665520319567
 20
841.271198620628
 30
0.0
 11
35.487060560886
 21
840.794978788641
 31
0.0
  0
LINE
  5
3914
330
1D
100
AcDbEntity
  8
0
100
AcDbLine
 10
35.396700454375
 20
841.415673262611
 30
0.0
 11
35.487060560886
 21
840.794978788641
 31
0.0
  0
LINE
  5
3915
330
1D
100
AcDbEntity
  8
0
100
AcDbLine
 10
36.566523433088
 20
841.581067416284
 30
0.0
 11
35.665520319567
 21
841.271198620628
 31
0.0
  0
LINE
  5
3916
330
1D
100
AcDbEntity
  8
0
100
AcDbLine
 10
37.531060560886
 20
841.683978788641
 30
0.0
 11
36.566523433088
 21
841.581067416284
 31
0.0
  0
LINE
  5
3917
330
1D
100
AcDbEntity
  8
0
100
AcDbLine
 10
37.325060560886
 20
839.999978788641
 30
0.0
 11
38.682060560886
 21
840.839978788641
 31
0.0
  0
LINE
  5
3918
330
1D
100
AcDbEntity
  8
0
100
AcDbLine
 10
35.487060560886
 20
840.794978788641
 30
0.0
 11
37.325060560886
 21
839.999978788641
 31
0.0
  0
LINE
  5
3919
330
1D
100
AcDbEntity
  8
0
100
AcDbLine
 10
53.861912100798
 20
846.045200412574
 30
0.0
 11
55.699912100798
 21
845.250200412574
 31
0.0
  0
LINE
  5
391A
330
1D
100
AcDbEntity
  8
0
100
AcDbLine
 10
55.699912100798
 20
845.250200412574
 30
0.0
 11
57.056912100798
 21
846.090200412574
 31
0.0
  0
LINE
  5
391B
330
1D
100
AcDbEntity
  8
0
100
AcDbLine
 10
55.905912100798
 20
846.934200412574
 30
0.0
 11
54.941374973
 21
846.831289040217
 31
0.0
  0
LINE
  5
391C
330
1D
100
AcDbEntity
  8
0
100
AcDbLine
 10
54.941374973
 20
846.831289040217
 30
0.0
 11
54.040371859479
 21
846.521420244561
 31
0.0
  0
LINE
  5
391D
330
1D
100
AcDbEntity
  8
0
100
AcDbLine
 10
53.771551994287
 20
846.665894886544
 30
0.0
 11
53.861912100798
 21
846.045200412574
 31
0.0
  0
LINE
  5
391E
330
1D
100
AcDbEntity
  8
0
100
AcDbLine
 10
54.040371859479
 20
846.521420244561
 30
0.0
 11
53.861912100798
 21
846.045200412574
 31
0.0
  0
LINE
  5
391F
330
1D
100
AcDbEntity
  8
0
100
AcDbLine
 10
57.056912100798
 20
846.090200412574
 30
0.0
 11
57.212092487483
 21
847.338591881584
 31
0.0
  0
LINE
  5
3920
330
1D
100
AcDbEntity
  8
0
100
AcDbLine
 10
55.905912100798
 20
846.934200412574
 30
0.0
 11
57.056912100798
 21
846.090200412574
 31
0.0
  0
LINE
  5
3921
330
1D
100
AcDbEntity
  8
0
100
AcDbLine
 10
64.295770943669
 20
846.618489359984
 30
0.0
 11
66.133770943669
 21
845.823489359985
 31
0.0
  0
LINE
  5
3922
330
1D
100
AcDbEntity
  8
0
100
AcDbLine
 10
66.133770943669
 20
845.823489359985
 30
0.0
 11
67.490770943669
 21
846.663489359985
 31
0.0
  0
LINE
  5
3923
330
1D
100
AcDbEntity
  8
0
100
AcDbLine
 10
66.339770943669
 20
847.507489359985
 30
0.0
 11
65.375233815871
 21
847.404577987627
 31
0.0
  0
LINE
  5
3924
330
1D
100
AcDbEntity
  8
0
100
AcDbLine
 10
65.375233815871
 20
847.404577987627
 30
0.0
 11
64.47423070235
 21
847.094709191972
 31
0.0
  0
LINE
  5
3925
330
1D
100
AcDbEntity
  8
0
100
AcDbLine
 10
64.205410837158
 20
847.239183833955
 30
0.0
 11
64.295770943669
 21
846.618489359984
 31
0.0
  0
LINE
  5
3926
330
1D
100
AcDbEntity
  8
0
100
AcDbLine
 10
64.47423070235
 20
847.094709191972
 30
0.0
 11
64.295770943669
 21
846.618489359984
 31
0.0
  0
LINE
  5
3927
330
1D
100
AcDbEntity
  8
0
100
AcDbLine
 10
67.490770943669
 20
846.663489359985
 30
0.0
 11
67.645951330354
 21
847.911880828995
 31
0.0
  0
LINE
  5
3928
330
1D
100
AcDbEntity
  8
0
100
AcDbLine
 10
66.339770943669
 20
847.507489359985
 30
0.0
 11
67.490770943669
 21
846.663489359985
 31
0.0
  0
LINE
  5
3929
330
1D
100
AcDbEntity
  8
0
100
AcDbLine
 10
67.276873470203
 20
841.677971718188
 30
0.0
 11
69.114873470203
 21
840.882971718188
 31
0.0
  0
LINE
  5
392A
330
1D
100
AcDbEntity
  8
0
100
AcDbLine
 10
69.114873470203
 20
840.882971718188
 30
0.0
 11
70.471873470203
 21
841.722971718188
 31
0.0
  0
LINE
  5
392B
330
1D
100
AcDbEntity
  8
0
100
AcDbLine
 10
69.320873470203
 20
842.566971718188
 30
0.0
 11
68.356336342405
 21
842.464060345831
 31
0.0
  0
LINE
  5
392C
330
1D
100
AcDbEntity
  8
0
100
AcDbLine
 10
68.356336342405
 20
842.464060345831
 30
0.0
 11
67.455333228884
 21
842.154191550175
 31
0.0
  0
LINE
  5
392D
330
1D
100
AcDbEntity
  8
0
100
AcDbLine
 10
67.186513363692
 20
842.298666192158
 30
0.0
 11
67.276873470203
 21
841.677971718188
 31
0.0
  0
LINE
  5
392E
330
1D
100
AcDbEntity
  8
0
100
AcDbLine
 10
67.455333228884
 20
842.154191550175
 30
0.0
 11
67.276873470203
 21
841.677971718188
 31
0.0
  0
LINE
  5
392F
330
1D
100
AcDbEntity
  8
0
100
AcDbLine
 10
70.471873470203
 20
841.722971718188
 30
0.0
 11
70.627053856888
 21
842.971363187198
 31
0.0
  0
LINE
  5
3930
330
1D
100
AcDbEntity
  8
0
100
AcDbLine
 10
69.320873470203
 20
842.566971718188
 30
0.0
 11
70.471873470203
 21
841.722971718188
 31
0.0
  0
LINE
  5
3931
330
1D
100
AcDbEntity
  8
0
100
AcDbLine
 10
51.454098521674
 20
851.204800939268
 30
0.0
 11
53.292098521674
 21
850.409800939268
 31
0.0
  0
LINE
  5
3932
330
1D
100
AcDbEntity
  8
0
100
AcDbLine
 10
53.292098521674
 20
850.409800939268
 30
0.0
 11
54.649098521674
 21
851.249800939268
 31
0.0
  0
LINE
  5
3933
330
1D
100
AcDbEntity
  8
0
100
AcDbLine
 10
53.498098521674
 20
852.093800939268
 30
0.0
 11
52.533561393876
 21
851.990889566911
 31
0.0
  0
LINE
  5
3934
330
1D
100
AcDbEntity
  8
0
100
AcDbLine
 10
52.533561393876
 20
851.990889566911
 30
0.0
 11
51.632558280355
 21
851.681020771256
 31
0.0
  0
LINE
  5
3935
330
1D
100
AcDbEntity
  8
0
100
AcDbLine
 10
51.363738415163
 20
851.825495413238
 30
0.0
 11
51.454098521674
 21
851.204800939268
 31
0.0
  0
LINE
  5
3936
330
1D
100
AcDbEntity
  8
0
100
AcDbLine
 10
51.632558280355
 20
851.681020771256
 30
0.0
 11
51.454098521674
 21
851.204800939268
 31
0.0
  0
LINE
  5
3937
330
1D
100
AcDbEntity
  8
0
100
AcDbLine
 10
54.649098521674
 20
851.249800939268
 30
0.0
 11
54.804278908359
 21
852.498192408278
 31
0.0
  0
LINE
  5
3938
330
1D
100
AcDbEntity
  8
0
100
AcDbLine
 10
53.498098521674
 20
852.093800939268
 30
0.0
 11
54.649098521674
 21
851.249800939268
 31
0.0
  0
LINE
  5
3939
330
1D
100
AcDbEntity
  8
0
100
AcDbLine
 10
41.478870836732
 20
850.631511991858
 30
0.0
 11
43.316870836732
 21
849.836511991858
 31
0.0
  0
LINE
  5
393A
330
1D
100
AcDbEntity
  8
0
100
AcDbLine
 10
43.316870836732
 20
849.836511991858
 30
0.0
 11
44.673870836732
 21
850.676511991858
 31
0.0
  0
LINE
  5
393B
330
1D
100
AcDbEntity
  8
0
100
AcDbLine
 10
43.522870836732
 20
851.520511991858
 30
0.0
 11
42.558333708934
 21
851.4176006195
 31
0.0
  0
LINE
  5
393C
330
1D
100
AcDbEntity
  8
0
100
AcDbLine
 10
42.558333708934
 20
851.4176006195
 30
0.0
 11
41.657330595413
 21
851.107731823845
 31
0.0
  0
LINE
  5
393D
330
1D
100
AcDbEntity
  8
0
100
AcDbLine
 10
41.388510730221
 20
851.252206465828
 30
0.0
 11
41.478870836732
 21
850.631511991858
 31
0.0
  0
LINE
  5
393E
330
1D
100
AcDbEntity
  8
0
100
AcDbLine
 10
41.657330595413
 20
851.107731823845
 30
0.0
 11
41.478870836732
 21
850.631511991858
 31
0.0
  0
LINE
  5
393F
330
1D
100
AcDbEntity
  8
0
100
AcDbLine
 10
44.673870836732
 20
850.676511991858
 30
0.0
 11
44.829051223417
 21
851.924903460868
 31
0.0
  0
LINE
  5
3940
330
1D
100
AcDbEntity
  8
0
100
AcDbLine
 10
43.522870836732
 20
851.520511991858
 30
0.0
 11
44.673870836732
 21
850.676511991858
 31
0.0
  0
LINE
  5
3941
330
1D
100
AcDbEntity
  8
0
100
AcDbLine
 10
31.159669783343
 20
849.943565254965
 30
0.0
 11
32.997669783343
 21
849.148565254966
 31
0.0
  0
LINE
  5
3942
330
1D
100
AcDbEntity
  8
0
100
AcDbLine
 10
32.997669783343
 20
849.148565254966
 30
0.0
 11
34.354669783343
 21
849.988565254966
 31
0.0
  0
LINE
  5
3943
330
1D
100
AcDbEntity
  8
0
100
AcDbLine
 10
33.203669783343
 20
850.832565254966
 30
0.0
 11
32.239132655545
 21
850.729653882608
 31
0.0
  0
LINE
  5
3944
330
1D
100
AcDbEntity
  8
0
100
AcDbLine
 10
32.239132655545
 20
850.729653882608
 30
0.0
 11
31.338129542024
 21
850.419785086953
 31
0.0
  0
LINE
  5
3945
330
1D
100
AcDbEntity
  8
0
100
AcDbLine
 10
31.069309676832
 20
850.564259728936
 30
0.0
 11
31.159669783343
 21
849.943565254965
 31
0.0
  0
LINE
  5
3946
330
1D
100
AcDbEntity
  8
0
100
AcDbLine
 10
31.338129542024
 20
850.419785086953
 30
0.0
 11
31.159669783343
 21
849.943565254965
 31
0.0
  0
LINE
  5
3947
330
1D
100
AcDbEntity
  8
0
100
AcDbLine
 10
34.354669783343
 20
849.988565254966
 30
0.0
 11
34.509850170028
 21
851.236956723976
 31
0.0
  0
LINE
  5
3948
330
1D
100
AcDbEntity
  8
0
100
AcDbLine
 10
33.203669783343
 20
850.832565254966
 30
0.0
 11
34.354669783343
 21
849.988565254966
 31
0.0
  0
LINE
  5
3949
330
1D
100
AcDbEntity
  8
0
100
AcDbLine
 10
24.853491361828
 20
856.020428097516
 30
0.0
 11
26.691491361828
 21
855.225428097517
 31
0.0
  0
LINE
  5
394A
330
1D
100
AcDbEntity
  8
0
100
AcDbLine
 10
26.691491361828
 20
855.225428097517
 30
0.0
 11
28.048491361828
 21
856.065428097517
 31
0.0
  0
LINE
  5
394B
330
1D
100
AcDbEntity
  8
0
100
AcDbLine
 10
26.897491361828
 20
856.909428097517
 30
0.0
 11
25.93295423403
 21
856.806516725159
 31
0.0
  0
LINE
  5
394C
330
1D
100
AcDbEntity
  8
0
100
AcDbLine
 10
25.93295423403
 20
856.806516725159
 30
0.0
 11
25.031951120509
 21
856.496647929504
 31
0.0
  0
LINE
  5
394D
330
1D
100
AcDbEntity
  8
0
100
AcDbLine
 10
24.763131255317
 20
856.641122571487
 30
0.0
 11
24.853491361828
 21
856.020428097516
 31
0.0
  0
LINE
  5
394E
330
1D
100
AcDbEntity
  8
0
100
AcDbLine
 10
25.031951120509
 20
856.496647929504
 30
0.0
 11
24.853491361828
 21
856.020428097516
 31
0.0
  0
LINE
  5
394F
330
1D
100
AcDbEntity
  8
0
100
AcDbLine
 10
28.048491361828
 20
856.065428097517
 30
0.0
 11
28.203671748513
 21
857.313819566527
 31
0.0
  0
LINE
  5
3950
330
1D
100
AcDbEntity
  8
0
100
AcDbLine
 10
26.897491361828
 20
856.909428097517
 30
0.0
 11
28.048491361828
 21
856.065428097517
 31
0.0
  0
LINE
  5
3951
330
1D
100
AcDbEntity
  8
0
100
AcDbLine
 10
35.402007994181
 20
857.740294939748
 30
0.0
 11
37.240007994181
 21
856.945294939748
 31
0.0
  0
LINE
  5
3952
330
1D
100
AcDbEntity
  8
0
100
AcDbLine
 10
37.240007994181
 20
856.945294939748
 30
0.0
 11
38.597007994181
 21
857.785294939748
 31
0.0
  0
LINE
  5
3953
330
1D
100
AcDbEntity
  8
0
100
AcDbLine
 10
37.446007994181
 20
858.629294939748
 30
0.0
 11
36.481470866383
 21
858.52638356739
 31
0.0
  0
LINE
  5
3954
330
1D
100
AcDbEntity
  8
0
100
AcDbLine
 10
36.481470866383
 20
858.52638356739
 30
0.0
 11
35.580467752862
 21
858.216514771735
 31
0.0
  0
LINE
  5
3955
330
1D
100
AcDbEntity
  8
0
100
AcDbLine
 10
35.31164788767
 20
858.360989413718
 30
0.0
 11
35.402007994181
 21
857.740294939748
 31
0.0
  0
LINE
  5
3956
330
1D
100
AcDbEntity
  8
0
100
AcDbLine
 10
35.580467752862
 20
858.216514771735
 30
0.0
 11
35.402007994181
 21
857.740294939748
 31
0.0
  0
LINE
  5
3957
330
1D
100
AcDbEntity
  8
0
100
AcDbLine
 10
38.597007994181
 20
857.785294939748
 30
0.0
 11
38.752188380866
 21
859.033686408758
 31
0.0
  0
LINE
  5
3958
330
1D
100
AcDbEntity
  8
0
100
AcDbLine
 10
37.446007994181
 20
858.629294939748
 30
0.0
 11
38.597007994181
 21
857.785294939748
 31
0.0
  0
LINE
  5
3959
330
1D
100
AcDbEntity
  8
0
100
AcDbLine
 10
46.320704581098
 20
858.198926097676
 30
0.0
 11
48.158704581098
 21
857.403926097676
 31
0.0
  0
LINE
  5
395A
330
1D
100
AcDbEntity
  8
0
100
AcDbLine
 10
48.158704581098
 20
857.403926097676
 30
0.0
 11
49.515704581098
 21
858.243926097676
 31
0.0
  0
LINE
  5
395B
330
1D
100
AcDbEntity
  8
0
100
AcDbLine
 10
48.364704581098
 20
859.087926097676
 30
0.0
 11
47.400167453301
 21
858.985014725319
 31
0.0
  0
LINE
  5
395C
330
1D
100
AcDbEntity
  8
0
100
AcDbLine
 10
47.400167453301
 20
858.985014725319
 30
0.0
 11
46.49916433978
 21
858.675145929664
 31
0.0
  0
LINE
  5
395D
330
1D
100
AcDbEntity
  8
0
100
AcDbLine
 10
46.230344474587
 20
858.819620571646
 30
0.0
 11
46.320704581098
 21
858.198926097676
 31
0.0
  0
LINE
  5
395E
330
1D
100
AcDbEntity
  8
0
100
AcDbLine
 10
46.49916433978
 20
858.675145929664
 30
0.0
 11
46.320704581098
 21
858.198926097676
 31
0.0
  0
LINE
  5
395F
330
1D
100
AcDbEntity
  8
0
100
AcDbLine
 10
49.515704581098
 20
858.243926097676
 30
0.0
 11
49.670884967783
 21
859.492317566686
 31
0.0
  0
LINE
  5
3960
330
1D
100
AcDbEntity
  8
0
100
AcDbLine
 10
48.364704581098
 20
859.087926097676
 30
0.0
 11
49.515704581098
 21
858.243926097676
 31
0.0
  0
LINE
  5
3961
330
1D
100
AcDbEntity
  8
0
100
AcDbLine
 10
44.574631152749
 20
866.683602519351
 30
0.0
 11
46.412631152749
 21
865.888602519351
 31
0.0
  0
LINE
  5
3962
330
1D
100
AcDbEntity
  8
0
100
AcDbLine
 10
46.412631152749
 20
865.888602519351
 30
0.0
 11
47.769631152749
 21
866.728602519351
 31
0.0
  0
LINE
  5
3963
330
1D
100
AcDbEntity
  8
0
100
AcDbLine
 10
46.618631152748
 20
867.572602519351
 30
0.0
 11
45.654094024951
 21
867.469691146994
 31
0.0
  0
LINE
  5
3964
330
1D
100
AcDbEntity
  8
0
100
AcDbLine
 10
45.654094024951
 20
867.469691146994
 30
0.0
 11
44.75309091143
 21
867.159822351338
 31
0.0
  0
LINE
  5
3965
330
1D
100
AcDbEntity
  8
0
100
AcDbLine
 10
44.484271046237
 20
867.304296993321
 30
0.0
 11
44.574631152749
 21
866.683602519351
 31
0.0
  0
LINE
  5
3966
330
1D
100
AcDbEntity
  8
0
100
AcDbLine
 10
44.75309091143
 20
867.159822351338
 30
0.0
 11
44.574631152749
 21
866.683602519351
 31
0.0
  0
LINE
  5
3967
330
1D
100
AcDbEntity
  8
0
100
AcDbLine
 10
47.769631152749
 20
866.728602519351
 30
0.0
 11
47.924811539434
 21
867.976993988361
 31
0.0
  0
LINE
  5
3968
330
1D
100
AcDbEntity
  8
0
100
AcDbLine
 10
46.618631152748
 20
867.572602519351
 30
0.0
 11
47.769631152749
 21
866.728602519351
 31
0.0
  0
LINE
  5
3969
330
1D
100
AcDbEntity
  8
0
100
AcDbLine
 10
34.026114520396
 20
867.944838203654
 30
0.0
 11
35.864114520396
 21
867.149838203654
 31
0.0
  0
LINE
  5
396A
330
1D
100
AcDbEntity
  8
0
100
AcDbLine
 10
35.864114520396
 20
867.149838203654
 30
0.0
 11
37.221114520396
 21
867.989838203654
 31
0.0
  0
LINE
  5
396B
330
1D
100
AcDbEntity
  8
0
100
AcDbLine
 10
36.070114520396
 20
868.833838203654
 30
0.0
 11
35.105577392598
 21
868.730926831297
 31
0.0
  0
LINE
  5
396C
330
1D
100
AcDbEntity
  8
0
100
AcDbLine
 10
35.105577392598
 20
868.730926831297
 30
0.0
 11
34.204574279077
 21
868.421058035642
 31
0.0
  0
LINE
  5
396D
330
1D
100
AcDbEntity
  8
0
100
AcDbLine
 10
33.935754413885
 20
868.565532677624
 30
0.0
 11
34.026114520396
 21
867.944838203654
 31
0.0
  0
LINE
  5
396E
330
1D
100
AcDbEntity
  8
0
100
AcDbLine
 10
34.204574279077
 20
868.421058035642
 30
0.0
 11
34.026114520396
 21
867.944838203654
 31
0.0
  0
LINE
  5
396F
330
1D
100
AcDbEntity
  8
0
100
AcDbLine
 10
37.221114520396
 20
867.989838203654
 30
0.0
 11
37.376294907081
 21
869.238229672665
 31
0.0
  0
LINE
  5
3970
330
1D
100
AcDbEntity
  8
0
100
AcDbLine
 10
36.070114520396
 20
868.833838203654
 30
0.0
 11
37.221114520396
 21
867.989838203654
 31
0.0
  0
LINE
  5
3971
330
1D
100
AcDbEntity
  8
0
100
AcDbLine
 10
23.936229045971
 20
867.71552262469
 30
0.0
 11
25.774229045971
 21
866.92052262469
 31
0.0
  0
LINE
  5
3972
330
1D
100
AcDbEntity
  8
0
100
AcDbLine
 10
25.774229045971
 20
866.92052262469
 30
0.0
 11
27.131229045971
 21
867.76052262469
 31
0.0
  0
LINE
  5
3973
330
1D
100
AcDbEntity
  8
0
100
AcDbLine
 10
25.980229045971
 20
868.60452262469
 30
0.0
 11
25.015691918173
 21
868.501611252333
 31
0.0
  0
LINE
  5
3974
330
1D
100
AcDbEntity
  8
0
100
AcDbLine
 10
25.015691918173
 20
868.501611252333
 30
0.0
 11
24.114688804652
 21
868.191742456677
 31
0.0
  0
LINE
  5
3975
330
1D
100
AcDbEntity
  8
0
100
AcDbLine
 10
23.84586893946
 20
868.33621709866
 30
0.0
 11
23.936229045971
 21
867.71552262469
 31
0.0
  0
LINE
  5
3976
330
1D
100
AcDbEntity
  8
0
100
AcDbLine
 10
24.114688804652
 20
868.191742456677
 30
0.0
 11
23.936229045971
 21
867.71552262469
 31
0.0
  0
LINE
  5
3977
330
1D
100
AcDbEntity
  8
0
100
AcDbLine
 10
27.131229045971
 20
867.76052262469
 30
0.0
 11
27.286409432656
 21
869.0089140937
 31
0.0
  0
LINE
  5
3978
330
1D
100
AcDbEntity
  8
0
100
AcDbLine
 10
25.980229045971
 20
868.60452262469
 30
0.0
 11
27.131229045971
 21
867.76052262469
 31
0.0
  0
LINE
  5
3979
330
1D
100
AcDbEntity
  8
0
100
AcDbLine
 10
18.547312940313
 20
871.728545256563
 30
0.0
 11
20.385312940313
 21
870.933545256563
 31
0.0
  0
LINE
  5
397A
330
1D
100
AcDbEntity
  8
0
100
AcDbLine
 10
20.385312940313
 20
870.933545256563
 30
0.0
 11
21.742312940313
 21
871.773545256563
 31
0.0
  0
LINE
  5
397B
330
1D
100
AcDbEntity
  8
0
100
AcDbLine
 10
20.591312940313
 20
872.617545256563
 30
0.0
 11
19.626775812515
 21
872.514633884206
 31
0.0
  0
LINE
  5
397C
330
1D
100
AcDbEntity
  8
0
100
AcDbLine
 10
19.626775812515
 20
872.514633884206
 30
0.0
 11
18.725772698994
 21
872.204765088551
 31
0.0
  0
LINE
  5
397D
330
1D
100
AcDbEntity
  8
0
100
AcDbLine
 10
18.456952833802
 20
872.349239730533
 30
0.0
 11
18.547312940313
 21
871.728545256563
 31
0.0
  0
LINE
  5
397E
330
1D
100
AcDbEntity
  8
0
100
AcDbLine
 10
18.725772698994
 20
872.204765088551
 30
0.0
 11
18.547312940313
 21
871.728545256563
 31
0.0
  0
LINE
  5
397F
330
1D
100
AcDbEntity
  8
0
100
AcDbLine
 10
21.742312940313
 20
871.773545256563
 30
0.0
 11
21.897493326998
 21
873.021936725574
 31
0.0
  0
LINE
  5
3980
330
1D
100
AcDbEntity
  8
0
100
AcDbLine
 10
20.591312940313
 20
872.617545256563
 30
0.0
 11
21.742312940313
 21
871.773545256563
 31
0.0
  0
LINE
  5
3981
330
1D
100
AcDbEntity
  8
0
100
AcDbLine
 10
19.579233045652
 20
880.442537257203
 30
0.0
 11
21.417233045652
 21
879.647537257203
 31
0.0
  0
LINE
  5
3982
330
1D
100
AcDbEntity
  8
0
100
AcDbLine
 10
21.417233045652
 20
879.647537257203
 30
0.0
 11
22.774233045652
 21
880.487537257203
 31
0.0
  0
LINE
  5
3983
330
1D
100
AcDbEntity
  8
0
100
AcDbLine
 10
21.623233045652
 20
881.331537257203
 30
0.0
 11
20.658695917854
 21
881.228625884845
 31
0.0
  0
LINE
  5
3984
330
1D
100
AcDbEntity
  8
0
100
AcDbLine
 10
20.658695917854
 20
881.228625884845
 30
0.0
 11
19.757692804333
 21
880.91875708919
 31
0.0
  0
LINE
  5
3985
330
1D
100
AcDbEntity
  8
0
100
AcDbLine
 10
19.488872939141
 20
881.063231731173
 30
0.0
 11
19.579233045652
 21
880.442537257203
 31
0.0
  0
LINE
  5
3986
330
1D
100
AcDbEntity
  8
0
100
AcDbLine
 10
19.757692804333
 20
880.91875708919
 30
0.0
 11
19.579233045652
 21
880.442537257203
 31
0.0
  0
LINE
  5
3987
330
1D
100
AcDbEntity
  8
0
100
AcDbLine
 10
22.774233045652
 20
880.487537257203
 30
0.0
 11
22.929413432337
 21
881.735928726213
 31
0.0
  0
LINE
  5
3988
330
1D
100
AcDbEntity
  8
0
100
AcDbLine
 10
21.623233045652
 20
881.331537257203
 30
0.0
 11
22.774233045652
 21
880.487537257203
 31
0.0
  0
LINE
  5
3989
330
1D
100
AcDbEntity
  8
0
100
AcDbLine
 10
17.28607725601
 20
862.21194872955
 30
0.0
 11
19.12407725601
 21
861.41694872955
 31
0.0
  0
LINE
  5
398A
330
1D
100
AcDbEntity
  8
0
100
AcDbLine
 10
19.12407725601
 20
861.41694872955
 30
0.0
 11
20.48107725601
 21
862.25694872955
 31
0.0
  0
LINE
  5
398B
330
1D
100
AcDbEntity
  8
0
100
AcDbLine
 10
19.33007725601
 20
863.10094872955
 30
0.0
 11
18.365540128212
 21
862.998037357192
 31
0.0
  0
LINE
  5
398C
330
1D
100
AcDbEntity
  8
0
100
AcDbLine
 10
18.365540128212
 20
862.998037357192
 30
0.0
 11
17.464537014691
 21
862.688168561537
 31
0.0
  0
LINE
  5
398D
330
1D
100
AcDbEntity
  8
0
100
AcDbLine
 10
17.195717149499
 20
862.83264320352
 30
0.0
 11
17.28607725601
 21
862.21194872955
 31
0.0
  0
LINE
  5
398E
330
1D
100
AcDbEntity
  8
0
100
AcDbLine
 10
17.464537014691
 20
862.688168561537
 30
0.0
 11
17.28607725601
 21
862.21194872955
 31
0.0
  0
LINE
  5
398F
330
1D
100
AcDbEntity
  8
0
100
AcDbLine
 10
20.48107725601
 20
862.25694872955
 30
0.0
 11
20.636257642695
 21
863.50534019856
 31
0.0
  0
LINE
  5
3990
330
1D
100
AcDbEntity
  8
0
100
AcDbLine
 10
19.33007725601
 20
863.10094872955
 30
0.0
 11
20.48107725601
 21
862.25694872955
 31
0.0
  0
LINE
  5
3991
330
1D
100
AcDbEntity
  8
0
100
AcDbLine
 10
24.96814915131
 20
887.322004626128
 30
0.0
 11
26.80614915131
 21
886.527004626129
 31
0.0
  0
LINE
  5
3992
330
1D
100
AcDbEntity
  8
0
100
AcDbLine
 10
26.80614915131
 20
886.527004626129
 30
0.0
 11
28.16314915131
 21
887.367004626129
 31
0.0
  0
LINE
  5
3993
330
1D
100
AcDbEntity
  8
0
100
AcDbLine
 10
27.01214915131
 20
888.211004626129
 30
0.0
 11
26.047612023512
 21
888.108093253771
 31
0.0
  0
LINE
  5
3994
330
1D
100
AcDbEntity
  8
0
100
AcDbLine
 10
26.047612023512
 20
888.108093253771
 30
0.0
 11
25.146608909991
 21
887.798224458116
 31
0.0
  0
LINE
  5
3995
330
1D
100
AcDbEntity
  8
0
100
AcDbLine
 10
24.877789044799
 20
887.942699100099
 30
0.0
 11
24.96814915131
 21
887.322004626128
 31
0.0
  0
LINE
  5
3996
330
1D
100
AcDbEntity
  8
0
100
AcDbLine
 10
25.146608909991
 20
887.798224458116
 30
0.0
 11
24.96814915131
 21
887.322004626128
 31
0.0
  0
LINE
  5
3997
330
1D
100
AcDbEntity
  8
0
100
AcDbLine
 10
28.16314915131
 20
887.367004626129
 30
0.0
 11
28.318329537995
 21
888.615396095139
 31
0.0
  0
LINE
  5
3998
330
1D
100
AcDbEntity
  8
0
100
AcDbLine
 10
27.01214915131
 20
888.211004626129
 30
0.0
 11
28.16314915131
 21
887.367004626129
 31
0.0
  0
LINE
  5
3999
330
1D
100
AcDbEntity
  8
0
100
AcDbLine
 10
30.930354204379
 20
893.742840837126
 30
0.0
 11
32.768354204379
 21
892.947840837126
 31
0.0
  0
LINE
  5
399A
330
1D
100
AcDbEntity
  8
0
100
AcDbLine
 10
32.768354204379
 20
892.947840837126
 30
0.0
 11
34.125354204379
 21
893.787840837126
 31
0.0
  0
LINE
  5
399B
330
1D
100
AcDbEntity
  8
0
100
AcDbLine
 10
32.974354204379
 20
894.631840837126
 30
0.0
 11
32.009817076581
 21
894.528929464768
 31
0.0
  0
LINE
  5
399C
330
1D
100
AcDbEntity
  8
0
100
AcDbLine
 10
32.009817076581
 20
894.528929464768
 30
0.0
 11
31.10881396306
 21
894.219060669113
 31
0.0
  0
LINE
  5
399D
330
1D
100
AcDbEntity
  8
0
100
AcDbLine
 10
30.839994097868
 20
894.363535311096
 30
0.0
 11
30.930354204379
 21
893.742840837126
 31
0.0
  0
LINE
  5
399E
330
1D
100
AcDbEntity
  8
0
100
AcDbLine
 10
31.10881396306
 20
894.219060669113
 30
0.0
 11
30.930354204379
 21
893.742840837126
 31
0.0
  0
LINE
  5
399F
330
1D
100
AcDbEntity
  8
0
100
AcDbLine
 10
34.125354204379
 20
893.787840837126
 30
0.0
 11
34.280534591064
 21
895.036232306136
 31
0.0
  0
LINE
  5
39A0
330
1D
100
AcDbEntity
  8
0
100
AcDbLine
 10
32.974354204379
 20
894.631840837126
 30
0.0
 11
34.125354204379
 21
893.787840837126
 31
0.0
  0
LINE
  5
39A1
330
1D
100
AcDbEntity
  8
0
100
AcDbLine
 10
38.268452731233
 20
899.934361469159
 30
0.0
 11
40.106452731233
 21
899.139361469159
 31
0.0
  0
LINE
  5
39A2
330
1D
100
AcDbEntity
  8
0
100
AcDbLine
 10
40.106452731233
 20
899.139361469159
 30
0.0
 11
41.463452731233
 21
899.979361469159
 31
0.0
  0
LINE
  5
39A3
330
1D
100
AcDbEntity
  8
0
100
AcDbLine
 10
40.312452731233
 20
900.823361469159
 30
0.0
 11
39.347915603435
 21
900.720450096801
 31
0.0
  0
LINE
  5
39A4
330
1D
100
AcDbEntity
  8
0
100
AcDbLine
 10
39.347915603435
 20
900.720450096801
 30
0.0
 11
38.446912489914
 21
900.410581301146
 31
0.0
  0
LINE
  5
39A5
330
1D
100
AcDbEntity
  8
0
100
AcDbLine
 10
38.178092624722
 20
900.555055943129
 30
0.0
 11
38.268452731233
 21
899.934361469159
 31
0.0
  0
LINE
  5
39A6
330
1D
100
AcDbEntity
  8
0
100
AcDbLine
 10
38.446912489914
 20
900.410581301146
 30
0.0
 11
38.268452731233
 21
899.934361469159
 31
0.0
  0
LINE
  5
39A7
330
1D
100
AcDbEntity
  8
0
100
AcDbLine
 10
41.463452731233
 20
899.979361469159
 30
0.0
 11
41.618633117918
 21
901.227752938169
 31
0.0
  0
LINE
  5
39A8
330
1D
100
AcDbEntity
  8
0
100
AcDbLine
 10
40.312452731233
 20
900.823361469159
 30
0.0
 11
41.463452731233
 21
899.979361469159
 31
0.0
  0
LINE
  5
39A9
330
1D
100
AcDbEntity
  8
0
100
AcDbLine
 10
46.320704581098
 20
904.520673048443
 30
0.0
 11
48.158704581098
 21
903.725673048443
 31
0.0
  0
LINE
  5
39AA
330
1D
100
AcDbEntity
  8
0
100
AcDbLine
 10
48.158704581098
 20
903.725673048443
 30
0.0
 11
49.515704581098
 21
904.565673048443
 31
0.0
  0
LINE
  5
39AB
330
1D
100
AcDbEntity
  8
0
100
AcDbLine
 10
48.364704581098
 20
905.409673048443
 30
0.0
 11
47.400167453301
 21
905.306761676085
 31
0.0
  0
LINE
  5
39AC
330
1D
100
AcDbEntity
  8
0
100
AcDbLine
 10
47.400167453301
 20
905.306761676085
 30
0.0
 11
46.49916433978
 21
904.99689288043
 31
0.0
  0
LINE
  5
39AD
330
1D
100
AcDbEntity
  8
0
100
AcDbLine
 10
46.230344474587
 20
905.141367522413
 30
0.0
 11
46.320704581098
 21
904.520673048443
 31
0.0
  0
LINE
  5
39AE
330
1D
100
AcDbEntity
  8
0
100
AcDbLine
 10
46.49916433978
 20
904.99689288043
 30
0.0
 11
46.320704581098
 21
904.520673048443
 31
0.0
  0
LINE
  5
39AF
330
1D
100
AcDbEntity
  8
0
100
AcDbLine
 10
49.515704581098
 20
904.565673048443
 30
0.0
 11
49.670884967783
 21
905.814064517453
 31
0.0
  0
LINE
  5
39B0
330
1D
100
AcDbEntity
  8
0
100
AcDbLine
 10
48.364704581098
 20
905.409673048443
 30
0.0
 11
49.515704581098
 21
904.565673048443
 31
0.0
  0
LINE
  5
39B1
330
1D
100
AcDbEntity
  8
0
100
AcDbLine
 10
57.186987995779
 20
906.928486627567
 30
0.0
 11
59.024987995779
 21
906.133486627567
 31
0.0
  0
LINE
  5
39B2
330
1D
100
AcDbEntity
  8
0
100
AcDbLine
 10
59.024987995779
 20
906.133486627567
 30
0.0
 11
60.381987995779
 21
906.973486627567
 31
0.0
  0
LINE
  5
39B3
330
1D
100
AcDbEntity
  8
0
100
AcDbLine
 10
59.230987995779
 20
907.817486627567
 30
0.0
 11
58.266450867981
 21
907.714575255209
 31
0.0
  0
LINE
  5
39B4
330
1D
100
AcDbEntity
  8
0
100
AcDbLine
 10
58.266450867981
 20
907.714575255209
 30
0.0
 11
57.36544775446
 21
907.404706459554
 31
0.0
  0
LINE
  5
39B5
330
1D
100
AcDbEntity
  8
0
100
AcDbLine
 10
57.096627889268
 20
907.549181101537
 30
0.0
 11
57.186987995779
 21
906.928486627567
 31
0.0
  0
LINE
  5
39B6
330
1D
100
AcDbEntity
  8
0
100
AcDbLine
 10
57.36544775446
 20
907.404706459554
 30
0.0
 11
57.186987995779
 21
906.928486627567
 31
0.0
  0
LINE
  5
39B7
330
1D
100
AcDbEntity
  8
0
100
AcDbLine
 10
60.381987995779
 20
906.973486627567
 30
0.0
 11
60.537168382464
 21
908.221878096577
 31
0.0
  0
LINE
  5
39B8
330
1D
100
AcDbEntity
  8
0
100
AcDbLine
 10
59.230987995779
 20
907.817486627567
 30
0.0
 11
60.381987995779
 21
906.973486627567
 31
0.0
  0
LINE
  5
39B9
330
1D
100
AcDbEntity
  8
0
100
AcDbLine
 10
28.522540625255
 20
875.512252309473
 30
0.0
 11
30.360540625255
 21
874.717252309473
 31
0.0
  0
LINE
  5
39BA
330
1D
100
AcDbEntity
  8
0
100
AcDbLine
 10
30.360540625255
 20
874.717252309473
 30
0.0
 11
31.717540625255
 21
875.557252309473
 31
0.0
  0
LINE
  5
39BB
330
1D
100
AcDbEntity
  8
0
100
AcDbLine
 10
30.566540625255
 20
876.401252309473
 30
0.0
 11
29.602003497457
 21
876.298340937115
 31
0.0
  0
LINE
  5
39BC
330
1D
100
AcDbEntity
  8
0
100
AcDbLine
 10
29.602003497457
 20
876.298340937115
 30
0.0
 11
28.701000383936
 21
875.98847214146
 31
0.0
  0
LINE
  5
39BD
330
1D
100
AcDbEntity
  8
0
100
AcDbLine
 10
28.432180518744
 20
876.132946783443
 30
0.0
 11
28.522540625255
 21
875.512252309473
 31
0.0
  0
LINE
  5
39BE
330
1D
100
AcDbEntity
  8
0
100
AcDbLine
 10
28.701000383936
 20
875.98847214146
 30
0.0
 11
28.522540625255
 21
875.512252309473
 31
0.0
  0
LINE
  5
39BF
330
1D
100
AcDbEntity
  8
0
100
AcDbLine
 10
31.717540625255
 20
875.557252309473
 30
0.0
 11
31.87272101194
 21
876.805643778483
 31
0.0
  0
LINE
  5
39C0
330
1D
100
AcDbEntity
  8
0
100
AcDbLine
 10
30.566540625255
 20
876.401252309473
 30
0.0
 11
31.717540625255
 21
875.557252309473
 31
0.0
  0
LINE
  5
39C1
330
1D
100
AcDbEntity
  8
0
100
AcDbLine
 10
35.745981362627
 20
883.996928731148
 30
0.0
 11
37.583981362627
 21
883.201928731148
 31
0.0
  0
LINE
  5
39C2
330
1D
100
AcDbEntity
  8
0
100
AcDbLine
 10
37.583981362627
 20
883.201928731148
 30
0.0
 11
38.940981362627
 21
884.041928731148
 31
0.0
  0
LINE
  5
39C3
330
1D
100
AcDbEntity
  8
0
100
AcDbLine
 10
37.789981362627
 20
884.885928731148
 30
0.0
 11
36.825444234829
 21
884.78301735879
 31
0.0
  0
LINE
  5
39C4
330
1D
100
AcDbEntity
  8
0
100
AcDbLine
 10
36.825444234829
 20
884.78301735879
 30
0.0
 11
35.924441121308
 21
884.473148563135
 31
0.0
  0
LINE
  5
39C5
330
1D
100
AcDbEntity
  8
0
100
AcDbLine
 10
35.655621256116
 20
884.617623205118
 30
0.0
 11
35.745981362627
 21
883.996928731148
 31
0.0
  0
LINE
  5
39C6
330
1D
100
AcDbEntity
  8
0
100
AcDbLine
 10
35.924441121308
 20
884.473148563135
 30
0.0
 11
35.745981362627
 21
883.996928731148
 31
0.0
  0
LINE
  5
39C7
330
1D
100
AcDbEntity
  8
0
100
AcDbLine
 10
38.940981362627
 20
884.041928731148
 30
0.0
 11
39.096161749312
 21
885.290320200158
 31
0.0
  0
LINE
  5
39C8
330
1D
100
AcDbEntity
  8
0
100
AcDbLine
 10
37.789981362627
 20
884.885928731148
 30
0.0
 11
38.940981362627
 21
884.041928731148
 31
0.0
  0
LINE
  5
39C9
330
1D
100
AcDbEntity
  8
0
100
AcDbLine
 10
42.396133152589
 20
892.252289573858
 30
0.0
 11
44.234133152589
 21
891.457289573859
 31
0.0
  0
LINE
  5
39CA
330
1D
100
AcDbEntity
  8
0
100
AcDbLine
 10
44.234133152589
 20
891.457289573859
 30
0.0
 11
45.591133152589
 21
892.297289573858
 31
0.0
  0
LINE
  5
39CB
330
1D
100
AcDbEntity
  8
0
100
AcDbLine
 10
44.440133152589
 20
893.141289573858
 30
0.0
 11
43.475596024791
 21
893.038378201501
 31
0.0
  0
LINE
  5
39CC
330
1D
100
AcDbEntity
  8
0
100
AcDbLine
 10
43.475596024791
 20
893.038378201501
 30
0.0
 11
42.57459291127
 21
892.728509405846
 31
0.0
  0
LINE
  5
39CD
330
1D
100
AcDbEntity
  8
0
100
AcDbLine
 10
42.305773046078
 20
892.872984047829
 30
0.0
 11
42.396133152589
 21
892.252289573858
 31
0.0
  0
LINE
  5
39CE
330
1D
100
AcDbEntity
  8
0
100
AcDbLine
 10
42.57459291127
 20
892.728509405846
 30
0.0
 11
42.396133152589
 21
892.252289573858
 31
0.0
  0
LINE
  5
39CF
330
1D
100
AcDbEntity
  8
0
100
AcDbLine
 10
45.591133152589
 20
892.297289573858
 30
0.0
 11
45.746313539274
 21
893.545681042869
 31
0.0
  0
LINE
  5
39D0
330
1D
100
AcDbEntity
  8
0
100
AcDbLine
 10
44.440133152589
 20
893.141289573858
 30
0.0
 11
45.591133152589
 21
892.297289573858
 31
0.0
  0
LINE
  5
39D1
330
1D
100
AcDbEntity
  8
0
100
AcDbLine
 10
39.415030626054
 20
874.480332204134
 30
0.0
 11
41.253030626054
 21
873.685332204134
 31
0.0
  0
LINE
  5
39D2
330
1D
100
AcDbEntity
  8
0
100
AcDbLine
 10
41.253030626054
 20
873.685332204134
 30
0.0
 11
42.610030626054
 21
874.525332204134
 31
0.0
  0
LINE
  5
39D3
330
1D
100
AcDbEntity
  8
0
100
AcDbLine
 10
41.459030626054
 20
875.369332204134
 30
0.0
 11
40.494493498256
 21
875.266420831776
 31
0.0
  0
LINE
  5
39D4
330
1D
100
AcDbEntity
  8
0
100
AcDbLine
 10
40.494493498256
 20
875.266420831776
 30
0.0
 11
39.593490384735
 21
874.956552036121
 31
0.0
  0
LINE
  5
39D5
330
1D
100
AcDbEntity
  8
0
100
AcDbLine
 10
39.324670519543
 20
875.101026678104
 30
0.0
 11
39.415030626054
 21
874.480332204134
 31
0.0
  0
LINE
  5
39D6
330
1D
100
AcDbEntity
  8
0
100
AcDbLine
 10
39.593490384735
 20
874.956552036121
 30
0.0
 11
39.415030626054
 21
874.480332204134
 31
0.0
  0
LINE
  5
39D7
330
1D
100
AcDbEntity
  8
0
100
AcDbLine
 10
42.610030626054
 20
874.525332204134
 30
0.0
 11
42.765211012739
 21
875.773723673144
 31
0.0
  0
LINE
  5
39D8
330
1D
100
AcDbEntity
  8
0
100
AcDbLine
 10
41.459030626054
 20
875.369332204134
 30
0.0
 11
42.610030626054
 21
874.525332204134
 31
0.0
  0
LINE
  5
39D9
330
1D
100
AcDbEntity
  8
0
100
AcDbLine
 10
46.320704581098
 20
883.308981994255
 30
0.0
 11
48.158704581098
 21
882.513981994255
 31
0.0
  0
LINE
  5
39DA
330
1D
100
AcDbEntity
  8
0
100
AcDbLine
 10
48.158704581098
 20
882.513981994255
 30
0.0
 11
49.515704581098
 21
883.353981994255
 31
0.0
  0
LINE
  5
39DB
330
1D
100
AcDbEntity
  8
0
100
AcDbLine
 10
48.364704581098
 20
884.197981994255
 30
0.0
 11
47.400167453301
 21
884.095070621898
 31
0.0
  0
LINE
  5
39DC
330
1D
100
AcDbEntity
  8
0
100
AcDbLine
 10
47.400167453301
 20
884.095070621898
 30
0.0
 11
46.49916433978
 21
883.785201826242
 31
0.0
  0
LINE
  5
39DD
330
1D
100
AcDbEntity
  8
0
100
AcDbLine
 10
46.230344474587
 20
883.929676468225
 30
0.0
 11
46.320704581098
 21
883.308981994255
 31
0.0
  0
LINE
  5
39DE
330
1D
100
AcDbEntity
  8
0
100
AcDbLine
 10
46.49916433978
 20
883.785201826242
 30
0.0
 11
46.320704581098
 21
883.308981994255
 31
0.0
  0
LINE
  5
39DF
330
1D
100
AcDbEntity
  8
0
100
AcDbLine
 10
49.515704581098
 20
883.353981994255
 30
0.0
 11
49.670884967783
 21
884.602373463265
 31
0.0
  0
LINE
  5
39E0
330
1D
100
AcDbEntity
  8
0
100
AcDbLine
 10
48.364704581098
 20
884.197981994255
 30
0.0
 11
49.515704581098
 21
883.353981994255
 31
0.0
  0
LINE
  5
39E1
330
1D
100
AcDbEntity
  8
0
100
AcDbLine
 10
52.600676416495
 20
897.985179047963
 30
0.0
 11
54.438676416495
 21
897.190179047963
 31
0.0
  0
LINE
  5
39E2
330
1D
100
AcDbEntity
  8
0
100
AcDbLine
 10
54.438676416495
 20
897.190179047963
 30
0.0
 11
55.795676416495
 21
898.030179047963
 31
0.0
  0
LINE
  5
39E3
330
1D
100
AcDbEntity
  8
0
100
AcDbLine
 10
54.644676416495
 20
898.874179047963
 30
0.0
 11
53.680139288697
 21
898.771267675606
 31
0.0
  0
LINE
  5
39E4
330
1D
100
AcDbEntity
  8
0
100
AcDbLine
 10
53.680139288697
 20
898.771267675606
 30
0.0
 11
52.779136175176
 21
898.461398879951
 31
0.0
  0
LINE
  5
39E5
330
1D
100
AcDbEntity
  8
0
100
AcDbLine
 10
52.510316309984
 20
898.605873521933
 30
0.0
 11
52.600676416495
 21
897.985179047963
 31
0.0
  0
LINE
  5
39E6
330
1D
100
AcDbEntity
  8
0
100
AcDbLine
 10
52.779136175176
 20
898.461398879951
 30
0.0
 11
52.600676416495
 21
897.985179047963
 31
0.0
  0
LINE
  5
39E7
330
1D
100
AcDbEntity
  8
0
100
AcDbLine
 10
55.795676416495
 20
898.030179047963
 30
0.0
 11
55.95085680318
 21
899.278570516973
 31
0.0
  0
LINE
  5
39E8
330
1D
100
AcDbEntity
  8
0
100
AcDbLine
 10
54.644676416495
 20
898.874179047963
 30
0.0
 11
55.795676416495
 21
898.030179047963
 31
0.0
  0
LINE
  5
39E9
330
1D
100
AcDbEntity
  8
0
100
AcDbLine
 10
56.799858837691
 20
891.61487146836
 30
0.0
 11
57.950858837691
 21
890.77087146836
 31
0.0
  0
LINE
  5
39EA
330
1D
100
AcDbEntity
  8
0
100
AcDbLine
 10
57.950858837691
 20
890.77087146836
 30
0.0
 11
58.106039224376
 21
892.01926293737
 31
0.0
  0
LINE
  5
39EB
330
1D
100
AcDbEntity
  8
0
100
AcDbLine
 10
54.934318596372
 20
891.202091300347
 30
0.0
 11
54.755858837691
 21
890.72587146836
 31
0.0
  0
LINE
  5
39EC
330
1D
100
AcDbEntity
  8
0
100
AcDbLine
 10
54.66549873118
 20
891.34656594233
 30
0.0
 11
54.755858837691
 21
890.72587146836
 31
0.0
  0
LINE
  5
39ED
330
1D
100
AcDbEntity
  8
0
100
AcDbLine
 10
55.835321709893
 20
891.511960096002
 30
0.0
 11
54.934318596372
 21
891.202091300347
 31
0.0
  0
LINE
  5
39EE
330
1D
100
AcDbEntity
  8
0
100
AcDbLine
 10
56.799858837691
 20
891.61487146836
 30
0.0
 11
55.835321709893
 21
891.511960096002
 31
0.0
  0
LINE
  5
39EF
330
1D
100
AcDbEntity
  8
0
100
AcDbLine
 10
56.593858837691
 20
889.93087146836
 30
0.0
 11
57.950858837691
 21
890.77087146836
 31
0.0
  0
LINE
  5
39F0
330
1D
100
AcDbEntity
  8
0
100
AcDbLine
 10
54.755858837691
 20
890.72587146836
 30
0.0
 11
56.593858837691
 21
889.93087146836
 31
0.0
  0
LINE
  5
39F1
330
1D
100
AcDbEntity
  8
0
100
AcDbLine
 10
56.799858837691
 20
882.32759052031
 30
0.0
 11
57.950858837691
 21
881.48359052031
 31
0.0
  0
LINE
  5
39F2
330
1D
100
AcDbEntity
  8
0
100
AcDbLine
 10
57.950858837691
 20
881.48359052031
 30
0.0
 11
58.106039224376
 21
882.73198198932
 31
0.0
  0
LINE
  5
39F3
330
1D
100
AcDbEntity
  8
0
100
AcDbLine
 10
54.934318596372
 20
881.914810352297
 30
0.0
 11
54.755858837691
 21
881.43859052031
 31
0.0
  0
LINE
  5
39F4
330
1D
100
AcDbEntity
  8
0
100
AcDbLine
 10
54.66549873118
 20
882.05928499428
 30
0.0
 11
54.755858837691
 21
881.43859052031
 31
0.0
  0
LINE
  5
39F5
330
1D
100
AcDbEntity
  8
0
100
AcDbLine
 10
55.835321709893
 20
882.224679147953
 30
0.0
 11
54.934318596372
 21
881.914810352297
 31
0.0
  0
LINE
  5
39F6
330
1D
100
AcDbEntity
  8
0
100
AcDbLine
 10
56.799858837691
 20
882.32759052031
 30
0.0
 11
55.835321709893
 21
882.224679147953
 31
0.0
  0
LINE
  5
39F7
330
1D
100
AcDbEntity
  8
0
100
AcDbLine
 10
56.593858837691
 20
880.64359052031
 30
0.0
 11
57.950858837691
 21
881.48359052031
 31
0.0
  0
LINE
  5
39F8
330
1D
100
AcDbEntity
  8
0
100
AcDbLine
 10
54.755858837691
 20
881.43859052031
 30
0.0
 11
56.593858837691
 21
880.64359052031
 31
0.0
  0
LINE
  5
39F9
330
1D
100
AcDbEntity
  8
0
100
AcDbLine
 10
67.921664417454
 20
884.197981994255
 30
0.0
 11
69.072664417454
 21
883.353981994255
 31
0.0
  0
LINE
  5
39FA
330
1D
100
AcDbEntity
  8
0
100
AcDbLine
 10
69.072664417454
 20
883.353981994255
 30
0.0
 11
69.227844804139
 21
884.602373463265
 31
0.0
  0
LINE
  5
39FB
330
1D
100
AcDbEntity
  8
0
100
AcDbLine
 10
66.056124176135
 20
883.785201826242
 30
0.0
 11
65.877664417454
 21
883.308981994255
 31
0.0
  0
LINE
  5
39FC
330
1D
100
AcDbEntity
  8
0
100
AcDbLine
 10
65.787304310943
 20
883.929676468225
 30
0.0
 11
65.877664417454
 21
883.308981994255
 31
0.0
  0
LINE
  5
39FD
330
1D
100
AcDbEntity
  8
0
100
AcDbLine
 10
66.957127289656
 20
884.095070621898
 30
0.0
 11
66.056124176135
 21
883.785201826242
 31
0.0
  0
LINE
  5
39FE
330
1D
100
AcDbEntity
  8
0
100
AcDbLine
 10
67.921664417454
 20
884.197981994255
 30
0.0
 11
66.957127289656
 21
884.095070621898
 31
0.0
  0
LINE
  5
39FF
330
1D
100
AcDbEntity
  8
0
100
AcDbLine
 10
67.715664417454
 20
882.513981994255
 30
0.0
 11
69.072664417454
 21
883.353981994255
 31
0.0
  0
LINE
  5
3A00
330
1D
100
AcDbEntity
  8
0
100
AcDbLine
 10
65.877664417454
 20
883.308981994255
 30
0.0
 11
67.715664417454
 21
882.513981994255
 31
0.0
  0
LINE
  5
3A01
330
1D
100
AcDbEntity
  8
0
100
AcDbLine
 10
66.889744312115
 20
895.627894100233
 30
0.0
 11
68.040744312115
 21
894.783894100233
 31
0.0
  0
LINE
  5
3A02
330
1D
100
AcDbEntity
  8
0
100
AcDbLine
 10
68.040744312115
 20
894.783894100233
 30
0.0
 11
68.1959246988
 21
896.032285569243
 31
0.0
  0
LINE
  5
3A03
330
1D
100
AcDbEntity
  8
0
100
AcDbLine
 10
65.024204070796
 20
895.21511393222
 30
0.0
 11
64.845744312115
 21
894.738894100233
 31
0.0
  0
LINE
  5
3A04
330
1D
100
AcDbEntity
  8
0
100
AcDbLine
 10
64.755384205604
 20
895.359588574203
 30
0.0
 11
64.845744312115
 21
894.738894100233
 31
0.0
  0
LINE
  5
3A05
330
1D
100
AcDbEntity
  8
0
100
AcDbLine
 10
65.925207184317
 20
895.524982727876
 30
0.0
 11
65.024204070796
 21
895.21511393222
 31
0.0
  0
LINE
  5
3A06
330
1D
100
AcDbEntity
  8
0
100
AcDbLine
 10
66.889744312115
 20
895.627894100233
 30
0.0
 11
65.925207184317
 21
895.524982727876
 31
0.0
  0
LINE
  5
3A07
330
1D
100
AcDbEntity
  8
0
100
AcDbLine
 10
66.683744312115
 20
893.943894100233
 30
0.0
 11
68.040744312115
 21
894.783894100233
 31
0.0
  0
LINE
  5
3A08
330
1D
100
AcDbEntity
  8
0
100
AcDbLine
 10
64.845744312115
 20
894.738894100233
 30
0.0
 11
66.683744312115
 21
893.943894100233
 31
0.0
  0
LINE
  5
3A09
330
1D
100
AcDbEntity
  8
0
100
AcDbLine
 10
67.807006627972
 20
904.22722831139
 30
0.0
 11
68.958006627972
 21
903.38322831139
 31
0.0
  0
LINE
  5
3A0A
330
1D
100
AcDbEntity
  8
0
100
AcDbLine
 10
68.958006627972
 20
903.38322831139
 30
0.0
 11
69.113187014657
 21
904.631619780401
 31
0.0
  0
LINE
  5
3A0B
330
1D
100
AcDbEntity
  8
0
100
AcDbLine
 10
65.941466386653
 20
903.814448143378
 30
0.0
 11
65.763006627972
 21
903.33822831139
 31
0.0
  0
LINE
  5
3A0C
330
1D
100
AcDbEntity
  8
0
100
AcDbLine
 10
65.672646521461
 20
903.95892278536
 30
0.0
 11
65.763006627972
 21
903.33822831139
 31
0.0
  0
LINE
  5
3A0D
330
1D
100
AcDbEntity
  8
0
100
AcDbLine
 10
66.842469500174
 20
904.124316939033
 30
0.0
 11
65.941466386653
 21
903.814448143378
 31
0.0
  0
LINE
  5
3A0E
330
1D
100
AcDbEntity
  8
0
100
AcDbLine
 10
67.807006627972
 20
904.22722831139
 30
0.0
 11
66.842469500174
 21
904.124316939033
 31
0.0
  0
LINE
  5
3A0F
330
1D
100
AcDbEntity
  8
0
100
AcDbLine
 10
67.601006627972
 20
902.54322831139
 30
0.0
 11
68.958006627972
 21
903.38322831139
 31
0.0
  0
LINE
  5
3A10
330
1D
100
AcDbEntity
  8
0
100
AcDbLine
 10
65.763006627972
 20
903.33822831139
 30
0.0
 11
67.601006627972
 21
902.54322831139
 31
0.0
  0
LINE
  5
3A11
330
1D
100
AcDbEntity
  8
0
100
AcDbLine
 10
51.524
 20
913.598
 30
0.0
 11
54.855
 21
914.123
 31
0.0
  0
LINE
  5
3A12
330
1D
100
AcDbEntity
  8
0
100
AcDbLine
 10
12.725
 20
857.965
 30
0.0
 11
11.873143525739
 21
859.69877847114
 31
0.0
  0
LINE
  5
3A13
330
1D
100
AcDbEntity
  8
0
100
AcDbLine
 10
10.875184709587
 20
861.72991817931
 30
0.0
 11
10.826438574239
 21
861.86069954404
 31
0.0
  0
LINE
  5
3A14
330
1D
100
AcDbEntity
  8
0
100
AcDbLine
 10
8.706298173828
 20
869.19663088125
 30
0.0
 11
8.628651278432
 21
869.71839712677
 31
0.0
  0
LINE
  5
3A15
330
1D
100
AcDbEntity
  8
0
100
AcDbLine
 10
0.036007856298
 20
883.59569164271
 30
0.0
 11
0.11
 21
885.315
 31
0.0
  0
LINE
  5
3A16
330
1D
100
AcDbEntity
  8
0
100
AcDbLine
 10
145.863
 20
902.069
 30
0.0
 11
144.141
 21
904.364
 31
0.0
  0
LINE
  5
3A17
330
1D
100
AcDbEntity
  8
0
100
AcDbLine
 10
125.454
 20
902.94
 30
0.0
 11
120.634
 21
905.882
 31
0.0
  0
LINE
  5
3A18
330
1D
100
AcDbEntity
  8
0
100
AcDbLine
 10
103.841295418902
 20
903.725673048443
 30
0.0
 11
102.484295418902
 21
904.565673048443
 31
0.0
  0
LINE
  5
3A19
330
1D
100
AcDbEntity
  8
0
100
AcDbLine
 10
105.679295418902
 20
904.520673048443
 30
0.0
 11
103.841295418902
 21
903.725673048443
 31
0.0
  0
LINE
  5
3A1A
330
1D
100
AcDbEntity
  8
0
100
AcDbLine
 10
85.157530499826
 20
904.124316939033
 30
0.0
 11
86.058533613347
 21
903.814448143378
 31
0.0
  0
LINE
  5
3A1B
330
1D
100
AcDbEntity
  8
0
100
AcDbLine
 10
83.041993372028
 20
903.38322831139
 30
0.0
 11
82.886812985343
 21
904.631619780401
 31
0.0
  0
LINE
  5
3A1C
330
1D
100
AcDbEntity
  8
0
100
AcDbLine
 10
84.192993372028
 20
904.22722831139
 30
0.0
 11
83.041993372028
 21
903.38322831139
 31
0.0
  0
LINE
  5
3A1D
330
1D
100
AcDbEntity
  8
0
100
AcDbLine
 10
134.551
 20
903.165
 30
0.0
 11
132.132
 21
905.324
 31
0.0
  0
LINE
  5
3A1E
330
1D
100
AcDbEntity
  8
0
100
AcDbLine
 10
95.013915430982
 20
807.65162679325
 30
0.0
 11
94.711
 21
800.565
 31
0.0
  0
LINE
  5
3A1F
330
1D
100
AcDbEntity
  8
0
100
AcDbLine
 10
94.711
 20
800.565
 30
0.0
 11
94.451
 21
788.279
 31
0.0
  0
LINE
  5
3A20
330
1D
100
AcDbEntity
  8
0
100
AcDbLine
 10
123.246
 20
839.23
 30
0.0
 11
118.799
 21
836.649
 31
0.0
  0
LINE
  5
3A21
330
1D
100
AcDbEntity
  8
0
100
AcDbLine
 10
122.46
 20
841.038
 30
0.0
 11
117.724
 21
838.314
 31
0.0
  0
LINE
  5
3A22
330
1D
100
AcDbEntity
  8
0
100
AcDbLine
 10
119.760867344455
 20
850.729653882608
 30
0.0
 11
120.661870457976
 21
850.419785086953
 31
0.0
  0
LINE
  5
3A23
330
1D
100
AcDbEntity
  8
0
100
AcDbLine
 10
120.840330216657
 20
849.943565254965
 30
0.0
 11
119.002330216657
 21
849.148565254966
 31
0.0
  0
LINE
  5
3A24
330
1D
100
AcDbEntity
  8
0
100
AcDbLine
 10
119.025645795621
 20
894.631840837126
 30
0.0
 11
119.990182923419
 21
894.528929464768
 31
0.0
  0
LINE
  5
3A25
330
1D
100
AcDbEntity
  8
0
100
AcDbLine
 10
121.069645795621
 20
893.742840837126
 30
0.0
 11
119.231645795621
 21
892.947840837126
 31
0.0
  0
LINE
  5
3A26
330
1D
100
AcDbEntity
  8
0
100
AcDbLine
 10
143.066
 20
856.047
 30
0.0
 11
139.852
 21
852.198
 31
0.0
  0
LINE
  5
3A27
330
1D
100
AcDbEntity
  8
0
100
AcDbLine
 10
139.275
 20
857.965
 30
0.0
 11
137.826
 21
855.604
 31
0.0
  0
LINE
  5
3A28
330
1D
100
AcDbEntity
  8
0
100
AcDbLine
 10
125.308508638172
 20
855.225428097517
 30
0.0
 11
123.951508638172
 21
856.065428097517
 31
0.0
  0
LINE
  5
3A29
330
1D
100
AcDbEntity
  8
0
100
AcDbLine
 10
127.146508638172
 20
856.020428097516
 30
0.0
 11
125.308508638172
 21
855.225428097517
 31
0.0
  0
LINE
  5
3A2A
330
1D
100
AcDbEntity
  8
0
100
AcDbLine
 10
133.985
 20
846.746
 30
0.0
 11
130.665
 21
844.176
 31
0.0
  0
LINE
  5
3A2B
330
1D
100
AcDbEntity
  8
0
100
AcDbLine
 10
132.329
 20
848.928
 30
0.0
 11
130.845869217627
 21
847.6658422201
 31
0.0
  0
LINE
  5
3A2C
330
1D
100
AcDbEntity
  8
0
100
AcDbLine
 10
139.852
 20
852.198
 30
0.0
 11
137.061
 21
849.423
 31
0.0
  0
LINE
  5
3A2D
330
1D
100
AcDbEntity
  8
0
100
AcDbLine
 10
137.826
 20
855.604
 30
0.0
 11
134.603
 21
851.364
 31
0.0
  0
LINE
  5
3A2E
330
1D
100
AcDbEntity
  8
0
100
AcDbLine
 10
137.061
 20
849.423
 30
0.0
 11
133.985
 21
846.746
 31
0.0
  0
LINE
  5
3A2F
330
1D
100
AcDbEntity
  8
0
100
AcDbLine
 10
134.603
 20
851.364
 30
0.0
 11
132.329
 21
848.928
 31
0.0
  0
LINE
  5
3A30
330
1D
100
AcDbEntity
  8
0
100
AcDbLine
 10
130.665
 20
844.176
 30
0.0
 11
127.122
 21
841.706
 31
0.0
  0
LINE
  5
3A31
330
1D
100
AcDbEntity
  8
0
100
AcDbLine
 10
128.470708726272
 20
845.59510002986
 30
0.0
 11
125.153
 21
842.843
 31
0.0
  0
LINE
  5
3A32
330
1D
100
AcDbEntity
  8
0
100
AcDbLine
 10
127.122
 20
841.706
 30
0.0
 11
126.641290720237
 21
841.40899002244
 31
0.0
  0
LINE
  5
3A33
330
1D
100
AcDbEntity
  8
0
100
AcDbLine
 10
126.449
 20
841.256
 30
0.0
 11
123.246
 21
839.23
 31
0.0
  0
LINE
  5
3A34
330
1D
100
AcDbEntity
  8
0
100
AcDbLine
 10
125.153
 20
842.843
 30
0.0
 11
122.46
 21
841.038
 31
0.0
  0
LINE
  5
3A35
330
1D
100
AcDbEntity
  8
0
100
AcDbLine
 10
126.641290720237
 20
841.40899002244
 30
0.0
 11
126.449
 21
841.256
 31
0.0
  0
LINE
  5
3A36
330
1D
100
AcDbEntity
  8
0
100
AcDbLine
 10
129.635
 20
846.534
 30
0.0
 11
128.470708726272
 21
845.59510002986
 31
0.0
  0
LINE
  5
3A37
330
1D
100
AcDbEntity
  8
0
100
AcDbLine
 10
130.845869217627
 20
847.6658422201
 30
0.0
 11
129.635
 21
846.534
 31
0.0
  0
LINE
  5
3A38
330
1D
100
AcDbEntity
  8
0
100
AcDbLine
 10
120.661870457976
 20
850.419785086953
 30
0.0
 11
120.840330216657
 21
849.943565254965
 31
0.0
  0
LINE
  5
3A39
330
1D
100
AcDbEntity
  8
0
100
AcDbLine
 10
120.930690323168
 20
850.564259728936
 30
0.0
 11
120.840330216657
 21
849.943565254965
 31
0.0
  0
LINE
  5
3A3A
330
1D
100
AcDbEntity
  8
0
100
AcDbLine
 10
144.817830446828
 20
858.7498821384
 30
0.0
 11
143.884
 21
857.276
 31
0.0
  0
LINE
  5
3A3B
330
1D
100
AcDbEntity
  8
0
100
AcDbLine
 10
145.375
 20
890.195
 30
0.0
 11
142.889
 21
894.341
 31
0.0
  0
LINE
  5
3A3C
330
1D
100
AcDbEntity
  8
0
100
AcDbLine
 10
152.0
 20
882.759
 30
0.0
 11
151.78
 21
879.088
 31
0.0
  0
LINE
  5
3A3D
330
1D
100
AcDbEntity
  8
0
100
AcDbLine
 10
148.8877
 20
878.85
 30
0.0
 11
148.2239
 21
882.838
 31
0.0
  0
LINE
  5
3A3E
330
1D
100
AcDbEntity
  8
0
100
AcDbLine
 10
149.966
 20
870.038
 30
0.0
 11
148.491
 21
865.809
 31
0.0
  0
LINE
  5
3A3F
330
1D
100
AcDbEntity
  8
0
100
AcDbLine
 10
148.6244
 20
870.927
 30
0.0
 11
147.817
 21
867.194
 31
0.0
  0
LINE
  5
3A40
330
1D
100
AcDbEntity
  8
0
100
AcDbLine
 10
147.84
 20
864.364
 30
0.0
 11
146.061
 21
860.712
 31
0.0
  0
LINE
  5
3A41
330
1D
100
AcDbEntity
  8
0
100
AcDbLine
 10
148.491
 20
865.809
 30
0.0
 11
147.84
 21
864.364
 31
0.0
  0
LINE
  5
3A42
330
1D
100
AcDbEntity
  8
0
100
AcDbLine
 10
146.061
 20
860.712
 30
0.0
 11
145.716727520055
 21
860.16862827695
 31
0.0
  0
LINE
  5
3A43
330
1D
100
AcDbEntity
  8
0
100
AcDbLine
 10
147.944
 20
867.781
 30
0.0
 11
147.817
 21
867.194
 31
0.0
  0
LINE
  5
3A44
330
1D
100
AcDbEntity
  8
0
100
AcDbLine
 10
147.817
 20
867.194
 30
0.0
 11
146.628
 21
863.575
 31
0.0
  0
LINE
  5
3A45
330
1D
100
AcDbEntity
  8
0
100
AcDbLine
 10
145.716727520055
 20
860.16862827695
 30
0.0
 11
144.817830446828
 21
858.7498821384
 31
0.0
  0
LINE
  5
3A46
330
1D
100
AcDbEntity
  8
0
100
AcDbLine
 10
150.669
 20
872.641
 30
0.0
 11
149.966
 21
870.038
 31
0.0
  0
LINE
  5
3A47
330
1D
100
AcDbEntity
  8
0
100
AcDbLine
 10
151.453
 20
876.758
 30
0.0
 11
150.669
 21
872.641
 31
0.0
  0
LINE
  5
3A48
330
1D
100
AcDbEntity
  8
0
100
AcDbLine
 10
149.0
 20
875.878
 30
0.0
 11
148.6244
 21
870.927
 31
0.0
  0
LINE
  5
3A49
330
1D
100
AcDbEntity
  8
0
100
AcDbLine
 10
149.0
 20
875.878
 30
0.0
 11
148.8877
 21
878.85
 31
0.0
  0
LINE
  5
3A4A
330
1D
100
AcDbEntity
  8
0
100
AcDbLine
 10
151.78
 20
879.088
 30
0.0
 11
151.453
 21
876.758
 31
0.0
  0
LINE
  5
3A4B
330
1D
100
AcDbEntity
  8
0
100
AcDbLine
 10
151.169
 20
890.27
 30
0.0
 11
150.533
 21
892.572
 31
0.0
  0
LINE
  5
3A4C
330
1D
100
AcDbEntity
  8
0
100
AcDbLine
 10
152.0
 20
882.759
 30
0.0
 11
151.985
 21
883.327
 31
0.0
  0
LINE
  5
3A4D
330
1D
100
AcDbEntity
  8
0
100
AcDbLine
 10
151.89
 20
885.315
 30
0.0
 11
151.623
 21
887.957
 31
0.0
  0
LINE
  5
3A4E
330
1D
100
AcDbEntity
  8
0
100
AcDbLine
 10
151.623
 20
887.957
 30
0.0
 11
151.169
 21
890.27
 31
0.0
  0
LINE
  5
3A4F
330
1D
100
AcDbEntity
  8
0
100
AcDbLine
 10
151.985
 20
883.327
 30
0.0
 11
151.963992143702
 21
883.59569164271
 31
0.0
  0
LINE
  5
3A50
330
1D
100
AcDbEntity
  8
0
100
AcDbLine
 10
151.963992143702
 20
883.59569164271
 30
0.0
 11
151.89
 21
885.315
 31
0.0
  0
LINE
  5
3A51
330
1D
100
AcDbEntity
  8
0
100
AcDbLine
 10
146.957
 20
886.614
 30
0.0
 11
145.375
 21
890.195
 31
0.0
  0
LINE
  5
3A52
330
1D
100
AcDbEntity
  8
0
100
AcDbLine
 10
148.2239
 20
882.838
 30
0.0
 11
146.957
 21
886.614
 31
0.0
  0
LINE
  5
3A53
330
1D
100
AcDbEntity
  8
0
100
AcDbLine
 10
150.533
 20
892.572
 30
0.0
 11
149.404
 21
895.61
 31
0.0
  0
LINE
  5
3A54
330
1D
100
AcDbEntity
  8
0
100
AcDbLine
 10
149.404
 20
895.61
 30
0.0
 11
147.957
 21
898.598
 31
0.0
  0
LINE
  5
3A55
330
1D
100
AcDbEntity
  8
0
100
AcDbLine
 10
146.2
 20
901.52
 30
0.0
 11
145.863
 21
902.069
 31
0.0
  0
LINE
  5
3A56
330
1D
100
AcDbEntity
  8
0
100
AcDbLine
 10
147.957
 20
898.598
 30
0.0
 11
146.2
 21
901.52
 31
0.0
  0
LINE
  5
3A57
330
1D
100
AcDbEntity
  8
0
100
AcDbLine
 10
143.455
 20
877.399
 30
0.0
 11
142.721
 21
881.029
 31
0.0
  0
LINE
  5
3A58
330
1D
100
AcDbEntity
  8
0
100
AcDbLine
 10
130.582766954348
 20
879.647537257203
 30
0.0
 11
129.225766954348
 21
880.487537257203
 31
0.0
  0
LINE
  5
3A59
330
1D
100
AcDbEntity
  8
0
100
AcDbLine
 10
132.420766954348
 20
880.442537257203
 30
0.0
 11
130.582766954348
 21
879.647537257203
 31
0.0
  0
LINE
  5
3A5A
330
1D
100
AcDbEntity
  8
0
100
AcDbLine
 10
131.408687059687
 20
872.617545256563
 30
0.0
 11
132.373224187485
 21
872.514633884206
 31
0.0
  0
LINE
  5
3A5B
330
1D
100
AcDbEntity
  8
0
100
AcDbLine
 10
133.452687059687
 20
871.728545256563
 30
0.0
 11
131.614687059687
 21
870.933545256563
 31
0.0
  0
LINE
  5
3A5C
330
1D
100
AcDbEntity
  8
0
100
AcDbLine
 10
132.66992274399
 20
863.10094872955
 30
0.0
 11
131.51892274399
 21
862.25694872955
 31
0.0
  0
LINE
  5
3A5D
330
1D
100
AcDbEntity
  8
0
100
AcDbLine
 10
132.87592274399
 20
861.41694872955
 30
0.0
 11
131.51892274399
 21
862.25694872955
 31
0.0
  0
LINE
  5
3A5E
330
1D
100
AcDbEntity
  8
0
100
AcDbLine
 10
143.125
 20
868.063
 30
0.0
 11
143.030802690473
 21
867.69558303828
 31
0.0
  0
LINE
  5
3A5F
330
1D
100
AcDbEntity
  8
0
100
AcDbLine
 10
143.884
 20
857.276
 30
0.0
 11
143.066
 21
856.047
 31
0.0
  0
LINE
  5
3A60
330
1D
100
AcDbEntity
  8
0
100
AcDbLine
 10
142.331
 20
864.966
 30
0.0
 11
141.173561425761
 21
861.86069954404
 31
0.0
  0
LINE
  5
3A61
330
1D
100
AcDbEntity
  8
0
100
AcDbLine
 10
143.025895226027
 20
867.67644145467
 30
0.0
 11
142.331
 21
864.966
 31
0.0
  0
LINE
  5
3A62
330
1D
100
AcDbEntity
  8
0
100
AcDbLine
 10
141.079
 20
861.607
 30
0.0
 11
140.126856474261
 21
859.69877847114
 31
0.0
  0
LINE
  5
3A63
330
1D
100
AcDbEntity
  8
0
100
AcDbLine
 10
141.124815290413
 20
861.72991817931
 30
0.0
 11
141.079
 21
861.607
 31
0.0
  0
LINE
  5
3A64
330
1D
100
AcDbEntity
  8
0
100
AcDbLine
 10
134.535462985309
 20
862.688168561537
 30
0.0
 11
134.71392274399
 21
862.21194872955
 31
0.0
  0
LINE
  5
3A65
330
1D
100
AcDbEntity
  8
0
100
AcDbLine
 10
134.804282850501
 20
862.83264320352
 30
0.0
 11
134.71392274399
 21
862.21194872955
 31
0.0
  0
LINE
  5
3A66
330
1D
100
AcDbEntity
  8
0
100
AcDbLine
 10
133.634459871788
 20
862.998037357192
 30
0.0
 11
134.535462985309
 21
862.688168561537
 31
0.0
  0
LINE
  5
3A67
330
1D
100
AcDbEntity
  8
0
100
AcDbLine
 10
132.66992274399
 20
863.10094872955
 30
0.0
 11
133.634459871788
 21
862.998037357192
 31
0.0
  0
LINE
  5
3A68
330
1D
100
AcDbEntity
  8
0
100
AcDbLine
 10
134.71392274399
 20
862.21194872955
 30
0.0
 11
132.87592274399
 21
861.41694872955
 31
0.0
  0
LINE
  5
3A69
330
1D
100
AcDbEntity
  8
0
100
AcDbLine
 10
139.275
 20
857.965
 30
0.0
 11
140.126856474261
 21
859.69877847114
 31
0.0
  0
LINE
  5
3A6A
330
1D
100
AcDbEntity
  8
0
100
AcDbLine
 10
141.124815290413
 20
861.72991817931
 30
0.0
 11
141.173561425761
 21
861.86069954404
 31
0.0
  0
LINE
  5
3A6B
330
1D
100
AcDbEntity
  8
0
100
AcDbLine
 10
143.571
 20
871.06
 30
0.0
 11
143.371348721568
 21
869.71839712677
 31
0.0
  0
LINE
  5
3A6C
330
1D
100
AcDbEntity
  8
0
100
AcDbLine
 10
143.293701826172
 20
869.19663088125
 30
0.0
 11
143.125
 21
868.063
 31
0.0
  0
LINE
  5
3A6D
330
1D
100
AcDbEntity
  8
0
100
AcDbLine
 10
143.7
 20
873.714
 30
0.0
 11
143.571
 21
871.06
 31
0.0
  0
LINE
  5
3A6E
330
1D
100
AcDbEntity
  8
0
100
AcDbLine
 10
143.7
 20
873.714
 30
0.0
 11
143.455
 21
877.399
 31
0.0
  0
LINE
  5
3A6F
330
1D
100
AcDbEntity
  8
0
100
AcDbLine
 10
143.293701826172
 20
869.19663088125
 30
0.0
 11
143.371348721568
 21
869.71839712677
 31
0.0
  0
LINE
  5
3A70
330
1D
100
AcDbEntity
  8
0
100
AcDbLine
 10
133.274227301006
 20
872.204765088551
 30
0.0
 11
133.452687059687
 21
871.728545256563
 31
0.0
  0
LINE
  5
3A71
330
1D
100
AcDbEntity
  8
0
100
AcDbLine
 10
133.543047166198
 20
872.349239730533
 30
0.0
 11
133.452687059687
 21
871.728545256563
 31
0.0
  0
LINE
  5
3A72
330
1D
100
AcDbEntity
  8
0
100
AcDbLine
 10
132.373224187485
 20
872.514633884206
 30
0.0
 11
133.274227301006
 21
872.204765088551
 31
0.0
  0
LINE
  5
3A73
330
1D
100
AcDbEntity
  8
0
100
AcDbLine
 10
126.019770954029
 20
868.60452262469
 30
0.0
 11
124.868770954029
 21
867.76052262469
 31
0.0
  0
LINE
  5
3A74
330
1D
100
AcDbEntity
  8
0
100
AcDbLine
 10
124.868770954029
 20
867.76052262469
 30
0.0
 11
124.713590567344
 21
869.0089140937
 31
0.0
  0
LINE
  5
3A75
330
1D
100
AcDbEntity
  8
0
100
AcDbLine
 10
127.885311195348
 20
868.191742456677
 30
0.0
 11
128.063770954029
 21
867.71552262469
 31
0.0
  0
LINE
  5
3A76
330
1D
100
AcDbEntity
  8
0
100
AcDbLine
 10
128.15413106054
 20
868.33621709866
 30
0.0
 11
128.063770954029
 21
867.71552262469
 31
0.0
  0
LINE
  5
3A77
330
1D
100
AcDbEntity
  8
0
100
AcDbLine
 10
125.102508638172
 20
856.909428097517
 30
0.0
 11
123.951508638172
 21
856.065428097517
 31
0.0
  0
LINE
  5
3A78
330
1D
100
AcDbEntity
  8
0
100
AcDbLine
 10
123.951508638172
 20
856.065428097517
 30
0.0
 11
123.796328251487
 21
857.313819566527
 31
0.0
  0
LINE
  5
3A79
330
1D
100
AcDbEntity
  8
0
100
AcDbLine
 10
126.968048879491
 20
856.496647929504
 30
0.0
 11
127.146508638172
 21
856.020428097516
 31
0.0
  0
LINE
  5
3A7A
330
1D
100
AcDbEntity
  8
0
100
AcDbLine
 10
127.236868744683
 20
856.641122571487
 30
0.0
 11
127.146508638172
 21
856.020428097516
 31
0.0
  0
LINE
  5
3A7B
330
1D
100
AcDbEntity
  8
0
100
AcDbLine
 10
126.06704576597
 20
856.806516725159
 30
0.0
 11
126.968048879491
 21
856.496647929504
 31
0.0
  0
LINE
  5
3A7C
330
1D
100
AcDbEntity
  8
0
100
AcDbLine
 10
125.102508638172
 20
856.909428097517
 30
0.0
 11
126.06704576597
 21
856.806516725159
 31
0.0
  0
LINE
  5
3A7D
330
1D
100
AcDbEntity
  8
0
100
AcDbLine
 10
126.225770954029
 20
866.92052262469
 30
0.0
 11
124.868770954029
 21
867.76052262469
 31
0.0
  0
LINE
  5
3A7E
330
1D
100
AcDbEntity
  8
0
100
AcDbLine
 10
128.063770954029
 20
867.71552262469
 30
0.0
 11
126.225770954029
 21
866.92052262469
 31
0.0
  0
LINE
  5
3A7F
330
1D
100
AcDbEntity
  8
0
100
AcDbLine
 10
131.51892274399
 20
862.25694872955
 30
0.0
 11
131.363742357305
 21
863.50534019856
 31
0.0
  0
LINE
  5
3A80
330
1D
100
AcDbEntity
  8
0
100
AcDbLine
 10
126.984308081827
 20
868.501611252333
 30
0.0
 11
127.885311195348
 21
868.191742456677
 31
0.0
  0
LINE
  5
3A81
330
1D
100
AcDbEntity
  8
0
100
AcDbLine
 10
126.019770954029
 20
868.60452262469
 30
0.0
 11
126.984308081827
 21
868.501611252333
 31
0.0
  0
LINE
  5
3A82
330
1D
100
AcDbEntity
  8
0
100
AcDbLine
 10
131.408687059687
 20
872.617545256563
 30
0.0
 11
130.257687059687
 21
871.773545256563
 31
0.0
  0
LINE
  5
3A83
330
1D
100
AcDbEntity
  8
0
100
AcDbLine
 10
130.257687059687
 20
871.773545256563
 30
0.0
 11
130.102506673002
 21
873.021936725574
 31
0.0
  0
LINE
  5
3A84
330
1D
100
AcDbEntity
  8
0
100
AcDbLine
 10
131.614687059687
 20
870.933545256563
 30
0.0
 11
130.257687059687
 21
871.773545256563
 31
0.0
  0
LINE
  5
3A85
330
1D
100
AcDbEntity
  8
0
100
AcDbLine
 10
121.433459374745
 20
876.401252309473
 30
0.0
 11
120.282459374745
 21
875.557252309473
 31
0.0
  0
LINE
  5
3A86
330
1D
100
AcDbEntity
  8
0
100
AcDbLine
 10
120.282459374745
 20
875.557252309473
 30
0.0
 11
120.12727898806
 21
876.805643778483
 31
0.0
  0
LINE
  5
3A87
330
1D
100
AcDbEntity
  8
0
100
AcDbLine
 10
123.298999616064
 20
875.98847214146
 30
0.0
 11
123.477459374745
 21
875.512252309473
 31
0.0
  0
LINE
  5
3A88
330
1D
100
AcDbEntity
  8
0
100
AcDbLine
 10
123.567819481256
 20
876.132946783443
 30
0.0
 11
123.477459374745
 21
875.512252309473
 31
0.0
  0
LINE
  5
3A89
330
1D
100
AcDbEntity
  8
0
100
AcDbLine
 10
122.397996502543
 20
876.298340937115
 30
0.0
 11
123.298999616064
 21
875.98847214146
 31
0.0
  0
LINE
  5
3A8A
330
1D
100
AcDbEntity
  8
0
100
AcDbLine
 10
121.433459374745
 20
876.401252309473
 30
0.0
 11
122.397996502543
 21
876.298340937115
 31
0.0
  0
LINE
  5
3A8B
330
1D
100
AcDbEntity
  8
0
100
AcDbLine
 10
121.639459374745
 20
874.717252309473
 30
0.0
 11
120.282459374745
 21
875.557252309473
 31
0.0
  0
LINE
  5
3A8C
330
1D
100
AcDbEntity
  8
0
100
AcDbLine
 10
123.477459374745
 20
875.512252309473
 30
0.0
 11
121.639459374745
 21
874.717252309473
 31
0.0
  0
LINE
  5
3A8D
330
1D
100
AcDbEntity
  8
0
100
AcDbLine
 10
133.584
 20
896.243
 30
0.0
 11
129.788
 21
899.712
 31
0.0
  0
LINE
  5
3A8E
330
1D
100
AcDbEntity
  8
0
100
AcDbLine
 10
131.341304082146
 20
881.228625884845
 30
0.0
 11
132.242307195667
 21
880.91875708919
 31
0.0
  0
LINE
  5
3A8F
330
1D
100
AcDbEntity
  8
0
100
AcDbLine
 10
139.466
 20
888.665
 30
0.0
 11
136.82
 21
892.551
 31
0.0
  0
LINE
  5
3A90
330
1D
100
AcDbEntity
  8
0
100
AcDbLine
 10
142.721
 20
881.029
 30
0.0
 11
141.491
 21
884.618
 31
0.0
  0
LINE
  5
3A91
330
1D
100
AcDbEntity
  8
0
100
AcDbLine
 10
141.491
 20
884.618
 30
0.0
 11
139.466
 21
888.665
 31
0.0
  0
LINE
  5
3A92
330
1D
100
AcDbEntity
  8
0
100
AcDbLine
 10
132.242307195667
 20
880.91875708919
 30
0.0
 11
132.420766954348
 21
880.442537257203
 31
0.0
  0
LINE
  5
3A93
330
1D
100
AcDbEntity
  8
0
100
AcDbLine
 10
132.511127060859
 20
881.063231731173
 30
0.0
 11
132.420766954348
 21
880.442537257203
 31
0.0
  0
LINE
  5
3A94
330
1D
100
AcDbEntity
  8
0
100
AcDbLine
 10
140.176
 20
897.696
 30
0.0
 11
136.869
 21
901.071
 31
0.0
  0
LINE
  5
3A95
330
1D
100
AcDbEntity
  8
0
100
AcDbLine
 10
142.889
 20
894.341
 30
0.0
 11
140.176
 21
897.696
 31
0.0
  0
LINE
  5
3A96
330
1D
100
AcDbEntity
  8
0
100
AcDbLine
 10
136.82
 20
892.551
 30
0.0
 11
133.584
 21
896.243
 31
0.0
  0
LINE
  5
3A97
330
1D
100
AcDbEntity
  8
0
100
AcDbLine
 10
136.869
 20
901.071
 30
0.0
 11
134.551
 21
903.165
 31
0.0
  0
LINE
  5
3A98
330
1D
100
AcDbEntity
  8
0
100
AcDbLine
 10
130.376766954348
 20
881.331537257203
 30
0.0
 11
129.225766954348
 21
880.487537257203
 31
0.0
  0
LINE
  5
3A99
330
1D
100
AcDbEntity
  8
0
100
AcDbLine
 10
129.225766954348
 20
880.487537257203
 30
0.0
 11
129.070586567663
 21
881.735928726213
 31
0.0
  0
LINE
  5
3A9A
330
1D
100
AcDbEntity
  8
0
100
AcDbLine
 10
130.376766954348
 20
881.331537257203
 30
0.0
 11
131.341304082146
 21
881.228625884845
 31
0.0
  0
LINE
  5
3A9B
330
1D
100
AcDbEntity
  8
0
100
AcDbLine
 10
124.98785084869
 20
888.211004626129
 30
0.0
 11
123.83685084869
 21
887.367004626129
 31
0.0
  0
LINE
  5
3A9C
330
1D
100
AcDbEntity
  8
0
100
AcDbLine
 10
123.83685084869
 20
887.367004626129
 30
0.0
 11
123.681670462005
 21
888.615396095139
 31
0.0
  0
LINE
  5
3A9D
330
1D
100
AcDbEntity
  8
0
100
AcDbLine
 10
126.853391090009
 20
887.798224458116
 30
0.0
 11
127.03185084869
 21
887.322004626128
 31
0.0
  0
LINE
  5
3A9E
330
1D
100
AcDbEntity
  8
0
100
AcDbLine
 10
127.122210955201
 20
887.942699100099
 30
0.0
 11
127.03185084869
 21
887.322004626128
 31
0.0
  0
LINE
  5
3A9F
330
1D
100
AcDbEntity
  8
0
100
AcDbLine
 10
125.952387976488
 20
888.108093253771
 30
0.0
 11
126.853391090009
 21
887.798224458116
 31
0.0
  0
LINE
  5
3AA0
330
1D
100
AcDbEntity
  8
0
100
AcDbLine
 10
124.98785084869
 20
888.211004626129
 30
0.0
 11
125.952387976488
 21
888.108093253771
 31
0.0
  0
LINE
  5
3AA1
330
1D
100
AcDbEntity
  8
0
100
AcDbLine
 10
125.19385084869
 20
886.527004626129
 30
0.0
 11
123.83685084869
 21
887.367004626129
 31
0.0
  0
LINE
  5
3AA2
330
1D
100
AcDbEntity
  8
0
100
AcDbLine
 10
127.03185084869
 20
887.322004626128
 30
0.0
 11
125.19385084869
 21
886.527004626129
 31
0.0
  0
LINE
  5
3AA3
330
1D
100
AcDbEntity
  8
0
100
AcDbLine
 10
129.788
 20
899.712
 30
0.0
 11
125.454
 21
902.94
 31
0.0
  0
LINE
  5
3AA4
330
1D
100
AcDbEntity
  8
0
100
AcDbLine
 10
120.89118603694
 20
894.219060669113
 30
0.0
 11
121.069645795621
 21
893.742840837126
 31
0.0
  0
LINE
  5
3AA5
330
1D
100
AcDbEntity
  8
0
100
AcDbLine
 10
121.160005902132
 20
894.363535311096
 30
0.0
 11
121.069645795621
 21
893.742840837126
 31
0.0
  0
LINE
  5
3AA6
330
1D
100
AcDbEntity
  8
0
100
AcDbLine
 10
119.990182923419
 20
894.528929464768
 30
0.0
 11
120.89118603694
 21
894.219060669113
 31
0.0
  0
LINE
  5
3AA7
330
1D
100
AcDbEntity
  8
0
100
AcDbLine
 10
96.203
 20
856.022
 30
0.0
 11
90.541
 21
852.557
 31
0.0
  0
LINE
  5
3AA8
330
1D
100
AcDbEntity
  8
0
100
AcDbLine
 10
80.045077842938
 20
856.558454335593
 30
0.0
 11
79.161077842938
 21
855.454454335593
 31
0.0
  0
LINE
  5
3AA9
330
1D
100
AcDbEntity
  8
0
100
AcDbLine
 10
96.771
 20
828.055
 30
0.0
 11
93.507
 21
826.13
 31
0.0
  0
LINE
  5
3AAA
330
1D
100
AcDbEntity
  8
0
100
AcDbLine
 10
95.591665934742
 20
812.83063579064
 30
0.0
 11
95.846
 21
814.331
 31
0.0
  0
LINE
  5
3AAB
330
1D
100
AcDbEntity
  8
0
100
AcDbLine
 10
96.094087899202
 20
846.934200412574
 30
0.0
 11
94.943087899202
 21
846.090200412574
 31
0.0
  0
LINE
  5
3AAC
330
1D
100
AcDbEntity
  8
0
100
AcDbLine
 10
96.300087899202
 20
845.250200412574
 30
0.0
 11
94.943087899202
 21
846.090200412574
 31
0.0
  0
LINE
  5
3AAD
330
1D
100
AcDbEntity
  8
0
100
AcDbLine
 10
115.377
 20
834.774
 30
0.0
 11
108.526
 21
831.019
 31
0.0
  0
LINE
  5
3AAE
330
1D
100
AcDbEntity
  8
0
100
AcDbLine
 10
103.812
 20
831.89
 30
0.0
 11
100.507
 21
830.216
 31
0.0
  0
LINE
  5
3AAF
330
1D
100
AcDbEntity
  8
0
100
AcDbLine
 10
108.526
 20
831.019
 30
0.0
 11
105.362608069505
 21
829.052487405
 31
0.0
  0
LINE
  5
3AB0
330
1D
100
AcDbEntity
  8
0
100
AcDbLine
 10
97.873761930825
 20
821.06857301379
 30
0.0
 11
96.904
 21
818.727
 31
0.0
  0
LINE
  5
3AB1
330
1D
100
AcDbEntity
  8
0
100
AcDbLine
 10
96.504159129809
 20
817.40910344759
 30
0.0
 11
95.846
 21
814.331
 31
0.0
  0
LINE
  5
3AB2
330
1D
100
AcDbEntity
  8
0
100
AcDbLine
 10
96.504159129809
 20
817.40910344759
 30
0.0
 11
96.904
 21
818.727
 31
0.0
  0
LINE
  5
3AB3
330
1D
100
AcDbEntity
  8
0
100
AcDbLine
 10
104.67
 20
828.608
 30
0.0
 11
101.708
 21
826.225
 31
0.0
  0
LINE
  5
3AB4
330
1D
100
AcDbEntity
  8
0
100
AcDbLine
 10
105.362608069505
 20
829.052487405
 30
0.0
 11
104.67
 21
828.608
 31
0.0
  0
LINE
  5
3AB5
330
1D
100
AcDbEntity
  8
0
100
AcDbLine
 10
101.708
 20
826.225
 30
0.0
 11
99.753
 21
824.096
 31
0.0
  0
LINE
  5
3AB6
330
1D
100
AcDbEntity
  8
0
100
AcDbLine
 10
100.507
 20
830.216
 30
0.0
 11
98.132
 21
828.902
 31
0.0
  0
LINE
  5
3AB7
330
1D
100
AcDbEntity
  8
0
100
AcDbLine
 10
99.753
 20
824.096
 30
0.0
 11
99.163609184248
 21
823.25266113428
 31
0.0
  0
LINE
  5
3AB8
330
1D
100
AcDbEntity
  8
0
100
AcDbLine
 10
98.132
 20
828.902
 30
0.0
 11
96.771
 21
828.055
 31
0.0
  0
LINE
  5
3AB9
330
1D
100
AcDbEntity
  8
0
100
AcDbLine
 10
97.873761930825
 20
821.06857301379
 30
0.0
 11
98.632
 21
822.492
 31
0.0
  0
LINE
  5
3ABA
330
1D
100
AcDbEntity
  8
0
100
AcDbLine
 10
99.163609184248
 20
823.25266113428
 30
0.0
 11
98.632
 21
822.492
 31
0.0
  0
LINE
  5
3ABB
330
1D
100
AcDbEntity
  8
0
100
AcDbLine
 10
111.102
 20
835.217
 30
0.0
 11
107.461
 21
833.589
 31
0.0
  0
LINE
  5
3ABC
330
1D
100
AcDbEntity
  8
0
100
AcDbLine
 10
108.477129163268
 20
851.520511991858
 30
0.0
 11
107.326129163268
 21
850.676511991858
 31
0.0
  0
LINE
  5
3ABD
330
1D
100
AcDbEntity
  8
0
100
AcDbLine
 10
108.683129163268
 20
849.836511991858
 30
0.0
 11
107.326129163268
 21
850.676511991858
 31
0.0
  0
LINE
  5
3ABE
330
1D
100
AcDbEntity
  8
0
100
AcDbLine
 10
117.724
 20
838.314
 30
0.0
 11
111.102
 21
835.217
 31
0.0
  0
LINE
  5
3ABF
330
1D
100
AcDbEntity
  8
0
100
AcDbLine
 10
114.674939439114
 20
839.999978788641
 30
0.0
 11
113.317939439114
 21
840.839978788641
 31
0.0
  0
LINE
  5
3AC0
330
1D
100
AcDbEntity
  8
0
100
AcDbLine
 10
114.468939439114
 20
841.683978788641
 30
0.0
 11
113.317939439114
 21
840.839978788641
 31
0.0
  0
LINE
  5
3AC1
330
1D
100
AcDbEntity
  8
0
100
AcDbLine
 10
118.799
 20
836.649
 30
0.0
 11
115.377
 21
834.774
 31
0.0
  0
LINE
  5
3AC2
330
1D
100
AcDbEntity
  8
0
100
AcDbLine
 10
116.512939439114
 20
840.794978788641
 30
0.0
 11
114.674939439114
 21
839.999978788641
 31
0.0
  0
LINE
  5
3AC3
330
1D
100
AcDbEntity
  8
0
100
AcDbLine
 10
114.468939439114
 20
841.683978788641
 30
0.0
 11
115.433476566912
 21
841.581067416284
 31
0.0
  0
LINE
  5
3AC4
330
1D
100
AcDbEntity
  8
0
100
AcDbLine
 10
115.433476566912
 20
841.581067416284
 30
0.0
 11
116.334479680433
 21
841.271198620628
 31
0.0
  0
LINE
  5
3AC5
330
1D
100
AcDbEntity
  8
0
100
AcDbLine
 10
116.603299545625
 20
841.415673262611
 30
0.0
 11
116.512939439114
 21
840.794978788641
 31
0.0
  0
LINE
  5
3AC6
330
1D
100
AcDbEntity
  8
0
100
AcDbLine
 10
116.334479680433
 20
841.271198620628
 30
0.0
 11
116.512939439114
 21
840.794978788641
 31
0.0
  0
LINE
  5
3AC7
330
1D
100
AcDbEntity
  8
0
100
AcDbLine
 10
113.317939439114
 20
840.839978788641
 30
0.0
 11
113.162759052429
 21
842.088370257651
 31
0.0
  0
LINE
  5
3AC8
330
1D
100
AcDbEntity
  8
0
100
AcDbLine
 10
110.342669404587
 20
851.107731823845
 30
0.0
 11
110.521129163268
 21
850.631511991858
 31
0.0
  0
LINE
  5
3AC9
330
1D
100
AcDbEntity
  8
0
100
AcDbLine
 10
110.611489269779
 20
851.252206465828
 30
0.0
 11
110.521129163268
 21
850.631511991858
 31
0.0
  0
LINE
  5
3ACA
330
1D
100
AcDbEntity
  8
0
100
AcDbLine
 10
109.441666291066
 20
851.4176006195
 30
0.0
 11
110.342669404587
 21
851.107731823845
 31
0.0
  0
LINE
  5
3ACB
330
1D
100
AcDbEntity
  8
0
100
AcDbLine
 10
108.477129163268
 20
851.520511991858
 30
0.0
 11
109.441666291066
 21
851.4176006195
 31
0.0
  0
LINE
  5
3ACC
330
1D
100
AcDbEntity
  8
0
100
AcDbLine
 10
110.521129163268
 20
850.631511991858
 30
0.0
 11
108.683129163268
 21
849.836511991858
 31
0.0
  0
LINE
  5
3ACD
330
1D
100
AcDbEntity
  8
0
100
AcDbLine
 10
118.796330216657
 20
850.832565254966
 30
0.0
 11
117.645330216657
 21
849.988565254966
 31
0.0
  0
LINE
  5
3ACE
330
1D
100
AcDbEntity
  8
0
100
AcDbLine
 10
117.645330216657
 20
849.988565254966
 30
0.0
 11
117.490149829972
 21
851.236956723976
 31
0.0
  0
LINE
  5
3ACF
330
1D
100
AcDbEntity
  8
0
100
AcDbLine
 10
118.796330216657
 20
850.832565254966
 30
0.0
 11
119.760867344455
 21
850.729653882608
 31
0.0
  0
LINE
  5
3AD0
330
1D
100
AcDbEntity
  8
0
100
AcDbLine
 10
119.002330216657
 20
849.148565254966
 30
0.0
 11
117.645330216657
 21
849.988565254966
 31
0.0
  0
LINE
  5
3AD1
330
1D
100
AcDbEntity
  8
0
100
AcDbLine
 10
107.461
 20
833.589
 30
0.0
 11
103.812
 21
831.89
 31
0.0
  0
LINE
  5
3AD2
330
1D
100
AcDbEntity
  8
0
100
AcDbLine
 10
105.679295418902
 20
841.677971718188
 30
0.0
 11
103.841295418902
 21
840.882971718188
 31
0.0
  0
LINE
  5
3AD3
330
1D
100
AcDbEntity
  8
0
100
AcDbLine
 10
103.841295418902
 20
840.882971718188
 30
0.0
 11
102.484295418902
 21
841.722971718188
 31
0.0
  0
LINE
  5
3AD4
330
1D
100
AcDbEntity
  8
0
100
AcDbLine
 10
103.635295418902
 20
842.566971718188
 30
0.0
 11
104.599832546699
 21
842.464060345831
 31
0.0
  0
LINE
  5
3AD5
330
1D
100
AcDbEntity
  8
0
100
AcDbLine
 10
104.599832546699
 20
842.464060345831
 30
0.0
 11
105.50083566022
 21
842.154191550175
 31
0.0
  0
LINE
  5
3AD6
330
1D
100
AcDbEntity
  8
0
100
AcDbLine
 10
105.769655525413
 20
842.298666192158
 30
0.0
 11
105.679295418902
 21
841.677971718188
 31
0.0
  0
LINE
  5
3AD7
330
1D
100
AcDbEntity
  8
0
100
AcDbLine
 10
105.50083566022
 20
842.154191550175
 30
0.0
 11
105.679295418902
 21
841.677971718188
 31
0.0
  0
LINE
  5
3AD8
330
1D
100
AcDbEntity
  8
0
100
AcDbLine
 10
102.484295418902
 20
841.722971718188
 30
0.0
 11
102.329115032217
 21
842.971363187198
 31
0.0
  0
LINE
  5
3AD9
330
1D
100
AcDbEntity
  8
0
100
AcDbLine
 10
103.635295418902
 20
842.566971718188
 30
0.0
 11
102.484295418902
 21
841.722971718188
 31
0.0
  0
LINE
  5
3ADA
330
1D
100
AcDbEntity
  8
0
100
AcDbLine
 10
99.559943436377
 20
835.910563480064
 30
0.0
 11
98.408943436377
 21
835.066563480064
 31
0.0
  0
LINE
  5
3ADB
330
1D
100
AcDbEntity
  8
0
100
AcDbLine
 10
98.408943436377
 20
835.066563480064
 30
0.0
 11
98.253763049692
 21
836.314954949074
 31
0.0
  0
LINE
  5
3ADC
330
1D
100
AcDbEntity
  8
0
100
AcDbLine
 10
101.425483677695
 20
835.497783312051
 30
0.0
 11
101.603943436377
 21
835.021563480064
 31
0.0
  0
LINE
  5
3ADD
330
1D
100
AcDbEntity
  8
0
100
AcDbLine
 10
101.694303542888
 20
835.642257954034
 30
0.0
 11
101.603943436377
 21
835.021563480064
 31
0.0
  0
LINE
  5
3ADE
330
1D
100
AcDbEntity
  8
0
100
AcDbLine
 10
100.524480564174
 20
835.807652107707
 30
0.0
 11
101.425483677695
 21
835.497783312051
 31
0.0
  0
LINE
  5
3ADF
330
1D
100
AcDbEntity
  8
0
100
AcDbLine
 10
99.559943436377
 20
835.910563480064
 30
0.0
 11
100.524480564174
 21
835.807652107707
 31
0.0
  0
LINE
  5
3AE0
330
1D
100
AcDbEntity
  8
0
100
AcDbLine
 10
99.765943436377
 20
834.226563480064
 30
0.0
 11
98.408943436377
 21
835.066563480064
 31
0.0
  0
LINE
  5
3AE1
330
1D
100
AcDbEntity
  8
0
100
AcDbLine
 10
101.603943436377
 20
835.021563480064
 30
0.0
 11
99.765943436377
 21
834.226563480064
 31
0.0
  0
LINE
  5
3AE2
330
1D
100
AcDbEntity
  8
0
100
AcDbLine
 10
97.959628140521
 20
846.521420244561
 30
0.0
 11
98.138087899202
 21
846.045200412574
 31
0.0
  0
LINE
  5
3AE3
330
1D
100
AcDbEntity
  8
0
100
AcDbLine
 10
98.228448005713
 20
846.665894886544
 30
0.0
 11
98.138087899202
 21
846.045200412574
 31
0.0
  0
LINE
  5
3AE4
330
1D
100
AcDbEntity
  8
0
100
AcDbLine
 10
97.058625027
 20
846.831289040217
 30
0.0
 11
97.959628140521
 21
846.521420244561
 31
0.0
  0
LINE
  5
3AE5
330
1D
100
AcDbEntity
  8
0
100
AcDbLine
 10
96.094087899202
 20
846.934200412574
 30
0.0
 11
97.058625027
 21
846.831289040217
 31
0.0
  0
LINE
  5
3AE6
330
1D
100
AcDbEntity
  8
0
100
AcDbLine
 10
98.138087899202
 20
846.045200412574
 30
0.0
 11
96.300087899202
 21
845.250200412574
 31
0.0
  0
LINE
  5
3AE7
330
1D
100
AcDbEntity
  8
0
100
AcDbLine
 10
98.501901478326
 20
852.093800939268
 30
0.0
 11
97.350901478326
 21
851.249800939268
 31
0.0
  0
LINE
  5
3AE8
330
1D
100
AcDbEntity
  8
0
100
AcDbLine
 10
97.350901478326
 20
851.249800939268
 30
0.0
 11
97.195721091641
 21
852.498192408278
 31
0.0
  0
LINE
  5
3AE9
330
1D
100
AcDbEntity
  8
0
100
AcDbLine
 10
100.367441719645
 20
851.681020771256
 30
0.0
 11
100.545901478326
 21
851.204800939268
 31
0.0
  0
LINE
  5
3AEA
330
1D
100
AcDbEntity
  8
0
100
AcDbLine
 10
100.636261584837
 20
851.825495413238
 30
0.0
 11
100.545901478326
 21
851.204800939268
 31
0.0
  0
LINE
  5
3AEB
330
1D
100
AcDbEntity
  8
0
100
AcDbLine
 10
99.466438606124
 20
851.990889566911
 30
0.0
 11
100.367441719645
 21
851.681020771256
 31
0.0
  0
LINE
  5
3AEC
330
1D
100
AcDbEntity
  8
0
100
AcDbLine
 10
98.501901478326
 20
852.093800939268
 30
0.0
 11
99.466438606124
 21
851.990889566911
 31
0.0
  0
LINE
  5
3AED
330
1D
100
AcDbEntity
  8
0
100
AcDbLine
 10
98.707901478326
 20
850.409800939268
 30
0.0
 11
97.350901478326
 21
851.249800939268
 31
0.0
  0
LINE
  5
3AEE
330
1D
100
AcDbEntity
  8
0
100
AcDbLine
 10
100.545901478326
 20
851.204800939268
 30
0.0
 11
98.707901478326
 21
850.409800939268
 31
0.0
  0
LINE
  5
3AEF
330
1D
100
AcDbEntity
  8
0
100
AcDbLine
 10
107.326129163268
 20
850.676511991858
 30
0.0
 11
107.170948776583
 21
851.924903460868
 31
0.0
  0
LINE
  5
3AF0
330
1D
100
AcDbEntity
  8
0
100
AcDbLine
 10
87.751227420998
 20
832.720303300251
 30
0.0
 11
88.662536486425
 21
830.262634349206
 31
0.0
  0
LINE
  5
3AF1
330
1D
100
AcDbEntity
  8
0
100
AcDbLine
 10
84.439455991212
 20
822.840970803236
 30
0.0
 11
83.513964618765
 21
822.179911199068
 31
0.0
  0
LINE
  5
3AF2
330
1D
100
AcDbEntity
  8
0
100
AcDbLine
 10
82.130290513799
 20
819.691720258243
 30
0.0
 11
84.721791587685
 21
820.906726696445
 31
0.0
  0
LINE
  5
3AF3
330
1D
100
AcDbEntity
  8
0
100
AcDbLine
 10
95.591665934742
 20
812.83063579064
 30
0.0
 11
95.482
 21
812.103
 31
0.0
  0
LINE
  5
3AF4
330
1D
100
AcDbEntity
  8
0
100
AcDbLine
 10
95.482
 20
812.103
 30
0.0
 11
95.017212088359
 21
807.69796510295
 31
0.0
  0
LINE
  5
3AF5
330
1D
100
AcDbEntity
  8
0
100
AcDbLine
 10
93.507
 20
826.13
 30
0.0
 11
88.576
 21
823.063
 31
0.0
  0
LINE
  5
3AF6
330
1D
100
AcDbEntity
  8
0
100
AcDbLine
 10
88.019329667033
 20
826.867080976126
 30
0.0
 11
87.005787950097
 21
825.316693035219
 31
0.0
  0
LINE
  5
3AF7
330
1D
100
AcDbEntity
  8
0
100
AcDbLine
 10
88.576
 20
823.063
 30
0.0
 11
86.6
 21
821.942
 31
0.0
  0
LINE
  5
3AF8
330
1D
100
AcDbEntity
  8
0
100
AcDbLine
 10
87.005787950097
 20
825.316693035219
 30
0.0
 11
86.374482238826
 21
824.591786792624
 31
0.0
  0
LINE
  5
3AF9
330
1D
100
AcDbEntity
  8
0
100
AcDbLine
 10
86.374482238826
 20
824.591786792624
 30
0.0
 11
85.539688974531
 21
823.748775325077
 31
0.0
  0
LINE
  5
3AFA
330
1D
100
AcDbEntity
  8
0
100
AcDbLine
 10
85.539688974531
 20
823.748775325077
 30
0.0
 11
84.439455991212
 21
822.840970803236
 31
0.0
  0
LINE
  5
3AFB
330
1D
100
AcDbEntity
  8
0
100
AcDbLine
 10
84.721791587685
 20
820.906726696445
 30
0.0
 11
86.6
 21
821.942
 31
0.0
  0
LINE
  5
3AFC
330
1D
100
AcDbEntity
  8
0
100
AcDbLine
 10
88.593628299459
 20
828.920112775566
 30
0.0
 11
88.322006594897
 21
827.574244343954
 31
0.0
  0
LINE
  5
3AFD
330
1D
100
AcDbEntity
  8
0
100
AcDbLine
 10
88.322006594897
 20
827.574244343954
 30
0.0
 11
88.019329667033
 21
826.867080976126
 31
0.0
  0
LINE
  5
3AFE
330
1D
100
AcDbEntity
  8
0
100
AcDbLine
 10
88.662536486425
 20
830.262634349206
 30
0.0
 11
88.662536486425
 21
829.647212955272
 31
0.0
  0
LINE
  5
3AFF
330
1D
100
AcDbEntity
  8
0
100
AcDbLine
 10
88.662536486425
 20
829.647212955272
 30
0.0
 11
88.593628299459
 21
828.920112775566
 31
0.0
  0
LINE
  5
3B00
330
1D
100
AcDbEntity
  8
0
100
AcDbLine
 10
78.075461327727
 20
818.51237480149
 30
0.0
 11
76.0
 21
818.266
 31
0.0
  0
LINE
  5
3B01
330
1D
100
AcDbEntity
  8
0
100
AcDbLine
 10
78.075461327727
 20
818.51237480149
 30
0.0
 11
79.669517980732
 21
818.876589356665
 31
0.0
  0
LINE
  5
3B02
330
1D
100
AcDbEntity
  8
0
100
AcDbLine
 10
79.669517980732
 20
818.876589356665
 30
0.0
 11
82.130290513799
 21
819.691720258243
 31
0.0
  0
LINE
  5
3B03
330
1D
100
AcDbEntity
  8
0
100
AcDbLine
 10
79.137
 20
820.477
 30
0.0
 11
76.57
 21
820.097
 31
0.0
  0
LINE
  5
3B04
330
1D
100
AcDbEntity
  8
0
100
AcDbLine
 10
83.513964618765
 20
822.179911199068
 30
0.0
 11
82.170757712136
 21
821.371291656616
 31
0.0
  0
LINE
  5
3B05
330
1D
100
AcDbEntity
  8
0
100
AcDbLine
 10
82.170757712136
 20
821.371291656616
 30
0.0
 11
79.137
 21
820.477
 31
0.0
  0
LINE
  5
3B06
330
1D
100
AcDbEntity
  8
0
100
AcDbLine
 10
86.54
 20
850.996
 30
0.0
 11
81.412
 21
849.864
 31
0.0
  0
LINE
  5
3B07
330
1D
100
AcDbEntity
  8
0
100
AcDbLine
 10
81.386735576456
 20
836.509275852002
 30
0.0
 11
84.848695322023
 21
835.181889658653
 31
0.0
  0
LINE
  5
3B08
330
1D
100
AcDbEntity
  8
0
100
AcDbLine
 10
83.643663657595
 20
842.464060345831
 30
0.0
 11
84.544666771116
 21
842.154191550175
 31
0.0
  0
LINE
  5
3B09
330
1D
100
AcDbEntity
  8
0
100
AcDbLine
 10
84.723126529797
 20
841.677971718188
 30
0.0
 11
82.885126529797
 21
840.882971718188
 31
0.0
  0
LINE
  5
3B0A
330
1D
100
AcDbEntity
  8
0
100
AcDbLine
 10
94.54
 20
838.146
 30
0.0
 11
92.702
 21
837.351
 31
0.0
  0
LINE
  5
3B0B
330
1D
100
AcDbEntity
  8
0
100
AcDbLine
 10
92.702
 20
837.351
 30
0.0
 11
91.345
 21
838.191
 31
0.0
  0
LINE
  5
3B0C
330
1D
100
AcDbEntity
  8
0
100
AcDbLine
 10
92.496
 20
839.035
 30
0.0
 11
93.460537127798
 21
838.932088627642
 31
0.0
  0
LINE
  5
3B0D
330
1D
100
AcDbEntity
  8
0
100
AcDbLine
 10
93.460537127798
 20
838.932088627642
 30
0.0
 11
94.361540241319
 21
838.622219831987
 31
0.0
  0
LINE
  5
3B0E
330
1D
100
AcDbEntity
  8
0
100
AcDbLine
 10
94.630360106511
 20
838.76669447397
 30
0.0
 11
94.54
 21
838.146
 31
0.0
  0
LINE
  5
3B0F
330
1D
100
AcDbEntity
  8
0
100
AcDbLine
 10
94.361540241319
 20
838.622219831987
 30
0.0
 11
94.54
 21
838.146
 31
0.0
  0
LINE
  5
3B10
330
1D
100
AcDbEntity
  8
0
100
AcDbLine
 10
91.345
 20
838.191
 30
0.0
 11
91.189819613315
 21
839.43939146901
 31
0.0
  0
LINE
  5
3B11
330
1D
100
AcDbEntity
  8
0
100
AcDbLine
 10
92.496
 20
839.035
 30
0.0
 11
91.345
 21
838.191
 31
0.0
  0
LINE
  5
3B12
330
1D
100
AcDbEntity
  8
0
100
AcDbLine
 10
84.848695322023
 20
835.181889658653
 30
0.0
 11
86.799229807959
 21
833.879373274357
 31
0.0
  0
LINE
  5
3B13
330
1D
100
AcDbEntity
  8
0
100
AcDbLine
 10
86.799229807959
 20
833.879373274357
 30
0.0
 11
87.751227420998
 21
832.720303300251
 31
0.0
  0
LINE
  5
3B14
330
1D
100
AcDbEntity
  8
0
100
AcDbLine
 10
84.544666771116
 20
842.154191550175
 30
0.0
 11
84.723126529797
 21
841.677971718188
 31
0.0
  0
LINE
  5
3B15
330
1D
100
AcDbEntity
  8
0
100
AcDbLine
 10
84.813486636308
 20
842.298666192158
 30
0.0
 11
84.723126529797
 21
841.677971718188
 31
0.0
  0
LINE
  5
3B16
330
1D
100
AcDbEntity
  8
0
100
AcDbLine
 10
90.541
 20
852.557
 30
0.0
 11
86.54
 21
850.996
 31
0.0
  0
LINE
  5
3B17
330
1D
100
AcDbEntity
  8
0
100
AcDbLine
 10
94.943087899202
 20
846.090200412574
 30
0.0
 11
94.787907512517
 21
847.338591881584
 31
0.0
  0
LINE
  5
3B18
330
1D
100
AcDbEntity
  8
0
100
AcDbLine
 10
85.660229056331
 20
847.507489359985
 30
0.0
 11
84.509229056331
 21
846.663489359985
 31
0.0
  0
LINE
  5
3B19
330
1D
100
AcDbEntity
  8
0
100
AcDbLine
 10
84.509229056331
 20
846.663489359985
 30
0.0
 11
84.354048669646
 21
847.911880828995
 31
0.0
  0
LINE
  5
3B1A
330
1D
100
AcDbEntity
  8
0
100
AcDbLine
 10
87.52576929765
 20
847.094709191972
 30
0.0
 11
87.704229056331
 21
846.618489359984
 31
0.0
  0
LINE
  5
3B1B
330
1D
100
AcDbEntity
  8
0
100
AcDbLine
 10
87.794589162842
 20
847.239183833955
 30
0.0
 11
87.704229056331
 21
846.618489359984
 31
0.0
  0
LINE
  5
3B1C
330
1D
100
AcDbEntity
  8
0
100
AcDbLine
 10
86.624766184129
 20
847.404577987627
 30
0.0
 11
87.52576929765
 21
847.094709191972
 31
0.0
  0
LINE
  5
3B1D
330
1D
100
AcDbEntity
  8
0
100
AcDbLine
 10
85.660229056331
 20
847.507489359985
 30
0.0
 11
86.624766184129
 21
847.404577987627
 31
0.0
  0
LINE
  5
3B1E
330
1D
100
AcDbEntity
  8
0
100
AcDbLine
 10
85.866229056331
 20
845.823489359985
 30
0.0
 11
84.509229056331
 21
846.663489359985
 31
0.0
  0
LINE
  5
3B1F
330
1D
100
AcDbEntity
  8
0
100
AcDbLine
 10
87.704229056331
 20
846.618489359984
 30
0.0
 11
85.866229056331
 21
845.823489359985
 31
0.0
  0
LINE
  5
3B20
330
1D
100
AcDbEntity
  8
0
100
AcDbLine
 10
76.0
 20
837.253
 30
0.0
 11
79.165145955846
 21
836.979335116816
 31
0.0
  0
LINE
  5
3B21
330
1D
100
AcDbEntity
  8
0
100
AcDbLine
 10
79.165145955846
 20
836.979335116816
 30
0.0
 11
81.386735576456
 21
836.509275852002
 31
0.0
  0
LINE
  5
3B22
330
1D
100
AcDbEntity
  8
0
100
AcDbLine
 10
82.679126529797
 20
842.566971718188
 30
0.0
 11
81.528126529797
 21
841.722971718188
 31
0.0
  0
LINE
  5
3B23
330
1D
100
AcDbEntity
  8
0
100
AcDbLine
 10
81.528126529797
 20
841.722971718188
 30
0.0
 11
81.372946143112
 21
842.971363187198
 31
0.0
  0
LINE
  5
3B24
330
1D
100
AcDbEntity
  8
0
100
AcDbLine
 10
82.679126529797
 20
842.566971718188
 30
0.0
 11
83.643663657595
 21
842.464060345831
 31
0.0
  0
LINE
  5
3B25
330
1D
100
AcDbEntity
  8
0
100
AcDbLine
 10
82.885126529797
 20
840.882971718188
 30
0.0
 11
81.528126529797
 21
841.722971718188
 31
0.0
  0
LINE
  5
3B26
330
1D
100
AcDbEntity
  8
0
100
AcDbLine
 10
78.916
 20
849.775
 30
0.0
 11
76.0
 21
849.707
 31
0.0
  0
LINE
  5
3B27
330
1D
100
AcDbEntity
  8
0
100
AcDbLine
 10
77.712077842938
 20
854.786454335593
 30
0.0
 11
75.824077842938
 21
854.565454335593
 31
0.0
  0
LINE
  5
3B28
330
1D
100
AcDbEntity
  8
0
100
AcDbLine
 10
81.412
 20
849.864
 30
0.0
 11
78.916
 21
849.775
 31
0.0
  0
LINE
  5
3B29
330
1D
100
AcDbEntity
  8
0
100
AcDbLine
 10
79.161077842938
 20
855.454454335593
 30
0.0
 11
77.712077842938
 21
854.786454335593
 31
0.0
  0
LINE
  5
3B2A
330
1D
100
AcDbEntity
  8
0
100
AcDbLine
 10
97.168
 20
873.627
 30
0.0
 11
95.535
 21
874.812
 31
0.0
  0
LINE
  5
3B2B
330
1D
100
AcDbEntity
  8
0
100
AcDbLine
 10
97.244141162309
 20
890.72587146836
 30
0.0
 11
95.406141162309
 21
889.93087146836
 31
0.0
  0
LINE
  5
3B2C
330
1D
100
AcDbEntity
  8
0
100
AcDbLine
 10
95.200141162309
 20
891.61487146836
 30
0.0
 11
96.164678290107
 21
891.511960096002
 31
0.0
  0
LINE
  5
3B2D
330
1D
100
AcDbEntity
  8
0
100
AcDbLine
 10
97.244141162309
 20
881.43859052031
 30
0.0
 11
95.406141162309
 21
880.64359052031
 31
0.0
  0
LINE
  5
3B2E
330
1D
100
AcDbEntity
  8
0
100
AcDbLine
 10
95.200141162309
 20
882.32759052031
 30
0.0
 11
96.164678290107
 21
882.224679147953
 31
0.0
  0
LINE
  5
3B2F
330
1D
100
AcDbEntity
  8
0
100
AcDbLine
 10
116.135885479604
 20
867.149838203654
 30
0.0
 11
114.778885479604
 21
867.989838203654
 31
0.0
  0
LINE
  5
3B30
330
1D
100
AcDbEntity
  8
0
100
AcDbLine
 10
117.973885479604
 20
867.944838203654
 30
0.0
 11
116.135885479604
 21
867.149838203654
 31
0.0
  0
LINE
  5
3B31
330
1D
100
AcDbEntity
  8
0
100
AcDbLine
 10
114.553992005819
 20
858.629294939748
 30
0.0
 11
113.402992005819
 21
857.785294939748
 31
0.0
  0
LINE
  5
3B32
330
1D
100
AcDbEntity
  8
0
100
AcDbLine
 10
113.402992005819
 20
857.785294939748
 30
0.0
 11
113.247811619134
 21
859.033686408758
 31
0.0
  0
LINE
  5
3B33
330
1D
100
AcDbEntity
  8
0
100
AcDbLine
 10
116.419532247138
 20
858.216514771735
 30
0.0
 11
116.597992005819
 21
857.740294939748
 31
0.0
  0
LINE
  5
3B34
330
1D
100
AcDbEntity
  8
0
100
AcDbLine
 10
116.68835211233
 20
858.360989413718
 30
0.0
 11
116.597992005819
 21
857.740294939748
 31
0.0
  0
LINE
  5
3B35
330
1D
100
AcDbEntity
  8
0
100
AcDbLine
 10
115.518529133617
 20
858.52638356739
 30
0.0
 11
116.419532247138
 21
858.216514771735
 31
0.0
  0
LINE
  5
3B36
330
1D
100
AcDbEntity
  8
0
100
AcDbLine
 10
114.553992005819
 20
858.629294939748
 30
0.0
 11
115.518529133617
 21
858.52638356739
 31
0.0
  0
LINE
  5
3B37
330
1D
100
AcDbEntity
  8
0
100
AcDbLine
 10
114.759992005819
 20
856.945294939748
 30
0.0
 11
113.402992005819
 21
857.785294939748
 31
0.0
  0
LINE
  5
3B38
330
1D
100
AcDbEntity
  8
0
100
AcDbLine
 10
116.597992005819
 20
857.740294939748
 30
0.0
 11
114.759992005819
 21
856.945294939748
 31
0.0
  0
LINE
  5
3B39
330
1D
100
AcDbEntity
  8
0
100
AcDbLine
 10
115.929885479604
 20
868.833838203654
 30
0.0
 11
114.778885479604
 21
867.989838203654
 31
0.0
  0
LINE
  5
3B3A
330
1D
100
AcDbEntity
  8
0
100
AcDbLine
 10
114.778885479604
 20
867.989838203654
 30
0.0
 11
114.623705092919
 21
869.238229672665
 31
0.0
  0
LINE
  5
3B3B
330
1D
100
AcDbEntity
  8
0
100
AcDbLine
 10
117.795425720923
 20
868.421058035642
 30
0.0
 11
117.973885479604
 21
867.944838203654
 31
0.0
  0
LINE
  5
3B3C
330
1D
100
AcDbEntity
  8
0
100
AcDbLine
 10
118.064245586115
 20
868.565532677624
 30
0.0
 11
117.973885479604
 21
867.944838203654
 31
0.0
  0
LINE
  5
3B3D
330
1D
100
AcDbEntity
  8
0
100
AcDbLine
 10
116.894422607402
 20
868.730926831297
 30
0.0
 11
117.795425720923
 21
868.421058035642
 31
0.0
  0
LINE
  5
3B3E
330
1D
100
AcDbEntity
  8
0
100
AcDbLine
 10
115.929885479604
 20
868.833838203654
 30
0.0
 11
116.894422607402
 21
868.730926831297
 31
0.0
  0
LINE
  5
3B3F
330
1D
100
AcDbEntity
  8
0
100
AcDbLine
 10
110.540969373946
 20
875.369332204134
 30
0.0
 11
109.389969373946
 21
874.525332204134
 31
0.0
  0
LINE
  5
3B40
330
1D
100
AcDbEntity
  8
0
100
AcDbLine
 10
109.389969373946
 20
874.525332204134
 30
0.0
 11
109.234788987261
 21
875.773723673144
 31
0.0
  0
LINE
  5
3B41
330
1D
100
AcDbEntity
  8
0
100
AcDbLine
 10
112.406509615265
 20
874.956552036121
 30
0.0
 11
112.584969373946
 21
874.480332204134
 31
0.0
  0
LINE
  5
3B42
330
1D
100
AcDbEntity
  8
0
100
AcDbLine
 10
112.675329480457
 20
875.101026678104
 30
0.0
 11
112.584969373946
 21
874.480332204134
 31
0.0
  0
LINE
  5
3B43
330
1D
100
AcDbEntity
  8
0
100
AcDbLine
 10
111.505506501744
 20
875.266420831776
 30
0.0
 11
112.406509615265
 21
874.956552036121
 31
0.0
  0
LINE
  5
3B44
330
1D
100
AcDbEntity
  8
0
100
AcDbLine
 10
110.540969373946
 20
875.369332204134
 30
0.0
 11
111.505506501744
 21
875.266420831776
 31
0.0
  0
LINE
  5
3B45
330
1D
100
AcDbEntity
  8
0
100
AcDbLine
 10
110.746969373946
 20
873.685332204134
 30
0.0
 11
109.389969373946
 21
874.525332204134
 31
0.0
  0
LINE
  5
3B46
330
1D
100
AcDbEntity
  8
0
100
AcDbLine
 10
112.584969373946
 20
874.480332204134
 30
0.0
 11
110.746969373946
 21
873.685332204134
 31
0.0
  0
LINE
  5
3B47
330
1D
100
AcDbEntity
  8
0
100
AcDbLine
 10
100.621
 20
865.255
 30
0.0
 11
100.358
 21
868.009
 31
0.0
  0
LINE
  5
3B48
330
1D
100
AcDbEntity
  8
0
100
AcDbLine
 10
104.230368847251
 20
866.728602519351
 30
0.0
 11
104.075188460566
 21
867.976993988361
 31
0.0
  0
LINE
  5
3B49
330
1D
100
AcDbEntity
  8
0
100
AcDbLine
 10
103.635295418902
 20
859.087926097676
 30
0.0
 11
102.484295418902
 21
858.243926097676
 31
0.0
  0
LINE
  5
3B4A
330
1D
100
AcDbEntity
  8
0
100
AcDbLine
 10
102.484295418902
 20
858.243926097676
 30
0.0
 11
102.329115032217
 21
859.492317566686
 31
0.0
  0
LINE
  5
3B4B
330
1D
100
AcDbEntity
  8
0
100
AcDbLine
 10
105.50083566022
 20
858.675145929664
 30
0.0
 11
105.679295418902
 21
858.198926097676
 31
0.0
  0
LINE
  5
3B4C
330
1D
100
AcDbEntity
  8
0
100
AcDbLine
 10
105.769655525413
 20
858.819620571646
 30
0.0
 11
105.679295418902
 21
858.198926097676
 31
0.0
  0
LINE
  5
3B4D
330
1D
100
AcDbEntity
  8
0
100
AcDbLine
 10
104.599832546699
 20
858.985014725319
 30
0.0
 11
105.50083566022
 21
858.675145929664
 31
0.0
  0
LINE
  5
3B4E
330
1D
100
AcDbEntity
  8
0
100
AcDbLine
 10
103.635295418902
 20
859.087926097676
 30
0.0
 11
104.599832546699
 21
858.985014725319
 31
0.0
  0
LINE
  5
3B4F
330
1D
100
AcDbEntity
  8
0
100
AcDbLine
 10
103.841295418902
 20
857.403926097676
 30
0.0
 11
102.484295418902
 21
858.243926097676
 31
0.0
  0
LINE
  5
3B50
330
1D
100
AcDbEntity
  8
0
100
AcDbLine
 10
105.679295418902
 20
858.198926097676
 30
0.0
 11
103.841295418902
 21
857.403926097676
 31
0.0
  0
LINE
  5
3B51
330
1D
100
AcDbEntity
  8
0
100
AcDbLine
 10
105.381368847252
 20
867.572602519351
 30
0.0
 11
104.230368847251
 21
866.728602519351
 31
0.0
  0
LINE
  5
3B52
330
1D
100
AcDbEntity
  8
0
100
AcDbLine
 10
105.587368847251
 20
865.888602519351
 30
0.0
 11
104.230368847251
 21
866.728602519351
 31
0.0
  0
LINE
  5
3B53
330
1D
100
AcDbEntity
  8
0
100
AcDbLine
 10
107.24690908857
 20
867.159822351338
 30
0.0
 11
107.425368847251
 21
866.683602519351
 31
0.0
  0
LINE
  5
3B54
330
1D
100
AcDbEntity
  8
0
100
AcDbLine
 10
107.515728953763
 20
867.304296993321
 30
0.0
 11
107.425368847251
 21
866.683602519351
 31
0.0
  0
LINE
  5
3B55
330
1D
100
AcDbEntity
  8
0
100
AcDbLine
 10
106.345905975049
 20
867.469691146994
 30
0.0
 11
107.24690908857
 21
867.159822351338
 31
0.0
  0
LINE
  5
3B56
330
1D
100
AcDbEntity
  8
0
100
AcDbLine
 10
105.381368847252
 20
867.572602519351
 30
0.0
 11
106.345905975049
 21
867.469691146994
 31
0.0
  0
LINE
  5
3B57
330
1D
100
AcDbEntity
  8
0
100
AcDbLine
 10
107.425368847251
 20
866.683602519351
 30
0.0
 11
105.587368847251
 21
865.888602519351
 31
0.0
  0
LINE
  5
3B58
330
1D
100
AcDbEntity
  8
0
100
AcDbLine
 10
102.914869662679
 20
864.32911234273
 30
0.0
 11
102.913590428823
 21
864.2404797113
 31
0.0
  0
LINE
  5
3B59
330
1D
100
AcDbEntity
  8
0
100
AcDbLine
 10
100.493
 20
863.142
 30
0.0
 11
99.798
 21
860.959
 31
0.0
  0
LINE
  5
3B5A
330
1D
100
AcDbEntity
  8
0
100
AcDbLine
 10
99.798
 20
860.959
 30
0.0
 11
98.63
 21
858.946
 31
0.0
  0
LINE
  5
3B5B
330
1D
100
AcDbEntity
  8
0
100
AcDbLine
 10
98.63
 20
858.946
 30
0.0
 11
96.203
 21
856.022
 31
0.0
  0
LINE
  5
3B5C
330
1D
100
AcDbEntity
  8
0
100
AcDbLine
 10
100.621
 20
865.255
 30
0.0
 11
100.493
 21
863.142
 31
0.0
  0
LINE
  5
3B5D
330
1D
100
AcDbEntity
  8
0
100
AcDbLine
 10
100.358
 20
868.009
 30
0.0
 11
99.848
 21
869.705
 31
0.0
  0
LINE
  5
3B5E
330
1D
100
AcDbEntity
  8
0
100
AcDbLine
 10
99.848
 20
869.705
 30
0.0
 11
99.051
 21
871.012
 31
0.0
  0
LINE
  5
3B5F
330
1D
100
AcDbEntity
  8
0
100
AcDbLine
 10
99.051
 20
871.012
 30
0.0
 11
97.168
 21
873.627
 31
0.0
  0
LINE
  5
3B60
330
1D
100
AcDbEntity
  8
0
100
AcDbLine
 10
107.559866847411
 20
893.141289573858
 30
0.0
 11
108.524403975209
 21
893.038378201501
 31
0.0
  0
LINE
  5
3B61
330
1D
100
AcDbEntity
  8
0
100
AcDbLine
 10
109.603866847411
 20
892.252289573858
 30
0.0
 11
107.765866847411
 21
891.457289573859
 31
0.0
  0
LINE
  5
3B62
330
1D
100
AcDbEntity
  8
0
100
AcDbLine
 10
114.210018637373
 20
884.885928731148
 30
0.0
 11
113.059018637373
 21
884.041928731148
 31
0.0
  0
LINE
  5
3B63
330
1D
100
AcDbEntity
  8
0
100
AcDbLine
 10
113.059018637373
 20
884.041928731148
 30
0.0
 11
112.903838250688
 21
885.290320200158
 31
0.0
  0
LINE
  5
3B64
330
1D
100
AcDbEntity
  8
0
100
AcDbLine
 10
116.075558878692
 20
884.473148563135
 30
0.0
 11
116.254018637373
 21
883.996928731148
 31
0.0
  0
LINE
  5
3B65
330
1D
100
AcDbEntity
  8
0
100
AcDbLine
 10
116.344378743884
 20
884.617623205118
 30
0.0
 11
116.254018637373
 21
883.996928731148
 31
0.0
  0
LINE
  5
3B66
330
1D
100
AcDbEntity
  8
0
100
AcDbLine
 10
115.174555765171
 20
884.78301735879
 30
0.0
 11
116.075558878692
 21
884.473148563135
 31
0.0
  0
LINE
  5
3B67
330
1D
100
AcDbEntity
  8
0
100
AcDbLine
 10
114.210018637373
 20
884.885928731148
 30
0.0
 11
115.174555765171
 21
884.78301735879
 31
0.0
  0
LINE
  5
3B68
330
1D
100
AcDbEntity
  8
0
100
AcDbLine
 10
114.416018637373
 20
883.201928731148
 30
0.0
 11
113.059018637373
 21
884.041928731148
 31
0.0
  0
LINE
  5
3B69
330
1D
100
AcDbEntity
  8
0
100
AcDbLine
 10
116.254018637373
 20
883.996928731148
 30
0.0
 11
114.416018637373
 21
883.201928731148
 31
0.0
  0
LINE
  5
3B6A
330
1D
100
AcDbEntity
  8
0
100
AcDbLine
 10
119.025645795621
 20
894.631840837126
 30
0.0
 11
117.874645795621
 21
893.787840837126
 31
0.0
  0
LINE
  5
3B6B
330
1D
100
AcDbEntity
  8
0
100
AcDbLine
 10
117.874645795621
 20
893.787840837126
 30
0.0
 11
117.719465408936
 21
895.036232306136
 31
0.0
  0
LINE
  5
3B6C
330
1D
100
AcDbEntity
  8
0
100
AcDbLine
 10
119.231645795621
 20
892.947840837126
 30
0.0
 11
117.874645795621
 21
893.787840837126
 31
0.0
  0
LINE
  5
3B6D
330
1D
100
AcDbEntity
  8
0
100
AcDbLine
 10
111.687547268767
 20
900.823361469159
 30
0.0
 11
110.536547268767
 21
899.979361469159
 31
0.0
  0
LINE
  5
3B6E
330
1D
100
AcDbEntity
  8
0
100
AcDbLine
 10
110.536547268767
 20
899.979361469159
 30
0.0
 11
110.381366882082
 21
901.227752938169
 31
0.0
  0
LINE
  5
3B6F
330
1D
100
AcDbEntity
  8
0
100
AcDbLine
 10
113.553087510086
 20
900.410581301146
 30
0.0
 11
113.731547268767
 21
899.934361469159
 31
0.0
  0
LINE
  5
3B70
330
1D
100
AcDbEntity
  8
0
100
AcDbLine
 10
113.821907375278
 20
900.555055943129
 30
0.0
 11
113.731547268767
 21
899.934361469159
 31
0.0
  0
LINE
  5
3B71
330
1D
100
AcDbEntity
  8
0
100
AcDbLine
 10
112.652084396565
 20
900.720450096801
 30
0.0
 11
113.553087510086
 21
900.410581301146
 31
0.0
  0
LINE
  5
3B72
330
1D
100
AcDbEntity
  8
0
100
AcDbLine
 10
111.687547268767
 20
900.823361469159
 30
0.0
 11
112.652084396565
 21
900.720450096801
 31
0.0
  0
LINE
  5
3B73
330
1D
100
AcDbEntity
  8
0
100
AcDbLine
 10
111.893547268767
 20
899.139361469159
 30
0.0
 11
110.536547268767
 21
899.979361469159
 31
0.0
  0
LINE
  5
3B74
330
1D
100
AcDbEntity
  8
0
100
AcDbLine
 10
113.731547268767
 20
899.934361469159
 30
0.0
 11
111.893547268767
 21
899.139361469159
 31
0.0
  0
LINE
  5
3B75
330
1D
100
AcDbEntity
  8
0
100
AcDbLine
 10
109.42540708873
 20
892.728509405846
 30
0.0
 11
109.603866847411
 21
892.252289573858
 31
0.0
  0
LINE
  5
3B76
330
1D
100
AcDbEntity
  8
0
100
AcDbLine
 10
109.694226953922
 20
892.872984047829
 30
0.0
 11
109.603866847411
 21
892.252289573858
 31
0.0
  0
LINE
  5
3B77
330
1D
100
AcDbEntity
  8
0
100
AcDbLine
 10
108.524403975209
 20
893.038378201501
 30
0.0
 11
109.42540708873
 21
892.728509405846
 31
0.0
  0
LINE
  5
3B78
330
1D
100
AcDbEntity
  8
0
100
AcDbLine
 10
107.765866847411
 20
891.457289573859
 30
0.0
 11
106.408866847411
 21
892.297289573858
 31
0.0
  0
LINE
  5
3B79
330
1D
100
AcDbEntity
  8
0
100
AcDbLine
 10
103.635295418902
 20
884.197981994255
 30
0.0
 11
102.484295418902
 21
883.353981994255
 31
0.0
  0
LINE
  5
3B7A
330
1D
100
AcDbEntity
  8
0
100
AcDbLine
 10
102.484295418902
 20
883.353981994255
 30
0.0
 11
102.329115032217
 21
884.602373463265
 31
0.0
  0
LINE
  5
3B7B
330
1D
100
AcDbEntity
  8
0
100
AcDbLine
 10
105.50083566022
 20
883.785201826242
 30
0.0
 11
105.679295418902
 21
883.308981994255
 31
0.0
  0
LINE
  5
3B7C
330
1D
100
AcDbEntity
  8
0
100
AcDbLine
 10
105.769655525413
 20
883.929676468225
 30
0.0
 11
105.679295418902
 21
883.308981994255
 31
0.0
  0
LINE
  5
3B7D
330
1D
100
AcDbEntity
  8
0
100
AcDbLine
 10
104.599832546699
 20
884.095070621898
 30
0.0
 11
105.50083566022
 21
883.785201826242
 31
0.0
  0
LINE
  5
3B7E
330
1D
100
AcDbEntity
  8
0
100
AcDbLine
 10
103.635295418902
 20
884.197981994255
 30
0.0
 11
104.599832546699
 21
884.095070621898
 31
0.0
  0
LINE
  5
3B7F
330
1D
100
AcDbEntity
  8
0
100
AcDbLine
 10
103.841295418902
 20
882.513981994255
 30
0.0
 11
102.484295418902
 21
883.353981994255
 31
0.0
  0
LINE
  5
3B80
330
1D
100
AcDbEntity
  8
0
100
AcDbLine
 10
105.679295418902
 20
883.308981994255
 30
0.0
 11
103.841295418902
 21
882.513981994255
 31
0.0
  0
LINE
  5
3B81
330
1D
100
AcDbEntity
  8
0
100
AcDbLine
 10
96.164678290107
 20
891.511960096002
 30
0.0
 11
97.065681403628
 21
891.202091300347
 31
0.0
  0
LINE
  5
3B82
330
1D
100
AcDbEntity
  8
0
100
AcDbLine
 10
97.33450126882
 20
891.34656594233
 30
0.0
 11
97.244141162309
 21
890.72587146836
 31
0.0
  0
LINE
  5
3B83
330
1D
100
AcDbEntity
  8
0
100
AcDbLine
 10
97.065681403628
 20
891.202091300347
 30
0.0
 11
97.244141162309
 21
890.72587146836
 31
0.0
  0
LINE
  5
3B84
330
1D
100
AcDbEntity
  8
0
100
AcDbLine
 10
96.164678290107
 20
882.224679147953
 30
0.0
 11
97.065681403628
 21
881.914810352297
 31
0.0
  0
LINE
  5
3B85
330
1D
100
AcDbEntity
  8
0
100
AcDbLine
 10
97.33450126882
 20
882.05928499428
 30
0.0
 11
97.244141162309
 21
881.43859052031
 31
0.0
  0
LINE
  5
3B86
330
1D
100
AcDbEntity
  8
0
100
AcDbLine
 10
97.065681403628
 20
881.914810352297
 30
0.0
 11
97.244141162309
 21
881.43859052031
 31
0.0
  0
LINE
  5
3B87
330
1D
100
AcDbEntity
  8
0
100
AcDbLine
 10
107.559866847411
 20
893.141289573858
 30
0.0
 11
106.408866847411
 21
892.297289573858
 31
0.0
  0
LINE
  5
3B88
330
1D
100
AcDbEntity
  8
0
100
AcDbLine
 10
106.408866847411
 20
892.297289573858
 30
0.0
 11
106.253686460726
 21
893.545681042869
 31
0.0
  0
LINE
  5
3B89
330
1D
100
AcDbEntity
  8
0
100
AcDbLine
 10
97.355323583505
 20
898.874179047963
 30
0.0
 11
96.204323583505
 21
898.030179047963
 31
0.0
  0
LINE
  5
3B8A
330
1D
100
AcDbEntity
  8
0
100
AcDbLine
 10
96.204323583505
 20
898.030179047963
 30
0.0
 11
96.04914319682
 21
899.278570516973
 31
0.0
  0
LINE
  5
3B8B
330
1D
100
AcDbEntity
  8
0
100
AcDbLine
 10
99.220863824824
 20
898.461398879951
 30
0.0
 11
99.399323583505
 21
897.985179047963
 31
0.0
  0
LINE
  5
3B8C
330
1D
100
AcDbEntity
  8
0
100
AcDbLine
 10
99.489683690016
 20
898.605873521933
 30
0.0
 11
99.399323583505
 21
897.985179047963
 31
0.0
  0
LINE
  5
3B8D
330
1D
100
AcDbEntity
  8
0
100
AcDbLine
 10
98.319860711303
 20
898.771267675606
 30
0.0
 11
99.220863824824
 21
898.461398879951
 31
0.0
  0
LINE
  5
3B8E
330
1D
100
AcDbEntity
  8
0
100
AcDbLine
 10
97.355323583505
 20
898.874179047963
 30
0.0
 11
98.319860711303
 21
898.771267675606
 31
0.0
  0
LINE
  5
3B8F
330
1D
100
AcDbEntity
  8
0
100
AcDbLine
 10
97.561323583505
 20
897.190179047963
 30
0.0
 11
96.204323583505
 21
898.030179047963
 31
0.0
  0
LINE
  5
3B90
330
1D
100
AcDbEntity
  8
0
100
AcDbLine
 10
99.399323583505
 20
897.985179047963
 30
0.0
 11
97.561323583505
 21
897.190179047963
 31
0.0
  0
LINE
  5
3B91
330
1D
100
AcDbEntity
  8
0
100
AcDbLine
 10
85.629
 20
879.865
 30
0.0
 11
80.094
 21
880.931
 31
0.0
  0
LINE
  5
3B92
330
1D
100
AcDbEntity
  8
0
100
AcDbLine
 10
84.48173113483
 20
876.458967320339
 30
0.0
 11
82.64973113483
 21
876.204967320339
 31
0.0
  0
LINE
  5
3B93
330
1D
100
AcDbEntity
  8
0
100
AcDbLine
 10
84.18273113483
 20
871.700967320339
 30
0.0
 11
82.35673113483
 21
871.977967320339
 31
0.0
  0
LINE
  5
3B94
330
1D
100
AcDbEntity
  8
0
100
AcDbLine
 10
91.407
 20
860.123
 30
0.0
 11
89.581
 21
860.4
 31
0.0
  0
LINE
  5
3B95
330
1D
100
AcDbEntity
  8
0
100
AcDbLine
 10
89.874
 20
864.627
 30
0.0
 11
88.632
 21
864.059
 31
0.0
  0
LINE
  5
3B96
330
1D
100
AcDbEntity
  8
0
100
AcDbLine
 10
95.628
 20
862.116
 30
0.0
 11
94.744
 21
861.012
 31
0.0
  0
LINE
  5
3B97
330
1D
100
AcDbEntity
  8
0
100
AcDbLine
 10
93.295
 20
860.344
 30
0.0
 11
91.407
 21
860.123
 31
0.0
  0
LINE
  5
3B98
330
1D
100
AcDbEntity
  8
0
100
AcDbLine
 10
94.744
 20
861.012
 30
0.0
 11
93.295
 21
860.344
 31
0.0
  0
LINE
  5
3B99
330
1D
100
AcDbEntity
  8
0
100
AcDbLine
 10
95.628
 20
862.116
 30
0.0
 11
95.460818418452
 21
863.25245906558
 31
0.0
  0
LINE
  5
3B9A
330
1D
100
AcDbEntity
  8
0
100
AcDbLine
 10
94.399
 20
864.347
 30
0.0
 11
93.476
 21
864.699
 31
0.0
  0
LINE
  5
3B9B
330
1D
100
AcDbEntity
  8
0
100
AcDbLine
 10
93.476
 20
864.699
 30
0.0
 11
91.706
 21
864.881
 31
0.0
  0
LINE
  5
3B9C
330
1D
100
AcDbEntity
  8
0
100
AcDbLine
 10
95.460818418452
 20
863.25245906558
 30
0.0
 11
94.399
 21
864.347
 31
0.0
  0
LINE
  5
3B9D
330
1D
100
AcDbEntity
  8
0
100
AcDbLine
 10
91.706
 20
864.881
 30
0.0
 11
89.874
 21
864.627
 31
0.0
  0
LINE
  5
3B9E
330
1D
100
AcDbEntity
  8
0
100
AcDbLine
 10
88.162
 20
861.173
 30
0.0
 11
87.477570959631
 21
862.16578811337
 31
0.0
  0
LINE
  5
3B9F
330
1D
100
AcDbEntity
  8
0
100
AcDbLine
 10
89.581
 20
860.4
 30
0.0
 11
88.162
 21
861.173
 31
0.0
  0
LINE
  5
3BA0
330
1D
100
AcDbEntity
  8
0
100
AcDbLine
 10
88.632
 20
864.059
 30
0.0
 11
87.706973194643
 21
863.115169354934
 31
0.0
  0
LINE
  5
3BA1
330
1D
100
AcDbEntity
  8
0
100
AcDbLine
 10
87.706973194643
 20
863.115169354934
 30
0.0
 11
87.477570959631
 21
862.16578811337
 31
0.0
  0
LINE
  5
3BA2
330
1D
100
AcDbEntity
  8
0
100
AcDbLine
 10
89.803
 20
878.433
 30
0.0
 11
85.629
 21
879.865
 31
0.0
  0
LINE
  5
3BA3
330
1D
100
AcDbEntity
  8
0
100
AcDbLine
 10
95.535
 20
874.812
 30
0.0
 11
92.807
 21
876.889
 31
0.0
  0
LINE
  5
3BA4
330
1D
100
AcDbEntity
  8
0
100
AcDbLine
 10
92.807
 20
876.889
 30
0.0
 11
89.803
 21
878.433
 31
0.0
  0
LINE
  5
3BA5
330
1D
100
AcDbEntity
  8
0
100
AcDbLine
 10
88.40373113483
 20
873.693967320339
 30
0.0
 11
88.236549553282
 21
874.830426385919
 31
0.0
  0
LINE
  5
3BA6
330
1D
100
AcDbEntity
  8
0
100
AcDbLine
 10
87.51973113483
 20
872.589967320339
 30
0.0
 11
86.07073113483
 21
871.921967320339
 31
0.0
  0
LINE
  5
3BA7
330
1D
100
AcDbEntity
  8
0
100
AcDbLine
 10
86.07073113483
 20
871.921967320339
 30
0.0
 11
84.18273113483
 21
871.700967320339
 31
0.0
  0
LINE
  5
3BA8
330
1D
100
AcDbEntity
  8
0
100
AcDbLine
 10
88.40373113483
 20
873.693967320339
 30
0.0
 11
87.51973113483
 21
872.589967320339
 31
0.0
  0
LINE
  5
3BA9
330
1D
100
AcDbEntity
  8
0
100
AcDbLine
 10
88.236549553282
 20
874.830426385919
 30
0.0
 11
87.17473113483
 21
875.924967320339
 31
0.0
  0
LINE
  5
3BAA
330
1D
100
AcDbEntity
  8
0
100
AcDbLine
 10
86.25173113483
 20
876.276967320339
 30
0.0
 11
84.48173113483
 21
876.458967320339
 31
0.0
  0
LINE
  5
3BAB
330
1D
100
AcDbEntity
  8
0
100
AcDbLine
 10
87.17473113483
 20
875.924967320339
 30
0.0
 11
86.25173113483
 21
876.276967320339
 31
0.0
  0
LINE
  5
3BAC
330
1D
100
AcDbEntity
  8
0
100
AcDbLine
 10
79.87789626139
 20
857.694913401173
 30
0.0
 11
78.816077842938
 21
858.789454335593
 31
0.0
  0
LINE
  5
3BAD
330
1D
100
AcDbEntity
  8
0
100
AcDbLine
 10
77.893077842938
 20
859.141454335593
 30
0.0
 11
76.123077842938
 21
859.323454335593
 31
0.0
  0
LINE
  5
3BAE
330
1D
100
AcDbEntity
  8
0
100
AcDbLine
 10
78.816077842938
 20
858.789454335593
 30
0.0
 11
77.893077842938
 21
859.141454335593
 31
0.0
  0
LINE
  5
3BAF
330
1D
100
AcDbEntity
  8
0
100
AcDbLine
 10
80.045077842938
 20
856.558454335593
 30
0.0
 11
79.87789626139
 21
857.694913401173
 31
0.0
  0
LINE
  5
3BB0
330
1D
100
AcDbEntity
  8
0
100
AcDbLine
 10
80.482704329473
 20
874.693136675273
 30
0.0
 11
80.253302094461
 21
873.743755433709
 31
0.0
  0
LINE
  5
3BB1
330
1D
100
AcDbEntity
  8
0
100
AcDbLine
 10
81.40773113483
 20
875.636967320339
 30
0.0
 11
80.482704329473
 21
874.693136675273
 31
0.0
  0
LINE
  5
3BB2
330
1D
100
AcDbEntity
  8
0
100
AcDbLine
 10
82.35673113483
 20
871.977967320339
 30
0.0
 11
80.93773113483
 21
872.750967320339
 31
0.0
  0
LINE
  5
3BB3
330
1D
100
AcDbEntity
  8
0
100
AcDbLine
 10
80.93773113483
 20
872.750967320339
 30
0.0
 11
80.253302094461
 21
873.743755433709
 31
0.0
  0
LINE
  5
3BB4
330
1D
100
AcDbEntity
  8
0
100
AcDbLine
 10
82.64973113483
 20
876.204967320339
 30
0.0
 11
81.40773113483
 21
875.636967320339
 31
0.0
  0
LINE
  5
3BB5
330
1D
100
AcDbEntity
  8
0
100
AcDbLine
 10
84.284335582546
 20
882.513981994255
 30
0.0
 11
82.927335582546
 21
883.353981994255
 31
0.0
  0
LINE
  5
3BB6
330
1D
100
AcDbEntity
  8
0
100
AcDbLine
 10
84.078335582546
 20
884.197981994255
 30
0.0
 11
82.927335582546
 21
883.353981994255
 31
0.0
  0
LINE
  5
3BB7
330
1D
100
AcDbEntity
  8
0
100
AcDbLine
 10
84.398993372028
 20
902.54322831139
 30
0.0
 11
83.041993372028
 21
903.38322831139
 31
0.0
  0
LINE
  5
3BB8
330
1D
100
AcDbEntity
  8
0
100
AcDbLine
 10
95.406141162309
 20
889.93087146836
 30
0.0
 11
94.049141162309
 21
890.77087146836
 31
0.0
  0
LINE
  5
3BB9
330
1D
100
AcDbEntity
  8
0
100
AcDbLine
 10
94.049141162309
 20
890.77087146836
 30
0.0
 11
93.893960775624
 21
892.01926293737
 31
0.0
  0
LINE
  5
3BBA
330
1D
100
AcDbEntity
  8
0
100
AcDbLine
 10
95.200141162309
 20
891.61487146836
 30
0.0
 11
94.049141162309
 21
890.77087146836
 31
0.0
  0
LINE
  5
3BBB
330
1D
100
AcDbEntity
  8
0
100
AcDbLine
 10
95.406141162309
 20
880.64359052031
 30
0.0
 11
94.049141162309
 21
881.48359052031
 31
0.0
  0
LINE
  5
3BBC
330
1D
100
AcDbEntity
  8
0
100
AcDbLine
 10
94.049141162309
 20
881.48359052031
 30
0.0
 11
93.893960775624
 21
882.73198198932
 31
0.0
  0
LINE
  5
3BBD
330
1D
100
AcDbEntity
  8
0
100
AcDbLine
 10
95.200141162309
 20
882.32759052031
 30
0.0
 11
94.049141162309
 21
881.48359052031
 31
0.0
  0
LINE
  5
3BBE
330
1D
100
AcDbEntity
  8
0
100
AcDbLine
 10
86.122335582546
 20
883.308981994255
 30
0.0
 11
84.284335582546
 21
882.513981994255
 31
0.0
  0
LINE
  5
3BBF
330
1D
100
AcDbEntity
  8
0
100
AcDbLine
 10
84.078335582546
 20
884.197981994255
 30
0.0
 11
85.042872710344
 21
884.095070621898
 31
0.0
  0
LINE
  5
3BC0
330
1D
100
AcDbEntity
  8
0
100
AcDbLine
 10
85.042872710344
 20
884.095070621898
 30
0.0
 11
85.943875823865
 21
883.785201826242
 31
0.0
  0
LINE
  5
3BC1
330
1D
100
AcDbEntity
  8
0
100
AcDbLine
 10
86.212695689057
 20
883.929676468225
 30
0.0
 11
86.122335582546
 21
883.308981994255
 31
0.0
  0
LINE
  5
3BC2
330
1D
100
AcDbEntity
  8
0
100
AcDbLine
 10
85.943875823865
 20
883.785201826242
 30
0.0
 11
86.122335582546
 21
883.308981994255
 31
0.0
  0
LINE
  5
3BC3
330
1D
100
AcDbEntity
  8
0
100
AcDbLine
 10
87.154255687885
 20
894.738894100233
 30
0.0
 11
85.316255687885
 21
893.943894100233
 31
0.0
  0
LINE
  5
3BC4
330
1D
100
AcDbEntity
  8
0
100
AcDbLine
 10
85.316255687885
 20
893.943894100233
 30
0.0
 11
83.959255687885
 21
894.783894100233
 31
0.0
  0
LINE
  5
3BC5
330
1D
100
AcDbEntity
  8
0
100
AcDbLine
 10
85.110255687885
 20
895.627894100233
 30
0.0
 11
86.074792815683
 21
895.524982727876
 31
0.0
  0
LINE
  5
3BC6
330
1D
100
AcDbEntity
  8
0
100
AcDbLine
 10
86.074792815683
 20
895.524982727876
 30
0.0
 11
86.975795929204
 21
895.21511393222
 31
0.0
  0
LINE
  5
3BC7
330
1D
100
AcDbEntity
  8
0
100
AcDbLine
 10
87.244615794396
 20
895.359588574203
 30
0.0
 11
87.154255687885
 21
894.738894100233
 31
0.0
  0
LINE
  5
3BC8
330
1D
100
AcDbEntity
  8
0
100
AcDbLine
 10
86.975795929204
 20
895.21511393222
 30
0.0
 11
87.154255687885
 21
894.738894100233
 31
0.0
  0
LINE
  5
3BC9
330
1D
100
AcDbEntity
  8
0
100
AcDbLine
 10
83.959255687885
 20
894.783894100233
 30
0.0
 11
83.8040753012
 21
896.032285569243
 31
0.0
  0
LINE
  5
3BCA
330
1D
100
AcDbEntity
  8
0
100
AcDbLine
 10
85.110255687885
 20
895.627894100233
 30
0.0
 11
83.959255687885
 21
894.783894100233
 31
0.0
  0
LINE
  5
3BCB
330
1D
100
AcDbEntity
  8
0
100
AcDbLine
 10
86.236993372028
 20
903.33822831139
 30
0.0
 11
84.398993372028
 21
902.54322831139
 31
0.0
  0
LINE
  5
3BCC
330
1D
100
AcDbEntity
  8
0
100
AcDbLine
 10
86.327353478539
 20
903.95892278536
 30
0.0
 11
86.236993372028
 21
903.33822831139
 31
0.0
  0
LINE
  5
3BCD
330
1D
100
AcDbEntity
  8
0
100
AcDbLine
 10
86.058533613347
 20
903.814448143378
 30
0.0
 11
86.236993372028
 21
903.33822831139
 31
0.0
  0
LINE
  5
3BCE
330
1D
100
AcDbEntity
  8
0
100
AcDbLine
 10
80.094
 20
880.931
 30
0.0
 11
76.0
 21
881.172
 31
0.0
  0
LINE
  5
3BCF
330
1D
100
AcDbEntity
  8
0
100
AcDbLine
 10
82.927335582546
 20
883.353981994255
 30
0.0
 11
82.772155195861
 21
884.602373463265
 31
0.0
  0
LINE
  5
3BD0
330
1D
100
AcDbEntity
  8
0
100
AcDbLine
 10
123.953
 20
920.555
 30
0.0
 11
117.994
 21
923.32
 31
0.0
  0
LINE
  5
3BD1
330
1D
100
AcDbEntity
  8
0
100
AcDbLine
 10
123.322
 20
910.996
 30
0.0
 11
118.54
 21
913.314
 31
0.0
  0
LINE
  5
3BD2
330
1D
100
AcDbEntity
  8
0
100
AcDbLine
 10
120.634
 20
905.882
 30
0.0
 11
115.374
 21
908.512
 31
0.0
  0
LINE
  5
3BD3
330
1D
100
AcDbEntity
  8
0
100
AcDbLine
 10
144.141
 20
904.364
 30
0.0
 11
142.683
 21
906.275
 31
0.0
  0
LINE
  5
3BD4
330
1D
100
AcDbEntity
  8
0
100
AcDbLine
 10
134.436
 20
913.997
 30
0.0
 11
129.179
 21
917.538
 31
0.0
  0
LINE
  5
3BD5
330
1D
100
AcDbEntity
  8
0
100
AcDbLine
 10
132.132
 20
905.324
 30
0.0
 11
127.617
 21
908.45
 31
0.0
  0
LINE
  5
3BD6
330
1D
100
AcDbEntity
  8
0
100
AcDbLine
 10
142.683
 20
906.275
 30
0.0
 11
138.862
 21
910.265
 31
0.0
  0
LINE
  5
3BD7
330
1D
100
AcDbEntity
  8
0
100
AcDbLine
 10
138.862
 20
910.265
 30
0.0
 11
134.436
 21
913.997
 31
0.0
  0
LINE
  5
3BD8
330
1D
100
AcDbEntity
  8
0
100
AcDbLine
 10
129.179
 20
917.538
 30
0.0
 11
123.953
 21
920.555
 31
0.0
  0
LINE
  5
3BD9
330
1D
100
AcDbEntity
  8
0
100
AcDbLine
 10
127.617
 20
908.45
 30
0.0
 11
123.322
 21
910.996
 31
0.0
  0
LINE
  5
3BDA
330
1D
100
AcDbEntity
  8
0
100
AcDbLine
 10
97.544
 20
919.897
 30
0.0
 11
93.729
 21
920.389
 31
0.0
  0
LINE
  5
3BDB
330
1D
100
AcDbEntity
  8
0
100
AcDbLine
 10
97.831
 20
929.292
 30
0.0
 11
90.671
 21
930.413
 31
0.0
  0
LINE
  5
3BDC
330
1D
100
AcDbEntity
  8
0
100
AcDbLine
 10
97.145
 20
914.123
 30
0.0
 11
93.808
 21
914.87
 31
0.0
  0
LINE
  5
3BDD
330
1D
100
AcDbEntity
  8
0
100
AcDbLine
 10
104.781
 20
927.736
 30
0.0
 11
97.831
 21
929.292
 31
0.0
  0
LINE
  5
3BDE
330
1D
100
AcDbEntity
  8
0
100
AcDbLine
 10
111.452
 20
925.762
 30
0.0
 11
104.781
 21
927.736
 31
0.0
  0
LINE
  5
3BDF
330
1D
100
AcDbEntity
  8
0
100
AcDbLine
 10
109.723
 20
910.804
 30
0.0
 11
105.266
 21
912.287
 31
0.0
  0
LINE
  5
3BE0
330
1D
100
AcDbEntity
  8
0
100
AcDbLine
 10
108.392
 20
916.978
 30
0.0
 11
104.822
 21
918.205
 31
0.0
  0
LINE
  5
3BE1
330
1D
100
AcDbEntity
  8
0
100
AcDbLine
 10
118.54
 20
913.314
 30
0.0
 11
115.246
 21
914.532
 31
0.0
  0
LINE
  5
3BE2
330
1D
100
AcDbEntity
  8
0
100
AcDbLine
 10
117.994
 20
923.32
 30
0.0
 11
111.633
 21
925.706
 31
0.0
  0
LINE
  5
3BE3
330
1D
100
AcDbEntity
  8
0
100
AcDbLine
 10
115.374
 20
908.512
 30
0.0
 11
109.723
 21
910.804
 31
0.0
  0
LINE
  5
3BE4
330
1D
100
AcDbEntity
  8
0
100
AcDbLine
 10
115.246
 20
914.532
 30
0.0
 11
111.927
 21
915.98
 31
0.0
  0
LINE
  5
3BE5
330
1D
100
AcDbEntity
  8
0
100
AcDbLine
 10
111.927
 20
915.98
 30
0.0
 11
108.392
 21
916.978
 31
0.0
  0
LINE
  5
3BE6
330
1D
100
AcDbEntity
  8
0
100
AcDbLine
 10
111.633
 20
925.706
 30
0.0
 11
111.452
 21
925.762
 31
0.0
  0
LINE
  5
3BE7
330
1D
100
AcDbEntity
  8
0
100
AcDbLine
 10
105.266
 20
912.287
 30
0.0
 11
100.476
 21
913.598
 31
0.0
  0
LINE
  5
3BE8
330
1D
100
AcDbEntity
  8
0
100
AcDbLine
 10
103.635295418902
 20
905.409673048443
 30
0.0
 11
102.484295418902
 21
904.565673048443
 31
0.0
  0
LINE
  5
3BE9
330
1D
100
AcDbEntity
  8
0
100
AcDbLine
 10
102.484295418902
 20
904.565673048443
 30
0.0
 11
102.329115032217
 21
905.814064517453
 31
0.0
  0
LINE
  5
3BEA
330
1D
100
AcDbEntity
  8
0
100
AcDbLine
 10
105.50083566022
 20
904.99689288043
 30
0.0
 11
105.679295418902
 21
904.520673048443
 31
0.0
  0
LINE
  5
3BEB
330
1D
100
AcDbEntity
  8
0
100
AcDbLine
 10
105.769655525413
 20
905.141367522413
 30
0.0
 11
105.679295418902
 21
904.520673048443
 31
0.0
  0
LINE
  5
3BEC
330
1D
100
AcDbEntity
  8
0
100
AcDbLine
 10
104.599832546699
 20
905.306761676085
 30
0.0
 11
105.50083566022
 21
904.99689288043
 31
0.0
  0
LINE
  5
3BED
330
1D
100
AcDbEntity
  8
0
100
AcDbLine
 10
103.635295418902
 20
905.409673048443
 30
0.0
 11
104.599832546699
 21
905.306761676085
 31
0.0
  0
LINE
  5
3BEE
330
1D
100
AcDbEntity
  8
0
100
AcDbLine
 10
100.476
 20
913.598
 30
0.0
 11
97.145
 21
914.123
 31
0.0
  0
LINE
  5
3BEF
330
1D
100
AcDbEntity
  8
0
100
AcDbLine
 10
104.822
 20
918.205
 30
0.0
 11
101.203
 21
918.934
 31
0.0
  0
LINE
  5
3BF0
330
1D
100
AcDbEntity
  8
0
100
AcDbLine
 10
101.203
 20
918.934
 30
0.0
 11
97.544
 21
919.897
 31
0.0
  0
LINE
  5
3BF1
330
1D
100
AcDbEntity
  8
0
100
AcDbLine
 10
89.865
 20
921.11
 30
0.0
 11
83.137
 21
921.727
 31
0.0
  0
LINE
  5
3BF2
330
1D
100
AcDbEntity
  8
0
100
AcDbLine
 10
86.966
 20
915.814
 30
0.0
 11
76.006
 21
916.429
 31
0.0
  0
LINE
  5
3BF3
330
1D
100
AcDbEntity
  8
0
100
AcDbLine
 10
93.808
 20
914.87
 30
0.0
 11
86.966
 21
915.814
 31
0.0
  0
LINE
  5
3BF4
330
1D
100
AcDbEntity
  8
0
100
AcDbLine
 10
92.769012004221
 20
907.817486627567
 30
0.0
 11
91.618012004221
 21
906.973486627567
 31
0.0
  0
LINE
  5
3BF5
330
1D
100
AcDbEntity
  8
0
100
AcDbLine
 10
91.618012004221
 20
906.973486627567
 30
0.0
 11
91.462831617536
 21
908.221878096577
 31
0.0
  0
LINE
  5
3BF6
330
1D
100
AcDbEntity
  8
0
100
AcDbLine
 10
94.63455224554
 20
907.404706459554
 30
0.0
 11
94.813012004221
 21
906.928486627567
 31
0.0
  0
LINE
  5
3BF7
330
1D
100
AcDbEntity
  8
0
100
AcDbLine
 10
94.903372110732
 20
907.549181101537
 30
0.0
 11
94.813012004221
 21
906.928486627567
 31
0.0
  0
LINE
  5
3BF8
330
1D
100
AcDbEntity
  8
0
100
AcDbLine
 10
93.733549132019
 20
907.714575255209
 30
0.0
 11
94.63455224554
 21
907.404706459554
 31
0.0
  0
LINE
  5
3BF9
330
1D
100
AcDbEntity
  8
0
100
AcDbLine
 10
92.769012004221
 20
907.817486627567
 30
0.0
 11
93.733549132019
 21
907.714575255209
 31
0.0
  0
LINE
  5
3BFA
330
1D
100
AcDbEntity
  8
0
100
AcDbLine
 10
92.975012004221
 20
906.133486627567
 30
0.0
 11
91.618012004221
 21
906.973486627567
 31
0.0
  0
LINE
  5
3BFB
330
1D
100
AcDbEntity
  8
0
100
AcDbLine
 10
94.813012004221
 20
906.928486627567
 30
0.0
 11
92.975012004221
 21
906.133486627567
 31
0.0
  0
LINE
  5
3BFC
330
1D
100
AcDbEntity
  8
0
100
AcDbLine
 10
84.192993372028
 20
904.22722831139
 30
0.0
 11
85.157530499826
 21
904.124316939033
 31
0.0
  0
LINE
  5
3BFD
330
1D
100
AcDbEntity
  8
0
100
AcDbLine
 10
93.729
 20
920.389
 30
0.0
 11
89.865
 21
921.11
 31
0.0
  0
LINE
  5
3BFE
330
1D
100
AcDbEntity
  8
0
100
AcDbLine
 10
83.137
 20
921.727
 30
0.0
 11
76.178
 21
921.767
 31
0.0
  0
LINE
  5
3BFF
330
1D
100
AcDbEntity
  8
0
100
AcDbLine
 10
83.137
 20
921.727
 30
0.0
 11
76.0
 21
921.767
 31
0.0
  0
LINE
  5
3C00
330
1D
100
AcDbEntity
  8
0
100
AcDbLine
 10
76.178
 20
921.767
 30
0.0
 11
76.0
 21
921.767
 31
0.0
  0
LINE
  5
3C01
330
1D
100
AcDbEntity
  8
0
100
AcDbLine
 10
76.0
 20
921.767
 30
0.0
 11
75.822
 21
921.767
 31
0.0
  0
LINE
  5
3C02
330
1D
100
AcDbEntity
  8
0
100
AcDbLine
 10
90.671
 20
930.413
 30
0.0
 11
83.37
 21
931.093
 31
0.0
  0
LINE
  5
3C03
330
1D
100
AcDbEntity
  8
0
100
AcDbLine
 10
83.37
 20
931.093
 30
0.0
 11
76.0
 21
931.301
 31
0.0
  0
LINE
  5
3C04
330
1D
100
AcDbEntity
  8
0
100
AcDbLine
 10
84.443
 20
741.856
 30
0.0
 11
81.967
 21
740.844
 31
0.0
  0
LINE
  5
3C05
330
1D
100
AcDbEntity
  8
0
100
AcDbLine
 10
91.755
 20
750.589
 30
0.0
 11
90.797
 21
742.617
 31
0.0
  0
LINE
  5
3C06
330
1D
100
AcDbEntity
  8
0
100
AcDbLine
 10
91.444818767697
 20
750.73757772777
 30
0.0
 11
90.042
 21
746.434
 31
0.0
  0
LINE
  5
3C07
330
1D
100
AcDbEntity
  8
0
100
AcDbLine
 10
90.797
 20
742.617
 30
0.0
 11
90.532
 21
741.392
 31
0.0
  0
LINE
  5
3C08
330
1D
100
AcDbEntity
  8
0
100
AcDbLine
 10
90.532
 20
741.392
 30
0.0
 11
90.315
 21
740.467
 31
0.0
  0
LINE
  5
3C09
330
1D
100
AcDbEntity
  8
0
100
AcDbLine
 10
90.042
 20
746.434
 30
0.0
 11
87.203
 21
743.531
 31
0.0
  0
LINE
  5
3C0A
330
1D
100
AcDbEntity
  8
0
100
AcDbLine
 10
87.203
 20
743.531
 30
0.0
 11
84.443
 21
741.856
 31
0.0
  0
LINE
  5
3C0B
330
1D
100
AcDbEntity
  8
0
100
AcDbLine
 10
92.087
 20
754.429
 30
0.0
 11
91.98
 21
753.213
 31
0.0
  0
LINE
  5
3C0C
330
1D
100
AcDbEntity
  8
0
100
AcDbLine
 10
91.98
 20
753.213
 30
0.0
 11
91.877
 21
751.868
 31
0.0
  0
LINE
  5
3C0D
330
1D
100
AcDbEntity
  8
0
100
AcDbLine
 10
91.877
 20
751.868
 30
0.0
 11
91.755
 21
750.589
 31
0.0
  0
LINE
  5
3C0E
330
1D
100
AcDbEntity
  8
0
100
AcDbLine
 10
93.177
 20
766.613
 30
0.0
 11
92.34
 21
756.94
 31
0.0
  0
LINE
  5
3C0F
330
1D
100
AcDbEntity
  8
0
100
AcDbLine
 10
92.34
 20
756.94
 30
0.0
 11
92.087
 21
754.429
 31
0.0
  0
LINE
  5
3C10
330
1D
100
AcDbEntity
  8
0
100
AcDbLine
 10
94.451
 20
788.279
 30
0.0
 11
94.24
 21
783.518
 31
0.0
  0
LINE
  5
3C11
330
1D
100
AcDbEntity
  8
0
100
AcDbLine
 10
94.24
 20
783.518
 30
0.0
 11
93.754
 21
773.999
 31
0.0
  0
LINE
  5
3C12
330
1D
100
AcDbEntity
  8
0
100
AcDbLine
 10
93.754
 20
773.999
 30
0.0
 11
93.177
 21
766.613
 31
0.0
  0
LINE
  5
3C13
330
1D
100
AcDbEntity
  8
0
100
AcDbLine
 10
75.43
 20
820.097
 30
0.0
 11
76.57
 21
820.097
 31
0.0
  0
LINE
  5
3C14
330
1D
100
AcDbEntity
  8
0
100
AcDbLine
 10
75.050965684281
 20
889.879034744429
 30
0.0
 11
76.888965684281
 21
889.084034744429
 31
0.0
  0
LINE
  5
3C15
330
1D
100
AcDbEntity
  8
0
100
AcDbLine
 10
76.888965684281
 20
889.084034744429
 30
0.0
 11
78.245965684281
 21
889.924034744429
 31
0.0
  0
LINE
  5
3C16
330
1D
100
AcDbEntity
  8
0
100
AcDbLine
 10
77.094965684281
 20
890.768034744429
 30
0.0
 11
76.130428556483
 21
890.665123372071
 31
0.0
  0
LINE
  5
3C17
330
1D
100
AcDbEntity
  8
0
100
AcDbLine
 10
76.130428556483
 20
890.665123372071
 30
0.0
 11
75.229425442962
 21
890.355254576416
 31
0.0
  0
LINE
  5
3C18
330
1D
100
AcDbEntity
  8
0
100
AcDbLine
 10
74.96060557777
 20
890.499729218399
 30
0.0
 11
75.050965684281
 21
889.879034744429
 31
0.0
  0
LINE
  5
3C19
330
1D
100
AcDbEntity
  8
0
100
AcDbLine
 10
75.229425442962
 20
890.355254576416
 30
0.0
 11
75.050965684281
 21
889.879034744429
 31
0.0
  0
LINE
  5
3C1A
330
1D
100
AcDbEntity
  8
0
100
AcDbLine
 10
78.245965684281
 20
889.924034744429
 30
0.0
 11
78.401146070966
 21
891.172426213439
 31
0.0
  0
LINE
  5
3C1B
330
1D
100
AcDbEntity
  8
0
100
AcDbLine
 10
77.094965684281
 20
890.768034744429
 30
0.0
 11
78.245965684281
 21
889.924034744429
 31
0.0
  0
LINE
  5
3C1C
330
1D
100
AcDbEntity
  8
0
100
AcDbLine
 10
75.113088532977
 20
899.632321989656
 30
0.0
 11
76.951088532977
 21
898.837321989656
 31
0.0
  0
LINE
  5
3C1D
330
1D
100
AcDbEntity
  8
0
100
AcDbLine
 10
76.951088532977
 20
898.837321989656
 30
0.0
 11
78.308088532977
 21
899.677321989656
 31
0.0
  0
LINE
  5
3C1E
330
1D
100
AcDbEntity
  8
0
100
AcDbLine
 10
77.157088532977
 20
900.521321989656
 30
0.0
 11
76.192551405179
 21
900.418410617298
 31
0.0
  0
LINE
  5
3C1F
330
1D
100
AcDbEntity
  8
0
100
AcDbLine
 10
76.192551405179
 20
900.418410617298
 30
0.0
 11
75.291548291658
 21
900.108541821643
 31
0.0
  0
LINE
  5
3C20
330
1D
100
AcDbEntity
  8
0
100
AcDbLine
 10
75.022728426466
 20
900.253016463626
 30
0.0
 11
75.113088532977
 21
899.632321989656
 31
0.0
  0
LINE
  5
3C21
330
1D
100
AcDbEntity
  8
0
100
AcDbLine
 10
75.291548291658
 20
900.108541821643
 30
0.0
 11
75.113088532977
 21
899.632321989656
 31
0.0
  0
LINE
  5
3C22
330
1D
100
AcDbEntity
  8
0
100
AcDbLine
 10
78.308088532977
 20
899.677321989656
 30
0.0
 11
78.463268919662
 21
900.925713458666
 31
0.0
  0
LINE
  5
3C23
330
1D
100
AcDbEntity
  8
0
100
AcDbLine
 10
77.157088532977
 20
900.521321989656
 30
0.0
 11
78.308088532977
 21
899.677321989656
 31
0.0
  0
LINE
  5
3C24
330
1D
100
AcDbEntity
  8
0
100
AcDbLine
 10
75.547948473847
 20
910.503820511406
 30
0.0
 11
77.385948473847
 21
909.708820511406
 31
0.0
  0
LINE
  5
3C25
330
1D
100
AcDbEntity
  8
0
100
AcDbLine
 10
77.385948473847
 20
909.708820511406
 30
0.0
 11
78.742948473847
 21
910.548820511406
 31
0.0
  0
LINE
  5
3C26
330
1D
100
AcDbEntity
  8
0
100
AcDbLine
 10
77.591948473847
 20
911.392820511406
 30
0.0
 11
76.627411346049
 21
911.289909139048
 31
0.0
  0
LINE
  5
3C27
330
1D
100
AcDbEntity
  8
0
100
AcDbLine
 10
76.627411346049
 20
911.289909139048
 30
0.0
 11
75.726408232528
 21
910.980040343393
 31
0.0
  0
LINE
  5
3C28
330
1D
100
AcDbEntity
  8
0
100
AcDbLine
 10
75.457588367336
 20
911.124514985376
 30
0.0
 11
75.547948473847
 21
910.503820511406
 31
0.0
  0
LINE
  5
3C29
330
1D
100
AcDbEntity
  8
0
100
AcDbLine
 10
75.726408232528
 20
910.980040343393
 30
0.0
 11
75.547948473847
 21
910.503820511406
 31
0.0
  0
LINE
  5
3C2A
330
1D
100
AcDbEntity
  8
0
100
AcDbLine
 10
78.742948473847
 20
910.548820511406
 30
0.0
 11
78.898128860532
 21
911.797211980416
 31
0.0
  0
LINE
  5
3C2B
330
1D
100
AcDbEntity
  8
0
100
AcDbLine
 10
77.591948473847
 20
911.392820511406
 30
0.0
 11
78.742948473847
 21
910.548820511406
 31
0.0
  0
LINE
  5
3C2C
330
1D
100
AcDbEntity
  8
0
100
AcDbLine
 10
75.45672827272
 20
845.133001993396
 30
0.0
 11
74.555725159199
 21
844.823133197741
 31
0.0
  0
LINE
  5
3C2D
330
1D
100
AcDbEntity
  8
0
100
AcDbLine
 10
74.377265400518
 20
844.346913365754
 30
0.0
 11
76.215265400518
 21
843.551913365754
 31
0.0
  0
LINE
  5
3C2E
330
1D
100
AcDbEntity
  8
0
100
AcDbLine
 10
74.555725159199
 20
844.823133197741
 30
0.0
 11
74.377265400518
 21
844.346913365754
 31
0.0
  0
LINE
  5
3C2F
330
1D
100
AcDbEntity
  8
0
100
AcDbLine
 10
74.286905294007
 20
844.967607839724
 30
0.0
 11
74.377265400518
 21
844.346913365754
 31
0.0
  0
LINE
  5
3C30
330
1D
100
AcDbEntity
  8
0
100
AcDbLine
 10
76.421265400518
 20
845.235913365754
 30
0.0
 11
77.572265400518
 21
844.391913365754
 31
0.0
  0
LINE
  5
3C31
330
1D
100
AcDbEntity
  8
0
100
AcDbLine
 10
77.572265400518
 20
844.391913365754
 30
0.0
 11
77.727445787203
 21
845.640304834764
 31
0.0
  0
LINE
  5
3C32
330
1D
100
AcDbEntity
  8
0
100
AcDbLine
 10
76.421265400518
 20
845.235913365754
 30
0.0
 11
75.45672827272
 21
845.133001993396
 31
0.0
  0
LINE
  5
3C33
330
1D
100
AcDbEntity
  8
0
100
AcDbLine
 10
76.215265400518
 20
843.551913365754
 30
0.0
 11
77.572265400518
 21
844.391913365754
 31
0.0
  0
LINE
  5
3C34
330
1D
100
AcDbEntity
  8
0
100
AcDbLine
 10
76.0
 20
740.082
 30
0.0
 11
81.967
 21
740.844
 31
0.0
  0
LINE
  5
3DA7
330
1D
100
AcDbEntity
  8
0
100
AcDbLine
 10
53.8
 20
0.3
 30
0.0
 11
54.0
 21
0.3
 31
0.0
  0
LINE
  5
3DA8
330
1D
100
AcDbEntity
  8
0
100
AcDbLine
 10
54.5
 20
0.3
 30
0.0
 11
67.5
 21
0.3
 31
0.0
  0
LINE
  5
3DA9
330
1D
100
AcDbEntity
  8
0
100
AcDbLine
 10
54.5
 20
0.0
 30
0.0
 11
58.5
 21
0.0
 31
0.0
  0
LINE
  5
3DAA
330
1D
100
AcDbEntity
  8
0
100
AcDbLine
 10
62.5
 20
0.0
 30
0.0
 11
67.5
 21
0.0
 31
0.0
  0
LINE
  5
3DAB
330
1D
100
AcDbEntity
  8
0
100
AcDbLine
 10
58.5
 20
0.0
 30
0.0
 11
61.03508
 21
0.0
 31
0.0
  0
LINE
  5
3DAC
330
1D
100
AcDbEntity
  8
0
100
AcDbLine
 10
61.03508
 20
0.0
 30
0.0
 11
62.5
 21
0.0
 31
0.0
  0
LINE
  5
3DAD
330
1D
100
AcDbEntity
  8
0
100
AcDbLine
 10
54.5
 20
0.3
 30
0.0
 11
67.5
 21
0.3
 31
0.0
  0
LINE
  5
3DAE
330
1D
100
AcDbEntity
  8
0
100
AcDbLine
 10
54.0
 20
0.3
 30
0.0
 11
54.5
 21
0.3
 31
0.0
  0
LINE
  5
3DAF
330
1D
100
AcDbEntity
  8
0
100
AcDbLine
 10
53.8
 20
0.3
 30
0.0
 11
54.5
 21
0.0
 31
0.0
  0
LINE
  5
3DB0
330
1D
100
AcDbEntity
  8
0
100
AcDbLine
 10
53.5
 20
1.0
 30
0.0
 11
53.5
 21
24.5
 31
0.0
  0
LINE
  5
3DB1
330
1D
100
AcDbEntity
  8
0
100
AcDbLine
 10
53.5
 20
483.5
 30
0.0
 11
53.5
 21
25.5
 31
0.0
  0
LINE
  5
3DB2
330
1D
100
AcDbEntity
  8
0
100
AcDbLine
 10
53.5
 20
483.5
 30
0.0
 11
53.5
 21
822.244198722515
 31
0.0
  0
LINE
  5
3DB3
330
1D
100
AcDbEntity
  8
0
100
AcDbLine
 10
53.5
 20
25.5
 30
0.0
 11
53.5
 21
483.5
 31
0.0
  0
LINE
  5
3DB4
330
1D
100
AcDbEntity
  8
0
100
AcDbLine
 10
53.5
 20
25.5
 30
0.0
 11
53.8
 21
25.5
 31
0.0
  0
LINE
  5
3DB5
330
1D
100
AcDbEntity
  8
0
100
AcDbLine
 10
53.5
 20
25.5
 30
0.0
 11
54.0
 21
25.0
 31
0.0
  0
LINE
  5
3DB6
330
1D
100
AcDbEntity
  8
0
100
AcDbLine
 10
53.5
 20
24.5
 30
0.0
 11
53.5
 21
1.0
 31
0.0
  0
LINE
  5
3DB7
330
1D
100
AcDbEntity
  8
0
100
AcDbLine
 10
53.5
 20
24.5
 30
0.0
 11
53.8
 21
24.5
 31
0.0
  0
LINE
  5
3DB8
330
1D
100
AcDbEntity
  8
0
100
AcDbLine
 10
53.5
 20
24.5
 30
0.0
 11
54.0
 21
25.0
 31
0.0
  0
LINE
  5
3DB9
330
1D
100
AcDbEntity
  8
0
100
AcDbLine
 10
53.8
 20
25.5
 30
0.0
 11
53.8
 21
483.5
 31
0.0
  0
LINE
  5
3DBA
330
1D
100
AcDbEntity
  8
0
100
AcDbLine
 10
53.8
 20
25.5
 30
0.0
 11
54.5
 21
25.5
 31
0.0
  0
LINE
  5
3DBB
330
1D
100
AcDbEntity
  8
0
100
AcDbLine
 10
53.8
 20
483.5
 30
0.0
 11
53.8
 21
25.5
 31
0.0
  0
LINE
  5
3DBC
330
1D
100
AcDbEntity
  8
0
100
AcDbLine
 10
53.8
 20
483.5
 30
0.0
 11
53.8
 21
821.681014000956
 31
0.0
  0
LINE
  5
3DBD
330
1D
100
AcDbEntity
  8
0
100
AcDbLine
 10
54.0
 20
25.0
 30
0.0
 11
54.15
 21
25.0
 31
0.0
  0
LINE
  5
3DBE
330
1D
100
AcDbEntity
  8
0
100
AcDbLine
 10
54.5
 20
25.0
 30
0.0
 11
67.5
 21
25.0
 31
0.0
  0
LINE
  5
3DBF
330
1D
100
AcDbEntity
  8
0
100
AcDbLine
 10
54.5
 20
25.0
 30
0.0
 11
67.5
 21
25.0
 31
0.0
  0
LINE
  5
3DC0
330
1D
100
AcDbEntity
  8
0
100
AcDbLine
 10
54.5
 20
25.5
 30
0.0
 11
67.5
 21
25.5
 31
0.0
  0
LINE
  5
3DC1
330
1D
100
AcDbEntity
  8
0
100
AcDbLine
 10
54.5
 20
25.5
 30
0.0
 11
67.5
 21
25.5
 31
0.0
  0
LINE
  5
3DC2
330
1D
100
AcDbEntity
  8
0
100
AcDbLine
 10
54.15
 20
25.0
 30
0.0
 11
54.5
 21
25.0
 31
0.0
  0
LINE
  5
3DC3
330
1D
100
AcDbEntity
  8
0
100
AcDbLine
 10
54.0
 20
25.0
 30
0.0
 11
54.15
 21
25.0
 31
0.0
  0
LINE
  5
3DC4
330
1D
100
AcDbEntity
  8
0
100
AcDbLine
 10
54.5
 20
24.5
 30
0.0
 11
67.5
 21
24.5
 31
0.0
  0
LINE
  5
3DC5
330
1D
100
AcDbEntity
  8
0
100
AcDbLine
 10
53.8
 20
24.5
 30
0.0
 11
53.8
 21
1.0
 31
0.0
  0
LINE
  5
3DC6
330
1D
100
AcDbEntity
  8
0
100
AcDbLine
 10
53.8
 20
24.5
 30
0.0
 11
54.5
 21
24.5
 31
0.0
  0
LINE
  5
3DC7
330
1D
100
AcDbEntity
  8
0
100
AcDbLine
 10
53.8
 20
1.0
 30
0.0
 11
53.8
 21
24.5
 31
0.0
  0
LINE
  5
3DC8
330
1D
100
AcDbEntity
  8
0
100
AcDbLine
 10
53.8
 20
1.0
 30
0.0
 11
54.0
 21
0.3
 31
0.0
  0
LINE
  5
3DC9
330
1D
100
AcDbEntity
  8
0
100
AcDbLine
 10
53.5
 20
24.5
 30
0.0
 11
53.5
 21
1.0
 31
0.0
  0
LINE
  5
3DCA
330
1D
100
AcDbEntity
  8
0
100
AcDbLine
 10
53.5
 20
1.0
 30
0.0
 11
53.5
 21
24.5
 31
0.0
  0
LINE
  5
3DCB
330
1D
100
AcDbEntity
  8
0
100
AcDbLine
 10
53.5
 20
1.0
 30
0.0
 11
53.8
 21
0.3
 31
0.0
  0
LINE
  5
3DCC
330
1D
100
AcDbEntity
  8
0
100
AcDbLine
 10
64.716
 20
690.728
 30
0.0
 11
66.796
 21
689.35
 31
0.0
  0
LINE
  5
3DCD
330
1D
100
AcDbEntity
  8
0
100
AcDbLine
 10
64.716
 20
735.761
 30
0.0
 11
66.796
 21
734.383
 31
0.0
  0
LINE
  5
3DCE
330
1D
100
AcDbEntity
  8
0
100
AcDbLine
 10
63.468
 20
692.288
 30
0.0
 11
64.716
 21
690.728
 31
0.0
  0
LINE
  5
3DCF
330
1D
100
AcDbEntity
  8
0
100
AcDbLine
 10
63.468
 20
737.321
 30
0.0
 11
64.716
 21
735.761
 31
0.0
  0
LINE
  5
3DD0
330
1D
100
AcDbEntity
  8
0
100
AcDbLine
 10
63.0
 20
693.952
 30
0.0
 11
63.468
 21
692.288
 31
0.0
  0
LINE
  5
3DD1
330
1D
100
AcDbEntity
  8
0
100
AcDbLine
 10
63.0
 20
693.952
 30
0.0
 11
63.0
 21
738.008861861862
 31
0.0
  0
LINE
  5
3DD3
330
1D
100
AcDbEntity
  8
0
100
AcDbLine
 10
63.0
 20
738.008861861862
 30
0.0
 11
63.0
 21
693.952
 31
0.0
  0
LINE
  5
3DD5
330
1D
100
AcDbEntity
  8
0
100
AcDbLine
 10
66.5
 20
654.5
 30
0.0
 11
66.5
 21
654.968
 31
0.0
  0
LINE
  5
3DD6
330
1D
100
AcDbEntity
  8
0
100
AcDbLine
 10
66.5
 20
654.968
 30
0.0
 11
66.5
 21
654.5
 31
0.0
  0
LINE
  5
3DD7
330
1D
100
AcDbEntity
  8
0
100
AcDbLine
 10
66.5
 20
654.968
 30
0.0
 11
66.5
 21
656.216
 31
0.0
  0
LINE
  5
3DD8
330
1D
100
AcDbEntity
  8
0
100
AcDbLine
 10
66.5
 20
655.5
 30
0.0
 11
66.5
 21
654.4
 31
0.0
  0
LINE
  5
3DD9
330
1D
100
AcDbEntity
  8
0
100
AcDbLine
 10
66.5
 20
655.5
 30
0.0
 11
66.5
 21
656.037
 31
0.0
  0
LINE
  5
3DDA
330
1D
100
AcDbEntity
  8
0
100
AcDbLine
 10
66.5
 20
654.4
 30
0.0
 11
66.5
 21
654.0
 31
0.0
  0
LINE
  5
3DDB
330
1D
100
AcDbEntity
  8
0
100
AcDbLine
 10
66.5
 20
654.4
 30
0.0
 11
66.5
 21
655.5
 31
0.0
  0
LINE
  5
3DDC
330
1D
100
AcDbEntity
  8
0
100
AcDbLine
 10
66.5
 20
656.216
 30
0.0
 11
66.5
 21
654.968
 31
0.0
  0
LINE
  5
3DDD
330
1D
100
AcDbEntity
  8
0
100
AcDbLine
 10
66.5
 20
656.216
 30
0.0
 11
66.5
 21
658.296
 31
0.0
  0
LINE
  5
3DDE
330
1D
100
AcDbEntity
  8
0
100
AcDbLine
 10
66.5
 20
658.296
 30
0.0
 11
66.5
 21
656.216
 31
0.0
  0
LINE
  5
3DDF
330
1D
100
AcDbEntity
  8
0
100
AcDbLine
 10
66.5
 20
658.296
 30
0.0
 11
66.5
 21
661.052
 31
0.0
  0
LINE
  5
3DE0
330
1D
100
AcDbEntity
  8
0
100
AcDbLine
 10
66.5
 20
656.037
 30
0.0
 11
66.5
 21
633.0
 31
0.0
  0
LINE
  5
3DE1
330
1D
100
AcDbEntity
  8
0
100
AcDbLine
 10
66.5
 20
656.037
 30
0.0
 11
66.5
 21
655.5
 31
0.0
  0
LINE
  5
3DE2
330
1D
100
AcDbEntity
  8
0
100
AcDbLine
 10
66.5
 20
661.052
 30
0.0
 11
66.5
 21
658.296
 31
0.0
  0
LINE
  5
3DE3
330
1D
100
AcDbEntity
  8
0
100
AcDbLine
 10
66.5
 20
661.052
 30
0.0
 11
66.5
 21
664.172
 31
0.0
  0
LINE
  5
3DE4
330
1D
100
AcDbEntity
  8
0
100
AcDbLine
 10
66.0777
 20
674.642
 30
0.0
 11
66.2741
 21
671.409
 31
0.0
  0
LINE
  5
3DE5
330
1D
100
AcDbEntity
  8
0
100
AcDbLine
 10
66.2741
 20
671.409
 30
0.0
 11
66.5
 21
669.698
 31
0.0
  0
LINE
  5
3DE6
330
1D
100
AcDbEntity
  8
0
100
AcDbLine
 10
66.5
 20
668.568
 30
0.0
 11
66.5
 21
669.698
 31
0.0
  0
LINE
  5
3DE7
330
1D
100
AcDbEntity
  8
0
100
AcDbLine
 10
66.5
 20
668.568
 30
0.0
 11
66.5
 21
667.5
 31
0.0
  0
LINE
  5
3DE8
330
1D
100
AcDbEntity
  8
0
100
AcDbLine
 10
66.5
 20
664.172
 30
0.0
 11
66.5
 21
661.052
 31
0.0
  0
LINE
  5
3DE9
330
1D
100
AcDbEntity
  8
0
100
AcDbLine
 10
66.5
 20
664.172
 30
0.0
 11
66.5
 21
667.5
 31
0.0
  0
LINE
  5
3DEA
330
1D
100
AcDbEntity
  8
0
100
AcDbLine
 10
66.5
 20
669.698
 30
0.0
 11
66.5
 21
667.5
 31
0.0
  0
LINE
  5
3DEB
330
1D
100
AcDbEntity
  8
0
100
AcDbLine
 10
66.5
 20
669.698
 30
0.0
 11
66.5
 21
668.568
 31
0.0
  0
LINE
  5
3DEC
330
1D
100
AcDbEntity
  8
0
100
AcDbLine
 10
66.5
 20
664.152
 30
0.0
 11
66.5
 21
667.5
 31
0.0
  0
LINE
  5
3DED
330
1D
100
AcDbEntity
  8
0
100
AcDbLine
 10
66.5
 20
664.152
 30
0.0
 11
66.5
 21
660.883
 31
0.0
  0
LINE
  5
3DEE
330
1D
100
AcDbEntity
  8
0
100
AcDbLine
 10
66.5
 20
667.5
 30
0.0
 11
66.5
 21
633.0
 31
0.0
  0
LINE
  5
3DEF
330
1D
100
AcDbEntity
  8
0
100
AcDbLine
 10
66.5
 20
667.5
 30
0.0
 11
66.5
 21
669.698
 31
0.0
  0
LINE
  5
3DF0
330
1D
100
AcDbEntity
  8
0
100
AcDbLine
 10
66.5
 20
667.5
 30
0.0
 11
66.5
 21
664.152
 31
0.0
  0
LINE
  5
3DF1
330
1D
100
AcDbEntity
  8
0
100
AcDbLine
 10
66.5
 20
667.5
 30
0.0
 11
66.5
 21
664.172
 31
0.0
  0
LINE
  5
3DF2
330
1D
100
AcDbEntity
  8
0
100
AcDbLine
 10
66.5
 20
667.5
 30
0.0
 11
66.5
 21
668.568
 31
0.0
  0
LINE
  5
3DF3
330
1D
100
AcDbEntity
  8
0
100
AcDbLine
 10
66.5
 20
660.883
 30
0.0
 11
66.5
 21
664.152
 31
0.0
  0
LINE
  5
3DF4
330
1D
100
AcDbEntity
  8
0
100
AcDbLine
 10
66.5
 20
660.883
 30
0.0
 11
66.5
 21
657.97
 31
0.0
  0
LINE
  5
3DF5
330
1D
100
AcDbEntity
  8
0
100
AcDbLine
 10
66.5
 20
657.97
 30
0.0
 11
66.5
 21
660.883
 31
0.0
  0
LINE
  5
3DF6
330
1D
100
AcDbEntity
  8
0
100
AcDbLine
 10
66.5
 20
657.97
 30
0.0
 11
66.5
 21
655.71
 31
0.0
  0
LINE
  5
3DF7
330
1D
100
AcDbEntity
  8
0
100
AcDbLine
 10
66.5
 20
655.71
 30
0.0
 11
66.5
 21
657.97
 31
0.0
  0
LINE
  5
3DF8
330
1D
100
AcDbEntity
  8
0
100
AcDbLine
 10
66.5
 20
655.71
 30
0.0
 11
66.5
 21
654.462
 31
0.0
  0
LINE
  5
3DF9
330
1D
100
AcDbEntity
  8
0
100
AcDbLine
 10
66.5
 20
654.462
 30
0.0
 11
66.5
 21
655.71
 31
0.0
  0
LINE
  5
3DFA
330
1D
100
AcDbEntity
  8
0
100
AcDbLine
 10
66.5
 20
654.462
 30
0.0
 11
66.5
 21
654.0
 31
0.0
  0
LINE
  5
3DFB
330
1D
100
AcDbEntity
  8
0
100
AcDbLine
 10
66.5
 20
654.0
 30
0.0
 11
66.5
 21
654.462
 31
0.0
  0
LINE
  5
3DFC
330
1D
100
AcDbEntity
  8
0
100
AcDbLine
 10
66.5
 20
654.0
 30
0.0
 11
66.5
 21
654.4
 31
0.0
  0
LINE
  5
3DFD
330
1D
100
AcDbEntity
  8
0
100
AcDbLine
 10
66.796
 20
689.35
 30
0.0
 11
66.796
 21
734.383
 31
0.0
  0
LINE
  5
3DFE
330
1D
100
AcDbEntity
  8
0
100
AcDbLine
 10
66.796
 20
689.35
 30
0.0
 11
68.212
 21
690.058
 31
0.0
  0
LINE
  5
3DFF
330
1D
100
AcDbEntity
  8
0
100
AcDbLine
 10
66.9
 20
633.0
 30
0.0
 11
68.005961870387
 21
633.0
 31
0.0
  0
LINE
  5
3E00
330
1D
100
AcDbEntity
  8
0
100
AcDbLine
 10
66.5
 20
633.0
 30
0.0
 11
67.0
 21
632.5
 31
0.0
  0
LINE
  5
3E01
330
1D
100
AcDbEntity
  8
0
100
AcDbLine
 10
66.5
 20
633.0
 30
0.0
 11
66.9
 21
633.0
 31
0.0
  0
LINE
  5
3E02
330
1D
100
AcDbEntity
  8
0
100
AcDbLine
 10
66.5
 20
633.0
 30
0.0
 11
66.5
 21
656.037
 31
0.0
  0
LINE
  5
3E03
330
1D
100
AcDbEntity
  8
0
100
AcDbLine
 10
66.5
 20
633.0
 30
0.0
 11
66.5
 21
667.5
 31
0.0
  0
LINE
  5
3E04
330
1D
100
AcDbEntity
  8
0
100
AcDbLine
 10
67.0
 20
632.5
 30
0.0
 11
67.25
 21
632.5
 31
0.0
  0
LINE
  5
3E05
330
1D
100
AcDbEntity
  8
0
100
AcDbLine
 10
67.0
 20
632.5
 30
0.0
 11
68.0
 21
632.5
 31
0.0
  0
LINE
  5
3E06
330
1D
100
AcDbEntity
  8
0
100
AcDbLine
 10
67.25
 20
632.5
 30
0.0
 11
68.006806730653
 21
632.5
 31
0.0
  0
LINE
  5
3E07
330
1D
100
AcDbEntity
  8
0
100
AcDbLine
 10
67.1898
 20
36.4841
 30
0.0
 11
68.0756
 21
561.829
 31
0.0
  0
LINE
  5
3E08
330
1D
100
AcDbEntity
  8
0
100
AcDbLine
 10
67.1898
 20
36.4841
 30
0.0
 11
67.4529
 21
36.613
 31
0.0
  0
LINE
  5
3E09
330
1D
100
AcDbEntity
  8
0
100
AcDbLine
 10
67.1898
 20
36.4841
 30
0.0
 11
68.0756
 21
561.829
 31
0.0
  0
LINE
  5
3E0A
330
1D
100
AcDbEntity
  8
0
100
AcDbLine
 10
67.5
 20
0.0
 30
0.0
 11
76.0
 21
0.0
 31
0.0
  0
LINE
  5
3E0B
330
1D
100
AcDbEntity
  8
0
100
AcDbLine
 10
67.5
 20
0.0
 30
0.0
 11
76.0
 21
0.0
 31
0.0
  0
LINE
  5
3E0C
330
1D
100
AcDbEntity
  8
0
100
AcDbLine
 10
67.5
 20
0.0
 30
0.0
 11
67.5
 21
0.3
 31
0.0
  0
LINE
  5
3E0D
330
1D
100
AcDbEntity
  8
0
100
AcDbLine
 10
67.5
 20
25.5
 30
0.0
 11
67.5
 21
25.0
 31
0.0
  0
LINE
  5
3E0E
330
1D
100
AcDbEntity
  8
0
100
AcDbLine
 10
67.5
 20
25.5
 30
0.0
 11
67.5
 21
36.63612870021
 31
0.0
  0
LINE
  5
3E0F
330
1D
100
AcDbEntity
  8
0
100
AcDbLine
 10
67.5
 20
36.63612870021
 30
0.0
 11
67.5
 21
25.5
 31
0.0
  0
LINE
  5
3E10
330
1D
100
AcDbEntity
  8
0
100
AcDbLine
 10
67.5
 20
24.5
 30
0.0
 11
67.5
 21
1.0
 31
0.0
  0
LINE
  5
3E11
330
1D
100
AcDbEntity
  8
0
100
AcDbLine
 10
67.5
 20
24.5
 30
0.0
 11
67.5
 21
25.0
 31
0.0
  0
LINE
  5
3E12
330
1D
100
AcDbEntity
  8
0
100
AcDbLine
 10
67.5
 20
25.0
 30
0.0
 11
67.5
 21
24.5
 31
0.0
  0
LINE
  5
3E13
330
1D
100
AcDbEntity
  8
0
100
AcDbLine
 10
67.5
 20
25.0
 30
0.0
 11
76.0
 21
25.0
 31
0.0
  0
LINE
  5
3E14
330
1D
100
AcDbEntity
  8
0
100
AcDbLine
 10
67.5
 20
25.0
 30
0.0
 11
67.5
 21
25.5
 31
0.0
  0
LINE
  5
3E15
330
1D
100
AcDbEntity
  8
0
100
AcDbLine
 10
67.5
 20
0.3
 30
0.0
 11
67.5
 21
1.0
 31
0.0
  0
LINE
  5
3E16
330
1D
100
AcDbEntity
  8
0
100
AcDbLine
 10
67.5
 20
0.3
 30
0.0
 11
67.5
 21
0.0
 31
0.0
  0
LINE
  5
3E17
330
1D
100
AcDbEntity
  8
0
100
AcDbLine
 10
67.5
 20
1.0
 30
0.0
 11
67.5
 21
24.5
 31
0.0
  0
LINE
  5
3E18
330
1D
100
AcDbEntity
  8
0
100
AcDbLine
 10
67.5
 20
1.0
 30
0.0
 11
67.5
 21
0.3
 31
0.0
  0
LINE
  5
3E19
330
1D
100
AcDbEntity
  8
0
100
AcDbLine
 10
67.5
 20
632.5
 30
0.0
 11
67.5
 21
483.5
 31
0.0
  0
LINE
  5
3E1A
330
1D
100
AcDbEntity
  8
0
100
AcDbLine
 10
67.5
 20
220.455637570558
 30
0.0
 11
67.5
 21
483.5
 31
0.0
  0
LINE
  5
3E1B
330
1D
100
AcDbEntity
  8
0
100
AcDbLine
 10
67.5
 20
483.5
 30
0.0
 11
67.5
 21
220.455637570558
 31
0.0
  0
LINE
  5
3E1C
330
1D
100
AcDbEntity
  8
0
100
AcDbLine
 10
67.5
 20
483.5
 30
0.0
 11
67.5
 21
632.5
 31
0.0
  0
LINE
  5
3E1D
330
1D
100
AcDbEntity
  8
0
100
AcDbLine
 10
67.899190095176
 20
36.832153074689
 30
0.0
 11
68.2258
 21
36.9924
 31
0.0
  0
LINE
  5
3E1E
330
1D
100
AcDbEntity
  8
0
100
AcDbLine
 10
67.4529
 20
36.613
 30
0.0
 11
68.8839
 21
37.3157
 31
0.0
  0
LINE
  5
3E1F
330
1D
100
AcDbEntity
  8
0
100
AcDbLine
 10
65.121893715055
 20
690.459095413776
 30
0.0
 11
66.0777
 21
674.642
 31
0.0
  0
LINE
  5
3E20
330
1D
100
AcDbEntity
  8
0
100
AcDbLine
 10
66.796
 20
734.383
 30
0.0
 11
66.796
 21
689.35
 31
0.0
  0
LINE
  5
3E21
330
1D
100
AcDbEntity
  8
0
100
AcDbLine
 10
66.796
 20
734.383
 30
0.0
 11
67.406
 21
734.791
 31
0.0
  0
LINE
  5
3E22
330
1D
100
AcDbEntity
  8
0
100
AcDbLine
 10
67.86845822368
 20
689.88622911184
 30
0.0
 11
67.9358
 21
667.721
 31
0.0
  0
LINE
  5
3E23
330
1D
100
AcDbEntity
  8
0
100
AcDbLine
 10
68.0597
 20
594.831
 30
0.0
 11
68.0756
 21
561.829
 31
0.0
  0
LINE
  5
3E24
330
1D
100
AcDbEntity
  8
0
100
AcDbLine
 10
68.0316
 20
617.827
 30
0.0
 11
68.0597
 21
594.831
 31
0.0
  0
LINE
  5
3E25
330
1D
100
AcDbEntity
  8
0
100
AcDbLine
 10
67.9897
 20
642.624
 30
0.0
 11
68.0316
 21
617.827
 31
0.0
  0
LINE
  5
3E27
330
1D
100
AcDbEntity
  8
0
100
AcDbLine
 10
68.212
 20
734.485012628256
 30
0.0
 11
68.212
 21
690.058
 31
0.0
  0
LINE
  5
3E28
330
1D
100
AcDbEntity
  8
0
100
AcDbLine
 10
67.9358
 20
667.721
 30
0.0
 11
67.9897
 21
642.624
 31
0.0
  0
LINE
  5
3E30
330
1D
100
AcDbEntity
  8
0
100
AcDbLine
 10
53.8
 20
821.681014000956
 30
0.0
 11
53.8
 21
483.5
 31
0.0
  0
LINE
  5
3E31
330
1D
100
AcDbEntity
  8
0
100
AcDbLine
 10
53.8
 20
941.5
 30
0.0
 11
54.5
 21
941.5
 31
0.0
  0
LINE
  5
3E32
330
1D
100
AcDbEntity
  8
0
100
AcDbLine
 10
53.8
 20
941.5
 30
0.0
 11
54.15
 21
942.0
 31
0.0
  0
LINE
  5
3E33
330
1D
100
AcDbEntity
  8
0
100
AcDbLine
 10
53.5
 20
822.244198722515
 30
0.0
 11
53.5
 21
483.5
 31
0.0
  0
LINE
  5
3E34
330
1D
100
AcDbEntity
  8
0
100
AcDbLine
 10
53.5
 20
941.5
 30
0.0
 11
53.8
 21
941.5
 31
0.0
  0
LINE
  5
3E35
330
1D
100
AcDbEntity
  8
0
100
AcDbLine
 10
53.5
 20
941.5
 30
0.0
 11
54.0
 21
942.0
 31
0.0
  0
LINE
  5
3E36
330
1D
100
AcDbEntity
  8
0
100
AcDbLine
 10
54.5
 20
941.5
 30
0.0
 11
67.5
 21
941.5
 31
0.0
  0
LINE
  5
3E37
330
1D
100
AcDbEntity
  8
0
100
AcDbLine
 10
54.5
 20
941.5
 30
0.0
 11
67.5
 21
941.5
 31
0.0
  0
LINE
  5
3E38
330
1D
100
AcDbEntity
  8
0
100
AcDbLine
 10
54.5
 20
942.0
 30
0.0
 11
76.0
 21
942.0
 31
0.0
  0
LINE
  5
3E39
330
1D
100
AcDbEntity
  8
0
100
AcDbLine
 10
54.5
 20
942.0
 30
0.0
 11
67.5
 21
942.0
 31
0.0
  0
LINE
  5
3E3A
330
1D
100
AcDbEntity
  8
0
100
AcDbLine
 10
54.5
 20
942.0
 30
0.0
 11
76.0
 21
942.0
 31
0.0
  0
LINE
  5
3E3B
330
1D
100
AcDbEntity
  8
0
100
AcDbLine
 10
54.5
 20
942.0
 30
0.0
 11
67.5
 21
942.0
 31
0.0
  0
LINE
  5
3E3C
330
1D
100
AcDbEntity
  8
0
100
AcDbLine
 10
54.5
 20
942.5
 30
0.0
 11
76.0
 21
942.5
 31
0.0
  0
LINE
  5
3E3D
330
1D
100
AcDbEntity
  8
0
100
AcDbLine
 10
54.15
 20
942.0
 30
0.0
 11
54.5
 21
942.0
 31
0.0
  0
LINE
  5
3E3E
330
1D
100
AcDbEntity
  8
0
100
AcDbLine
 10
54.0
 20
942.0
 30
0.0
 11
54.15
 21
942.0
 31
0.0
  0
LINE
  5
3E3F
330
1D
100
AcDbEntity
  8
0
100
AcDbLine
 10
54.5
 20
942.5
 30
0.0
 11
76.0
 21
942.5
 31
0.0
  0
LINE
  5
3E40
330
1D
100
AcDbEntity
  8
0
100
AcDbLine
 10
53.8
 20
942.5
 30
0.0
 11
53.8
 21
966.0
 31
0.0
  0
LINE
  5
3E41
330
1D
100
AcDbEntity
  8
0
100
AcDbLine
 10
53.8
 20
942.5
 30
0.0
 11
54.5
 21
942.5
 31
0.0
  0
LINE
  5
3E42
330
1D
100
AcDbEntity
  8
0
100
AcDbLine
 10
54.5
 20
966.7
 30
0.0
 11
76.0
 21
966.7
 31
0.0
  0
LINE
  5
3E43
330
1D
100
AcDbEntity
  8
0
100
AcDbLine
 10
54.5
 20
966.7
 30
0.0
 11
76.0
 21
966.7
 31
0.0
  0
LINE
  5
3E44
330
1D
100
AcDbEntity
  8
0
100
AcDbLine
 10
54.5
 20
967.0
 30
0.0
 11
76.0
 21
967.0
 31
0.0
  0
LINE
  5
3E45
330
1D
100
AcDbEntity
  8
0
100
AcDbLine
 10
54.5
 20
967.0
 30
0.0
 11
76.0
 21
967.0
 31
0.0
  0
LINE
  5
3E46
330
1D
100
AcDbEntity
  8
0
100
AcDbLine
 10
54.0
 20
966.7
 30
0.0
 11
54.5
 21
966.7
 31
0.0
  0
LINE
  5
3E47
330
1D
100
AcDbEntity
  8
0
100
AcDbLine
 10
53.8
 20
966.7
 30
0.0
 11
54.0
 21
966.7
 31
0.0
  0
LINE
  5
3E48
330
1D
100
AcDbEntity
  8
0
100
AcDbLine
 10
53.8
 20
966.0
 30
0.0
 11
53.8
 21
942.5
 31
0.0
  0
LINE
  5
3E49
330
1D
100
AcDbEntity
  8
0
100
AcDbLine
 10
53.8
 20
966.0
 30
0.0
 11
54.0
 21
966.7
 31
0.0
  0
LINE
  5
3E4A
330
1D
100
AcDbEntity
  8
0
100
AcDbLine
 10
53.5
 20
966.0
 30
0.0
 11
53.5
 21
942.5
 31
0.0
  0
LINE
  5
3E4B
330
1D
100
AcDbEntity
  8
0
100
AcDbLine
 10
53.5
 20
942.5
 30
0.0
 11
53.5
 21
966.0
 31
0.0
  0
LINE
  5
3E4C
330
1D
100
AcDbEntity
  8
0
100
AcDbLine
 10
53.5
 20
942.5
 30
0.0
 11
53.8
 21
942.5
 31
0.0
  0
LINE
  5
3E4D
330
1D
100
AcDbEntity
  8
0
100
AcDbLine
 10
53.5
 20
942.5
 30
0.0
 11
54.0
 21
942.0
 31
0.0
  0
LINE
  5
3E52
330
1D
100
AcDbEntity
  8
0
100
AcDbLine
 10
67.5
 20
930.987754143269
 30
0.0
 11
67.5
 21
941.5
 31
0.0
  0
LINE
  5
3E53
330
1D
100
AcDbEntity
  8
0
100
AcDbLine
 10
67.5
 20
942.0
 30
0.0
 11
67.5
 21
941.5
 31
0.0
  0
LINE
  5
3E54
330
1D
100
AcDbEntity
  8
0
100
AcDbLine
 10
67.5
 20
942.0
 30
0.0
 11
76.0
 21
942.0
 31
0.0
  0
LINE
  5
3E55
330
1D
100
AcDbEntity
  8
0
100
AcDbLine
 10
67.5
 20
941.5
 30
0.0
 11
67.5
 21
930.987754143268
 31
0.0
  0
LINE
  5
3E56
330
1D
100
AcDbEntity
  8
0
100
AcDbLine
 10
67.5
 20
941.5
 30
0.0
 11
67.5
 21
942.0
 31
0.0
  0
LINE
  5
3E5E
330
1D
100
AcDbEntity
  8
0
100
AcDbLine
 10
68.2258
 20
36.9924
 30
0.0
 11
70.1637
 21
37.9434
 31
0.0
  0
LINE
  5
3E5F
330
1D
100
AcDbEntity
  8
0
100
AcDbLine
 10
70.1637
 20
37.9434
 30
0.0
 11
70.620075149162
 21
38.167493280406
 31
0.0
  0
LINE
  5
3E60
330
1D
100
AcDbEntity
  8
0
100
AcDbLine
 10
68.8839
 20
37.3157
 30
0.0
 11
71.2813
 21
38.4919
 31
0.0
  0
LINE
  5
3E61
330
1D
100
AcDbEntity
  8
0
100
AcDbLine
 10
74.1939
 20
39.9216
 30
0.0
 11
77.3436
 21
41.4666
 31
0.0
  0
LINE
  5
3E62
330
1D
100
AcDbEntity
  8
0
100
AcDbLine
 10
74.199130213558
 20
39.924165539558
 30
0.0
 11
76.1053
 21
40.859
 31
0.0
  0
LINE
  5
3E63
330
1D
100
AcDbEntity
  8
0
100
AcDbLine
 10
71.2813
 20
38.4919
 30
0.0
 11
74.1939
 21
39.9216
 31
0.0
  0
LINE
  5
3E64
330
1D
100
AcDbEntity
  8
0
100
AcDbLine
 10
76.0
 20
0.0
 30
0.0
 11
84.5
 21
0.0
 31
0.0
  0
LINE
  5
3E65
330
1D
100
AcDbEntity
  8
0
100
AcDbLine
 10
76.0
 20
25.0
 30
0.0
 11
84.5
 21
25.0
 31
0.0
  0
LINE
  5
3E66
330
1D
100
AcDbEntity
  8
0
100
AcDbLine
 10
76.0
 20
0.0
 30
0.0
 11
84.5
 21
0.0
 31
0.0
  0
LINE
  5
3E67
330
1D
100
AcDbEntity
  8
0
100
AcDbLine
 10
76.1053
 20
40.859
 30
0.0
 11
77.139654040275
 21
41.366559834976
 31
0.0
  0
LINE
  5
3E68
330
1D
100
AcDbEntity
  8
0
100
AcDbLine
 10
77.799662847359
 20
41.690427628945
 30
0.0
 11
79.0146
 21
42.2866
 31
0.0
  0
LINE
  5
3E69
330
1D
100
AcDbEntity
  8
0
100
AcDbLine
 10
77.3436
 20
41.4666
 30
0.0
 11
80.1426
 21
42.8403
 31
0.0
  0
LINE
  5
3E6A
330
1D
100
AcDbEntity
  8
0
100
AcDbLine
 10
76.0
 20
708.017
 30
0.0
 11
78.6
 21
708.217
 31
0.0
  0
LINE
  5
3E6B
330
1D
100
AcDbEntity
  8
0
100
AcDbLine
 10
79.0146
 20
42.2866
 30
0.0
 11
81.4106
 21
43.4627
 31
0.0
  0
LINE
  5
3E6C
330
1D
100
AcDbEntity
  8
0
100
AcDbLine
 10
81.4106
 20
43.4627
 30
0.0
 11
82.8453
 21
44.1665
 31
0.0
  0
LINE
  5
3E6D
330
1D
100
AcDbEntity
  8
0
100
AcDbLine
 10
83.112
 20
44.2976
 30
0.0
 11
84.0758
 21
561.828
 31
0.0
  0
LINE
  5
3E6E
330
1D
100
AcDbEntity
  8
0
100
AcDbLine
 10
82.8453
 20
44.1665
 30
0.0
 11
83.112
 21
44.2976
 31
0.0
  0
LINE
  5
3E6F
330
1D
100
AcDbEntity
  8
0
100
AcDbLine
 10
83.112
 20
44.2976
 30
0.0
 11
84.0758
 21
561.828
 31
0.0
  0
LINE
  5
3E70
330
1D
100
AcDbEntity
  8
0
100
AcDbLine
 10
82.0819
 20
43.7924
 30
0.0
 11
83.112
 21
44.2976
 31
0.0
  0
LINE
  5
3E71
330
1D
100
AcDbEntity
  8
0
100
AcDbLine
 10
80.1426
 20
42.8403
 30
0.0
 11
82.0819
 21
43.7924
 31
0.0
  0
LINE
  5
3E72
330
1D
100
AcDbEntity
  8
0
100
AcDbLine
 10
84.00635416381
 20
632.5
 30
0.0
 11
85.0
 21
632.5
 31
0.0
  0
LINE
  5
3E73
330
1D
100
AcDbEntity
  8
0
100
AcDbLine
 10
84.00635416381
 20
632.5
 30
0.0
 11
84.75
 21
632.5
 31
0.0
  0
LINE
  5
3E74
330
1D
100
AcDbEntity
  8
0
100
AcDbLine
 10
84.005527450901
 20
633.0
 30
0.0
 11
85.1
 21
633.0
 31
0.0
  0
LINE
  5
3E75
330
1D
100
AcDbEntity
  8
0
100
AcDbLine
 10
84.5
 20
0.0
 30
0.0
 11
84.5
 21
25.0
 31
0.0
  0
LINE
  5
3E76
330
1D
100
AcDbEntity
  8
0
100
AcDbLine
 10
84.5
 20
0.0
 30
0.0
 11
84.5
 21
0.3
 31
0.0
  0
LINE
  5
3E77
330
1D
100
AcDbEntity
  8
0
100
AcDbLine
 10
84.5
 20
0.0
 30
0.0
 11
89.5
 21
0.0
 31
0.0
  0
LINE
  5
3E78
330
1D
100
AcDbEntity
  8
0
100
AcDbLine
 10
93.5
 20
0.0
 30
0.0
 11
97.5
 21
0.0
 31
0.0
  0
LINE
  5
3E79
330
1D
100
AcDbEntity
  8
0
100
AcDbLine
 10
90.9649
 20
0.0
 30
0.0
 11
93.5
 21
0.0
 31
0.0
  0
LINE
  5
3E7A
330
1D
100
AcDbEntity
  8
0
100
AcDbLine
 10
89.5
 20
0.0
 30
0.0
 11
90.9649
 21
0.0
 31
0.0
  0
LINE
  5
3E7B
330
1D
100
AcDbEntity
  8
0
100
AcDbLine
 10
84.5
 20
0.3
 30
0.0
 11
97.5
 21
0.3
 31
0.0
  0
LINE
  5
3E7C
330
1D
100
AcDbEntity
  8
0
100
AcDbLine
 10
84.5
 20
0.3
 30
0.0
 11
84.5
 21
0.0
 31
0.0
  0
LINE
  5
3E7D
330
1D
100
AcDbEntity
  8
0
100
AcDbLine
 10
84.5
 20
0.3
 30
0.0
 11
84.5
 21
1.0
 31
0.0
  0
LINE
  5
3E7E
330
1D
100
AcDbEntity
  8
0
100
AcDbLine
 10
97.5
 20
0.3
 30
0.0
 11
98.0
 21
0.3
 31
0.0
  0
LINE
  5
3E7F
330
1D
100
AcDbEntity
  8
0
100
AcDbLine
 10
98.0
 20
0.3
 30
0.0
 11
98.2
 21
1.0
 31
0.0
  0
LINE
  5
3E80
330
1D
100
AcDbEntity
  8
0
100
AcDbLine
 10
98.0
 20
0.3
 30
0.0
 11
98.2
 21
0.3
 31
0.0
  0
LINE
  5
3E81
330
1D
100
AcDbEntity
  8
0
100
AcDbLine
 10
84.5
 20
1.0
 30
0.0
 11
84.5
 21
0.3
 31
0.0
  0
LINE
  5
3E82
330
1D
100
AcDbEntity
  8
0
100
AcDbLine
 10
84.5
 20
1.0
 30
0.0
 11
84.5
 21
24.5
 31
0.0
  0
LINE
  5
3E83
330
1D
100
AcDbEntity
  8
0
100
AcDbLine
 10
98.2
 20
0.3
 30
0.0
 11
98.5
 21
1.0
 31
0.0
  0
LINE
  5
3E84
330
1D
100
AcDbEntity
  8
0
100
AcDbLine
 10
84.5
 20
24.5
 30
0.0
 11
84.5
 21
1.0
 31
0.0
  0
LINE
  5
3E85
330
1D
100
AcDbEntity
  8
0
100
AcDbLine
 10
84.5
 20
24.5
 30
0.0
 11
97.5
 21
24.5
 31
0.0
  0
LINE
  5
3E86
330
1D
100
AcDbEntity
  8
0
100
AcDbLine
 10
84.5
 20
24.5
 30
0.0
 11
84.5
 21
25.0
 31
0.0
  0
LINE
  5
3E87
330
1D
100
AcDbEntity
  8
0
100
AcDbLine
 10
98.2
 20
1.0
 30
0.0
 11
98.2
 21
24.5
 31
0.0
  0
LINE
  5
3E88
330
1D
100
AcDbEntity
  8
0
100
AcDbLine
 10
97.5
 20
24.5
 30
0.0
 11
98.2
 21
24.5
 31
0.0
  0
LINE
  5
3E89
330
1D
100
AcDbEntity
  8
0
100
AcDbLine
 10
98.2
 20
24.5
 30
0.0
 11
98.2
 21
1.0
 31
0.0
  0
LINE
  5
3E8A
330
1D
100
AcDbEntity
  8
0
100
AcDbLine
 10
98.2
 20
24.5
 30
0.0
 11
98.5
 21
24.5
 31
0.0
  0
LINE
  5
3E8B
330
1D
100
AcDbEntity
  8
0
100
AcDbLine
 10
84.5
 20
25.0
 30
0.0
 11
84.5
 21
24.5
 31
0.0
  0
LINE
  5
3E8C
330
1D
100
AcDbEntity
  8
0
100
AcDbLine
 10
84.5
 20
25.0
 30
0.0
 11
97.5
 21
25.0
 31
0.0
  0
LINE
  5
3E8D
330
1D
100
AcDbEntity
  8
0
100
AcDbLine
 10
84.5
 20
25.0
 30
0.0
 11
84.5
 21
0.0
 31
0.0
  0
LINE
  5
3E8E
330
1D
100
AcDbEntity
  8
0
100
AcDbLine
 10
84.5
 20
25.0
 30
0.0
 11
84.5
 21
25.5
 31
0.0
  0
LINE
  5
3E8F
330
1D
100
AcDbEntity
  8
0
100
AcDbLine
 10
84.5
 20
25.0
 30
0.0
 11
84.5
 21
483.5
 31
0.0
  0
LINE
  5
3E90
330
1D
100
AcDbEntity
  8
0
100
AcDbLine
 10
97.5
 20
25.0
 30
0.0
 11
97.85
 21
25.0
 31
0.0
  0
LINE
  5
3E91
330
1D
100
AcDbEntity
  8
0
100
AcDbLine
 10
84.5
 20
483.5
 30
0.0
 11
84.5
 21
25.5
 31
0.0
  0
LINE
  5
3E92
330
1D
100
AcDbEntity
  8
0
100
AcDbLine
 10
84.5
 20
483.5
 30
0.0
 11
84.5
 21
25.0
 31
0.0
  0
LINE
  5
3E93
330
1D
100
AcDbEntity
  8
0
100
AcDbLine
 10
84.5
 20
483.5
 30
0.0
 11
84.5
 21
632.5
 31
0.0
  0
LINE
  5
3E94
330
1D
100
AcDbEntity
  8
0
100
AcDbLine
 10
84.5
 20
25.5
 30
0.0
 11
97.5
 21
25.5
 31
0.0
  0
LINE
  5
3E95
330
1D
100
AcDbEntity
  8
0
100
AcDbLine
 10
84.5
 20
25.5
 30
0.0
 11
84.5
 21
25.0
 31
0.0
  0
LINE
  5
3E96
330
1D
100
AcDbEntity
  8
0
100
AcDbLine
 10
84.5
 20
25.5
 30
0.0
 11
84.5
 21
483.5
 31
0.0
  0
LINE
  5
3E97
330
1D
100
AcDbEntity
  8
0
100
AcDbLine
 10
97.5
 20
25.5
 30
0.0
 11
98.2
 21
25.5
 31
0.0
  0
LINE
  5
3E98
330
1D
100
AcDbEntity
  8
0
100
AcDbLine
 10
97.85
 20
25.0
 30
0.0
 11
98.0
 21
25.0
 31
0.0
  0
LINE
  5
3E99
330
1D
100
AcDbEntity
  8
0
100
AcDbLine
 10
98.2
 20
25.5
 30
0.0
 11
98.5
 21
25.5
 31
0.0
  0
LINE
  5
3E9A
330
1D
100
AcDbEntity
  8
0
100
AcDbLine
 10
98.2
 20
25.5
 30
0.0
 11
98.2
 21
483.5
 31
0.0
  0
LINE
  5
3E9B
330
1D
100
AcDbEntity
  8
0
100
AcDbLine
 10
98.5
 20
483.5
 30
0.0
 11
98.5
 21
822.244198722514
 31
0.0
  0
LINE
  5
3E9C
330
1D
100
AcDbEntity
  8
0
100
AcDbLine
 10
98.2
 20
483.5
 30
0.0
 11
98.2
 21
25.5
 31
0.0
  0
LINE
  5
3E9D
330
1D
100
AcDbEntity
  8
0
100
AcDbLine
 10
98.2
 20
483.5
 30
0.0
 11
98.2
 21
821.681014000956
 31
0.0
  0
LINE
  5
3E9E
330
1D
100
AcDbEntity
  8
0
100
AcDbLine
 10
98.5
 20
25.5
 30
0.0
 11
98.5
 21
483.5
 31
0.0
  0
LINE
  5
3E9F
330
1D
100
AcDbEntity
  8
0
100
AcDbLine
 10
98.0
 20
25.0
 30
0.0
 11
98.5
 21
24.5
 31
0.0
  0
LINE
  5
3EA0
330
1D
100
AcDbEntity
  8
0
100
AcDbLine
 10
98.0
 20
25.0
 30
0.0
 11
98.5
 21
24.5
 31
0.0
  0
LINE
  5
3EA1
330
1D
100
AcDbEntity
  8
0
100
AcDbLine
 10
98.0
 20
25.0
 30
0.0
 11
98.5
 21
25.5
 31
0.0
  0
LINE
  5
3EA2
330
1D
100
AcDbEntity
  8
0
100
AcDbLine
 10
98.5
 20
24.5
 30
0.0
 11
98.5
 21
1.0
 31
0.0
  0
LINE
  5
3EA3
330
1D
100
AcDbEntity
  8
0
100
AcDbLine
 10
98.5
 20
1.0
 30
0.0
 11
98.5
 21
24.5
 31
0.0
  0
LINE
  5
3EA4
330
1D
100
AcDbEntity
  8
0
100
AcDbLine
 10
84.5
 20
632.5
 30
0.0
 11
84.5
 21
483.5
 31
0.0
  0
LINE
  5
3EA5
330
1D
100
AcDbEntity
  8
0
100
AcDbLine
 10
84.75
 20
632.5
 30
0.0
 11
85.0
 21
632.5
 31
0.0
  0
LINE
  5
3EA6
330
1D
100
AcDbEntity
  8
0
100
AcDbLine
 10
85.1
 20
633.0
 30
0.0
 11
85.5
 21
633.0
 31
0.0
  0
LINE
  5
3EA7
330
1D
100
AcDbEntity
  8
0
100
AcDbLine
 10
85.5
 20
633.0
 30
0.0
 11
85.5
 21
656.037
 31
0.0
  0
LINE
  5
3EA8
330
1D
100
AcDbEntity
  8
0
100
AcDbLine
 10
84.0596
 20
594.829
 30
0.0
 11
84.0758
 21
561.828
 31
0.0
  0
LINE
  5
3EA9
330
1D
100
AcDbEntity
  8
0
100
AcDbLine
 10
84.0306
 20
617.836
 30
0.0
 11
84.0596
 21
594.829
 31
0.0
  0
LINE
  5
3EAA
330
1D
100
AcDbEntity
  8
0
100
AcDbLine
 10
85.5
 20
656.216
 30
0.0
 11
85.5
 21
658.296
 31
0.0
  0
LINE
  5
3EAB
330
1D
100
AcDbEntity
  8
0
100
AcDbLine
 10
85.5
 20
656.216
 30
0.0
 11
85.5
 21
656.037
 31
0.0
  0
LINE
  5
3EAC
330
1D
100
AcDbEntity
  8
0
100
AcDbLine
 10
85.5
 20
656.037
 30
0.0
 11
85.5
 21
633.0
 31
0.0
  0
LINE
  5
3EAD
330
1D
100
AcDbEntity
  8
0
100
AcDbLine
 10
85.5
 20
656.037
 30
0.0
 11
85.5
 21
656.216
 31
0.0
  0
LINE
  5
3EAE
330
1D
100
AcDbEntity
  8
0
100
AcDbLine
 10
85.5
 20
658.296
 30
0.0
 11
85.5
 21
661.052
 31
0.0
  0
LINE
  5
3EAF
330
1D
100
AcDbEntity
  8
0
100
AcDbLine
 10
85.5
 20
658.296
 30
0.0
 11
85.5
 21
656.216
 31
0.0
  0
LINE
  5
3EB0
330
1D
100
AcDbEntity
  8
0
100
AcDbLine
 10
85.204
 20
689.35
 30
0.0
 11
85.204
 21
734.383
 31
0.0
  0
LINE
  5
3EB1
330
1D
100
AcDbEntity
  8
0
100
AcDbLine
 10
85.204
 20
689.35
 30
0.0
 11
87.284
 21
690.728
 31
0.0
  0
LINE
  5
3EB2
330
1D
100
AcDbEntity
  8
0
100
AcDbLine
 10
85.5
 20
669.698
 30
0.0
 11
85.7871
 21
671.409
 31
0.0
  0
LINE
  5
3EB3
330
1D
100
AcDbEntity
  8
0
100
AcDbLine
 10
85.5
 20
668.568
 30
0.0
 11
85.5
 21
667.5
 31
0.0
  0
LINE
  5
3EB4
330
1D
100
AcDbEntity
  8
0
100
AcDbLine
 10
85.5
 20
668.568
 30
0.0
 11
85.5
 21
669.698
 31
0.0
  0
LINE
  5
3EB5
330
1D
100
AcDbEntity
  8
0
100
AcDbLine
 10
85.5
 20
667.5
 30
0.0
 11
85.5
 21
664.172
 31
0.0
  0
LINE
  5
3EB6
330
1D
100
AcDbEntity
  8
0
100
AcDbLine
 10
85.5
 20
667.5
 30
0.0
 11
85.5
 21
668.568
 31
0.0
  0
LINE
  5
3EB7
330
1D
100
AcDbEntity
  8
0
100
AcDbLine
 10
85.5
 20
661.052
 30
0.0
 11
85.5
 21
664.172
 31
0.0
  0
LINE
  5
3EB8
330
1D
100
AcDbEntity
  8
0
100
AcDbLine
 10
85.5
 20
661.052
 30
0.0
 11
85.5
 21
658.296
 31
0.0
  0
LINE
  5
3EB9
330
1D
100
AcDbEntity
  8
0
100
AcDbLine
 10
85.7871
 20
671.409
 30
0.0
 11
85.9834
 21
674.642
 31
0.0
  0
LINE
  5
3EBA
330
1D
100
AcDbEntity
  8
0
100
AcDbLine
 10
85.9834
 20
674.642
 30
0.0
 11
86.89704298645
 21
690.471640978523
 31
0.0
  0
LINE
  5
3EBB
330
1D
100
AcDbEntity
  8
0
100
AcDbLine
 10
85.5
 20
664.172
 30
0.0
 11
85.5
 21
667.5
 31
0.0
  0
LINE
  5
3EBC
330
1D
100
AcDbEntity
  8
0
100
AcDbLine
 10
85.5
 20
664.172
 30
0.0
 11
85.5
 21
661.052
 31
0.0
  0
LINE
  5
3EBD
330
1D
100
AcDbEntity
  8
0
100
AcDbLine
 10
83.9896
 20
642.633
 30
0.0
 11
84.0306
 21
617.836
 31
0.0
  0
LINE
  5
3EBE
330
1D
100
AcDbEntity
  8
0
100
AcDbLine
 10
83.9347
 20
667.73
 30
0.0
 11
83.9896
 21
642.633
 31
0.0
  0
LINE
  5
3EBF
330
1D
100
AcDbEntity
  8
0
100
AcDbLine
 10
83.788
 20
690.058
 30
0.0
 11
83.788
 21
734.485012628256
 31
0.0
  0
LINE
  5
3EC0
330
1D
100
AcDbEntity
  8
0
100
AcDbLine
 10
83.788
 20
690.058
 30
0.0
 11
85.204
 21
689.35
 31
0.0
  0
LINE
  5
3EC1
330
1D
100
AcDbEntity
  8
0
100
AcDbLine
 10
87.284
 20
690.728
 30
0.0
 11
88.532
 21
692.288
 31
0.0
  0
LINE
  5
3EC2
330
1D
100
AcDbEntity
  8
0
100
AcDbLine
 10
89.0
 20
693.952
 30
0.0
 11
89.0
 21
738.041220779221
 31
0.0
  0
LINE
  5
3EC3
330
1D
100
AcDbEntity
  8
0
100
AcDbLine
 10
88.532
 20
692.288
 30
0.0
 11
89.0
 21
693.952
 31
0.0
  0
LINE
  5
3EC4
330
1D
100
AcDbEntity
  8
0
100
AcDbLine
 10
83.867244266848
 20
690.018377866576
 30
0.0
 11
83.9347
 21
667.73
 31
0.0
  0
LINE
  5
3EC5
330
1D
100
AcDbEntity
  8
0
100
AcDbLine
 10
78.6
 20
708.217
 30
0.0
 11
81.0
 21
708.667
 31
0.0
  0
LINE
  5
3EC6
330
1D
100
AcDbEntity
  8
0
100
AcDbLine
 10
81.0
 20
708.667
 30
0.0
 11
83.1
 21
709.467
 31
0.0
  0
LINE
  5
3EC7
330
1D
100
AcDbEntity
  8
0
100
AcDbLine
 10
83.1
 20
709.467
 30
0.0
 11
83.788
 21
709.9185
 31
0.0
  0
LINE
  5
3EC8
330
1D
100
AcDbEntity
  8
0
100
AcDbLine
 10
73.4
 20
708.217
 30
0.0
 11
76.0
 21
708.017
 31
0.0
  0
LINE
  5
3EC9
330
1D
100
AcDbEntity
  8
0
100
AcDbLine
 10
71.0
 20
708.667
 30
0.0
 11
73.4
 21
708.217
 31
0.0
  0
LINE
  5
3ECD
330
1D
100
AcDbEntity
  8
0
100
AcDbLine
 10
83.788
 20
734.485012628256
 30
0.0
 11
83.788
 21
690.058
 31
0.0
  0
LINE
  5
3ED0
330
1D
100
AcDbEntity
  8
0
100
AcDbLine
 10
84.47690623598
 20
734.74654688201
 30
0.0
 11
85.204
 21
734.383
 31
0.0
  0
LINE
  5
3ED2
330
1D
100
AcDbEntity
  8
0
100
AcDbLine
 10
85.204
 20
734.383
 30
0.0
 11
87.284
 21
735.761
 31
0.0
  0
LINE
  5
3ED3
330
1D
100
AcDbEntity
  8
0
100
AcDbLine
 10
85.204
 20
734.383
 30
0.0
 11
85.204
 21
689.35
 31
0.0
  0
LINE
  5
3EE0
330
1D
100
AcDbEntity
  8
0
100
AcDbLine
 10
76.0
 20
942.0
 30
0.0
 11
97.5
 21
942.0
 31
0.0
  0
LINE
  5
3EE1
330
1D
100
AcDbEntity
  8
0
100
AcDbLine
 10
76.0
 20
942.0
 30
0.0
 11
84.5
 21
942.0
 31
0.0
  0
LINE
  5
3EE2
330
1D
100
AcDbEntity
  8
0
100
AcDbLine
 10
76.0
 20
966.7
 30
0.0
 11
97.5
 21
966.7
 31
0.0
  0
LINE
  5
3EE3
330
1D
100
AcDbEntity
  8
0
100
AcDbLine
 10
76.0
 20
967.0
 30
0.0
 11
97.5
 21
967.0
 31
0.0
  0
LINE
  5
3EE4
330
1D
100
AcDbEntity
  8
0
100
AcDbLine
 10
76.0
 20
942.5
 30
0.0
 11
97.5
 21
942.5
 31
0.0
  0
LINE
  5
3EE9
330
1D
100
AcDbEntity
  8
0
100
AcDbLine
 10
84.5
 20
930.987754143268
 30
0.0
 11
84.5
 21
941.5
 31
0.0
  0
LINE
  5
3EEA
330
1D
100
AcDbEntity
  8
0
100
AcDbLine
 10
84.5
 20
930.987754143268
 30
0.0
 11
84.5
 21
942.0
 31
0.0
  0
LINE
  5
3EEB
330
1D
100
AcDbEntity
  8
0
100
AcDbLine
 10
84.5
 20
942.0
 30
0.0
 11
84.5
 21
941.5
 31
0.0
  0
LINE
  5
3EEC
330
1D
100
AcDbEntity
  8
0
100
AcDbLine
 10
84.5
 20
942.0
 30
0.0
 11
97.5
 21
942.0
 31
0.0
  0
LINE
  5
3EED
330
1D
100
AcDbEntity
  8
0
100
AcDbLine
 10
84.5
 20
942.0
 30
0.0
 11
84.5
 21
930.987754143268
 31
0.0
  0
LINE
  5
3EEE
330
1D
100
AcDbEntity
  8
0
100
AcDbLine
 10
84.5
 20
941.5
 30
0.0
 11
84.5
 21
930.987754143267
 31
0.0
  0
LINE
  5
3EEF
330
1D
100
AcDbEntity
  8
0
100
AcDbLine
 10
84.5
 20
941.5
 30
0.0
 11
97.5
 21
941.5
 31
0.0
  0
LINE
  5
3EF0
330
1D
100
AcDbEntity
  8
0
100
AcDbLine
 10
84.5
 20
941.5
 30
0.0
 11
84.5
 21
942.0
 31
0.0
  0
LINE
  5
3EF9
330
1D
100
AcDbEntity
  8
0
100
AcDbLine
 10
87.284
 20
735.761
 30
0.0
 11
88.532
 21
737.321
 31
0.0
  0
LINE
  5
3EFA
330
1D
100
AcDbEntity
  8
0
100
AcDbLine
 10
89.0
 20
738.041220779221
 30
0.0
 11
89.0
 21
693.952
 31
0.0
  0
LINE
  5
3EFD
330
1D
100
AcDbEntity
  8
0
100
AcDbLine
 10
97.5
 20
941.5
 30
0.0
 11
98.2
 21
941.5
 31
0.0
  0
LINE
  5
3EFE
330
1D
100
AcDbEntity
  8
0
100
AcDbLine
 10
97.5
 20
942.0
 30
0.0
 11
97.85
 21
942.0
 31
0.0
  0
LINE
  5
3EFF
330
1D
100
AcDbEntity
  8
0
100
AcDbLine
 10
97.5
 20
942.0
 30
0.0
 11
97.5
 21
942.5
 31
0.0
  0
LINE
  5
3F00
330
1D
100
AcDbEntity
  8
0
100
AcDbLine
 10
98.0
 20
942.0
 30
0.0
 11
98.5
 21
941.5
 31
0.0
  0
LINE
  5
3F01
330
1D
100
AcDbEntity
  8
0
100
AcDbLine
 10
98.2
 20
821.681014000956
 30
0.0
 11
98.2
 21
483.5
 31
0.0
  0
LINE
  5
3F02
330
1D
100
AcDbEntity
  8
0
100
AcDbLine
 10
98.2
 20
941.5
 30
0.0
 11
98.5
 21
941.5
 31
0.0
  0
LINE
  5
3F03
330
1D
100
AcDbEntity
  8
0
100
AcDbLine
 10
97.85
 20
942.0
 30
0.0
 11
98.0
 21
942.0
 31
0.0
  0
LINE
  5
3F04
330
1D
100
AcDbEntity
  8
0
100
AcDbLine
 10
97.85
 20
942.0
 30
0.0
 11
98.2
 21
942.5
 31
0.0
  0
LINE
  5
3F05
330
1D
100
AcDbEntity
  8
0
100
AcDbLine
 10
97.85
 20
942.0
 30
0.0
 11
98.2
 21
941.5
 31
0.0
  0
LINE
  5
3F06
330
1D
100
AcDbEntity
  8
0
100
AcDbLine
 10
97.5
 20
942.5
 30
0.0
 11
98.2
 21
942.5
 31
0.0
  0
LINE
  5
3F07
330
1D
100
AcDbEntity
  8
0
100
AcDbLine
 10
98.2
 20
966.0
 30
0.0
 11
98.2
 21
942.5
 31
0.0
  0
LINE
  5
3F08
330
1D
100
AcDbEntity
  8
0
100
AcDbLine
 10
98.5
 20
942.5
 30
0.0
 11
98.5
 21
966.0
 31
0.0
  0
LINE
  5
3F09
330
1D
100
AcDbEntity
  8
0
100
AcDbLine
 10
98.2
 20
942.5
 30
0.0
 11
98.5
 21
942.5
 31
0.0
  0
LINE
  5
3F0A
330
1D
100
AcDbEntity
  8
0
100
AcDbLine
 10
98.2
 20
942.5
 30
0.0
 11
98.2
 21
966.0
 31
0.0
  0
LINE
  5
3F0B
330
1D
100
AcDbEntity
  8
0
100
AcDbLine
 10
97.5
 20
966.7
 30
0.0
 11
98.0
 21
966.7
 31
0.0
  0
LINE
  5
3F0C
330
1D
100
AcDbEntity
  8
0
100
AcDbLine
 10
98.2
 20
966.7
 30
0.0
 11
98.5
 21
966.0
 31
0.0
  0
LINE
  5
3F0D
330
1D
100
AcDbEntity
  8
0
100
AcDbLine
 10
98.0
 20
966.7
 30
0.0
 11
98.2
 21
966.7
 31
0.0
  0
LINE
  5
3F0E
330
1D
100
AcDbEntity
  8
0
100
AcDbLine
 10
98.0
 20
966.7
 30
0.0
 11
98.2
 21
966.0
 31
0.0
  0
LINE
  5
3F0F
330
1D
100
AcDbEntity
  8
0
100
AcDbLine
 10
98.5
 20
966.0
 30
0.0
 11
98.5
 21
942.5
 31
0.0
  0
LINE
  5
3F14
330
1D
100
AcDbEntity
  8
0
100
AcDbLine
 10
68.9
 20
709.467
 30
0.0
 11
71.0
 21
708.667
 31
0.0
  0
LINE
  5
3F15
330
1D
100
AcDbEntity
  8
0
100
AcDbLine
 10
68.212
 20
709.9185
 30
0.0
 11
68.9
 21
709.467
 31
0.0
  0
LINE
  5
3F16
330
1D
100
AcDbEntity
  8
0
100
AcDbLine
 10
53.5
 20
941.5
 30
0.0
 11
53.5
 21
929.142221007194
 31
0.0
  0
LINE
  5
3F17
330
1D
100
AcDbEntity
  8
0
100
AcDbLine
 10
53.8
 20
941.5
 30
0.0
 11
53.8
 21
929.234227793296
 31
0.0
  0
LINE
  5
3F18
330
1D
100
AcDbEntity
  8
0
100
AcDbLine
 10
98.5
 20
941.5
 30
0.0
 11
98.5
 21
929.142221007194
 31
0.0
  0
LINE
  5
3F19
330
1D
100
AcDbEntity
  8
0
100
AcDbLine
 10
98.2
 20
941.5
 30
0.0
 11
98.2
 21
929.234227793296
 31
0.0
  0
ENDSEC
  0
SECTION
  2
OBJECTS
  0
DICTIONARY
  5
C
330
0
100
AcDbDictionary
281
     1
  3
ACAD_GROUP
350
D
  3
ACAD_LAYOUT
350
1A
  3
ACAD_MLEADERSTYLE
350
3F1C
  3
ACAD_MLINESTYLE
350
17
  3
ACAD_PLOTSETTINGS
350
19
  3
ACAD_PLOTSTYLENAME
350
E
  3
ACAD_SCALELIST
350
33A2
  3
AcDbVariableDictionary
350
3F1A
  3
DWGPROPS
350
3F1F
  0
DICTIONARY
  5
D
102
{ACAD_REACTORS
330
C
102
}
330
C
100
AcDbDictionary
281
     1
  0
DICTIONARY
  5
1A
102
{ACAD_REACTORS
330
C
102
}
330
C
100
AcDbDictionary
281
     1
  3
Layout1
350
1C
  3
Model
350
1E
  0
DICTIONARY
  5
3F1C
102
{ACAD_REACTORS
330
C
102
}
330
C
100
AcDbDictionary
281
     1
  0
DICTIONARY
  5
17
102
{ACAD_REACTORS
330
C
102
}
330
C
100
AcDbDictionary
281
     1
  3
Standard
350
18
  0
DICTIONARY
  5
19
102
{ACAD_REACTORS
330
C
102
}
330
C
100
AcDbDictionary
281
     1
  0
ACDBDICTIONARYWDFLT
  5
E
102
{ACAD_REACTORS
330
C
102
}
330
C
100
AcDbDictionary
281
     1
  3
Normal
350
F
100
AcDbDictionaryWithDefault
340
F
  0
DICTIONARY
  5
33A2
102
{ACAD_REACTORS
330
C
102
}
330
C
100
AcDbDictionary
281
     1
  3
A0
350
33A3
  3
A1
350
33A4
  3
A2
350
33A5
  3
A3
350
33A6
  3
A4
350
33A7
  3
A5
350
33A8
  3
A6
350
33A9
  3
A7
350
33AA
  3
A8
350
33AB
  3
A9
350
33AC
  3
B0
350
33AD
  3
B1
350
33AE
  3
B2
350
33AF
  3
B3
350
33B0
  3
B4
350
33B1
  3
B5
350
33B2
  3
B6
350
33B3
  3
B7
350
33B4
  3
B8
350
33B5
  3
B9
350
33B6
  3
C0
350
33B7
  3
C1
350
33B8
  3
C2
350
33B9
  3
C3
350
33BA
  3
C4
350
33BB
  3
C5
350
33BC
  3
C6
350
33BD
  3
C7
350
33BE
  3
C8
350
33BF
  3
C9
350
33C0
  3
D0
350
33C1
  3
D1
350
33C2
  3
D2
350
33C3
  0
DICTIONARY
  5
3F1A
102
{ACAD_REACTORS
330
C
102
}
330
C
100
AcDbDictionary
281
     1
  3
CANNOSCALE
350
3F1D
  0
XRECORD
  5
3F1F
102
{ACAD_REACTORS
330
C
102
}
330
C
100
AcDbXrecord
280
     1
  1
DWGPROPS COOKIE
  2

  3

  4

  6

  7

  8
MARTIN
  9

300
=
301
=
302
=
303
=
304
=
305
=
306
=
307
=
308
=
309
=
 40
0.0
 41
2455870.822665
 42
2455870.826336331
  1

 90
        0
  0
LAYOUT
  5
1C
102
{ACAD_REACTORS
330
1A
102
}
330
1A
100
AcDbPlotSettings
  1

  2
none_device
  4

  6

 40
0.0
 41
0.0
 42
0.0
 43
0.0
 44
0.0
 45
0.0
 46
0.0
 47
0.0
 48
0.0
 49
0.0
140
0.0
141
0.0
142
1.0
143
1.0
 70
   688
 72
     0
 73
     0
 74
     5
  7

 75
    16
147
1.0
148
0.0
149
0.0
100
AcDbLayout
  1
Layout1
 70
     1
 71
     1
 10
0.0
 20
0.0
 11
12.0
 21
9.0
 12
0.0
 22
0.0
 32
0.0
 14
1.000000000000E+20
 24
1.000000000000E+20
 34
1.000000000000E+20
 15
-1.000000000000E+20
 25
-1.000000000000E+20
 35
-1.000000000000E+20
146
0.0
 13
0.0
 23
0.0
 33
0.0
 16
1.0
 26
0.0
 36
0.0
 17
0.0
 27
1.0
 37
0.0
 76
     0
330
1B
  0
LAYOUT
  5
1E
102
{ACAD_REACTORS
330
1A
102
}
330
1A
100
AcDbPlotSettings
  1

  2
none_device
  4

  6

 40
0.0
 41
0.0
 42
0.0
 43
0.0
 44
0.0
 45
0.0
 46
0.0
 47
0.0
 48
0.0
 49
0.0
140
0.0
141
0.0
142
1.0
143
1.0
 70
  1712
 72
     0
 73
     0
 74
     0
  7

 75
     0
147
1.0
148
0.0
149
0.0
100
AcDbLayout
  1
Model
 70
     1
 71
     0
 10
0.0
 20
0.0
 11
12.0
 21
9.0
 12
0.0
 22
0.0
 32
0.0
 14
0.0
 24
0.0
 34
0.0
 15
152.0
 25
967.0
 35
0.0
146
0.0
 13
0.0
 23
0.0
 33
0.0
 16
1.0
 26
0.0
 36
0.0
 17
0.0
 27
1.0
 37
0.0
 76
     0
330
1D
331
339D
  0
MLINESTYLE
  5
18
102
{ACAD_REACTORS
330
17
102
}
330
17
100
AcDbMlineStyle
  2
Standard
 70
     0
  3

 62
   256
 51
90.0
 52
90.0
 71
     2
 49
0.5
 62
   256
  6
BYLAYER
 49
-0.5
 62
   256
  6
BYLAYER
  0
ACDBPLACEHOLDER
  5
F
102
{ACAD_REACTORS
330
E
102
}
330
E
  0
SCALE
  5
33A3
102
{ACAD_REACTORS
330
33A2
102
}
330
33A2
100
AcDbScale
 70
     0
300
1:1
140
1.0
141
1.0
290
     1
  0
SCALE
  5
33A4
102
{ACAD_REACTORS
330
33A2
102
}
330
33A2
100
AcDbScale
 70
     0
300
1:2
140
1.0
141
2.0
290
     0
  0
SCALE
  5
33A5
102
{ACAD_REACTORS
330
33A2
102
}
330
33A2
100
AcDbScale
 70
     0
300
1:4
140
1.0
141
4.0
290
     0
  0
SCALE
  5
33A6
102
{ACAD_REACTORS
330
33A2
102
}
330
33A2
100
AcDbScale
 70
     0
300
1:5
140
1.0
141
5.0
290
     0
  0
SCALE
  5
33A7
102
{ACAD_REACTORS
330
33A2
102
}
330
33A2
100
AcDbScale
 70
     0
300
1:8
140
1.0
141
8.0
290
     0
  0
SCALE
  5
33A8
102
{ACAD_REACTORS
330
33A2
102
}
330
33A2
100
AcDbScale
 70
     0
300
1:10
140
1.0
141
10.0
290
     0
  0
SCALE
  5
33A9
102
{ACAD_REACTORS
330
33A2
102
}
330
33A2
100
AcDbScale
 70
     0
300
1:16
140
1.0
141
16.0
290
     0
  0
SCALE
  5
33AA
102
{ACAD_REACTORS
330
33A2
102
}
330
33A2
100
AcDbScale
 70
     0
300
1:20
140
1.0
141
20.0
290
     0
  0
SCALE
  5
33AB
102
{ACAD_REACTORS
330
33A2
102
}
330
33A2
100
AcDbScale
 70
     0
300
1:30
140
1.0
141
30.0
290
     0
  0
SCALE
  5
33AC
102
{ACAD_REACTORS
330
33A2
102
}
330
33A2
100
AcDbScale
 70
     0
300
1:40
140
1.0
141
40.0
290
     0
  0
SCALE
  5
33AD
102
{ACAD_REACTORS
330
33A2
102
}
330
33A2
100
AcDbScale
 70
     0
300
1:50
140
1.0
141
50.0
290
     0
  0
SCALE
  5
33AE
102
{ACAD_REACTORS
330
33A2
102
}
330
33A2
100
AcDbScale
 70
     0
300
1:100
140
1.0
141
100.0
290
     0
  0
SCALE
  5
33AF
102
{ACAD_REACTORS
330
33A2
102
}
330
33A2
100
AcDbScale
 70
     0
300
2:1
140
2.0
141
1.0
290
     0
  0
SCALE
  5
33B0
102
{ACAD_REACTORS
330
33A2
102
}
330
33A2
100
AcDbScale
 70
     0
300
4:1
140
4.0
141
1.0
290
     0
  0
SCALE
  5
33B1
102
{ACAD_REACTORS
330
33A2
102
}
330
33A2
100
AcDbScale
 70
     0
300
8:1
140
8.0
141
1.0
290
     0
  0
SCALE
  5
33B2
102
{ACAD_REACTORS
330
33A2
102
}
330
33A2
100
AcDbScale
 70
     0
300
10:1
140
10.0
141
1.0
290
     0
  0
SCALE
  5
33B3
102
{ACAD_REACTORS
330
33A2
102
}
330
33A2
100
AcDbScale
 70
     0
300
100:1
140
100.0
141
1.0
290
     0
  0
SCALE
  5
33B4
102
{ACAD_REACTORS
330
33A2
102
}
330
33A2
100
AcDbScale
 70
     0
300
1/128" = 1'-0"
140
0.0078125
141
12.0
290
     0
  0
SCALE
  5
33B5
102
{ACAD_REACTORS
330
33A2
102
}
330
33A2
100
AcDbScale
 70
     0
300
1/64" = 1'-0"
140
0.015625
141
12.0
290
     0
  0
SCALE
  5
33B6
102
{ACAD_REACTORS
330
33A2
102
}
330
33A2
100
AcDbScale
 70
     0
300
1/32" = 1'-0"
140
0.03125
141
12.0
290
     0
  0
SCALE
  5
33B7
102
{ACAD_REACTORS
330
33A2
102
}
330
33A2
100
AcDbScale
 70
     0
300
1/16" = 1'-0"
140
0.0625
141
12.0
290
     0
  0
SCALE
  5
33B8
102
{ACAD_REACTORS
330
33A2
102
}
330
33A2
100
AcDbScale
 70
     0
300
3/32" = 1'-0"
140
0.09375
141
12.0
290
     0
  0
SCALE
  5
33B9
102
{ACAD_REACTORS
330
33A2
102
}
330
33A2
100
AcDbScale
 70
     0
300
1/8" = 1'-0"
140
0.125
141
12.0
290
     0
  0
SCALE
  5
33BA
102
{ACAD_REACTORS
330
33A2
102
}
330
33A2
100
AcDbScale
 70
     0
300
3/16" = 1'-0"
140
0.1875
141
12.0
290
     0
  0
SCALE
  5
33BB
102
{ACAD_REACTORS
330
33A2
102
}
330
33A2
100
AcDbScale
 70
     0
300
1/4" = 1'-0"
140
0.25
141
12.0
290
     0
  0
SCALE
  5
33BC
102
{ACAD_REACTORS
330
33A2
102
}
330
33A2
100
AcDbScale
 70
     0
300
3/8" = 1'-0"
140
0.375
141
12.0
290
     0
  0
SCALE
  5
33BD
102
{ACAD_REACTORS
330
33A2
102
}
330
33A2
100
AcDbScale
 70
     0
300
1/2" = 1'-0"
140
0.5
141
12.0
290
     0
  0
SCALE
  5
33BE
102
{ACAD_REACTORS
330
33A2
102
}
330
33A2
100
AcDbScale
 70
     0
300
3/4" = 1'-0"
140
0.75
141
12.0
290
     0
  0
SCALE
  5
33BF
102
{ACAD_REACTORS
330
33A2
102
}
330
33A2
100
AcDbScale
 70
     0
300
1" = 1'-0"
140
1.0
141
12.0
290
     0
  0
SCALE
  5
33C0
102
{ACAD_REACTORS
330
33A2
102
}
330
33A2
100
AcDbScale
 70
     0
300
1-1/2" = 1'-0"
140
1.5
141
12.0
290
     0
  0
SCALE
  5
33C1
102
{ACAD_REACTORS
330
33A2
102
}
330
33A2
100
AcDbScale
 70
     0
300
3" = 1'-0"
140
3.0
141
12.0
290
     0
  0
SCALE
  5
33C2
102
{ACAD_REACTORS
330
33A2
102
}
330
33A2
100
AcDbScale
 70
     0
300
6" = 1'-0"
140
6.0
141
12.0
290
     0
  0
SCALE
  5
33C3
102
{ACAD_REACTORS
330
33A2
102
}
330
33A2
100
AcDbScale
 70
     0
300
1'-0" = 1'-0"
140
12.0
141
12.0
290
     0
  0
DICTIONARYVAR
  5
3F1D
102
{ACAD_REACTORS
330
3F1A
102
}
330
3F1A
100
DictionaryVariables
280
     0
  1
1:1
  0
ENDSEC
  0
SECTION
  2
THUMBNAILIMAGE
 90
    16364
310
28000000B40000005500000001000800000000000000000000000000000000000000000000000000FFFFFF000000FF0000FFFF0000FF0000FFFF0000FF000000FF00FF000000000080808000C0C0C0000000FF007F7FFF000000A5005252A50000007F003F3F7F0000004C0026264C000000260013132600003FFF007F9FFF
310
000029A5005267A500001F7F003F4F7F0000134C00262F4C000009260013172600007FFF007FBFFF000052A500527CA500003F7F003F5F7F0000264C0026394C0000132600131C260000BFFF007FDFFF00007CA5005291A500005F7F003F6F7F0000394C0026424C00001C26001321260000FFFF007FFFFF0000A5A50052A5
310
A500007F7F003F7F7F00004C4C00264C4C00002626001326260000FFBF007FFFDF0000A57C0052A59100007F5F003F7F6F00004C3900264C420000261C001326210000FF7F007FFFBF0000A5520052A57C00007F3F003F7F5F00004C2600264C39000026130013261C0000FF3F007FFF9F0000A5290052A56700007F1F003F
310
7F4F00004C1300264C2F00002609001326170000FF00007FFF7F0000A5000052A55200007F00003F7F3F00004C0000264C260000260000132613003FFF00009FFF7F0029A5000067A552001F7F00004F7F3F00134C00002F4C260009260000172613007FFF0000BFFF7F0052A500007CA552003F7F00005F7F3F00264C0000
310
394C2600132600001C261300BFFF0000DFFF7F007CA5000091A552005F7F00006F7F3F00394C0000424C26001C26000021261300FFFF0000FFFF7F00A5A50000A5A552007F7F00007F7F3F004C4C00004C4C26002626000026261300FFBF0000FFDF7F00A57C0000A59152007F5F00007F6F3F004C3900004C422600261C00
310
0026211300FF7F0000FFBF7F00A5520000A57C52007F3F00007F5F3F004C2600004C39260026130000261C1300FF3F0000FF9F7F00A5290000A56752007F1F00007F4F3F004C1300004C2F26002609000026171300FF000000FF7F7F00A5000000A55252007F0000007F3F3F004C0000004C2626002600000026131300FF00
310
3F00FF7F9F00A5002900A55267007F001F007F3F4F004C0013004C262F002600090026131700FF007F00FF7FBF00A5005200A5527C007F003F007F3F5F004C0026004C2639002600130026131C00FF00BF00FF7FDF00A5007C00A55291007F005F007F3F6F004C0039004C26420026001C0026132100FF00FF00FF7FFF00A5
310
00A500A552A5007F007F007F3F7F004C004C004C264C002600260026132600BF00FF00DF7FFF007C00A5009152A5005F007F006F3F7F0039004C0042264C001C002600211326007F00FF00BF7FFF005200A5007C52A5003F007F005F3F7F0026004C0039264C00130026001C1326003F00FF009F7FFF002900A5006752A500
310
1F007F004F3F7F0013004C002F264C000900260017132600000000002D2D2D005B5B5B0089898900B7B7B700B3B3B30000000000000000000000000000000000000000000000000000000000000000000000000000000000000000000000000000000000000000000000000000000000000000000000000000000000000000
310
00000000000000000000000000000000000000000000000000000000000000000000000000000000000000000000000000000000000000000000000000000000000000000000000000000000000000000000000000000000000000000000000000000000000000000000000000000000000000000000000000000000000000
310
00000000000000000000000000000000000000000000000000000000000000000000000000000000000000000000000000000000000000000000000000000000000000000000000000000000000000000000000000000000000000000000000000000000000000000000000000000000000000000000000000000000000000
310
00000000000000000000000000000000000000000000000000000000000000000000000000000000000000000000000000000000000000000000000000000000000000000000000000000000000000000000000000000000000000000000000000000000000000000000000000000000000000000000000000000000000000
310
00000000000000000000000000000000000000000000000000000000000000000000000000000000000000000000000000000000000000000000000000000000000000000000000000000000000000000000000000000000000000000000000000000000000000000000000000000000000000000000000000000000000000
310
00000000000000000000000000000000000000000000000000000000000000000000000000000000000707070707000000000000000000000000000000000000000000000000000000000000000000000000000000000000000000000000000000000000000000000000000000000000000000000000000000000000000000
310
00000000000000000000000000000000000000000000000000000000000000000000000000000000000000000000000000000000000000000000000000000000000000000000000000000000000000000000000000000000000000000000070700070700000000000000000000000000000000000000000000000000000000
310
00000000000000000000000000000000000000000000000000000000000000000000000000000000000000000000000000000000000000000000000000000000000000000000000000000000000000000000000000000000000000000000000000000000000000000000000000000000000000000000000000000000000000
310
00000000000000000000000000000000000000000707070707000000000000000000000000000000000000000000000000000000000000000000000000000000000000000000000000000000000000000000000000000000000000000000000000000000000000000000000000000000000000000000000000000000000000
310
00000000000000000000000000000000000000000000000000000000000000000000000000000000000000000000000000000000000000000000000000000000000000000000000000070707070700000000000000000000000000000000000000000000000000000000000000000000000000000000000000000000000000
310
00000000000000000000000000000000000000000000000000000000000000000000000000000000000000000000000000000000000000000000000000000000000000000000000000000000000000000000000000000000000000000000000000000000000000000000000000000000000000000000000000000000000007
310
07000707000000000000000000000000000000000000000000000000000000000000000000000000000000000000000000000000000000000000000000000000000000000000000000000000000000000000000000000000000000000000000000000000000000000000000000000000000000000000000000000000000000
310
00000000000000000000000000000000000000000000000000000000000000000000000000000000000000000000000000000000070700070700000000000000000000000000000000000000000000000000000000000000000000000000000000000000000000000000000000000000000000000000000000000000000000
310
00000000000000000000000000000000000000000000000000000000000000000000000000000000000000000000000000000000000000000000000000000000000000000000000000000000000000000000000000000000000000000000000000000000000000000007070007070000000000000000000000000000000000
310
00000000000000000000000000000000000000000000000000000000000000000000000000000000000000000000000000000000000000000000000000000000000000000000000000000000000000000000000000000000000000000000000000000000000000000000000000000000000000000000000000000000000000
310
00000000000000000000000000000000000000000000000000000000000000070700070700000000000000000000000000000000000000000000000000000000000000000000000000000000000000000000000000000000000000000000000000000000000000000000000000000000000000000000000000000000000000
310
00000000000000000000000000000000000000000000000000000000000000000000000000000000000000000000000000000000000000000000000000000000000000000000000000000000000000000000000007070007070000000000000000000000000000000000000000000000000000000000000000000000000000
310
00000000000000000000000000000000000000000000000000000000000000000000000000000000000000000000000000000000000000000000000000000000000000000000000000000000000000000000000000000000000000000000000000000000000000000000000000000000000000000000000000000000000000
310
00000000000000000000070700070700000000000000000000000000000000000000000000000000000000000000000000000000000000000000000000000000000000000000000000000000000000000000000000000000000000000000000000000000000000000000000000000000000000000000000000000000000000
310
00000000000000000000000000000000000000000000000000000000000000000000000000000000000000000000000000000000000000000000000000000007070007070000000000000000000000000000000000000000000000000000000000000000000000000000000000000000000000000000000000000000000000
310
00000000000000000000000000000000000000000000000000000000000000000000000000000000000000000000000000000000000000000000000000000000000000000000000000000000000000000000000000000000000000000000000000000000000000000000000000000000000000000707000707000000000000
310
00000000000000000000000000000000000000000000000000000000000000000000000000000000000000000000000000000000000000000000000000000000000000000000000000000000000000000000000000000000000000000000000000000000000000000000000000000000000000000000000000000000000000
310
00000000000000000000000000000000000000000000000000000000000000000000000000000000000007070007070000000000000000000000000000000000000000000000000000000000000000000000000000000000000000000000000000000000000000000000000000000000000000000000000000000000000000
310
00000000000000000000000000000000000000000000000000000000000000000000000000000000000000000000000000000000000000000000000000000000000000000000000000000000000000000000000000000000000000000000000707000707000000000000000000000000000000000000000000000000000000
310
00000000000000000000000000000000000000000000000000000000000000000000000000000000000000000000000000000000000000000000000000000000000000000000000000000000000000000000000000000000000000000000000000000000000000000000000000000000000000000000000000000000000000
310
00000000000000000000000000000000000000000007070007070000000000000000000000000000000000000000000000000000000000000000000000000000000000000000000000000000000000000000000000000000000000000000000000000000000000000000000000000000000000000000000000000000000000
310
00000000000000000000000000000000000000000000000000000000000000000000000000000000000000000000000000000000000000000000000000000000000000000000000000000707000707000000000000000000000000000000000000000000000000000000000000000000000000000000000000000000000000
310
00000000000000000000000000000000000000000000000000000000000000000000000000000000000000000000000000000000000000000000000000000000000000000000000000000000000000000000000000000000000000000000000000000000000000000000000000000000000000000000000000000000000000
310
07070007070000000000000000000000000000000000000000000000000000000000000000000000000000000000000000000000000000000000000000000000000000000000000000000000000000000000000000000000000000000000000000000000000000000000000000000000000000000000000000000000000000
310
00000000000000000000000000000000000000000000000000000000000000000000000000000000000000000000000000000000000707000707000000000000000000000000000000000000000000000000000000000000000000000000000000000000000000000000000000000000000000000000000000000000000000
310
00000000000000000000000000000000000000000000000000000000000000000000000000000000000000000000000000000000000000000000000000000000000000000000000000000000000000000000000000000000000000000000000000000000000000000000070700070700000000000000000000000000000000
310
00000000000000000000000000000000000000000000000000000000000000000000000000000000000000000000000000000000000000000000000000000000000000000000000000000000000000000000000000000000000000000000000000000000000000000000000000000000000000000000000000000000000000
310
00000000000000000000000000000000000000000000000000000000000000000707000707000000000000000000000000000000000000000000000000000000000000000000000000000000000000000000000000000000000000000000000000000000000000000000000000000000000000000000000000000000000000
310
00000000000000000000000000000000000000000000000000000000000000000000000000000000000000000000000000000000000000000000000000000000000000000000000000000000000000000000000000070700070700000000000000000000000000000000000000000000000000000000000000000000000000
310
00000000000000000000000000000000000000000000000000000000000000000000000000000000000000000000000000000000000000000000000000000000000000000000000000000000000000000000000000000000000000000000000000000000000000000000000000000000000000000000000000000000000000
310
00000000000000000000000707000707000000000000000000000000000000000000000000000000000000000000000000000000000000000000000000000000000000000000000000000000000000000000000000000000000000000000000000000000000000000000000000000000000000000000000000000000000000
310
00000000000000000000000000000000000000000000000000000000000000000000000000000000000000000000000000000000000000000000000000000000070700070700000000000000000000000000000000000000000000000000000000000000000000000000000000000000000000000000000000000000000000
310
00000000000000000000000000000000000000000000000000000000000000000000000000000000000000000000000000000000000000000000000000000000000000000000000000000000000000000000000000000000000000000000000000000000000000000000000000000000000000000007070007070000000000
310
00000000000000000000000000000000000000000000000000000000000000000000000000000000000000000000000000000000000000000000000000000000000000000000000000000000000000000000000000000000000000000000000000000000000000000000000000000000000000000000000000000000000000
310
00000000000000000000000000000000000000000000000000000000000000000000000000000000000000070700070700000000000000000000000000000000000000000000000000000000000000000000000000000000000000000000000000000000000000000000000000000000000000000000000000000000000000
310
00000000000000000000000000000000000000000000000000000000000000000000000000000000000000000000000000000000000000000000000000000000000000000000000000000000000000000000000000000000000000000000000007070007070000000000000000000000000000000000000000000000000000
310
00000000000000000000000000000000000000000000000000000000000000000000000000000000000000000000000000000000000000000000000000000000000000000000000000000000000000000000000000000000000000000000000000000000000000000000000000000000000000000000000000000000000000
310
00000000000000000000000000000000000000000000070700070700000000000000000000000000000000000000000000000000000000000000000000000000000000000000000000000000000000000000000000000000000000000000000000000000000000000000000000000000000000000000000000000000000000
310
00000000000000000000000000000000000000000000000000000000000000000000000000000000000000000000000000000000000000000000000000000000000000000000000000000007070007070000000000000000000000000000000000000000000000000000000000000000000000000000000000000000000000
310
00000000000000000000000000000000000000000000000000000000000000000000000000000000000000000000000000000000000000000000000000000000000000000000000000000000000000000000000000000000000000000000000000000000000000000000000000000000000000000000000000000000000000
310
00070700070700000000000000000000000000000000000000000000000000000000000000000000000000000000000000000000000000000000000000000000000000000000000000000000000000000000000000000000000000000000000000000000000000000000000000000000000000000000000000000000000000
310
00000000000000000000000000000000000000000000000000000000000000000000000000000000000000000000000000000000000007070007070000000000000000000000000000000000000000000000000000000000000000000000000000000000000000000000000000000000000000000000000000000000000000
310
00000000000000000000000000000000000000000000000000000000000000000000000000000000000000000000000000000000000000000000000000000000000000000000000000000000000000000000000000000000000000000000000000000000000000000000000707000707000000000000000000000000000000
310
00000000000000000000000000000000000000000000000000000000000000000000000000000000000000000000000000000000000000000000000000000000000000000000000000000000000000000000000000000000000000000000000000000000000000000000000000000000000000000000000000000000000000
310
00000000000000000000000000000000000000000000000000000000000000000007070007070000000000000000000000000000000000000000000000000000000000000000000000000000000000000000000000000000000000000000000000000000000000000000000000000000000000000000000000000000000000
310
00000000000000000000000000000000000000000000000000000000000000000000000000000000000000000000000000000000000000000000000000000000000000000000000000000000000000000000000000000707000707000000000000000000000000000000000000000000000000000000000000000000000000
310
00000000000000000000000000000000000000000000000000000000000000000000000000000000000000000000000000000000000000000000000000000000000000000000000000000000000000000000000000000000000000000000000000000000000000000000000000000000000000000000000000000000000000
310
00000000000000000000000007070007070000000000000000000000000000000000000000000000000000000000000000000000000000000000000000000000000000000000000000000000000000000000000000000000000000000000000000000000000000000000000000000000000000000000000000000000000000
310
00000000000000000000000000000000000000000000000000000000000000000000000000000000000000000000000000000000000000000000000000000000000707000707000000000000000000000000000000000000000000000000000000000000000000000000000000000000000000000000000000000000000000
310
00000000000000000000000000000000000000000000000000000000000000000000000000000000000000000000000000000000000000000000000000000000000000000000000000000000000000000000000000000000000000000000000000000000000000000000000000000000000000000000070700070700000000
310
00000000000000000000000000000000000000000000000000000000000000000000000000000000000000000000000000000000000000000000000000000000000000000000000000000000000000000000000000000000000000000000000000000000000000000000000000000000000000000000000000000000000000
310
00000000000000000000000000000000000000000000000000000000000000000000000000000000000000000707000707000000000000000000000000000000000000000000000000000000000000000000000000000000000000000000000000000000000000000000000000000000000000000000000000000000000000
310
00000000000000000000000000000000000000000000000000000000000000000000000000000000000000000000000000000000000000000000000000000000000000000000000000000000000000000000000000000000000000000000000000070700070700000000000000000000000000000000000000000000000000
310
00000000000000000000000000000000000000000000000000000000000000000000000000000000000000000000000000000000000000000000000000000000000000000000000000000000000000000000000000000000000000000000000000000000000000000000000000000000000000000000000000000000000000
310
00000000000000000000000000000000000000000000000707000707000000000000000000000000000000000000000000000000000000000000000000000000000000000000000000000000000000000000000000000000000000000000000000000000000000000000000000000000000000000000000000000000000000
310
00000000000000000000000000000000000000000000000000000000000000000000000000000000000000000000000000000000000000000000000000000000000000000000000000000000070700070700000000000000000000000000000000000000000000000000000000000000000000000000000000000000000000
310
00000000000000000000000000000000000000000000000000000000000000000000000000000000000000000000000000000000000000000000000000000000000000000000000000000000000000000000000000000000000000000000000000000000000000000000000000000000000000000000000000000000000000
310
00000707000707000000000000000000000000000000000000000000000000000000000000000000000000000000000000000000000000000000000000000000000000000000000000000000000000000000000000000000000000000000000000000000000000000000000000000000000000000000000000000000000000
310
00000000000000000000000000000000000000000000000000000000000000000000000000000000000000000000000000000000000000070700070700000000000000000000000000000000000000000000000000000000000000000000000000000000000000000000000000000000000000000000000000000000000000
310
00000000000000000000000000000000000000000000000000000000000000000000000000000000000000000000000000000000000000000000000000000000000000000000000000000000000000000000000000000000000000000000000000000000000000000000000007070007070000000000000000000000000000
310
00000000000000000000000000000000000000000000000000000000000000000000000000000000000000000000000000000000000000000000000000000000000000000000000000000000000000000000000000000000000000000000000000000000000000000000000000000000000000000000000000000000000000
310
00000000000000000000000000000000000000000000000000000000000000000000070700070700000000000000000000000000000000000000000000000000000000000000000000000000000000000000000000000000000000000000000000000000000000000000000000000000000000000000000000000000000000
310
00000000000000000000000000000000000000000000000000000000000000000000000000000000000000000000000000000000000000000000000000000000000000000000000000000000000000000000000000000007070007070000000000000000000000000000000000000000000000000000000000000000000000
310
00000000000000000000000000000000000000000000000000000000000000000000000000000000000000000000000000000000000000000000000000000000000000000000000000000000000000000000000000000000000000000000000000000000000000000000000000000000000000000000000000000000000000
310
00000000000000000000000000070700070700000000000000000000000000000000000000000000000000000000000000000000000000000000000000000000000000000000000000000000000000000000000000000000000000000000000000000000000000000000000000000000000000000000000000000000000000
310
00000000000000000000000000000000000000000000000000000000000000000000000000000000000000000000000000000000000000000000000000000000000007070007070000000000000000000000000000000000000000000000000000000000000000000000000000000000000000000000000000000000000000
310
00000000000000000000000000000000000000000000000000000000000000000000000000000000000000000000000000000000000000000000000000000000000000000000000000000000000000000000000000000000000000000000000000000000000000000000000000000000000000000000000707000707000000
310
00000000000000000000000000000000000000000000000000000000000000000000000000000000000000000000000000000000000000000000000000000000000000000000000000000000000000000000000000000000000000000000000000000000000000000000000000000000000000000000000000000000000000
310
00000000000000000000000000000000000000000000000000000000000000000000000000000000000000000007070007070000000000000000000000000000000000000000000000000000000000000000000000000000000000000000000000000000000000000000000000000000000000000000000000000000000000
310
00000000000000000000000000000000000000000000000000000000000000000000000000000000000000000000000000000000000000000000000000000000000000000000000000000000000000000000000000000000000000000000000000000707000707000000000000000000000000000000000000000000000000
310
00000000000000000000000000000000000000000000000000000000000000000000000000000000000000000000000000000000000000000000000000000000000000000000000000000000000000000000000000000000000000000000000000000000000000000000000000000000000000000000000000000000000000
310
00000000000000000000000000000000000000000000000007070007070000000000000000000000000000000000000000000000000000000000000000000000000000000000000000000000000000000000000000000000000000000000000000000000000000000000000000000000000000000000000000000000000000
310
00000000000000000000000000000000000000000000000000000000000000000000000000000000000000000000000000000000000000000000000000000000000000000000000000000000000707000707000000000000000000000000000000000000000000000000000000000000000000000000000000000000000000
310
00000000000000000000000000000000000000000000000000000000000000000000000000000000000000000000000000000000000000000000000000000000000000000000000000000000000000000000000000000000000000000000000000000000000000000000000000000000000000000000000000000000000000
310
00000007070007070000000000000000000000000000000000000000000000000000000000000000000000000000000000000000000000000000000000000000000000000000000000000000000000000000000000000000000000000000000000000000000000000000000000000000000000000000000000000000000000
310
00000000000000000000000000000000000000000000000000000000000000000000000000000000000000000000000000000000000000000707000707000000000000000000000000000000000000000000000000000000000000000000000000000000000000000000000000000000000000000000000000000000000000
310
00000000000000000000000000000000000000000000000000000000000000000000000000000000000000000000000000000000000000000000000000000000000000000000000000000000000000000000000000000000000000000000000000000000000000000000000000070700070700000000000000000000000000
310
00000000000000000000000000000000000000000000000000000000000000000000000000000000000000000000000000000000000000000000000000000000000000000000000000000000000000000000000000000000000000000000000000000000000000000000000000000000000000000000000000000000000000
310
00000000000000000000000000000000000000000000000000000000000000000000000707000707000000000000000000000000000000000000000000000000000000000000000000000000000000000000000000000000000000000000000000000000000000000000000000000000000000000000000000000000000000
310
00000000000000000000000000000000000000000000000000000000000000000000000000000000000000000000000000000000000000000000000000000000000000000000000000000000000000000000000000000000070700070700000000000000000000000000000000000000000000000000000000000000000000
310
00000000000000000000000000000000000000000000000000000000000000000000000000000000000000000000000000000000000000000000000000000000000000000000000000000000000000000000000000000000000000000000000000000000000000000000000000000000000000000000000000000000000000
310
00000000000000000000000000000707070707000000000000000000000000000000000000000000000000000000000000000000000000000000000000000000000000000000000000000000000000000000000000000000000000000000000000000000000000000000000000000000000000000000000000000000000000
310
00000000000000000000000000000000000000000000000000000000000000000000000000000000000000000000000000000000000000000000000000000000000000070700070700000000000000000000000000000000000000000000000000000000000000000000000000000000000000000000000000000000000000
310
00000000000000000000000000000000000000000000000000000000000000000000000000000000000000000000000000000000000000000000000000000000000000000000000000000000000000000000000000000000000000000000000000000000000000000000000000000000000000000000000007070707070000
310
00000000000000000000000000000000000000000000000000000000000000000000000000000000000000000000000000000000000000000000000000000000000000000000000000000000000000000000000000000000000000000000000000000000000000000000000000000000000000000000000000000000000000
310
00000000000000000000000000000000000000000000000000000000000000000000000000000000000000000000070700070700000000000000000000000000000000000000000000000000000000000000000000000000000000000000000000000000000000000000000000000000000000000000000000000000000000
310
00000000000000000000000000000000000000000000000000000000000000000000000000000000000000000000000000000000000000000000000000000000000000000000000000000000000000000000000000000000000000000000000000000007070007070000000000000000000000000000000000000000000000
310
00000000000000000000000000000000000000000000000000000000000000000000000000000000000000000000000000000000000000000000000000000000000000000000000000000000000000000000000000000000000000000000000000000000000000000000000000000000000000000000000000000000000000
310
00000000000000000000000000000000000000000000000000070700070700000000000000000000000000000000000000000000000000000000000000000000000000000000000000000000000000000000000000000000000000000000000000000000000000000000000000000000000000000000000000000000000000
310
00000000000000000000000000000000000000000000000000000000000000000000000000000000000000000000000000000000000000000000000000000000000000000000000000000000000007070007070000000000000000000000000000000000000000000000000000000000000000000000000000000000000000
310
00000000000000000000000000000000000000000000000000000000000000000000000000000000000000000000000000000000000000000000000000000000000000000000000000000000000000000000000000000000000000000000000000000000000000000000000000000000000000000000000000000000000000
310
00000000070000000700000000000000000000000000000000000000000000000000000000000000000000000000000000000000000000000000000000000000000000000000000000000000000000000000000000000000000000000000000000000000000000000000000000000000000000000000000000000000000000
310
00000000000000000000000000000000000000000000000000000000000000000000000000000000000000000000000000000000000000000007000700070000000000000000000000000000000000000000000000000000000000000000000000000000000000000000000000000000000000000000000000000000000000
310
00000000000000000000000000000000000000000000000000000000000000000000000000000000000000000000000000000000000000000000000000000000000000000000000000000000000000000000000000000000000000000000000000000000000000000000000000070707070707070000000000000000000000
310
00000000000000000000000000000000000000000000000000000000000000000000000000000000000000000000000000000000000000000000000000000000000000000000000000000000000000000000000000000000000000000000000000000000000000000000000000000000000000000000000000000000000000
310
00000000000000000000000000000000000000000000000000000000000000000000070707070707070707000000000000000000000000000000000000000000000000000000000000000000000000000000000000000000000000000000000000000000000000000000000000000000000000000000000000000000000000
310
00000000000000000000000000000000000000000000000000000000000000000000000000000000000000000000000000000000000000000000000000000000000000000000000000000000000000000000000000000707070707070707070707000000000000000000000000000000000000000000000000000000000000
310
00000000000000000000000000000000000000000000000000000000000000000000000000000000000000000000000000000000000000000000000000000000000000000000000000000000000000000000000000000000000000000000000000000000000000000000000000000000000000000000000000000000000000
310
00000000000000000000000707070707070707070707070700000000000000000000000000000000000000000000000000000000000000000000000000000000000000000000000000000000000000000000000000000000000000000000000000000000000000000000000000000000000000000000000000000000000000
310
00000000000000000000000000000000000000000000000000000000000000000000000000000000000000000000000000000000000000000000000000000000070707070707070707070707070000000000000000000000000000000000000000000000000000000000000000000000000000000000000000000000000000
310
00000000000000000000000000000000000000000000000000000000000000000000000000000000000000000000000000000000000000000000000000000000000000000000000000000000000000000000000000000000000000000000000000000000000000000000000000000000000000000007070707070707070707
310
07070700000000000000000000000000000000000000000000000000000000000000000000000000000000000000000000000000000000000000000000000000000000000000000000000000000000000000000000000000000000000000000000000000000000000000000000000000000000000000000000000000000000
310
00000000000000000000000000000000000000000000000000000000000000000000000000000000000000070707070707070707070707070000000000000000000000000000000000000000000000000000000000000000000000000000000000000000000000000000000000000000000000000000000000000000000000
310
00000000000000000000000000000000000000000000000000000000000000000000000000000000000000000000000000000000000000000000000000000000000000000000000000000000000000000000000000000000000000000000000000070707070707070707070700000000000000000000000000000000000000
310
00000000000000000000000000000000000000000000000000000000000000000000000000000000000000000000000000000000000000000000000000000000000000000000000000000000000000000000000000000000000000000000000000000000000000000000000000000000000000000000000000000000000000
310
00000000000000000000000000000000000000000000000007070707070707070700000000000000000000000000000000000000000000000000000000000000000000000000000000000000000000000000000000000000000000000000000000000000000000000000000000000000000000000000000000000000000000
310
00000000000000000000000000000000000000000000000000000000000000000000000000000000000000000000000000000000000000000000000000000000000000000000000000000000000000070707070700000000000000000000000000000000000000000000000000000000000000000000000000000000000000
310
00000000000000000000000000000000000000000000000000000000000000000000000000000000000000000000000000000000000000000000000000000000000000000000000000000000000000000000000000000000000000000000000000000000000000000000000000000000000000000000000000000000000000
310
00000000000700000007000000000000000000000000000000000000000000000000000000000000000000000000000000000000000000000000000000000000000000000000000000000000000000000000000000000000000000000000000000000000000000000000000000000000000000000000000000000000000000
310
00000000000000000000000000000000000000000000000000000000000000000000000000000000000000000000000000000000000000000000070707070700000000000000000000000000000000000000000000000000000000000000000000000000000000000000000000000000000000000000000000000000000000
310
00000000000000000000000000000000000000000000000000000000000000000000000000000000000000000000000000000000000000000000000000000000000000000000000000000000000000000000000000000000000000000000000000000000000000000000000000000000000000000000000000000000000000
310
00000000000000000000000000000000000000000000000000000000000000000000000000000000000000000000000000000000000000000000000000000000000000000000000000000000000000000000000000000000000000000000000000000000000000000000000000000000000000000000000000000000000000
310
00000000000000000000000000000000000000000000000000000000000000000000000000000000000000000000000000000000000000000000000000000000000000000000000000000000000000000000000000000000000000000000000000000000000000000000000000000000000000000000000000000000000000
310
00000000000000000000000000000000000000000000000000000000000000000000000000000000000000000000000000000000000000000000000000000000000000000000000000000000000000000000000000000000000000000000000000000000000000000000000000000000000000000000000000000000000000
310
00000000000000000000000000000000000000000000000000000000000000000000000000000000000000000000000000000000000000000000000000000000000000000000000000000000000000000000000000000000000000000000000000000000000000000000000000000000000000000000000000000000000000
310
000000000000000000000000000000000000000000000000000000000000000000000000000000000000000000000000000000000000000000000000000000000000000000000000000000000000000000000000000000000000000000000000000000000000000000000000
  0
ENDSEC
  0
EOF
