  0
SECTION
  2
HEADER
  9
$ACADVER
  1
AC1015
  9
$ACADMAINTVER
 70
    13
  9
$DWGCODEPAGE
  3
ANSI_1252
  9
$INSBASE
 10
0.0
 20
0.0
 30
0.0
  9
$EXTMIN
 10
0.0000000000000003
 20
0.0000000000000059
 30
0.0
  9
$EXTMAX
 10
610.0
 20
900.0
 30
0.0
  9
$LIMMIN
 10
0.0
 20
0.0
  9
$LIMMAX
 10
12.0
 20
9.0
  9
$ORTHOMODE
 70
     0
  9
$REGENMODE
 70
     1
  9
$FILLMODE
 70
     1
  9
$QTEXTMODE
 70
     0
  9
$MIRRTEXT
 70
     1
  9
$LTSCALE
 40
1.0
  9
$ATTMODE
 70
     1
  9
$TEXTSIZE
 40
0.2
  9
$TRACEWID
 40
0.05
  9
$TEXTSTYLE
  7
Standard
  9
$CLAYER
  8
0
  9
$CELTYPE
  6
Continuous
  9
$CECOLOR
 62
   256
  9
$CELTSCALE
 40
1.0
  9
$DISPSILH
 70
     0
  9
$DIMSCALE
 40
1.0
  9
$DIMASZ
 40
0.18
  9
$DIMEXO
 40
0.0625
  9
$DIMDLI
 40
0.38
  9
$DIMRND
 40
0.0
  9
$DIMDLE
 40
0.0
  9
$DIMEXE
 40
0.18
  9
$DIMTP
 40
0.0
  9
$DIMTM
 40
0.0
  9
$DIMTXT
 40
0.18
  9
$DIMCEN
 40
0.09
  9
$DIMTSZ
 40
0.0
  9
$DIMTOL
 70
     0
  9
$DIMLIM
 70
     0
  9
$DIMTIH
 70
     1
  9
$DIMTOH
 70
     1
  9
$DIMSE1
 70
     0
  9
$DIMSE2
 70
     0
  9
$DIMTAD
 70
     0
  9
$DIMZIN
 70
     0
  9
$DIMBLK
  1

  9
$DIMASO
 70
     1
  9
$DIMSHO
 70
     1
  9
$DIMPOST
  1

  9
$DIMAPOST
  1

  9
$DIMALT
 70
     0
  9
$DIMALTD
 70
     2
  9
$DIMALTF
 40
25.4
  9
$DIMLFAC
 40
1.0
  9
$DIMTOFL
 70
     0
  9
$DIMTVP
 40
0.0
  9
$DIMTIX
 70
     0
  9
$DIMSOXD
 70
     0
  9
$DIMSAH
 70
     0
  9
$DIMBLK1
  1

  9
$DIMBLK2
  1

  9
$DIMSTYLE
  2
Standard
  9
$DIMCLRD
 70
     0
  9
$DIMCLRE
 70
     0
  9
$DIMCLRT
 70
     0
  9
$DIMTFAC
 40
1.0
  9
$DIMGAP
 40
0.09
  9
$DIMJUST
 70
     0
  9
$DIMSD1
 70
     0
  9
$DIMSD2
 70
     0
  9
$DIMTOLJ
 70
     1
  9
$DIMTZIN
 70
     0
  9
$DIMALTZ
 70
     0
  9
$DIMALTTZ
 70
     0
  9
$DIMUPT
 70
     0
  9
$DIMDEC
 70
     4
  9
$DIMTDEC
 70
     4
  9
$DIMALTU
 70
     2
  9
$DIMALTTD
 70
     2
  9
$DIMTXSTY
  7
Standard
  9
$DIMAUNIT
 70
     0
  9
$DIMADEC
 70
     0
  9
$DIMALTRND
 40
0.0
  9
$DIMAZIN
 70
     0
  9
$DIMDSEP
 70
    46
  9
$DIMATFIT
 70
     3
  9
$DIMFRAC
 70
     0
  9
$DIMLDRBLK
  1

  9
$DIMLUNIT
 70
     2
  9
$DIMLWD
 70
    -2
  9
$DIMLWE
 70
    -2
  9
$DIMTMOVE
 70
     0
  9
$LUNITS
 70
     2
  9
$LUPREC
 70
     4
  9
$SKETCHINC
 40
0.1
  9
$FILLETRAD
 40
0.0
  9
$AUNITS
 70
     0
  9
$AUPREC
 70
     0
  9
$MENU
  1
.
  9
$ELEVATION
 40
0.0
  9
$PELEVATION
 40
0.0
  9
$THICKNESS
 40
0.0
  9
$LIMCHECK
 70
     0
  9
$CHAMFERA
 40
0.0
  9
$CHAMFERB
 40
0.0
  9
$CHAMFERC
 40
0.0
  9
$CHAMFERD
 40
0.0
  9
$SKPOLY
 70
     0
  9
$TDCREATE
 40
2454738.481377674
  9
$TDUCREATE
 40
2454738.398044340
  9
$TDUPDATE
 40
2454738.483261169
  9
$TDUUPDATE
 40
2454738.399927835
  9
$TDINDWG
 40
0.0018834954
  9
$TDUSRTIMER
 40
0.0018834954
  9
$USRTIMER
 70
     1
  9
$ANGBASE
 50
0.0
  9
$ANGDIR
 70
     0
  9
$PDMODE
 70
     0
  9
$PDSIZE
 40
0.0
  9
$PLINEWID
 40
0.0
  9
$SPLFRAME
 70
     0
  9
$SPLINETYPE
 70
     6
  9
$SPLINESEGS
 70
     8
  9
$HANDSEED
  5
292
  9
$SURFTAB1
 70
     6
  9
$SURFTAB2
 70
     6
  9
$SURFTYPE
 70
     6
  9
$SURFU
 70
     6
  9
$SURFV
 70
     6
  9
$UCSBASE
  2

  9
$UCSNAME
  2

  9
$UCSORG
 10
0.0
 20
0.0
 30
0.0
  9
$UCSXDIR
 10
1.0
 20
0.0
 30
0.0
  9
$UCSYDIR
 10
0.0
 20
1.0
 30
0.0
  9
$UCSORTHOREF
  2

  9
$UCSORTHOVIEW
 70
     1
  9
$UCSORGTOP
 10
0.0
 20
0.0
 30
0.0
  9
$UCSORGBOTTOM
 10
0.0
 20
0.0
 30
0.0
  9
$UCSORGLEFT
 10
0.0
 20
0.0
 30
0.0
  9
$UCSORGRIGHT
 10
0.0
 20
0.0
 30
0.0
  9
$UCSORGFRONT
 10
0.0
 20
0.0
 30
0.0
  9
$UCSORGBACK
 10
0.0
 20
0.0
 30
0.0
  9
$PUCSBASE
  2

  9
$PUCSNAME
  2

  9
$PUCSORG
 10
0.0
 20
0.0
 30
0.0
  9
$PUCSXDIR
 10
1.0
 20
0.0
 30
0.0
  9
$PUCSYDIR
 10
0.0
 20
1.0
 30
0.0
  9
$PUCSORTHOREF
  2

  9
$PUCSORTHOVIEW
 70
     0
  9
$PUCSORGTOP
 10
0.0
 20
0.0
 30
0.0
  9
$PUCSORGBOTTOM
 10
0.0
 20
0.0
 30
0.0
  9
$PUCSORGLEFT
 10
0.0
 20
0.0
 30
0.0
  9
$PUCSORGRIGHT
 10
0.0
 20
0.0
 30
0.0
  9
$PUCSORGFRONT
 10
0.0
 20
0.0
 30
0.0
  9
$PUCSORGBACK
 10
0.0
 20
0.0
 30
0.0
  9
$USERI1
 70
     0
  9
$USERI2
 70
     0
  9
$USERI3
 70
     0
  9
$USERI4
 70
     0
  9
$USERI5
 70
     0
  9
$USERR1
 40
0.0
  9
$USERR2
 40
0.0
  9
$USERR3
 40
0.0
  9
$USERR4
 40
0.0
  9
$USERR5
 40
0.0
  9
$WORLDVIEW
 70
     1
  9
$SHADEDGE
 70
     3
  9
$SHADEDIF
 70
    70
  9
$TILEMODE
 70
     1
  9
$MAXACTVP
 70
    64
  9
$PINSBASE
 10
0.0
 20
0.0
 30
0.0
  9
$PLIMCHECK
 70
     0
  9
$PEXTMIN
 10
1.000000000000000E+20
 20
1.000000000000000E+20
 30
1.000000000000000E+20
  9
$PEXTMAX
 10
-1.000000000000000E+20
 20
-1.000000000000000E+20
 30
-1.000000000000000E+20
  9
$PLIMMIN
 10
0.0
 20
0.0
  9
$PLIMMAX
 10
12.0
 20
9.0
  9
$UNITMODE
 70
     0
  9
$VISRETAIN
 70
     1
  9
$PLINEGEN
 70
     0
  9
$PSLTSCALE
 70
     1
  9
$TREEDEPTH
 70
  3020
  9
$CMLSTYLE
  2
Standard
  9
$CMLJUST
 70
     0
  9
$CMLSCALE
 40
1.0
  9
$PROXYGRAPHICS
 70
     1
  9
$MEASUREMENT
 70
     0
  9
$CELWEIGHT
370
    -1
  9
$ENDCAPS
280
     0
  9
$JOINSTYLE
280
     0
  9
$LWDISPLAY
290
     0
  9
$INSUNITS
 70
     0
  9
$HYPERLINKBASE
  1

  9
$STYLESHEET
  1

  9
$XEDIT
290
     1
  9
$CEPSNTYPE
380
     0
  9
$PSTYLEMODE
290
     1
  9
$FINGERPRINTGUID
  2
{B975352D-5836-4938-9C3B-6CA2C18C57AB}
  9
$VERSIONGUID
  2
{2AD6C34E-1BC2-44CD-9CC9-3CCBAAB4B6F8}
  9
$EXTNAMES
290
     1
  9
$PSVPSCALE
 40
0.0
  9
$OLESTARTUP
290
     0
  0
ENDSEC
  0
SECTION
  2
CLASSES
  0
CLASS
  1
ACDBDICTIONARYWDFLT
  2
AcDbDictionaryWithDefault
  3
AutoCAD 2000
 90
        0
280
     0
281
     0
  0
CLASS
  1
ACDBPLACEHOLDER
  2
AcDbPlaceHolder
  3
AutoCAD 2000
 90
        0
280
     0
281
     0
  0
CLASS
  1
LAYOUT
  2
AcDbLayout
  3
AutoCAD 2000
 90
        0
280
     0
281
     0
  0
CLASS
  1
DICTIONARYVAR
  2
AcDbDictionaryVar
  3
AutoCAD 2000
 90
        0
280
     0
281
     0
  0
ENDSEC
  0
SECTION
  2
TABLES
  0
TABLE
  2
VPORT
  5
8
330
0
100
AcDbSymbolTable
 70
     2
  0
VPORT
  5
291
330
8
100
AcDbSymbolTableRecord
100
AcDbViewportTableRecord
  2
*Active
 70
     0
 10
0.0
 20
0.0
 11
1.0
 21
1.0
 12
305.0
 22
450.0
 13
0.0
 23
0.0
 14
1.0
 24
1.0
 15
0.0
 25
0.0
 16
0.0
 26
0.0
 36
1.0
 17
0.0
 27
0.0
 37
0.0
 40
906.9053708439897
 41
2.078104993597951
 42
50.0
 43
0.0
 44
0.0
 50
0.0
 51
0.0
 71
     0
 72
   100
 73
     1
 74
     3
 75
     0
 76
     0
 77
     0
 78
     0
281
     0
 65
     1
110
0.0
120
0.0
130
0.0
111
1.0
121
0.0
131
0.0
112
0.0
122
1.0
132
0.0
 79
     1
146
0.0
  0
ENDTAB
  0
TABLE
  2
LTYPE
  5
5
330
0
100
AcDbSymbolTable
 70
     1
  0
LTYPE
  5
13
330
5
100
AcDbSymbolTableRecord
100
AcDbLinetypeTableRecord
  2
ByBlock
 70
     0
  3

 72
    65
 73
     0
 40
0.0
  0
LTYPE
  5
14
330
5
100
AcDbSymbolTableRecord
100
AcDbLinetypeTableRecord
  2
ByLayer
 70
     0
  3

 72
    65
 73
     0
 40
0.0
  0
LTYPE
  5
15
330
5
100
AcDbSymbolTableRecord
100
AcDbLinetypeTableRecord
  2
Continuous
 70
     0
  3
Solid line
 72
    65
 73
     0
 40
0.0
  0
ENDTAB
  0
TABLE
  2
LAYER
  5
2
330
0
100
AcDbSymbolTable
 70
     1
  0
LAYER
  5
10
330
2
100
AcDbSymbolTableRecord
100
AcDbLayerTableRecord
  2
0
 70
     0
 62
     7
  6
Continuous
370
    -3
390
F
  0
ENDTAB
  0
TABLE
  2
STYLE
  5
3
330
0
100
AcDbSymbolTable
 70
     1
  0
STYLE
  5
11
330
3
100
AcDbSymbolTableRecord
100
AcDbTextStyleTableRecord
  2
Standard
 70
     0
 40
0.0
 41
1.0
 50
0.0
 71
     0
 42
0.2
  3
txt
  4

  0
ENDTAB
  0
TABLE
  2
VIEW
  5
6
330
0
100
AcDbSymbolTable
 70
     0
  0
ENDTAB
  0
TABLE
  2
UCS
  5
7
330
0
100
AcDbSymbolTable
 70
     0
  0
ENDTAB
  0
TABLE
  2
APPID
  5
9
330
0
100
AcDbSymbolTable
 70
     1
  0
APPID
  5
12
330
9
100
AcDbSymbolTableRecord
100
AcDbRegAppTableRecord
  2
ACAD
 70
     0
  0
ENDTAB
  0
TABLE
  2
DIMSTYLE
  5
A
330
0
100
AcDbSymbolTable
 70
     1
100
AcDbDimStyleTable
 71
     0
  0
DIMSTYLE
105
283
330
A
100
AcDbSymbolTableRecord
100
AcDbDimStyleTableRecord
  2
Standard
 70
     0
340
11
  0
ENDTAB
  0
TABLE
  2
BLOCK_RECORD
  5
1
330
0
100
AcDbSymbolTable
 70
     0
  0
BLOCK_RECORD
  5
1E
330
1
100
AcDbSymbolTableRecord
100
AcDbBlockTableRecord
  2
*Model_Space
340
21
  0
BLOCK_RECORD
  5
1A
330
1
100
AcDbSymbolTableRecord
100
AcDbBlockTableRecord
  2
*Paper_Space
340
1D
  0
ENDTAB
  0
ENDSEC
  0
SECTION
  2
BLOCKS
  0
BLOCK
  5
1F
330
1E
100
AcDbEntity
  8
0
100
AcDbBlockBegin
  2
*Model_Space
 70
     0
 10
0.0
 20
0.0
 30
0.0
  3
*Model_Space
  1

  0
ENDBLK
  5
20
330
1E
100
AcDbEntity
  8
0
100
AcDbBlockEnd
  0
BLOCK
  5
1B
330
1A
100
AcDbEntity
 67
     1
  8
0
100
AcDbBlockBegin
  2
*Paper_Space
 70
     0
 10
0.0
 20
0.0
 30
0.0
  3
*Paper_Space
  1

  0
ENDBLK
  5
1C
330
1A
100
AcDbEntity
 67
     1
  8
0
100
AcDbBlockEnd
  0
ENDSEC
  0
SECTION
  2
ENTITIES
  0
LINE
  5
22
330
1E
100
AcDbEntity
  8
0
100
AcDbLine
 10
226.6
 20
52.5
 30
0.0
 11
231.4
 21
42.7000000000001
 31
0.0
  0
LINE
  5
23
330
1E
100
AcDbEntity
  8
0
100
AcDbLine
 10
231.4
 20
42.7000000000001
 30
0.0
 11
237.6999999999999
 21
33.3
 31
0.0
  0
LINE
  5
24
330
1E
100
AcDbEntity
  8
0
100
AcDbLine
 10
220.9
 20
73.90000000000009
 30
0.0
 11
223.0999999999999
 21
63.09999999999989
 31
0.0
  0
LINE
  5
25
330
1E
100
AcDbEntity
  8
0
100
AcDbLine
 10
223.0999999999999
 20
63.09999999999989
 30
0.0
 11
226.6
 21
52.5
 31
0.0
  0
LINE
  5
26
330
1E
100
AcDbEntity
  8
0
100
AcDbLine
 10
237.6999999999999
 20
33.3
 30
0.0
 11
245.0
 21
25.0
 31
0.0
  0
LINE
  5
27
330
1E
100
AcDbEntity
  8
0
100
AcDbLine
 10
237.6999999999999
 20
33.3
 30
0.0
 11
245.0
 21
25.0
 31
0.0
  0
LINE
  5
28
330
1E
100
AcDbEntity
  8
0
100
AcDbLine
 10
245.0
 20
25.0
 30
0.0
 11
253.3
 21
17.7000000000001
 31
0.0
  0
LINE
  5
29
330
1E
100
AcDbEntity
  8
0
100
AcDbLine
 10
272.5
 20
6.59999999999991
 30
0.0
 11
283.1
 21
3.099999999999909
 31
0.0
  0
LINE
  5
2A
330
1E
100
AcDbEntity
  8
0
100
AcDbLine
 10
272.5
 20
6.599999999999919
 30
0.0
 11
283.1
 21
3.09999999999992
 31
0.0
  0
LINE
  5
2B
330
1E
100
AcDbEntity
  8
0
100
AcDbLine
 10
253.3
 20
17.7000000000001
 30
0.0
 11
262.6999999999999
 21
11.4000000000001
 31
0.0
  0
LINE
  5
2C
330
1E
100
AcDbEntity
  8
0
100
AcDbLine
 10
253.3
 20
17.7000000000001
 30
0.0
 11
262.6999999999999
 21
11.4000000000001
 31
0.0
  0
LINE
  5
2D
330
1E
100
AcDbEntity
  8
0
100
AcDbLine
 10
245.0
 20
25.0
 30
0.0
 11
253.3
 21
17.7000000000001
 31
0.0
  0
LINE
  5
2E
330
1E
100
AcDbEntity
  8
0
100
AcDbLine
 10
277.3
 20
81.40000000000009
 30
0.0
 11
278.0
 21
77.8
 31
0.0
  0
LINE
  5
2F
330
1E
100
AcDbEntity
  8
0
100
AcDbLine
 10
278.0
 20
77.8
 30
0.0
 11
279.1999999999999
 21
74.29999999999999
 31
0.0
  0
LINE
  5
30
330
1E
100
AcDbEntity
  8
0
100
AcDbLine
 10
220.0
 20
85.0
 30
0.0
 11
220.9
 21
96.09999999999992
 31
0.0
  0
LINE
  5
31
330
1E
100
AcDbEntity
  8
0
100
AcDbLine
 10
220.0
 20
85.0
 30
0.0
 11
220.9
 21
73.90000000000009
 31
0.0
  0
LINE
  5
32
330
1E
100
AcDbEntity
  8
0
100
AcDbLine
 10
277.0
 20
85.0
 30
0.0
 11
277.3
 21
88.5999999999999
 31
0.0
  0
LINE
  5
33
330
1E
100
AcDbEntity
  8
0
100
AcDbLine
 10
277.0
 20
85.0
 30
0.0
 11
277.3
 21
81.40000000000009
 31
0.0
  0
LINE
  5
3B
330
1E
100
AcDbEntity
  8
0
100
AcDbLine
 10
277.3
 20
88.5999999999999
 30
0.0
 11
278.0
 21
92.20000000000011
 31
0.0
  0
LINE
  5
3C
330
1E
100
AcDbEntity
  8
0
100
AcDbLine
 10
278.0
 20
92.20000000000011
 30
0.0
 11
279.1999999999999
 21
95.7
 31
0.0
  0
LINE
  5
3F
330
1E
100
AcDbEntity
  8
0
100
AcDbLine
 10
280.8
 20
71.09999999999991
 30
0.0
 11
282.8
 21
68.0
 31
0.0
  0
LINE
  5
40
330
1E
100
AcDbEntity
  8
0
100
AcDbLine
 10
279.1999999999999
 20
74.29999999999999
 30
0.0
 11
280.8
 21
71.09999999999991
 31
0.0
  0
LINE
  5
47
330
1E
100
AcDbEntity
  8
0
100
AcDbLine
 10
220.9
 20
96.09999999999992
 30
0.0
 11
223.0999999999999
 21
106.9
 31
0.0
  0
LINE
  5
48
330
1E
100
AcDbEntity
  8
0
100
AcDbLine
 10
279.1999999999999
 20
95.7
 30
0.0
 11
280.8
 21
98.90000000000009
 31
0.0
  0
LINE
  5
49
330
1E
100
AcDbEntity
  8
0
100
AcDbLine
 10
280.8
 20
98.90000000000009
 30
0.0
 11
282.8
 21
102.0
 31
0.0
  0
LINE
  5
4D
330
1E
100
AcDbEntity
  8
0
100
AcDbLine
 10
283.1
 20
3.099999999999909
 30
0.0
 11
293.8999999999999
 21
0.9000000000000969
 31
0.0
  0
LINE
  5
4E
330
1E
100
AcDbEntity
  8
0
100
AcDbLine
 10
283.1
 20
3.09999999999992
 30
0.0
 11
293.8999999999999
 21
0.900000000000098
 31
0.0
  0
LINE
  5
4F
330
1E
100
AcDbEntity
  8
0
100
AcDbLine
 10
288.0
 20
62.8
 30
0.0
 11
291.1
 21
60.8
 31
0.0
  0
LINE
  5
50
330
1E
100
AcDbEntity
  8
0
100
AcDbLine
 10
285.1999999999999
 20
65.2000000000001
 30
0.0
 11
288.0
 21
62.8
 31
0.0
  0
LINE
  5
51
330
1E
100
AcDbEntity
  8
0
100
AcDbLine
 10
293.8999999999999
 20
0.9000000000000969
 30
0.0
 11
305.0
 21
0.000000000000006
 31
0.0
  0
LINE
  5
52
330
1E
100
AcDbEntity
  8
0
100
AcDbLine
 10
293.8999999999999
 20
0.9000000000000969
 30
0.0
 11
305.0
 21
0.0000000000000059
 31
0.0
  0
LINE
  5
53
330
1E
100
AcDbEntity
  8
0
100
AcDbLine
 10
293.8999999999999
 20
0.900000000000098
 30
0.0
 11
305.0
 21
0.0000000000000066
 31
0.0
  0
LINE
  5
54
330
1E
100
AcDbEntity
  8
0
100
AcDbLine
 10
293.8999999999999
 20
0.900000000000098
 30
0.0
 11
305.0
 21
0.0000000000000065
 31
0.0
  0
LINE
  5
55
330
1E
100
AcDbEntity
  8
0
100
AcDbLine
 10
294.2999999999999
 20
59.2000000000001
 30
0.0
 11
297.8
 21
58.0
 31
0.0
  0
LINE
  5
56
330
1E
100
AcDbEntity
  8
0
100
AcDbLine
 10
291.1
 20
60.8
 30
0.0
 11
294.2999999999999
 21
59.2000000000001
 31
0.0
  0
LINE
  5
57
330
1E
100
AcDbEntity
  8
0
100
AcDbLine
 10
297.8
 20
58.0
 30
0.0
 11
301.3999999999999
 21
57.3
 31
0.0
  0
LINE
  5
5E
330
1E
100
AcDbEntity
  8
0
100
AcDbLine
 10
282.8
 20
68.0
 30
0.0
 11
285.1999999999999
 21
65.2000000000001
 31
0.0
  0
LINE
  5
63
330
1E
100
AcDbEntity
  8
0
100
AcDbLine
 10
285.1999999999999
 20
104.8
 30
0.0
 11
288.0
 21
107.2
 31
0.0
  0
LINE
  5
64
330
1E
100
AcDbEntity
  8
0
100
AcDbLine
 10
223.0999999999999
 20
106.9
 30
0.0
 11
226.6
 21
117.5
 31
0.0
  0
LINE
  5
65
330
1E
100
AcDbEntity
  8
0
100
AcDbLine
 10
282.8
 20
102.0
 30
0.0
 11
285.1999999999999
 21
104.8
 31
0.0
  0
LINE
  5
67
330
1E
100
AcDbEntity
  8
0
100
AcDbLine
 10
288.0
 20
107.2
 30
0.0
 11
291.1
 21
109.2
 31
0.0
  0
LINE
  5
68
330
1E
100
AcDbEntity
  8
0
100
AcDbLine
 10
291.1
 20
109.2
 30
0.0
 11
294.2999999999999
 21
110.8
 31
0.0
  0
LINE
  5
6B
330
1E
100
AcDbEntity
  8
0
100
AcDbLine
 10
297.8
 20
112.0
 30
0.0
 11
300.0
 21
112.4277777777779
 31
0.0
  0
LINE
  5
6C
330
1E
100
AcDbEntity
  8
0
100
AcDbLine
 10
294.2999999999999
 20
110.8
 30
0.0
 11
297.8
 21
112.0
 31
0.0
  0
LINE
  5
76
330
1E
100
AcDbEntity
  8
0
100
AcDbLine
 10
301.3999999999999
 20
57.3
 30
0.0
 11
305.0
 21
57.0
 31
0.0
  0
LINE
  5
77
330
1E
100
AcDbEntity
  8
0
100
AcDbLine
 10
300.4
 20
115.0
 30
0.0
 11
301.5
 21
115.0
 31
0.0
  0
LINE
  5
79
330
1E
100
AcDbEntity
  8
0
100
AcDbLine
 10
305.0
 20
0.000000000000006
 30
0.0
 11
316.1
 21
0.9000000000000969
 31
0.0
  0
LINE
  5
7A
330
1E
100
AcDbEntity
  8
0
100
AcDbLine
 10
305.0
 20
0.0000000000000059
 30
0.0
 11
316.1
 21
0.9000000000000969
 31
0.0
  0
LINE
  5
7B
330
1E
100
AcDbEntity
  8
0
100
AcDbLine
 10
305.0
 20
0.0000000000000066
 30
0.0
 11
316.1
 21
0.900000000000098
 31
0.0
  0
LINE
  5
7C
330
1E
100
AcDbEntity
  8
0
100
AcDbLine
 10
305.0
 20
0.0000000000000065
 30
0.0
 11
316.1
 21
0.900000000000098
 31
0.0
  0
LINE
  5
7D
330
1E
100
AcDbEntity
  8
0
100
AcDbLine
 10
305.0
 20
57.0
 30
0.0
 11
308.6
 21
57.3
 31
0.0
  0
LINE
  5
80
330
1E
100
AcDbEntity
  8
0
100
AcDbLine
 10
308.6
 20
57.3
 30
0.0
 11
312.1999999999999
 21
58.0
 31
0.0
  0
LINE
  5
81
330
1E
100
AcDbEntity
  8
0
100
AcDbLine
 10
312.1999999999999
 20
58.0
 30
0.0
 11
315.7
 21
59.2000000000001
 31
0.0
  0
LINE
  5
8A
330
1E
100
AcDbEntity
  8
0
100
AcDbLine
 10
316.1
 20
0.9000000000000969
 30
0.0
 11
326.8999999999999
 21
3.099999999999909
 31
0.0
  0
LINE
  5
8B
330
1E
100
AcDbEntity
  8
0
100
AcDbLine
 10
316.1
 20
0.900000000000098
 30
0.0
 11
326.8999999999999
 21
3.09999999999992
 31
0.0
  0
LINE
  5
8C
330
1E
100
AcDbEntity
  8
0
100
AcDbLine
 10
315.7
 20
59.2000000000001
 30
0.0
 11
318.9
 21
60.8
 31
0.0
  0
LINE
  5
8D
330
1E
100
AcDbEntity
  8
0
100
AcDbLine
 10
315.7
 20
110.8
 30
0.0
 11
318.9
 21
109.2
 31
0.0
  0
LINE
  5
90
330
1E
100
AcDbEntity
  8
0
100
AcDbLine
 10
305.0
 20
115.0
 30
0.0
 11
306.8999999999999
 21
115.0
 31
0.0
  0
LINE
  5
91
330
1E
100
AcDbEntity
  8
0
100
AcDbLine
 10
308.4999999999999
 20
115.0
 30
0.0
 11
309.6
 21
115.0
 31
0.0
  0
LINE
  5
92
330
1E
100
AcDbEntity
  8
0
100
AcDbLine
 10
310.0
 20
112.4277777777779
 30
0.0
 11
312.1999999999999
 21
112.0
 31
0.0
  0
LINE
  5
94
330
1E
100
AcDbEntity
  8
0
100
AcDbLine
 10
306.8999999999999
 20
115.0
 30
0.0
 11
308.4999999999999
 21
115.0
 31
0.0
  0
LINE
  5
95
330
1E
100
AcDbEntity
  8
0
100
AcDbLine
 10
309.6
 20
115.0
 30
0.0
 11
310.0
 21
115.0
 31
0.0
  0
LINE
  5
96
330
1E
100
AcDbEntity
  8
0
100
AcDbLine
 10
312.1999999999999
 20
112.0
 30
0.0
 11
315.7
 21
110.8
 31
0.0
  0
LINE
  5
97
330
1E
100
AcDbEntity
  8
0
100
AcDbLine
 10
310.0
 20
115.0
 30
0.0
 11
310.0
 21
111.2857142857139
 31
0.0
  0
LINE
  5
98
330
1E
100
AcDbEntity
  8
0
100
AcDbLine
 10
310.0
 20
111.2857142857139
 30
0.0
 11
310.0
 21
115.0
 31
0.0
  0
LINE
  5
99
330
1E
100
AcDbEntity
  8
0
100
AcDbLine
 10
303.1
 20
115.0
 30
0.0
 11
305.0
 21
115.0
 31
0.0
  0
LINE
  5
9A
330
1E
100
AcDbEntity
  8
0
100
AcDbLine
 10
301.5
 20
115.0
 30
0.0
 11
303.1
 21
115.0
 31
0.0
  0
LINE
  5
9B
330
1E
100
AcDbEntity
  8
0
100
AcDbLine
 10
300.0
 20
111.2857142857139
 30
0.0
 11
300.0
 21
115.0
 31
0.0
  0
LINE
  5
9C
330
1E
100
AcDbEntity
  8
0
100
AcDbLine
 10
84.0
 20
894.0
 30
0.0
 11
84.396
 21
894.0
 31
0.0
  0
LINE
  5
9D
330
1E
100
AcDbEntity
  8
0
100
AcDbLine
 10
84.0
 20
894.0
 30
0.0
 11
84.0
 21
895.0
 31
0.0
  0
LINE
  5
9E
330
1E
100
AcDbEntity
  8
0
100
AcDbLine
 10
84.396
 20
894.0
 30
0.0
 11
85.45200000000001
 21
894.0
 31
0.0
  0
LINE
  5
9F
330
1E
100
AcDbEntity
  8
0
100
AcDbLine
 10
85.45200000000001
 20
894.0
 30
0.0
 11
87.21200000000001
 21
894.0
 31
0.0
  0
LINE
  5
A0
330
1E
100
AcDbEntity
  8
0
100
AcDbLine
 10
87.21200000000001
 20
894.0
 30
0.0
 11
89.54399999999999
 21
894.0
 31
0.0
  0
LINE
  5
A1
330
1E
100
AcDbEntity
  8
0
100
AcDbLine
 10
97.816
 20
894.0
 30
0.0
 11
100.456
 21
894.0
 31
0.0
  0
LINE
  5
A2
330
1E
100
AcDbEntity
  8
0
100
AcDbLine
 10
95.0
 20
894.0
 30
0.0
 11
97.816
 21
894.0
 31
0.0
  0
LINE
  5
A3
330
1E
100
AcDbEntity
  8
0
100
AcDbLine
 10
105.604
 20
894.0
 30
0.0
 11
106.0
 21
894.0
 31
0.0
  0
LINE
  5
A4
330
1E
100
AcDbEntity
  8
0
100
AcDbLine
 10
106.0
 20
894.0
 30
0.0
 11
106.0
 21
895.0
 31
0.0
  0
LINE
  5
A5
330
1E
100
AcDbEntity
  8
0
100
AcDbLine
 10
149.5
 20
894.0
 30
0.0
 11
149.5
 21
895.0
 31
0.0
  0
LINE
  5
A6
330
1E
100
AcDbEntity
  8
0
100
AcDbLine
 10
149.5
 20
894.0
 30
0.0
 11
150.31
 21
894.0
 31
0.0
  0
LINE
  5
A7
330
1E
100
AcDbEntity
  8
0
100
AcDbLine
 10
150.31
 20
894.0
 30
0.0
 11
152.4699999999999
 21
894.0
 31
0.0
  0
LINE
  5
A8
330
1E
100
AcDbEntity
  8
0
100
AcDbLine
 10
160.84
 20
894.0
 30
0.0
 11
166.24
 21
894.0
 31
0.0
  0
LINE
  5
A9
330
1E
100
AcDbEntity
  8
0
100
AcDbLine
 10
152.4699999999999
 20
894.0
 30
0.0
 11
156.0699999999999
 21
894.0
 31
0.0
  0
LINE
  5
AA
330
1E
100
AcDbEntity
  8
0
100
AcDbLine
 10
156.0699999999999
 20
894.0
 30
0.0
 11
160.84
 21
894.0
 31
0.0
  0
LINE
  5
AB
330
1E
100
AcDbEntity
  8
0
100
AcDbLine
 10
191.53
 20
894.0
 30
0.0
 11
193.6899999999999
 21
894.0
 31
0.0
  0
LINE
  5
AC
330
1E
100
AcDbEntity
  8
0
100
AcDbLine
 10
199.0
 20
894.0
 30
0.0
 11
199.0
 21
895.0
 31
0.0
  0
LINE
  5
AD
330
1E
100
AcDbEntity
  8
0
100
AcDbLine
 10
199.0
 20
894.0
 30
0.0
 11
199.3959999999999
 21
894.0
 31
0.0
  0
LINE
  5
AE
330
1E
100
AcDbEntity
  8
0
100
AcDbLine
 10
199.3959999999999
 20
894.0
 30
0.0
 11
200.4519999999999
 21
894.0
 31
0.0
  0
LINE
  5
AF
330
1E
100
AcDbEntity
  8
0
100
AcDbLine
 10
200.4519999999999
 20
894.0
 30
0.0
 11
202.212
 21
894.0
 31
0.0
  0
LINE
  5
B0
330
1E
100
AcDbEntity
  8
0
100
AcDbLine
 10
202.212
 20
894.0
 30
0.0
 11
204.544
 21
894.0
 31
0.0
  0
LINE
  5
B1
330
1E
100
AcDbEntity
  8
0
100
AcDbLine
 10
226.6
 20
117.5
 30
0.0
 11
231.4
 21
127.2999999999999
 31
0.0
  0
LINE
  5
B2
330
1E
100
AcDbEntity
  8
0
100
AcDbLine
 10
272.5
 20
163.4
 30
0.0
 11
283.1
 21
166.9
 31
0.0
  0
LINE
  5
B3
330
1E
100
AcDbEntity
  8
0
100
AcDbLine
 10
253.3
 20
152.3
 30
0.0
 11
262.6999999999999
 21
158.6
 31
0.0
  0
LINE
  5
B4
330
1E
100
AcDbEntity
  8
0
100
AcDbLine
 10
245.0
 20
145.0
 30
0.0
 11
253.3
 21
152.3
 31
0.0
  0
LINE
  5
B5
330
1E
100
AcDbEntity
  8
0
100
AcDbLine
 10
237.6999999999999
 20
136.6999999999999
 30
0.0
 11
245.0
 21
145.0
 31
0.0
  0
LINE
  5
B6
330
1E
100
AcDbEntity
  8
0
100
AcDbLine
 10
231.4
 20
127.2999999999999
 30
0.0
 11
237.6999999999999
 21
136.6999999999999
 31
0.0
  0
LINE
  5
B7
330
1E
100
AcDbEntity
  8
0
100
AcDbLine
 10
283.1
 20
166.9
 30
0.0
 11
293.8999999999999
 21
169.1
 31
0.0
  0
LINE
  5
B8
330
1E
100
AcDbEntity
  8
0
100
AcDbLine
 10
282.5
 20
894.0
 30
0.0
 11
282.5
 21
895.0
 31
0.0
  0
LINE
  5
B9
330
1E
100
AcDbEntity
  8
0
100
AcDbLine
 10
282.5
 20
894.0
 30
0.0
 11
283.3099999999999
 21
894.0
 31
0.0
  0
LINE
  5
BA
330
1E
100
AcDbEntity
  8
0
100
AcDbLine
 10
283.3099999999999
 20
894.0
 30
0.0
 11
285.47
 21
894.0
 31
0.0
  0
LINE
  5
BB
330
1E
100
AcDbEntity
  8
0
100
AcDbLine
 10
285.47
 20
894.0
 30
0.0
 11
289.0699999999999
 21
894.0
 31
0.0
  0
LINE
  5
BC
330
1E
100
AcDbEntity
  8
0
100
AcDbLine
 10
289.0699999999999
 20
894.0
 30
0.0
 11
293.8399999999999
 21
894.0
 31
0.0
  0
LINE
  5
BD
330
1E
100
AcDbEntity
  8
0
100
AcDbLine
 10
293.8999999999999
 20
169.1
 30
0.0
 11
305.0
 21
170.0
 31
0.0
  0
LINE
  5
BE
330
1E
100
AcDbEntity
  8
0
100
AcDbLine
 10
293.8399999999999
 20
894.0
 30
0.0
 11
299.2399999999999
 21
894.0
 31
0.0
  0
LINE
  5
BF
330
1E
100
AcDbEntity
  8
0
100
AcDbLine
 10
221.0
 20
894.0
 30
0.0
 11
221.0
 21
895.0
 31
0.0
  0
LINE
  5
C0
330
1E
100
AcDbEntity
  8
0
100
AcDbLine
 10
220.604
 20
894.0
 30
0.0
 11
221.0
 21
894.0
 31
0.0
  0
LINE
  5
C1
330
1E
100
AcDbEntity
  8
0
100
AcDbLine
 10
219.5479999999999
 20
894.0
 30
0.0
 11
220.604
 21
894.0
 31
0.0
  0
LINE
  5
C2
330
1E
100
AcDbEntity
  8
0
100
AcDbLine
 10
217.788
 20
894.0
 30
0.0
 11
219.5479999999999
 21
894.0
 31
0.0
  0
LINE
  5
C3
330
1E
100
AcDbEntity
  8
0
100
AcDbLine
 10
215.456
 20
894.0
 30
0.0
 11
217.788
 21
894.0
 31
0.0
  0
LINE
  5
C4
330
1E
100
AcDbEntity
  8
0
100
AcDbLine
 10
212.8159999999999
 20
894.0
 30
0.0
 11
215.456
 21
894.0
 31
0.0
  0
LINE
  5
C5
330
1E
100
AcDbEntity
  8
0
100
AcDbLine
 10
210.0
 20
894.0
 30
0.0
 11
212.8159999999999
 21
894.0
 31
0.0
  0
LINE
  5
C6
330
1E
100
AcDbEntity
  8
0
100
AcDbLine
 10
204.544
 20
894.0
 30
0.0
 11
207.184
 21
894.0
 31
0.0
  0
LINE
  5
C7
330
1E
100
AcDbEntity
  8
0
100
AcDbLine
 10
207.184
 20
894.0
 30
0.0
 11
210.0
 21
894.0
 31
0.0
  0
LINE
  5
C8
330
1E
100
AcDbEntity
  8
0
100
AcDbLine
 10
194.5
 20
894.0
 30
0.0
 11
194.5
 21
895.0
 31
0.0
  0
LINE
  5
C9
330
1E
100
AcDbEntity
  8
0
100
AcDbLine
 10
187.93
 20
894.0
 30
0.0
 11
191.53
 21
894.0
 31
0.0
  0
LINE
  5
CA
330
1E
100
AcDbEntity
  8
0
100
AcDbLine
 10
183.1599999999999
 20
894.0
 30
0.0
 11
187.93
 21
894.0
 31
0.0
  0
LINE
  5
CB
330
1E
100
AcDbEntity
  8
0
100
AcDbLine
 10
177.7599999999999
 20
894.0
 30
0.0
 11
183.1599999999999
 21
894.0
 31
0.0
  0
LINE
  5
CC
330
1E
100
AcDbEntity
  8
0
100
AcDbLine
 10
172.0
 20
894.0
 30
0.0
 11
177.7599999999999
 21
894.0
 31
0.0
  0
LINE
  5
CD
330
1E
100
AcDbEntity
  8
0
100
AcDbLine
 10
193.6899999999999
 20
894.0
 30
0.0
 11
194.5
 21
894.0
 31
0.0
  0
LINE
  5
CE
330
1E
100
AcDbEntity
  8
0
100
AcDbLine
 10
166.24
 20
894.0
 30
0.0
 11
172.0
 21
894.0
 31
0.0
  0
LINE
  5
CF
330
1E
100
AcDbEntity
  8
0
100
AcDbLine
 10
104.5479999999999
 20
894.0
 30
0.0
 11
105.604
 21
894.0
 31
0.0
  0
LINE
  5
D0
330
1E
100
AcDbEntity
  8
0
100
AcDbLine
 10
102.7879999999999
 20
894.0
 30
0.0
 11
104.5479999999999
 21
894.0
 31
0.0
  0
LINE
  5
D1
330
1E
100
AcDbEntity
  8
0
100
AcDbLine
 10
100.456
 20
894.0
 30
0.0
 11
102.7879999999999
 21
894.0
 31
0.0
  0
LINE
  5
D2
330
1E
100
AcDbEntity
  8
0
100
AcDbLine
 10
89.54399999999999
 20
894.0
 30
0.0
 11
92.184
 21
894.0
 31
0.0
  0
LINE
  5
D3
330
1E
100
AcDbEntity
  8
0
100
AcDbLine
 10
92.184
 20
894.0
 30
0.0
 11
95.0
 21
894.0
 31
0.0
  0
LINE
  5
D4
330
1E
100
AcDbEntity
  8
0
100
AcDbLine
 10
294.0
 20
894.0
 30
0.0
 11
294.3959999999999
 21
894.0
 31
0.0
  0
LINE
  5
D5
330
1E
100
AcDbEntity
  8
0
100
AcDbLine
 10
294.0
 20
894.0
 30
0.0
 11
294.0
 21
895.0
 31
0.0
  0
LINE
  5
D6
330
1E
100
AcDbEntity
  8
0
100
AcDbLine
 10
294.3959999999999
 20
894.0
 30
0.0
 11
295.452
 21
894.0
 31
0.0
  0
LINE
  5
D7
330
1E
100
AcDbEntity
  8
0
100
AcDbLine
 10
299.2399999999999
 20
894.0
 30
0.0
 11
305.0
 21
894.0
 31
0.0
  0
LINE
  5
D8
330
1E
100
AcDbEntity
  8
0
100
AcDbLine
 10
295.452
 20
894.0
 30
0.0
 11
297.2119999999999
 21
894.0
 31
0.0
  0
LINE
  5
D9
330
1E
100
AcDbEntity
  8
0
100
AcDbLine
 10
297.2119999999999
 20
894.0
 30
0.0
 11
299.544
 21
894.0
 31
0.0
  0
LINE
  5
DA
330
1E
100
AcDbEntity
  8
0
100
AcDbLine
 10
300.0
 20
894.0
 30
0.0
 11
300.18
 21
894.0
 31
0.0
  0
LINE
  5
DB
330
1E
100
AcDbEntity
  8
0
100
AcDbLine
 10
300.0
 20
894.0
 30
0.0
 11
300.0
 21
895.0
 31
0.0
  0
LINE
  5
DC
330
1E
100
AcDbEntity
  8
0
100
AcDbLine
 10
300.18
 20
894.0
 30
0.0
 11
300.66
 21
894.0
 31
0.0
  0
LINE
  5
DD
330
1E
100
AcDbEntity
  8
0
100
AcDbLine
 10
300.66
 20
894.0
 30
0.0
 11
301.4599999999999
 21
894.0
 31
0.0
  0
LINE
  5
DE
330
1E
100
AcDbEntity
  8
0
100
AcDbLine
 10
305.0
 20
170.0
 30
0.0
 11
316.1
 21
169.1
 31
0.0
  0
LINE
  5
DF
330
1E
100
AcDbEntity
  8
0
100
AcDbLine
 10
302.5199999999999
 20
894.0
 30
0.0
 11
303.72
 21
894.0
 31
0.0
  0
LINE
  5
E0
330
1E
100
AcDbEntity
  8
0
100
AcDbLine
 10
301.4599999999999
 20
894.0
 30
0.0
 11
302.5199999999999
 21
894.0
 31
0.0
  0
LINE
  5
E1
330
1E
100
AcDbEntity
  8
0
100
AcDbLine
 10
303.72
 20
894.0
 30
0.0
 11
305.0
 21
894.0
 31
0.0
  0
LINE
  5
E2
330
1E
100
AcDbEntity
  8
0
100
AcDbLine
 10
299.544
 20
894.0
 30
0.0
 11
302.184
 21
894.0
 31
0.0
  0
LINE
  5
E3
330
1E
100
AcDbEntity
  8
0
100
AcDbLine
 10
0.0000000000000003
 20
895.0
 30
0.0
 11
0.0000000000000003
 21
900.0
 31
0.0
  0
LINE
  5
E4
330
1E
100
AcDbEntity
  8
0
100
AcDbLine
 10
0.0000000000000003
 20
895.0
 30
0.0
 11
1.0
 21
895.0
 31
0.0
  0
LINE
  5
E5
330
1E
100
AcDbEntity
  8
0
100
AcDbLine
 10
1.0
 20
895.0
 30
0.0
 11
5.0
 21
895.0
 31
0.0
  0
LINE
  5
E6
330
1E
100
AcDbEntity
  8
0
100
AcDbLine
 10
5.0
 20
895.0
 30
0.0
 11
11.0
 21
895.0
 31
0.0
  0
LINE
  5
E7
330
1E
100
AcDbEntity
  8
0
100
AcDbLine
 10
11.0
 20
895.0
 30
0.0
 11
17.0
 21
895.0
 31
0.0
  0
LINE
  5
E8
330
1E
100
AcDbEntity
  8
0
100
AcDbLine
 10
17.5
 20
895.0
 30
0.0
 11
54.4992
 21
895.0
 31
0.0
  0
LINE
  5
E9
330
1E
100
AcDbEntity
  8
0
100
AcDbLine
 10
17.5
 20
895.0
 30
0.0
 11
28.0
 21
895.0
 31
0.0
  0
LINE
  5
EB
330
1E
100
AcDbEntity
  8
0
100
AcDbLine
 10
17.5
 20
895.0
 30
0.0
 11
54.4992
 21
895.0
 31
0.0
  0
LINE
  5
EC
330
1E
100
AcDbEntity
  8
0
100
AcDbLine
 10
28.0
 20
895.0
 30
0.0
 11
41.0
 21
895.0
 31
0.0
  0
LINE
  5
ED
330
1E
100
AcDbEntity
  8
0
100
AcDbLine
 10
41.0
 20
895.0
 30
0.0
 11
56.0
 21
895.0
 31
0.0
  0
LINE
  5
EE
330
1E
100
AcDbEntity
  8
0
100
AcDbLine
 10
56.0
 20
895.0
 30
0.0
 11
72.0
 21
895.0
 31
0.0
  0
LINE
  5
EF
330
1E
100
AcDbEntity
  8
0
100
AcDbLine
 10
72.0
 20
895.0
 30
0.0
 11
84.0
 21
895.0
 31
0.0
  0
LINE
  5
F0
330
1E
100
AcDbEntity
  8
0
100
AcDbLine
 10
72.0
 20
895.0
 30
0.0
 11
89.0
 21
895.0
 31
0.0
  0
LINE
  5
F1
330
1E
100
AcDbEntity
  8
0
100
AcDbLine
 10
17.0
 20
895.0
 30
0.0
 11
54.4992
 21
895.0
 31
0.0
  0
LINE
  5
F3
330
1E
100
AcDbEntity
  8
0
100
AcDbLine
 10
17.0
 20
895.0
 30
0.0
 11
17.5
 21
895.0
 31
0.0
  0
LINE
  5
F4
330
1E
100
AcDbEntity
  8
0
100
AcDbLine
 10
54.4992
 20
895.0
 30
0.0
 11
84.0
 21
895.0
 31
0.0
  0
LINE
  5
F5
330
1E
100
AcDbEntity
  8
0
100
AcDbLine
 10
54.4992
 20
895.0
 30
0.0
 11
93.0727
 21
895.0
 31
0.0
  0
LINE
  5
F6
330
1E
100
AcDbEntity
  8
0
100
AcDbLine
 10
54.4992
 20
895.0
 30
0.0
 11
91.72929999999999
 21
895.0
 31
0.0
  0
LINE
  5
F7
330
1E
100
AcDbEntity
  8
0
100
AcDbLine
 10
84.0
 20
895.0
 30
0.0
 11
84.0
 21
894.0
 31
0.0
  0
LINE
  5
F8
330
1E
100
AcDbEntity
  8
0
100
AcDbLine
 10
84.0
 20
895.0
 30
0.0
 11
84.396
 21
895.0
 31
0.0
  0
LINE
  5
F9
330
1E
100
AcDbEntity
  8
0
100
AcDbLine
 10
84.396
 20
895.0
 30
0.0
 11
85.45200000000001
 21
895.0
 31
0.0
  0
LINE
  5
FA
330
1E
100
AcDbEntity
  8
0
100
AcDbLine
 10
89.0
 20
895.0
 30
0.0
 11
109.0
 21
895.0
 31
0.0
  0
LINE
  5
FB
330
1E
100
AcDbEntity
  8
0
100
AcDbLine
 10
85.45200000000001
 20
895.0
 30
0.0
 11
87.21200000000001
 21
895.0
 31
0.0
  0
LINE
  5
FC
330
1E
100
AcDbEntity
  8
0
100
AcDbLine
 10
87.21200000000001
 20
895.0
 30
0.0
 11
89.54399999999999
 21
895.0
 31
0.0
  0
LINE
  5
FD
330
1E
100
AcDbEntity
  8
0
100
AcDbLine
 10
93.0727
 20
895.0
 30
0.0
 11
118.0209999999999
 21
895.0
 31
0.0
  0
LINE
  5
FE
330
1E
100
AcDbEntity
  8
0
100
AcDbLine
 10
91.72929999999999
 20
895.0
 30
0.0
 11
116.4849999999999
 21
895.0
 31
0.0
  0
LINE
  5
FF
330
1E
100
AcDbEntity
  8
0
100
AcDbLine
 10
105.604
 20
895.0
 30
0.0
 11
106.0
 21
895.0
 31
0.0
  0
LINE
  5
100
330
1E
100
AcDbEntity
  8
0
100
AcDbLine
 10
118.0209999999999
 20
895.0
 30
0.0
 11
142.777
 21
895.0
 31
0.0
  0
LINE
  5
101
330
1E
100
AcDbEntity
  8
0
100
AcDbLine
 10
142.777
 20
895.0
 30
0.0
 11
149.5
 21
895.0
 31
0.0
  0
LINE
  5
102
330
1E
100
AcDbEntity
  8
0
100
AcDbLine
 10
142.777
 20
895.0
 30
0.0
 11
162.927
 21
895.0
 31
0.0
  0
LINE
  5
103
330
1E
100
AcDbEntity
  8
0
100
AcDbLine
 10
128.0
 20
895.0
 30
0.0
 11
149.5
 21
895.0
 31
0.0
  0
LINE
  5
104
330
1E
100
AcDbEntity
  8
0
100
AcDbLine
 10
128.0
 20
895.0
 30
0.0
 11
151.0
 21
895.0
 31
0.0
  0
LINE
  5
105
330
1E
100
AcDbEntity
  8
0
100
AcDbLine
 10
109.0
 20
895.0
 30
0.0
 11
128.0
 21
895.0
 31
0.0
  0
LINE
  5
106
330
1E
100
AcDbEntity
  8
0
100
AcDbLine
 10
140.282
 20
895.0
 30
0.0
 11
149.5
 21
895.0
 31
0.0
  0
LINE
  5
107
330
1E
100
AcDbEntity
  8
0
100
AcDbLine
 10
140.282
 20
895.0
 30
0.0
 11
162.1589999999999
 21
895.0
 31
0.0
  0
LINE
  5
108
330
1E
100
AcDbEntity
  8
0
100
AcDbLine
 10
106.0
 20
895.0
 30
0.0
 11
106.0
 21
894.0
 31
0.0
  0
LINE
  5
109
330
1E
100
AcDbEntity
  8
0
100
AcDbLine
 10
106.0
 20
895.0
 30
0.0
 11
109.0
 21
895.0
 31
0.0
  0
LINE
  5
10A
330
1E
100
AcDbEntity
  8
0
100
AcDbLine
 10
106.0
 20
895.0
 30
0.0
 11
116.4849999999999
 21
895.0
 31
0.0
  0
LINE
  5
10B
330
1E
100
AcDbEntity
  8
0
100
AcDbLine
 10
106.0
 20
895.0
 30
0.0
 11
118.0209999999999
 21
895.0
 31
0.0
  0
LINE
  5
10C
330
1E
100
AcDbEntity
  8
0
100
AcDbLine
 10
104.5479999999999
 20
895.0
 30
0.0
 11
105.604
 21
895.0
 31
0.0
  0
LINE
  5
10D
330
1E
100
AcDbEntity
  8
0
100
AcDbLine
 10
102.7879999999999
 20
895.0
 30
0.0
 11
104.5479999999999
 21
895.0
 31
0.0
  0
LINE
  5
10E
330
1E
100
AcDbEntity
  8
0
100
AcDbLine
 10
97.816
 20
895.0
 30
0.0
 11
100.456
 21
895.0
 31
0.0
  0
LINE
  5
10F
330
1E
100
AcDbEntity
  8
0
100
AcDbLine
 10
95.0
 20
895.0
 30
0.0
 11
97.816
 21
895.0
 31
0.0
  0
LINE
  5
110
330
1E
100
AcDbEntity
  8
0
100
AcDbLine
 10
116.4849999999999
 20
895.0
 30
0.0
 11
140.282
 21
895.0
 31
0.0
  0
LINE
  5
111
330
1E
100
AcDbEntity
  8
0
100
AcDbLine
 10
151.0
 20
895.0
 30
0.0
 11
176.0
 21
895.0
 31
0.0
  0
LINE
  5
112
330
1E
100
AcDbEntity
  8
0
100
AcDbLine
 10
149.5
 20
895.0
 30
0.0
 11
150.31
 21
895.0
 31
0.0
  0
LINE
  5
113
330
1E
100
AcDbEntity
  8
0
100
AcDbLine
 10
149.5
 20
895.0
 30
0.0
 11
149.5
 21
894.0
 31
0.0
  0
LINE
  5
114
330
1E
100
AcDbEntity
  8
0
100
AcDbLine
 10
150.31
 20
895.0
 30
0.0
 11
152.4699999999999
 21
895.0
 31
0.0
  0
LINE
  5
115
330
1E
100
AcDbEntity
  8
0
100
AcDbLine
 10
162.927
 20
895.0
 30
0.0
 11
181.734
 21
895.0
 31
0.0
  0
LINE
  5
116
330
1E
100
AcDbEntity
  8
0
100
AcDbLine
 10
162.1589999999999
 20
895.0
 30
0.0
 11
181.158
 21
895.0
 31
0.0
  0
LINE
  5
117
330
1E
100
AcDbEntity
  8
0
100
AcDbLine
 10
160.84
 20
895.0
 30
0.0
 11
166.24
 21
895.0
 31
0.0
  0
LINE
  5
118
330
1E
100
AcDbEntity
  8
0
100
AcDbLine
 10
152.4699999999999
 20
895.0
 30
0.0
 11
156.0699999999999
 21
895.0
 31
0.0
  0
LINE
  5
119
330
1E
100
AcDbEntity
  8
0
100
AcDbLine
 10
156.0699999999999
 20
895.0
 30
0.0
 11
160.84
 21
895.0
 31
0.0
  0
LINE
  5
11A
330
1E
100
AcDbEntity
  8
0
100
AcDbLine
 10
176.0
 20
895.0
 30
0.0
 11
200.0
 21
895.0
 31
0.0
  0
LINE
  5
11B
330
1E
100
AcDbEntity
  8
0
100
AcDbLine
 10
181.734
 20
895.0
 30
0.0
 11
199.0
 21
895.0
 31
0.0
  0
LINE
  5
11C
330
1E
100
AcDbEntity
  8
0
100
AcDbLine
 10
181.158
 20
895.0
 30
0.0
 11
199.0
 21
895.0
 31
0.0
  0
LINE
  5
11D
330
1E
100
AcDbEntity
  8
0
100
AcDbLine
 10
191.53
 20
895.0
 30
0.0
 11
193.6899999999999
 21
895.0
 31
0.0
  0
LINE
  5
11E
330
1E
100
AcDbEntity
  8
0
100
AcDbLine
 10
187.93
 20
895.0
 30
0.0
 11
191.53
 21
895.0
 31
0.0
  0
LINE
  5
11F
330
1E
100
AcDbEntity
  8
0
100
AcDbLine
 10
183.1599999999999
 20
895.0
 30
0.0
 11
187.93
 21
895.0
 31
0.0
  0
LINE
  5
120
330
1E
100
AcDbEntity
  8
0
100
AcDbLine
 10
177.7599999999999
 20
895.0
 30
0.0
 11
183.1599999999999
 21
895.0
 31
0.0
  0
LINE
  5
121
330
1E
100
AcDbEntity
  8
0
100
AcDbLine
 10
172.0
 20
895.0
 30
0.0
 11
177.7599999999999
 21
895.0
 31
0.0
  0
LINE
  5
122
330
1E
100
AcDbEntity
  8
0
100
AcDbLine
 10
200.0
 20
895.0
 30
0.0
 11
224.0
 21
895.0
 31
0.0
  0
LINE
  5
123
330
1E
100
AcDbEntity
  8
0
100
AcDbLine
 10
199.3959999999999
 20
895.0
 30
0.0
 11
200.4519999999999
 21
895.0
 31
0.0
  0
LINE
  5
124
330
1E
100
AcDbEntity
  8
0
100
AcDbLine
 10
200.4519999999999
 20
895.0
 30
0.0
 11
202.212
 21
895.0
 31
0.0
  0
LINE
  5
125
330
1E
100
AcDbEntity
  8
0
100
AcDbLine
 10
202.212
 20
895.0
 30
0.0
 11
204.544
 21
895.0
 31
0.0
  0
LINE
  5
126
330
1E
100
AcDbEntity
  8
0
100
AcDbLine
 10
204.544
 20
895.0
 30
0.0
 11
207.184
 21
895.0
 31
0.0
  0
LINE
  5
127
330
1E
100
AcDbEntity
  8
0
100
AcDbLine
 10
207.184
 20
895.0
 30
0.0
 11
210.0
 21
895.0
 31
0.0
  0
LINE
  5
128
330
1E
100
AcDbEntity
  8
0
100
AcDbLine
 10
220.604
 20
895.0
 30
0.0
 11
221.0
 21
895.0
 31
0.0
  0
LINE
  5
129
330
1E
100
AcDbEntity
  8
0
100
AcDbLine
 10
219.5479999999999
 20
895.0
 30
0.0
 11
220.604
 21
895.0
 31
0.0
  0
LINE
  5
12A
330
1E
100
AcDbEntity
  8
0
100
AcDbLine
 10
217.788
 20
895.0
 30
0.0
 11
219.5479999999999
 21
895.0
 31
0.0
  0
LINE
  5
12B
330
1E
100
AcDbEntity
  8
0
100
AcDbLine
 10
215.456
 20
895.0
 30
0.0
 11
217.788
 21
895.0
 31
0.0
  0
LINE
  5
12C
330
1E
100
AcDbEntity
  8
0
100
AcDbLine
 10
212.8159999999999
 20
895.0
 30
0.0
 11
215.456
 21
895.0
 31
0.0
  0
LINE
  5
12D
330
1E
100
AcDbEntity
  8
0
100
AcDbLine
 10
210.0
 20
895.0
 30
0.0
 11
212.8159999999999
 21
895.0
 31
0.0
  0
LINE
  5
12E
330
1E
100
AcDbEntity
  8
0
100
AcDbLine
 10
234.22
 20
895.0
 30
0.0
 11
249.3809999999999
 21
895.0
 31
0.0
  0
LINE
  5
12F
330
1E
100
AcDbEntity
  8
0
100
AcDbLine
 10
249.3809999999999
 20
895.0
 30
0.0
 11
263.1979999999999
 21
895.0
 31
0.0
  0
LINE
  5
130
330
1E
100
AcDbEntity
  8
0
100
AcDbLine
 10
263.1979999999999
 20
895.0
 30
0.0
 11
277.591
 21
895.0
 31
0.0
  0
LINE
  5
131
330
1E
100
AcDbEntity
  8
0
100
AcDbLine
 10
277.591
 20
895.0
 30
0.0
 11
282.5
 21
895.0
 31
0.0
  0
LINE
  5
132
330
1E
100
AcDbEntity
  8
0
100
AcDbLine
 10
277.591
 20
895.0
 30
0.0
 11
291.792
 21
895.0
 31
0.0
  0
LINE
  5
133
330
1E
100
AcDbEntity
  8
0
100
AcDbLine
 10
277.591
 20
895.0
 30
0.0
 11
292.368
 21
895.0
 31
0.0
  0
LINE
  5
134
330
1E
100
AcDbEntity
  8
0
100
AcDbLine
 10
262.4309999999999
 20
895.0
 30
0.0
 11
277.591
 21
895.0
 31
0.0
  0
LINE
  5
135
330
1E
100
AcDbEntity
  8
0
100
AcDbLine
 10
248.421
 20
895.0
 30
0.0
 11
262.4309999999999
 21
895.0
 31
0.0
  0
LINE
  5
136
330
1E
100
AcDbEntity
  8
0
100
AcDbLine
 10
232.493
 20
895.0
 30
0.0
 11
248.421
 21
895.0
 31
0.0
  0
LINE
  5
137
330
1E
100
AcDbEntity
  8
0
100
AcDbLine
 10
279.0
 20
895.0
 30
0.0
 11
282.5
 21
895.0
 31
0.0
  0
LINE
  5
138
330
1E
100
AcDbEntity
  8
0
100
AcDbLine
 10
279.0
 20
895.0
 30
0.0
 11
305.0
 21
895.0
 31
0.0
  0
LINE
  5
139
330
1E
100
AcDbEntity
  8
0
100
AcDbLine
 10
251.0
 20
895.0
 30
0.0
 11
279.0
 21
895.0
 31
0.0
  0
LINE
  5
13A
330
1E
100
AcDbEntity
  8
0
100
AcDbLine
 10
224.0
 20
895.0
 30
0.0
 11
251.0
 21
895.0
 31
0.0
  0
LINE
  5
13B
330
1E
100
AcDbEntity
  8
0
100
AcDbLine
 10
282.5
 20
895.0
 30
0.0
 11
282.5
 21
894.0
 31
0.0
  0
LINE
  5
13C
330
1E
100
AcDbEntity
  8
0
100
AcDbLine
 10
282.5
 20
895.0
 30
0.0
 11
283.3099999999999
 21
895.0
 31
0.0
  0
LINE
  5
13D
330
1E
100
AcDbEntity
  8
0
100
AcDbLine
 10
283.3099999999999
 20
895.0
 30
0.0
 11
285.47
 21
895.0
 31
0.0
  0
LINE
  5
13E
330
1E
100
AcDbEntity
  8
0
100
AcDbLine
 10
285.47
 20
895.0
 30
0.0
 11
289.0699999999999
 21
895.0
 31
0.0
  0
LINE
  5
13F
330
1E
100
AcDbEntity
  8
0
100
AcDbLine
 10
292.368
 20
895.0
 30
0.0
 11
300.0
 21
895.0
 31
0.0
  0
LINE
  5
140
330
1E
100
AcDbEntity
  8
0
100
AcDbLine
 10
291.792
 20
895.0
 30
0.0
 11
300.0
 21
895.0
 31
0.0
  0
LINE
  5
141
330
1E
100
AcDbEntity
  8
0
100
AcDbLine
 10
289.0699999999999
 20
895.0
 30
0.0
 11
293.8399999999999
 21
895.0
 31
0.0
  0
LINE
  5
142
330
1E
100
AcDbEntity
  8
0
100
AcDbLine
 10
293.8399999999999
 20
895.0
 30
0.0
 11
294.0
 21
895.0
 31
0.0
  0
LINE
  5
143
330
1E
100
AcDbEntity
  8
0
100
AcDbLine
 10
221.0
 20
895.0
 30
0.0
 11
221.0
 21
894.0
 31
0.0
  0
LINE
  5
144
330
1E
100
AcDbEntity
  8
0
100
AcDbLine
 10
221.0
 20
895.0
 30
0.0
 11
224.0
 21
895.0
 31
0.0
  0
LINE
  5
145
330
1E
100
AcDbEntity
  8
0
100
AcDbLine
 10
221.0
 20
895.0
 30
0.0
 11
232.493
 21
895.0
 31
0.0
  0
LINE
  5
146
330
1E
100
AcDbEntity
  8
0
100
AcDbLine
 10
221.0
 20
895.0
 30
0.0
 11
234.22
 21
895.0
 31
0.0
  0
LINE
  5
147
330
1E
100
AcDbEntity
  8
0
100
AcDbLine
 10
199.0
 20
895.0
 30
0.0
 11
199.0
 21
894.0
 31
0.0
  0
LINE
  5
148
330
1E
100
AcDbEntity
  8
0
100
AcDbLine
 10
199.0
 20
895.0
 30
0.0
 11
199.3959999999999
 21
895.0
 31
0.0
  0
LINE
  5
149
330
1E
100
AcDbEntity
  8
0
100
AcDbLine
 10
193.6899999999999
 20
895.0
 30
0.0
 11
194.5
 21
895.0
 31
0.0
  0
LINE
  5
14A
330
1E
100
AcDbEntity
  8
0
100
AcDbLine
 10
194.5
 20
895.0
 30
0.0
 11
194.5
 21
894.0
 31
0.0
  0
LINE
  5
14B
330
1E
100
AcDbEntity
  8
0
100
AcDbLine
 10
194.5
 20
895.0
 30
0.0
 11
199.0
 21
895.0
 31
0.0
  0
LINE
  5
14C
330
1E
100
AcDbEntity
  8
0
100
AcDbLine
 10
166.24
 20
895.0
 30
0.0
 11
172.0
 21
895.0
 31
0.0
  0
LINE
  5
14D
330
1E
100
AcDbEntity
  8
0
100
AcDbLine
 10
100.456
 20
895.0
 30
0.0
 11
102.7879999999999
 21
895.0
 31
0.0
  0
LINE
  5
14E
330
1E
100
AcDbEntity
  8
0
100
AcDbLine
 10
89.54399999999999
 20
895.0
 30
0.0
 11
92.184
 21
895.0
 31
0.0
  0
LINE
  5
14F
330
1E
100
AcDbEntity
  8
0
100
AcDbLine
 10
0.0000000000000003
 20
900.0
 30
0.0
 11
0.0000000000000003
 21
895.0
 31
0.0
  0
LINE
  5
150
330
1E
100
AcDbEntity
  8
0
100
AcDbLine
 10
0.0000000000000003
 20
900.0
 30
0.0
 11
1.0
 21
900.0
 31
0.0
  0
LINE
  5
151
330
1E
100
AcDbEntity
  8
0
100
AcDbLine
 10
1.0
 20
900.0
 30
0.0
 11
5.0
 21
900.0
 31
0.0
  0
LINE
  5
152
330
1E
100
AcDbEntity
  8
0
100
AcDbLine
 10
5.0
 20
900.0
 30
0.0
 11
11.0
 21
900.0
 31
0.0
  0
LINE
  5
153
330
1E
100
AcDbEntity
  8
0
100
AcDbLine
 10
11.0
 20
900.0
 30
0.0
 11
17.0
 21
900.0
 31
0.0
  0
LINE
  5
155
330
1E
100
AcDbEntity
  8
0
100
AcDbLine
 10
17.5
 20
900.0
 30
0.0
 11
28.0
 21
900.0
 31
0.0
  0
LINE
  5
156
330
1E
100
AcDbEntity
  8
0
100
AcDbLine
 10
28.0
 20
900.0
 30
0.0
 11
41.0
 21
900.0
 31
0.0
  0
LINE
  5
157
330
1E
100
AcDbEntity
  8
0
100
AcDbLine
 10
41.0
 20
900.0
 30
0.0
 11
56.0
 21
900.0
 31
0.0
  0
LINE
  5
158
330
1E
100
AcDbEntity
  8
0
100
AcDbLine
 10
56.0
 20
900.0
 30
0.0
 11
72.0
 21
900.0
 31
0.0
  0
LINE
  5
159
330
1E
100
AcDbEntity
  8
0
100
AcDbLine
 10
72.0
 20
900.0
 30
0.0
 11
89.0
 21
900.0
 31
0.0
  0
LINE
  5
15A
330
1E
100
AcDbEntity
  8
0
100
AcDbLine
 10
279.0
 20
900.0
 30
0.0
 11
305.0
 21
900.0
 31
0.0
  0
LINE
  5
15B
330
1E
100
AcDbEntity
  8
0
100
AcDbLine
 10
251.0
 20
900.0
 30
0.0
 11
279.0
 21
900.0
 31
0.0
  0
LINE
  5
15C
330
1E
100
AcDbEntity
  8
0
100
AcDbLine
 10
224.0
 20
900.0
 30
0.0
 11
251.0
 21
900.0
 31
0.0
  0
LINE
  5
15D
330
1E
100
AcDbEntity
  8
0
100
AcDbLine
 10
200.0
 20
900.0
 30
0.0
 11
224.0
 21
900.0
 31
0.0
  0
LINE
  5
15E
330
1E
100
AcDbEntity
  8
0
100
AcDbLine
 10
176.0
 20
900.0
 30
0.0
 11
200.0
 21
900.0
 31
0.0
  0
LINE
  5
15F
330
1E
100
AcDbEntity
  8
0
100
AcDbLine
 10
151.0
 20
900.0
 30
0.0
 11
176.0
 21
900.0
 31
0.0
  0
LINE
  5
160
330
1E
100
AcDbEntity
  8
0
100
AcDbLine
 10
128.0
 20
900.0
 30
0.0
 11
151.0
 21
900.0
 31
0.0
  0
LINE
  5
161
330
1E
100
AcDbEntity
  8
0
100
AcDbLine
 10
109.0
 20
900.0
 30
0.0
 11
128.0
 21
900.0
 31
0.0
  0
LINE
  5
162
330
1E
100
AcDbEntity
  8
0
100
AcDbLine
 10
89.0
 20
900.0
 30
0.0
 11
109.0
 21
900.0
 31
0.0
  0
LINE
  5
164
330
1E
100
AcDbEntity
  8
0
100
AcDbLine
 10
17.0
 20
900.0
 30
0.0
 11
17.5
 21
900.0
 31
0.0
  0
LINE
  5
165
330
1E
100
AcDbEntity
  8
0
100
AcDbLine
 10
92.184
 20
895.0
 30
0.0
 11
95.0
 21
895.0
 31
0.0
  0
LINE
  5
166
330
1E
100
AcDbEntity
  8
0
100
AcDbLine
 10
295.452
 20
895.0
 30
0.0
 11
297.2119999999999
 21
895.0
 31
0.0
  0
LINE
  5
167
330
1E
100
AcDbEntity
  8
0
100
AcDbLine
 10
300.0
 20
895.0
 30
0.0
 11
300.0
 21
894.0
 31
0.0
  0
LINE
  5
168
330
1E
100
AcDbEntity
  8
0
100
AcDbLine
 10
300.0
 20
895.0
 30
0.0
 11
300.18
 21
895.0
 31
0.0
  0
LINE
  5
169
330
1E
100
AcDbEntity
  8
0
100
AcDbLine
 10
297.2119999999999
 20
895.0
 30
0.0
 11
299.544
 21
895.0
 31
0.0
  0
LINE
  5
16A
330
1E
100
AcDbEntity
  8
0
100
AcDbLine
 10
299.544
 20
895.0
 30
0.0
 11
300.0
 21
895.0
 31
0.0
  0
LINE
  5
16B
330
1E
100
AcDbEntity
  8
0
100
AcDbLine
 10
300.18
 20
895.0
 30
0.0
 11
300.66
 21
895.0
 31
0.0
  0
LINE
  5
16C
330
1E
100
AcDbEntity
  8
0
100
AcDbLine
 10
300.66
 20
895.0
 30
0.0
 11
301.4599999999999
 21
895.0
 31
0.0
  0
LINE
  5
16D
330
1E
100
AcDbEntity
  8
0
100
AcDbLine
 10
302.5199999999999
 20
895.0
 30
0.0
 11
303.72
 21
895.0
 31
0.0
  0
LINE
  5
16E
330
1E
100
AcDbEntity
  8
0
100
AcDbLine
 10
303.72
 20
895.0
 30
0.0
 11
305.0
 21
895.0
 31
0.0
  0
LINE
  5
16F
330
1E
100
AcDbEntity
  8
0
100
AcDbLine
 10
305.0
 20
895.0
 30
0.0
 11
306.2799999999999
 21
895.0
 31
0.0
  0
LINE
  5
170
330
1E
100
AcDbEntity
  8
0
100
AcDbLine
 10
305.0
 20
895.0
 30
0.0
 11
331.0
 21
895.0
 31
0.0
  0
LINE
  5
171
330
1E
100
AcDbEntity
  8
0
100
AcDbLine
 10
301.4599999999999
 20
895.0
 30
0.0
 11
302.5199999999999
 21
895.0
 31
0.0
  0
LINE
  5
172
330
1E
100
AcDbEntity
  8
0
100
AcDbLine
 10
305.0
 20
900.0
 30
0.0
 11
331.0
 21
900.0
 31
0.0
  0
LINE
  5
173
330
1E
100
AcDbEntity
  8
0
100
AcDbLine
 10
294.3959999999999
 20
895.0
 30
0.0
 11
295.452
 21
895.0
 31
0.0
  0
LINE
  5
174
330
1E
100
AcDbEntity
  8
0
100
AcDbLine
 10
294.0
 20
895.0
 30
0.0
 11
294.0
 21
894.0
 31
0.0
  0
LINE
  5
175
330
1E
100
AcDbEntity
  8
0
100
AcDbLine
 10
294.0
 20
895.0
 30
0.0
 11
294.3959999999999
 21
895.0
 31
0.0
  0
LINE
  5
176
330
1E
100
AcDbEntity
  8
0
100
AcDbLine
 10
302.184
 20
894.0
 30
0.0
 11
305.0
 21
894.0
 31
0.0
  0
LINE
  5
177
330
1E
100
AcDbEntity
  8
0
100
AcDbLine
 10
307.48
 20
894.0
 30
0.0
 11
308.54
 21
894.0
 31
0.0
  0
LINE
  5
178
330
1E
100
AcDbEntity
  8
0
100
AcDbLine
 10
307.816
 20
894.0
 30
0.0
 11
310.4559999999999
 21
894.0
 31
0.0
  0
LINE
  5
179
330
1E
100
AcDbEntity
  8
0
100
AcDbLine
 10
310.76
 20
894.0
 30
0.0
 11
316.16
 21
894.0
 31
0.0
  0
LINE
  5
17A
330
1E
100
AcDbEntity
  8
0
100
AcDbLine
 10
310.0
 20
894.0
 30
0.0
 11
310.0
 21
895.0
 31
0.0
  0
LINE
  5
17B
330
1E
100
AcDbEntity
  8
0
100
AcDbLine
 10
309.8199999999999
 20
894.0
 30
0.0
 11
310.0
 21
894.0
 31
0.0
  0
LINE
  5
17C
330
1E
100
AcDbEntity
  8
0
100
AcDbLine
 10
309.3399999999999
 20
894.0
 30
0.0
 11
309.8199999999999
 21
894.0
 31
0.0
  0
LINE
  5
17D
330
1E
100
AcDbEntity
  8
0
100
AcDbLine
 10
308.54
 20
894.0
 30
0.0
 11
309.3399999999999
 21
894.0
 31
0.0
  0
LINE
  5
17E
330
1E
100
AcDbEntity
  8
0
100
AcDbLine
 10
306.2799999999999
 20
894.0
 30
0.0
 11
307.48
 21
894.0
 31
0.0
  0
LINE
  5
17F
330
1E
100
AcDbEntity
  8
0
100
AcDbLine
 10
310.4559999999999
 20
894.0
 30
0.0
 11
312.788
 21
894.0
 31
0.0
  0
LINE
  5
180
330
1E
100
AcDbEntity
  8
0
100
AcDbLine
 10
316.1
 20
169.1
 30
0.0
 11
326.8999999999999
 21
166.9
 31
0.0
  0
LINE
  5
181
330
1E
100
AcDbEntity
  8
0
100
AcDbLine
 10
316.16
 20
894.0
 30
0.0
 11
320.93
 21
894.0
 31
0.0
  0
LINE
  5
182
330
1E
100
AcDbEntity
  8
0
100
AcDbLine
 10
315.604
 20
894.0
 30
0.0
 11
316.0
 21
894.0
 31
0.0
  0
LINE
  5
183
330
1E
100
AcDbEntity
  8
0
100
AcDbLine
 10
316.0
 20
894.0
 30
0.0
 11
316.0
 21
895.0
 31
0.0
  0
LINE
  5
184
330
1E
100
AcDbEntity
  8
0
100
AcDbLine
 10
314.548
 20
894.0
 30
0.0
 11
315.604
 21
894.0
 31
0.0
  0
LINE
  5
185
330
1E
100
AcDbEntity
  8
0
100
AcDbLine
 10
309.8199999999999
 20
895.0
 30
0.0
 11
310.0
 21
895.0
 31
0.0
  0
LINE
  5
186
330
1E
100
AcDbEntity
  8
0
100
AcDbLine
 10
309.3399999999999
 20
895.0
 30
0.0
 11
309.8199999999999
 21
895.0
 31
0.0
  0
LINE
  5
187
330
1E
100
AcDbEntity
  8
0
100
AcDbLine
 10
308.54
 20
895.0
 30
0.0
 11
309.3399999999999
 21
895.0
 31
0.0
  0
LINE
  5
188
330
1E
100
AcDbEntity
  8
0
100
AcDbLine
 10
307.48
 20
895.0
 30
0.0
 11
308.54
 21
895.0
 31
0.0
  0
LINE
  5
189
330
1E
100
AcDbEntity
  8
0
100
AcDbLine
 10
306.2799999999999
 20
895.0
 30
0.0
 11
307.48
 21
895.0
 31
0.0
  0
LINE
  5
18A
330
1E
100
AcDbEntity
  8
0
100
AcDbLine
 10
310.0
 20
895.0
 30
0.0
 11
310.4559999999999
 21
895.0
 31
0.0
  0
LINE
  5
18B
330
1E
100
AcDbEntity
  8
0
100
AcDbLine
 10
310.0
 20
895.0
 30
0.0
 11
310.0
 21
894.0
 31
0.0
  0
LINE
  5
18C
330
1E
100
AcDbEntity
  8
0
100
AcDbLine
 10
310.0
 20
895.0
 30
0.0
 11
318.2079999999999
 21
895.0
 31
0.0
  0
LINE
  5
18D
330
1E
100
AcDbEntity
  8
0
100
AcDbLine
 10
310.0
 20
895.0
 30
0.0
 11
317.632
 21
895.0
 31
0.0
  0
LINE
  5
18E
330
1E
100
AcDbEntity
  8
0
100
AcDbLine
 10
314.548
 20
895.0
 30
0.0
 11
315.604
 21
895.0
 31
0.0
  0
LINE
  5
18F
330
1E
100
AcDbEntity
  8
0
100
AcDbLine
 10
312.788
 20
895.0
 30
0.0
 11
314.548
 21
895.0
 31
0.0
  0
LINE
  5
190
330
1E
100
AcDbEntity
  8
0
100
AcDbLine
 10
317.632
 20
895.0
 30
0.0
 11
332.4089999999999
 21
895.0
 31
0.0
  0
LINE
  5
191
330
1E
100
AcDbEntity
  8
0
100
AcDbLine
 10
316.16
 20
895.0
 30
0.0
 11
320.93
 21
895.0
 31
0.0
  0
LINE
  5
192
330
1E
100
AcDbEntity
  8
0
100
AcDbLine
 10
315.604
 20
895.0
 30
0.0
 11
316.0
 21
895.0
 31
0.0
  0
LINE
  5
193
330
1E
100
AcDbEntity
  8
0
100
AcDbLine
 10
316.0
 20
895.0
 30
0.0
 11
316.0
 21
894.0
 31
0.0
  0
LINE
  5
194
330
1E
100
AcDbEntity
  8
0
100
AcDbLine
 10
316.0
 20
895.0
 30
0.0
 11
316.16
 21
895.0
 31
0.0
  0
LINE
  5
195
330
1E
100
AcDbEntity
  8
0
100
AcDbLine
 10
310.4559999999999
 20
895.0
 30
0.0
 11
312.788
 21
895.0
 31
0.0
  0
LINE
  5
196
330
1E
100
AcDbEntity
  8
0
100
AcDbLine
 10
312.788
 20
894.0
 30
0.0
 11
314.548
 21
894.0
 31
0.0
  0
LINE
  5
197
330
1E
100
AcDbEntity
  8
0
100
AcDbLine
 10
305.0
 20
894.0
 30
0.0
 11
307.816
 21
894.0
 31
0.0
  0
LINE
  5
198
330
1E
100
AcDbEntity
  8
0
100
AcDbLine
 10
305.0
 20
894.0
 30
0.0
 11
306.2799999999999
 21
894.0
 31
0.0
  0
LINE
  5
199
330
1E
100
AcDbEntity
  8
0
100
AcDbLine
 10
305.0
 20
894.0
 30
0.0
 11
310.76
 21
894.0
 31
0.0
  0
LINE
  5
19A
330
1E
100
AcDbEntity
  8
0
100
AcDbLine
 10
300.0
 20
115.0
 30
0.0
 11
300.0
 21
111.2857142857139
 31
0.0
  0
LINE
  5
19B
330
1E
100
AcDbEntity
  8
0
100
AcDbLine
 10
300.0
 20
115.0
 30
0.0
 11
300.4
 21
115.0
 31
0.0
  0
LINE
  5
19C
330
1E
100
AcDbEntity
  8
0
100
AcDbLine
 10
318.9
 20
60.8
 30
0.0
 11
322.0
 21
62.8
 31
0.0
  0
LINE
  5
19F
330
1E
100
AcDbEntity
  8
0
100
AcDbLine
 10
326.8999999999999
 20
3.09999999999992
 30
0.0
 11
337.5
 21
6.599999999999919
 31
0.0
  0
LINE
  5
1A0
330
1E
100
AcDbEntity
  8
0
100
AcDbLine
 10
322.0
 20
62.8
 30
0.0
 11
324.8
 21
65.2000000000001
 31
0.0
  0
LINE
  5
1A1
330
1E
100
AcDbEntity
  8
0
100
AcDbLine
 10
324.8
 20
65.2000000000001
 30
0.0
 11
327.1999999999999
 21
68.0
 31
0.0
  0
LINE
  5
1A5
330
1E
100
AcDbEntity
  8
0
100
AcDbLine
 10
327.1999999999999
 20
68.0
 30
0.0
 11
329.1999999999999
 21
71.09999999999991
 31
0.0
  0
LINE
  5
1A6
330
1E
100
AcDbEntity
  8
0
100
AcDbLine
 10
329.1999999999999
 20
71.09999999999991
 30
0.0
 11
330.8
 21
74.29999999999999
 31
0.0
  0
LINE
  5
1A8
330
1E
100
AcDbEntity
  8
0
100
AcDbLine
 10
330.8
 20
74.29999999999999
 30
0.0
 11
332.0
 21
77.8
 31
0.0
  0
LINE
  5
1B0
330
1E
100
AcDbEntity
  8
0
100
AcDbLine
 10
337.5
 20
6.59999999999991
 30
0.0
 11
347.3
 21
11.4000000000001
 31
0.0
  0
LINE
  5
1B1
330
1E
100
AcDbEntity
  8
0
100
AcDbLine
 10
347.3
 20
11.4000000000001
 30
0.0
 11
356.7
 21
17.7000000000001
 31
0.0
  0
LINE
  5
1B2
330
1E
100
AcDbEntity
  8
0
100
AcDbLine
 10
365.0
 20
25.0
 30
0.0
 11
372.3
 21
33.3
 31
0.0
  0
LINE
  5
1B3
330
1E
100
AcDbEntity
  8
0
100
AcDbLine
 10
389.1
 20
73.90000000000009
 30
0.0
 11
390.0
 21
85.0
 31
0.0
  0
LINE
  5
1B4
330
1E
100
AcDbEntity
  8
0
100
AcDbLine
 10
386.8999999999999
 20
63.09999999999989
 30
0.0
 11
389.1
 21
73.90000000000009
 31
0.0
  0
LINE
  5
1B5
330
1E
100
AcDbEntity
  8
0
100
AcDbLine
 10
383.3999999999999
 20
52.5
 30
0.0
 11
386.8999999999999
 21
63.09999999999989
 31
0.0
  0
LINE
  5
1B6
330
1E
100
AcDbEntity
  8
0
100
AcDbLine
 10
372.3
 20
33.3
 30
0.0
 11
378.6
 21
42.7000000000001
 31
0.0
  0
LINE
  5
1B7
330
1E
100
AcDbEntity
  8
0
100
AcDbLine
 10
365.0
 20
25.0
 30
0.0
 11
372.3
 21
33.3
 31
0.0
  0
LINE
  5
1B8
330
1E
100
AcDbEntity
  8
0
100
AcDbLine
 10
356.7
 20
17.7000000000001
 30
0.0
 11
365.0
 21
25.0
 31
0.0
  0
LINE
  5
1B9
330
1E
100
AcDbEntity
  8
0
100
AcDbLine
 10
332.6999999999999
 20
81.40000000000009
 30
0.0
 11
333.0
 21
85.0
 31
0.0
  0
LINE
  5
1BA
330
1E
100
AcDbEntity
  8
0
100
AcDbLine
 10
332.0
 20
77.8
 30
0.0
 11
332.6999999999999
 21
81.40000000000009
 31
0.0
  0
LINE
  5
1BB
330
1E
100
AcDbEntity
  8
0
100
AcDbLine
 10
332.6999999999999
 20
88.5999999999999
 30
0.0
 11
333.0
 21
85.0
 31
0.0
  0
LINE
  5
1BE
330
1E
100
AcDbEntity
  8
0
100
AcDbLine
 10
318.2079999999999
 20
895.0
 30
0.0
 11
332.4089999999999
 21
895.0
 31
0.0
  0
LINE
  5
1BF
330
1E
100
AcDbEntity
  8
0
100
AcDbLine
 10
318.9
 20
109.2
 30
0.0
 11
322.0
 21
107.2
 31
0.0
  0
LINE
  5
1C2
330
1E
100
AcDbEntity
  8
0
100
AcDbLine
 10
320.93
 20
895.0
 30
0.0
 11
324.5299999999999
 21
895.0
 31
0.0
  0
LINE
  5
1C3
330
1E
100
AcDbEntity
  8
0
100
AcDbLine
 10
320.93
 20
894.0
 30
0.0
 11
324.5299999999999
 21
894.0
 31
0.0
  0
LINE
  5
1C5
330
1E
100
AcDbEntity
  8
0
100
AcDbLine
 10
324.8
 20
104.8
 30
0.0
 11
327.1999999999999
 21
102.0
 31
0.0
  0
LINE
  5
1C6
330
1E
100
AcDbEntity
  8
0
100
AcDbLine
 10
322.0
 20
107.2
 30
0.0
 11
324.8
 21
104.8
 31
0.0
  0
LINE
  5
1C7
330
1E
100
AcDbEntity
  8
0
100
AcDbLine
 10
324.5299999999999
 20
895.0
 30
0.0
 11
326.69
 21
895.0
 31
0.0
  0
LINE
  5
1C8
330
1E
100
AcDbEntity
  8
0
100
AcDbLine
 10
324.5299999999999
 20
894.0
 30
0.0
 11
326.69
 21
894.0
 31
0.0
  0
LINE
  5
1CD
330
1E
100
AcDbEntity
  8
0
100
AcDbLine
 10
389.1
 20
96.09999999999992
 30
0.0
 11
390.0
 21
85.0
 31
0.0
  0
LINE
  5
1CE
330
1E
100
AcDbEntity
  8
0
100
AcDbLine
 10
332.0
 20
92.20000000000011
 30
0.0
 11
332.6999999999999
 21
88.5999999999999
 31
0.0
  0
LINE
  5
1CF
330
1E
100
AcDbEntity
  8
0
100
AcDbLine
 10
330.8
 20
95.7
 30
0.0
 11
332.0
 21
92.20000000000011
 31
0.0
  0
LINE
  5
1D2
330
1E
100
AcDbEntity
  8
0
100
AcDbLine
 10
327.1999999999999
 20
102.0
 30
0.0
 11
329.1999999999999
 21
98.90000000000009
 31
0.0
  0
LINE
  5
1D3
330
1E
100
AcDbEntity
  8
0
100
AcDbLine
 10
329.1999999999999
 20
98.90000000000009
 30
0.0
 11
330.8
 21
95.7
 31
0.0
  0
LINE
  5
1D4
330
1E
100
AcDbEntity
  8
0
100
AcDbLine
 10
386.8999999999999
 20
106.9
 30
0.0
 11
389.1
 21
96.09999999999992
 31
0.0
  0
LINE
  5
1D5
330
1E
100
AcDbEntity
  8
0
100
AcDbLine
 10
383.3999999999999
 20
117.5
 30
0.0
 11
386.8999999999999
 21
106.9
 31
0.0
  0
LINE
  5
1D6
330
1E
100
AcDbEntity
  8
0
100
AcDbLine
 10
378.6
 20
127.2999999999999
 30
0.0
 11
383.3999999999999
 21
117.5
 31
0.0
  0
LINE
  5
1D7
330
1E
100
AcDbEntity
  8
0
100
AcDbLine
 10
372.3
 20
136.6999999999999
 30
0.0
 11
378.6
 21
127.2999999999999
 31
0.0
  0
LINE
  5
1D8
330
1E
100
AcDbEntity
  8
0
100
AcDbLine
 10
356.7
 20
152.3
 30
0.0
 11
365.0
 21
145.0
 31
0.0
  0
LINE
  5
1DA
330
1E
100
AcDbEntity
  8
0
100
AcDbLine
 10
327.4999999999999
 20
894.0
 30
0.0
 11
327.4999999999999
 21
895.0
 31
0.0
  0
LINE
  5
1DB
330
1E
100
AcDbEntity
  8
0
100
AcDbLine
 10
326.69
 20
894.0
 30
0.0
 11
327.4999999999999
 21
894.0
 31
0.0
  0
LINE
  5
1DC
330
1E
100
AcDbEntity
  8
0
100
AcDbLine
 10
389.0
 20
894.0
 30
0.0
 11
389.3959999999999
 21
894.0
 31
0.0
  0
LINE
  5
1DD
330
1E
100
AcDbEntity
  8
0
100
AcDbLine
 10
389.0
 20
894.0
 30
0.0
 11
389.0
 21
895.0
 31
0.0
  0
LINE
  5
1DE
330
1E
100
AcDbEntity
  8
0
100
AcDbLine
 10
389.3959999999999
 20
894.0
 30
0.0
 11
390.452
 21
894.0
 31
0.0
  0
LINE
  5
1DF
330
1E
100
AcDbEntity
  8
0
100
AcDbLine
 10
390.452
 20
894.0
 30
0.0
 11
392.2119999999999
 21
894.0
 31
0.0
  0
LINE
  5
1E0
330
1E
100
AcDbEntity
  8
0
100
AcDbLine
 10
392.2119999999999
 20
894.0
 30
0.0
 11
394.544
 21
894.0
 31
0.0
  0
LINE
  5
1E1
330
1E
100
AcDbEntity
  8
0
100
AcDbLine
 10
394.544
 20
894.0
 30
0.0
 11
397.184
 21
894.0
 31
0.0
  0
LINE
  5
1E2
330
1E
100
AcDbEntity
  8
0
100
AcDbLine
 10
397.184
 20
894.0
 30
0.0
 11
400.0
 21
894.0
 31
0.0
  0
LINE
  5
1E3
330
1E
100
AcDbEntity
  8
0
100
AcDbLine
 10
410.604
 20
894.0
 30
0.0
 11
411.0
 21
894.0
 31
0.0
  0
LINE
  5
1E4
330
1E
100
AcDbEntity
  8
0
100
AcDbLine
 10
411.0
 20
894.0
 30
0.0
 11
411.0
 21
895.0
 31
0.0
  0
LINE
  5
1E5
330
1E
100
AcDbEntity
  8
0
100
AcDbLine
 10
409.548
 20
894.0
 30
0.0
 11
410.604
 21
894.0
 31
0.0
  0
LINE
  5
1E6
330
1E
100
AcDbEntity
  8
0
100
AcDbLine
 10
407.788
 20
894.0
 30
0.0
 11
409.548
 21
894.0
 31
0.0
  0
LINE
  5
1E7
330
1E
100
AcDbEntity
  8
0
100
AcDbLine
 10
405.4559999999999
 20
894.0
 30
0.0
 11
407.788
 21
894.0
 31
0.0
  0
LINE
  5
1E8
330
1E
100
AcDbEntity
  8
0
100
AcDbLine
 10
402.8159999999999
 20
894.0
 30
0.0
 11
405.4559999999999
 21
894.0
 31
0.0
  0
LINE
  5
1E9
330
1E
100
AcDbEntity
  8
0
100
AcDbLine
 10
400.0
 20
894.0
 30
0.0
 11
402.8159999999999
 21
894.0
 31
0.0
  0
LINE
  5
1EA
330
1E
100
AcDbEntity
  8
0
100
AcDbLine
 10
415.5
 20
894.0
 30
0.0
 11
415.5
 21
895.0
 31
0.0
  0
LINE
  5
1EB
330
1E
100
AcDbEntity
  8
0
100
AcDbLine
 10
415.5
 20
894.0
 30
0.0
 11
416.31
 21
894.0
 31
0.0
  0
LINE
  5
1EC
330
1E
100
AcDbEntity
  8
0
100
AcDbLine
 10
416.31
 20
894.0
 30
0.0
 11
418.47
 21
894.0
 31
0.0
  0
LINE
  5
1ED
330
1E
100
AcDbEntity
  8
0
100
AcDbLine
 10
422.0699999999999
 20
894.0
 30
0.0
 11
426.8399999999999
 21
894.0
 31
0.0
  0
LINE
  5
1EE
330
1E
100
AcDbEntity
  8
0
100
AcDbLine
 10
432.24
 20
894.0
 30
0.0
 11
438.0
 21
894.0
 31
0.0
  0
LINE
  5
1EF
330
1E
100
AcDbEntity
  8
0
100
AcDbLine
 10
438.0
 20
894.0
 30
0.0
 11
443.7599999999999
 21
894.0
 31
0.0
  0
LINE
  5
1F0
330
1E
100
AcDbEntity
  8
0
100
AcDbLine
 10
418.47
 20
894.0
 30
0.0
 11
422.0699999999999
 21
894.0
 31
0.0
  0
LINE
  5
1F1
330
1E
100
AcDbEntity
  8
0
100
AcDbLine
 10
426.8399999999999
 20
894.0
 30
0.0
 11
432.24
 21
894.0
 31
0.0
  0
LINE
  5
1F2
330
1E
100
AcDbEntity
  8
0
100
AcDbLine
 10
449.16
 20
894.0
 30
0.0
 11
453.9299999999999
 21
894.0
 31
0.0
  0
LINE
  5
1F3
330
1E
100
AcDbEntity
  8
0
100
AcDbLine
 10
459.6899999999999
 20
894.0
 30
0.0
 11
460.5
 21
894.0
 31
0.0
  0
LINE
  5
1F4
330
1E
100
AcDbEntity
  8
0
100
AcDbLine
 10
460.5
 20
894.0
 30
0.0
 11
460.5
 21
895.0
 31
0.0
  0
LINE
  5
1F5
330
1E
100
AcDbEntity
  8
0
100
AcDbLine
 10
457.5299999999999
 20
894.0
 30
0.0
 11
459.6899999999999
 21
894.0
 31
0.0
  0
LINE
  5
1F6
330
1E
100
AcDbEntity
  8
0
100
AcDbLine
 10
453.9299999999999
 20
894.0
 30
0.0
 11
457.5299999999999
 21
894.0
 31
0.0
  0
LINE
  5
1F7
330
1E
100
AcDbEntity
  8
0
100
AcDbLine
 10
443.7599999999999
 20
894.0
 30
0.0
 11
449.16
 21
894.0
 31
0.0
  0
LINE
  5
1F8
330
1E
100
AcDbEntity
  8
0
100
AcDbLine
 10
504.0
 20
894.0
 30
0.0
 11
504.0
 21
895.0
 31
0.0
  0
LINE
  5
1F9
330
1E
100
AcDbEntity
  8
0
100
AcDbLine
 10
504.0
 20
894.0
 30
0.0
 11
504.3959999999999
 21
894.0
 31
0.0
  0
LINE
  5
1FA
330
1E
100
AcDbEntity
  8
0
100
AcDbLine
 10
504.3959999999999
 20
894.0
 30
0.0
 11
505.452
 21
894.0
 31
0.0
  0
LINE
  5
1FB
330
1E
100
AcDbEntity
  8
0
100
AcDbLine
 10
505.452
 20
894.0
 30
0.0
 11
507.2119999999999
 21
894.0
 31
0.0
  0
LINE
  5
1FC
330
1E
100
AcDbEntity
  8
0
100
AcDbLine
 10
509.544
 20
894.0
 30
0.0
 11
512.1839999999999
 21
894.0
 31
0.0
  0
LINE
  5
1FD
330
1E
100
AcDbEntity
  8
0
100
AcDbLine
 10
507.2119999999999
 20
894.0
 30
0.0
 11
509.544
 21
894.0
 31
0.0
  0
LINE
  5
1FE
330
1E
100
AcDbEntity
  8
0
100
AcDbLine
 10
346.8019999999999
 20
895.0
 30
0.0
 11
360.619
 21
895.0
 31
0.0
  0
LINE
  5
1FF
330
1E
100
AcDbEntity
  8
0
100
AcDbLine
 10
332.4089999999999
 20
895.0
 30
0.0
 11
347.569
 21
895.0
 31
0.0
  0
LINE
  5
200
330
1E
100
AcDbEntity
  8
0
100
AcDbLine
 10
332.4089999999999
 20
895.0
 30
0.0
 11
346.8019999999999
 21
895.0
 31
0.0
  0
LINE
  5
201
330
1E
100
AcDbEntity
  8
0
100
AcDbLine
 10
347.569
 20
895.0
 30
0.0
 11
361.579
 21
895.0
 31
0.0
  0
LINE
  5
202
330
1E
100
AcDbEntity
  8
0
100
AcDbLine
 10
331.0
 20
895.0
 30
0.0
 11
359.0
 21
895.0
 31
0.0
  0
LINE
  5
203
330
1E
100
AcDbEntity
  8
0
100
AcDbLine
 10
360.619
 20
895.0
 30
0.0
 11
375.7799999999999
 21
895.0
 31
0.0
  0
LINE
  5
204
330
1E
100
AcDbEntity
  8
0
100
AcDbLine
 10
375.7799999999999
 20
895.0
 30
0.0
 11
389.0
 21
895.0
 31
0.0
  0
LINE
  5
205
330
1E
100
AcDbEntity
  8
0
100
AcDbLine
 10
361.579
 20
895.0
 30
0.0
 11
377.5069999999999
 21
895.0
 31
0.0
  0
LINE
  5
206
330
1E
100
AcDbEntity
  8
0
100
AcDbLine
 10
377.5069999999999
 20
895.0
 30
0.0
 11
389.0
 21
895.0
 31
0.0
  0
LINE
  5
207
330
1E
100
AcDbEntity
  8
0
100
AcDbLine
 10
359.0
 20
895.0
 30
0.0
 11
386.0
 21
895.0
 31
0.0
  0
LINE
  5
208
330
1E
100
AcDbEntity
  8
0
100
AcDbLine
 10
386.0
 20
895.0
 30
0.0
 11
410.0
 21
895.0
 31
0.0
  0
LINE
  5
209
330
1E
100
AcDbEntity
  8
0
100
AcDbLine
 10
386.0
 20
895.0
 30
0.0
 11
389.0
 21
895.0
 31
0.0
  0
LINE
  5
20A
330
1E
100
AcDbEntity
  8
0
100
AcDbLine
 10
326.69
 20
895.0
 30
0.0
 11
327.4999999999999
 21
895.0
 31
0.0
  0
LINE
  5
20B
330
1E
100
AcDbEntity
  8
0
100
AcDbLine
 10
327.4999999999999
 20
895.0
 30
0.0
 11
327.4999999999999
 21
894.0
 31
0.0
  0
LINE
  5
20C
330
1E
100
AcDbEntity
  8
0
100
AcDbLine
 10
327.4999999999999
 20
895.0
 30
0.0
 11
331.0
 21
895.0
 31
0.0
  0
LINE
  5
20D
330
1E
100
AcDbEntity
  8
0
100
AcDbLine
 10
327.4999999999999
 20
895.0
 30
0.0
 11
332.4089999999999
 21
895.0
 31
0.0
  0
LINE
  5
20E
330
1E
100
AcDbEntity
  8
0
100
AcDbLine
 10
389.3959999999999
 20
895.0
 30
0.0
 11
390.452
 21
895.0
 31
0.0
  0
LINE
  5
20F
330
1E
100
AcDbEntity
  8
0
100
AcDbLine
 10
390.452
 20
895.0
 30
0.0
 11
392.2119999999999
 21
895.0
 31
0.0
  0
LINE
  5
210
330
1E
100
AcDbEntity
  8
0
100
AcDbLine
 10
392.2119999999999
 20
895.0
 30
0.0
 11
394.544
 21
895.0
 31
0.0
  0
LINE
  5
211
330
1E
100
AcDbEntity
  8
0
100
AcDbLine
 10
394.544
 20
895.0
 30
0.0
 11
397.184
 21
895.0
 31
0.0
  0
LINE
  5
212
330
1E
100
AcDbEntity
  8
0
100
AcDbLine
 10
410.0
 20
895.0
 30
0.0
 11
434.0
 21
895.0
 31
0.0
  0
LINE
  5
213
330
1E
100
AcDbEntity
  8
0
100
AcDbLine
 10
410.604
 20
895.0
 30
0.0
 11
411.0
 21
895.0
 31
0.0
  0
LINE
  5
214
330
1E
100
AcDbEntity
  8
0
100
AcDbLine
 10
411.0
 20
895.0
 30
0.0
 11
411.0
 21
894.0
 31
0.0
  0
LINE
  5
215
330
1E
100
AcDbEntity
  8
0
100
AcDbLine
 10
411.0
 20
895.0
 30
0.0
 11
415.5
 21
895.0
 31
0.0
  0
LINE
  5
216
330
1E
100
AcDbEntity
  8
0
100
AcDbLine
 10
411.0
 20
895.0
 30
0.0
 11
428.842
 21
895.0
 31
0.0
  0
LINE
  5
217
330
1E
100
AcDbEntity
  8
0
100
AcDbLine
 10
411.0
 20
895.0
 30
0.0
 11
428.2659999999999
 21
895.0
 31
0.0
  0
LINE
  5
218
330
1E
100
AcDbEntity
  8
0
100
AcDbLine
 10
409.548
 20
895.0
 30
0.0
 11
410.604
 21
895.0
 31
0.0
  0
LINE
  5
219
330
1E
100
AcDbEntity
  8
0
100
AcDbLine
 10
407.788
 20
895.0
 30
0.0
 11
409.548
 21
895.0
 31
0.0
  0
LINE
  5
21A
330
1E
100
AcDbEntity
  8
0
100
AcDbLine
 10
405.4559999999999
 20
895.0
 30
0.0
 11
407.788
 21
895.0
 31
0.0
  0
LINE
  5
21B
330
1E
100
AcDbEntity
  8
0
100
AcDbLine
 10
402.8159999999999
 20
895.0
 30
0.0
 11
405.4559999999999
 21
895.0
 31
0.0
  0
LINE
  5
21C
330
1E
100
AcDbEntity
  8
0
100
AcDbLine
 10
400.0
 20
895.0
 30
0.0
 11
402.8159999999999
 21
895.0
 31
0.0
  0
LINE
  5
21D
330
1E
100
AcDbEntity
  8
0
100
AcDbLine
 10
397.184
 20
895.0
 30
0.0
 11
400.0
 21
895.0
 31
0.0
  0
LINE
  5
21E
330
1E
100
AcDbEntity
  8
0
100
AcDbLine
 10
389.0
 20
895.0
 30
0.0
 11
389.0
 21
894.0
 31
0.0
  0
LINE
  5
21F
330
1E
100
AcDbEntity
  8
0
100
AcDbLine
 10
389.0
 20
895.0
 30
0.0
 11
389.3959999999999
 21
895.0
 31
0.0
  0
LINE
  5
220
330
1E
100
AcDbEntity
  8
0
100
AcDbLine
 10
415.5
 20
895.0
 30
0.0
 11
416.31
 21
895.0
 31
0.0
  0
LINE
  5
221
330
1E
100
AcDbEntity
  8
0
100
AcDbLine
 10
415.5
 20
895.0
 30
0.0
 11
415.5
 21
894.0
 31
0.0
  0
LINE
  5
222
330
1E
100
AcDbEntity
  8
0
100
AcDbLine
 10
416.31
 20
895.0
 30
0.0
 11
418.47
 21
895.0
 31
0.0
  0
LINE
  5
223
330
1E
100
AcDbEntity
  8
0
100
AcDbLine
 10
428.2659999999999
 20
895.0
 30
0.0
 11
447.073
 21
895.0
 31
0.0
  0
LINE
  5
224
330
1E
100
AcDbEntity
  8
0
100
AcDbLine
 10
428.842
 20
895.0
 30
0.0
 11
447.841
 21
895.0
 31
0.0
  0
LINE
  5
225
330
1E
100
AcDbEntity
  8
0
100
AcDbLine
 10
418.47
 20
895.0
 30
0.0
 11
422.0699999999999
 21
895.0
 31
0.0
  0
LINE
  5
226
330
1E
100
AcDbEntity
  8
0
100
AcDbLine
 10
422.0699999999999
 20
895.0
 30
0.0
 11
426.8399999999999
 21
895.0
 31
0.0
  0
LINE
  5
227
330
1E
100
AcDbEntity
  8
0
100
AcDbLine
 10
434.0
 20
895.0
 30
0.0
 11
459.0
 21
895.0
 31
0.0
  0
LINE
  5
228
330
1E
100
AcDbEntity
  8
0
100
AcDbLine
 10
432.24
 20
895.0
 30
0.0
 11
438.0
 21
895.0
 31
0.0
  0
LINE
  5
229
330
1E
100
AcDbEntity
  8
0
100
AcDbLine
 10
438.0
 20
895.0
 30
0.0
 11
443.7599999999999
 21
895.0
 31
0.0
  0
LINE
  5
22A
330
1E
100
AcDbEntity
  8
0
100
AcDbLine
 10
447.073
 20
895.0
 30
0.0
 11
467.2229999999999
 21
895.0
 31
0.0
  0
LINE
  5
22B
330
1E
100
AcDbEntity
  8
0
100
AcDbLine
 10
447.841
 20
895.0
 30
0.0
 11
469.718
 21
895.0
 31
0.0
  0
LINE
  5
22C
330
1E
100
AcDbEntity
  8
0
100
AcDbLine
 10
459.0
 20
895.0
 30
0.0
 11
482.0
 21
895.0
 31
0.0
  0
LINE
  5
22D
330
1E
100
AcDbEntity
  8
0
100
AcDbLine
 10
457.5299999999999
 20
895.0
 30
0.0
 11
459.6899999999999
 21
895.0
 31
0.0
  0
LINE
  5
22E
330
1E
100
AcDbEntity
  8
0
100
AcDbLine
 10
491.979
 20
895.0
 30
0.0
 11
516.927
 21
895.0
 31
0.0
  0
LINE
  5
22F
330
1E
100
AcDbEntity
  8
0
100
AcDbLine
 10
491.979
 20
895.0
 30
0.0
 11
504.0
 21
895.0
 31
0.0
  0
LINE
  5
230
330
1E
100
AcDbEntity
  8
0
100
AcDbLine
 10
467.2229999999999
 20
895.0
 30
0.0
 11
491.979
 21
895.0
 31
0.0
  0
LINE
  5
231
330
1E
100
AcDbEntity
  8
0
100
AcDbLine
 10
493.515
 20
895.0
 30
0.0
 11
518.2709999999999
 21
895.0
 31
0.0
  0
LINE
  5
232
330
1E
100
AcDbEntity
  8
0
100
AcDbLine
 10
493.515
 20
895.0
 30
0.0
 11
504.0
 21
895.0
 31
0.0
  0
LINE
  5
233
330
1E
100
AcDbEntity
  8
0
100
AcDbLine
 10
482.0
 20
895.0
 30
0.0
 11
501.0
 21
895.0
 31
0.0
  0
LINE
  5
234
330
1E
100
AcDbEntity
  8
0
100
AcDbLine
 10
501.0
 20
895.0
 30
0.0
 11
521.0
 21
895.0
 31
0.0
  0
LINE
  5
235
330
1E
100
AcDbEntity
  8
0
100
AcDbLine
 10
501.0
 20
895.0
 30
0.0
 11
504.0
 21
895.0
 31
0.0
  0
LINE
  5
236
330
1E
100
AcDbEntity
  8
0
100
AcDbLine
 10
469.718
 20
895.0
 30
0.0
 11
493.515
 21
895.0
 31
0.0
  0
LINE
  5
237
330
1E
100
AcDbEntity
  8
0
100
AcDbLine
 10
459.6899999999999
 20
895.0
 30
0.0
 11
460.5
 21
895.0
 31
0.0
  0
LINE
  5
238
330
1E
100
AcDbEntity
  8
0
100
AcDbLine
 10
460.5
 20
895.0
 30
0.0
 11
460.5
 21
894.0
 31
0.0
  0
LINE
  5
239
330
1E
100
AcDbEntity
  8
0
100
AcDbLine
 10
460.5
 20
895.0
 30
0.0
 11
482.0
 21
895.0
 31
0.0
  0
LINE
  5
23A
330
1E
100
AcDbEntity
  8
0
100
AcDbLine
 10
460.5
 20
895.0
 30
0.0
 11
469.718
 21
895.0
 31
0.0
  0
LINE
  5
23B
330
1E
100
AcDbEntity
  8
0
100
AcDbLine
 10
460.5
 20
895.0
 30
0.0
 11
467.2229999999999
 21
895.0
 31
0.0
  0
LINE
  5
23C
330
1E
100
AcDbEntity
  8
0
100
AcDbLine
 10
453.9299999999999
 20
895.0
 30
0.0
 11
457.5299999999999
 21
895.0
 31
0.0
  0
LINE
  5
23D
330
1E
100
AcDbEntity
  8
0
100
AcDbLine
 10
449.16
 20
895.0
 30
0.0
 11
453.9299999999999
 21
895.0
 31
0.0
  0
LINE
  5
23E
330
1E
100
AcDbEntity
  8
0
100
AcDbLine
 10
443.7599999999999
 20
895.0
 30
0.0
 11
449.16
 21
895.0
 31
0.0
  0
LINE
  5
23F
330
1E
100
AcDbEntity
  8
0
100
AcDbLine
 10
426.8399999999999
 20
895.0
 30
0.0
 11
432.24
 21
895.0
 31
0.0
  0
LINE
  5
240
330
1E
100
AcDbEntity
  8
0
100
AcDbLine
 10
504.0
 20
895.0
 30
0.0
 11
504.3959999999999
 21
895.0
 31
0.0
  0
LINE
  5
241
330
1E
100
AcDbEntity
  8
0
100
AcDbLine
 10
504.0
 20
895.0
 30
0.0
 11
504.0
 21
894.0
 31
0.0
  0
LINE
  5
242
330
1E
100
AcDbEntity
  8
0
100
AcDbLine
 10
505.452
 20
895.0
 30
0.0
 11
507.2119999999999
 21
895.0
 31
0.0
  0
LINE
  5
243
330
1E
100
AcDbEntity
  8
0
100
AcDbLine
 10
507.2119999999999
 20
895.0
 30
0.0
 11
509.544
 21
895.0
 31
0.0
  0
LINE
  5
244
330
1E
100
AcDbEntity
  8
0
100
AcDbLine
 10
331.0
 20
900.0
 30
0.0
 11
359.0
 21
900.0
 31
0.0
  0
LINE
  5
245
330
1E
100
AcDbEntity
  8
0
100
AcDbLine
 10
359.0
 20
900.0
 30
0.0
 11
386.0
 21
900.0
 31
0.0
  0
LINE
  5
246
330
1E
100
AcDbEntity
  8
0
100
AcDbLine
 10
386.0
 20
900.0
 30
0.0
 11
410.0
 21
900.0
 31
0.0
  0
LINE
  5
247
330
1E
100
AcDbEntity
  8
0
100
AcDbLine
 10
410.0
 20
900.0
 30
0.0
 11
434.0
 21
900.0
 31
0.0
  0
LINE
  5
248
330
1E
100
AcDbEntity
  8
0
100
AcDbLine
 10
434.0
 20
900.0
 30
0.0
 11
459.0
 21
900.0
 31
0.0
  0
LINE
  5
249
330
1E
100
AcDbEntity
  8
0
100
AcDbLine
 10
459.0
 20
900.0
 30
0.0
 11
482.0
 21
900.0
 31
0.0
  0
LINE
  5
24A
330
1E
100
AcDbEntity
  8
0
100
AcDbLine
 10
482.0
 20
900.0
 30
0.0
 11
501.0
 21
900.0
 31
0.0
  0
LINE
  5
24B
330
1E
100
AcDbEntity
  8
0
100
AcDbLine
 10
501.0
 20
900.0
 30
0.0
 11
521.0
 21
900.0
 31
0.0
  0
LINE
  5
24C
330
1E
100
AcDbEntity
  8
0
100
AcDbLine
 10
504.3959999999999
 20
895.0
 30
0.0
 11
505.452
 21
895.0
 31
0.0
  0
LINE
  5
24D
330
1E
100
AcDbEntity
  8
0
100
AcDbLine
 10
512.1839999999999
 20
895.0
 30
0.0
 11
515.0
 21
895.0
 31
0.0
  0
LINE
  5
24E
330
1E
100
AcDbEntity
  8
0
100
AcDbLine
 10
515.0
 20
895.0
 30
0.0
 11
517.816
 21
895.0
 31
0.0
  0
LINE
  5
24F
330
1E
100
AcDbEntity
  8
0
100
AcDbLine
 10
509.544
 20
895.0
 30
0.0
 11
512.1839999999999
 21
895.0
 31
0.0
  0
LINE
  5
250
330
1E
100
AcDbEntity
  8
0
100
AcDbLine
 10
512.1839999999999
 20
894.0
 30
0.0
 11
515.0
 21
894.0
 31
0.0
  0
LINE
  5
251
330
1E
100
AcDbEntity
  8
0
100
AcDbLine
 10
526.0
 20
894.0
 30
0.0
 11
526.0
 21
895.0
 31
0.0
  0
LINE
  5
252
330
1E
100
AcDbEntity
  8
0
100
AcDbLine
 10
525.604
 20
894.0
 30
0.0
 11
526.0
 21
894.0
 31
0.0
  0
LINE
  5
253
330
1E
100
AcDbEntity
  8
0
100
AcDbLine
 10
524.5479999999999
 20
894.0
 30
0.0
 11
525.604
 21
894.0
 31
0.0
  0
LINE
  5
254
330
1E
100
AcDbEntity
  8
0
100
AcDbLine
 10
522.7879999999999
 20
894.0
 30
0.0
 11
524.5479999999999
 21
894.0
 31
0.0
  0
LINE
  5
255
330
1E
100
AcDbEntity
  8
0
100
AcDbLine
 10
520.4559999999999
 20
894.0
 30
0.0
 11
522.7879999999999
 21
894.0
 31
0.0
  0
LINE
  5
256
330
1E
100
AcDbEntity
  8
0
100
AcDbLine
 10
518.2709999999999
 20
895.0
 30
0.0
 11
555.501
 21
895.0
 31
0.0
  0
LINE
  5
257
330
1E
100
AcDbEntity
  8
0
100
AcDbLine
 10
516.927
 20
895.0
 30
0.0
 11
555.501
 21
895.0
 31
0.0
  0
LINE
  5
258
330
1E
100
AcDbEntity
  8
0
100
AcDbLine
 10
517.816
 20
895.0
 30
0.0
 11
520.4559999999999
 21
895.0
 31
0.0
  0
LINE
  5
259
330
1E
100
AcDbEntity
  8
0
100
AcDbLine
 10
521.0
 20
895.0
 30
0.0
 11
538.0
 21
895.0
 31
0.0
  0
LINE
  5
25A
330
1E
100
AcDbEntity
  8
0
100
AcDbLine
 10
554.0
 20
895.0
 30
0.0
 11
569.0
 21
895.0
 31
0.0
  0
LINE
  5
25B
330
1E
100
AcDbEntity
  8
0
100
AcDbLine
 10
538.0
 20
895.0
 30
0.0
 11
554.0
 21
895.0
 31
0.0
  0
LINE
  5
25C
330
1E
100
AcDbEntity
  8
0
100
AcDbLine
 10
609.0
 20
895.0
 30
0.0
 11
610.0
 21
895.0
 31
0.0
  0
LINE
  5
25D
330
1E
100
AcDbEntity
  8
0
100
AcDbLine
 10
610.0
 20
895.0
 30
0.0
 11
610.0
 21
900.0
 31
0.0
  0
LINE
  5
25E
330
1E
100
AcDbEntity
  8
0
100
AcDbLine
 10
605.0
 20
895.0
 30
0.0
 11
609.0
 21
895.0
 31
0.0
  0
LINE
  5
25F
330
1E
100
AcDbEntity
  8
0
100
AcDbLine
 10
599.0
 20
895.0
 30
0.0
 11
605.0
 21
895.0
 31
0.0
  0
LINE
  5
260
330
1E
100
AcDbEntity
  8
0
100
AcDbLine
 10
582.0
 20
895.0
 30
0.0
 11
592.4999999999999
 21
895.0
 31
0.0
  0
LINE
  5
261
330
1E
100
AcDbEntity
  8
0
100
AcDbLine
 10
569.0
 20
895.0
 30
0.0
 11
582.0
 21
895.0
 31
0.0
  0
LINE
  5
263
330
1E
100
AcDbEntity
  8
0
100
AcDbLine
 10
592.4999999999999
 20
895.0
 30
0.0
 11
593.0
 21
895.0
 31
0.0
  0
LINE
  5
264
330
1E
100
AcDbEntity
  8
0
100
AcDbLine
 10
555.501
 20
895.0
 30
0.0
 11
593.0
 21
895.0
 31
0.0
  0
LINE
  5
265
330
1E
100
AcDbEntity
  8
0
100
AcDbLine
 10
555.501
 20
895.0
 30
0.0
 11
592.4999999999999
 21
895.0
 31
0.0
  0
LINE
  5
267
330
1E
100
AcDbEntity
  8
0
100
AcDbLine
 10
593.0
 20
895.0
 30
0.0
 11
599.0
 21
895.0
 31
0.0
  0
LINE
  5
268
330
1E
100
AcDbEntity
  8
0
100
AcDbLine
 10
525.604
 20
895.0
 30
0.0
 11
526.0
 21
895.0
 31
0.0
  0
LINE
  5
269
330
1E
100
AcDbEntity
  8
0
100
AcDbLine
 10
526.0
 20
895.0
 30
0.0
 11
526.0
 21
894.0
 31
0.0
  0
LINE
  5
26A
330
1E
100
AcDbEntity
  8
0
100
AcDbLine
 10
526.0
 20
895.0
 30
0.0
 11
555.501
 21
895.0
 31
0.0
  0
LINE
  5
26B
330
1E
100
AcDbEntity
  8
0
100
AcDbLine
 10
526.0
 20
895.0
 30
0.0
 11
538.0
 21
895.0
 31
0.0
  0
LINE
  5
26C
330
1E
100
AcDbEntity
  8
0
100
AcDbLine
 10
524.5479999999999
 20
895.0
 30
0.0
 11
525.604
 21
895.0
 31
0.0
  0
LINE
  5
26D
330
1E
100
AcDbEntity
  8
0
100
AcDbLine
 10
582.0
 20
900.0
 30
0.0
 11
592.4999999999999
 21
900.0
 31
0.0
  0
LINE
  5
26E
330
1E
100
AcDbEntity
  8
0
100
AcDbLine
 10
569.0
 20
900.0
 30
0.0
 11
582.0
 21
900.0
 31
0.0
  0
LINE
  5
26F
330
1E
100
AcDbEntity
  8
0
100
AcDbLine
 10
554.0
 20
900.0
 30
0.0
 11
569.0
 21
900.0
 31
0.0
  0
LINE
  5
270
330
1E
100
AcDbEntity
  8
0
100
AcDbLine
 10
538.0
 20
900.0
 30
0.0
 11
554.0
 21
900.0
 31
0.0
  0
LINE
  5
271
330
1E
100
AcDbEntity
  8
0
100
AcDbLine
 10
521.0
 20
900.0
 30
0.0
 11
538.0
 21
900.0
 31
0.0
  0
LINE
  5
272
330
1E
100
AcDbEntity
  8
0
100
AcDbLine
 10
592.4999999999999
 20
900.0
 30
0.0
 11
593.0
 21
900.0
 31
0.0
  0
LINE
  5
274
330
1E
100
AcDbEntity
  8
0
100
AcDbLine
 10
605.0
 20
900.0
 30
0.0
 11
609.0
 21
900.0
 31
0.0
  0
LINE
  5
275
330
1E
100
AcDbEntity
  8
0
100
AcDbLine
 10
610.0
 20
900.0
 30
0.0
 11
610.0
 21
895.0
 31
0.0
  0
LINE
  5
277
330
1E
100
AcDbEntity
  8
0
100
AcDbLine
 10
609.0
 20
900.0
 30
0.0
 11
610.0
 21
900.0
 31
0.0
  0
LINE
  5
278
330
1E
100
AcDbEntity
  8
0
100
AcDbLine
 10
599.0
 20
900.0
 30
0.0
 11
605.0
 21
900.0
 31
0.0
  0
LINE
  5
27A
330
1E
100
AcDbEntity
  8
0
100
AcDbLine
 10
593.0
 20
900.0
 30
0.0
 11
599.0
 21
900.0
 31
0.0
  0
LINE
  5
27B
330
1E
100
AcDbEntity
  8
0
100
AcDbLine
 10
522.7879999999999
 20
895.0
 30
0.0
 11
524.5479999999999
 21
895.0
 31
0.0
  0
LINE
  5
27C
330
1E
100
AcDbEntity
  8
0
100
AcDbLine
 10
520.4559999999999
 20
895.0
 30
0.0
 11
522.7879999999999
 21
895.0
 31
0.0
  0
LINE
  5
27D
330
1E
100
AcDbEntity
  8
0
100
AcDbLine
 10
517.816
 20
894.0
 30
0.0
 11
520.4559999999999
 21
894.0
 31
0.0
  0
LINE
  5
27E
330
1E
100
AcDbEntity
  8
0
100
AcDbLine
 10
515.0
 20
894.0
 30
0.0
 11
517.816
 21
894.0
 31
0.0
  0
LINE
  5
287
330
1E
100
AcDbEntity
  8
0
100
AcDbLine
 10
272.5
 20
163.4
 30
0.0
 11
262.6999999999999
 21
158.6
 31
0.0
  0
LINE
  5
288
330
1E
100
AcDbEntity
  8
0
100
AcDbLine
 10
326.8999999999999
 20
166.9
 30
0.0
 11
337.2931700607805
 21
163.3306511526836
 31
0.0
  0
LINE
  5
289
330
1E
100
AcDbEntity
  8
0
100
AcDbLine
 10
337.2931700607805
 20
163.3306511526836
 30
0.0
 11
345.2699813124363
 21
158.9541311079269
 31
0.0
  0
LINE
  5
28A
330
1E
100
AcDbEntity
  8
0
100
AcDbLine
 10
345.2699813124363
 20
158.9541311079269
 30
0.0
 11
353.8724247330837
 21
154.2650018852437
 31
0.0
  0
LINE
  5
28B
330
1E
100
AcDbEntity
  8
0
100
AcDbLine
 10
353.8724247330837
 20
154.2650018852437
 30
0.0
 11
356.7
 21
152.3
 31
0.0
  0
LINE
  5
28C
330
1E
100
AcDbEntity
  8
0
100
AcDbLine
 10
365.0
 20
145.0
 30
0.0
 11
372.3
 21
136.6999999999999
 31
0.0
  0
LINE
  5
28D
330
1E
100
AcDbEntity
  8
0
100
AcDbLine
 10
262.6999999999999
 20
11.4000000000001
 30
0.0
 11
272.5
 21
6.59999999999991
 31
0.0
  0
LINE
  5
28E
330
1E
100
AcDbEntity
  8
0
100
AcDbLine
 10
378.6
 20
42.7000000000001
 30
0.0
 11
383.3999999999999
 21
52.5
 31
0.0
  0
ENDSEC
  0
SECTION
  2
OBJECTS
  0
DICTIONARY
  5
C
330
0
100
AcDbDictionary
281
     1
  3
ACAD_GROUP
350
D
  3
ACAD_LAYOUT
350
19
  3
ACAD_MLINESTYLE
350
16
  3
ACAD_PLOTSETTINGS
350
18
  3
ACAD_PLOTSTYLENAME
350
E
  3
AcDbVariableDictionary
350
28F
  0
DICTIONARY
  5
D
102
{ACAD_REACTORS
330
C
102
}
330
C
100
AcDbDictionary
281
     1
  0
DICTIONARY
  5
19
102
{ACAD_REACTORS
330
C
102
}
330
C
100
AcDbDictionary
281
     1
  3
Layout1
350
1D
  3
Model
350
21
  0
DICTIONARY
  5
16
102
{ACAD_REACTORS
330
C
102
}
330
C
100
AcDbDictionary
281
     1
  3
Standard
350
17
  0
DICTIONARY
  5
18
102
{ACAD_REACTORS
330
C
102
}
330
C
100
AcDbDictionary
281
     1
  0
ACDBDICTIONARYWDFLT
  5
E
102
{ACAD_REACTORS
330
C
102
}
330
C
100
AcDbDictionary
281
     1
  3
Normal
350
F
100
AcDbDictionaryWithDefault
340
F
  0
DICTIONARY
  5
28F
102
{ACAD_REACTORS
330
C
102
}
330
C
100
AcDbDictionary
281
     1
  3
DIMASSOC
350
290
  0
LAYOUT
  5
1D
102
{ACAD_REACTORS
330
19
102
}
330
19
100
AcDbPlotSettings
  1

  2
hp deskjet 980c series
  4

  6

 40
0.0
 41
0.0
 42
0.0
 43
0.0
 44
0.0
 45
0.0
 46
0.0
 47
0.0
 48
0.0
 49
0.0
140
0.0
141
0.0
142
1.0
143
1.0
 70
   688
 72
     0
 73
     0
 74
     5
  7

 75
    16
147
1.0
148
0.0
149
0.0
100
AcDbLayout
  1
Layout1
 70
     1
 71
     1
 10
0.0
 20
0.0
 11
12.0
 21
9.0
 12
0.0
 22
0.0
 32
0.0
 14
1.000000000000000E+20
 24
1.000000000000000E+20
 34
1.000000000000000E+20
 15
-1.000000000000000E+20
 25
-1.000000000000000E+20
 35
-1.000000000000000E+20
146
0.0
 13
0.0
 23
0.0
 33
0.0
 16
1.0
 26
0.0
 36
0.0
 17
0.0
 27
1.0
 37
0.0
 76
     0
330
1A
  0
LAYOUT
  5
21
102
{ACAD_REACTORS
330
19
102
}
330
19
100
AcDbPlotSettings
  1

  2
hp deskjet 980c series
  4

  6

 40
0.0
 41
0.0
 42
0.0
 43
0.0
 44
0.0
 45
0.0
 46
0.0
 47
0.0
 48
0.0
 49
0.0
140
0.0
141
0.0
142
1.0
143
1.0
 70
  1712
 72
     0
 73
     0
 74
     0
  7

 75
     0
147
1.0
148
0.0
149
0.0
100
AcDbLayout
  1
Model
 70
     1
 71
     0
 10
0.0
 20
0.0
 11
12.0
 21
9.0
 12
0.0
 22
0.0
 32
0.0
 14
0.0
 24
0.0
 34
0.0
 15
0.0
 25
0.0
 35
0.0
146
0.0
 13
0.0
 23
0.0
 33
0.0
 16
1.0
 26
0.0
 36
0.0
 17
0.0
 27
1.0
 37
0.0
 76
     0
330
1E
  0
MLINESTYLE
  5
17
102
{ACAD_REACTORS
330
16
102
}
330
16
100
AcDbMlineStyle
  2
STANDARD
 70
     0
  3

 62
   256
 51
90.0
 52
90.0
 71
     2
 49
0.5
 62
   256
  6
BYLAYER
 49
-0.5
 62
   256
  6
BYLAYER
  0
ACDBPLACEHOLDER
  5
F
102
{ACAD_REACTORS
330
E
102
}
330
E
  0
DICTIONARYVAR
  5
290
102
{ACAD_REACTORS
330
28F
102
}
330
28F
100
DictionaryVariables
280
     0
  1
1
  0
ENDSEC
  0
EOF
