  0
SECTION
  2
HEADER
  9
$ACADVER
  1
AC1015
  9
$ACADMAINTVER
 70
     6
  9
$DWGCODEPAGE
  3
ANSI_1252
  9
$INSBASE
 10
0.0
 20
0.0
 30
0.0
  9
$EXTMIN
 10
112.5
 20
986.395
 30
0.0
  9
$EXTMAX
 10
264.5
 20
1184.448
 30
0.0
  9
$LIMMIN
 10
0.0
 20
0.0
  9
$LIMMAX
 10
12.0
 20
9.0
  9
$ORTHOMODE
 70
     0
  9
$REGENMODE
 70
     1
  9
$FILLMODE
 70
     1
  9
$QTEXTMODE
 70
     0
  9
$MIRRTEXT
 70
     1
  9
$LTSCALE
 40
1.0
  9
$ATTMODE
 70
     1
  9
$TEXTSIZE
 40
0.2
  9
$TRACEWID
 40
0.05
  9
$TEXTSTYLE
  7
Standard
  9
$CLAYER
  8
0
  9
$CELTYPE
  6
ByBlock
  9
$CECOLOR
 62
   256
  9
$CELTSCALE
 40
1.0
  9
$DISPSILH
 70
     0
  9
$DIMSCALE
 40
1.0
  9
$DIMASZ
 40
0.18
  9
$DIMEXO
 40
0.0625
  9
$DIMDLI
 40
0.38
  9
$DIMRND
 40
0.0
  9
$DIMDLE
 40
0.0
  9
$DIMEXE
 40
0.18
  9
$DIMTP
 40
0.0
  9
$DIMTM
 40
0.0
  9
$DIMTXT
 40
0.18
  9
$DIMCEN
 40
0.09
  9
$DIMTSZ
 40
0.0
  9
$DIMTOL
 70
     0
  9
$DIMLIM
 70
     0
  9
$DIMTIH
 70
     1
  9
$DIMTOH
 70
     1
  9
$DIMSE1
 70
     0
  9
$DIMSE2
 70
     0
  9
$DIMTAD
 70
     0
  9
$DIMZIN
 70
     0
  9
$DIMBLK
  1

  9
$DIMASO
 70
     1
  9
$DIMSHO
 70
     1
  9
$DIMPOST
  1

  9
$DIMAPOST
  1

  9
$DIMALT
 70
     0
  9
$DIMALTD
 70
     2
  9
$DIMALTF
 40
25.4
  9
$DIMLFAC
 40
1.0
  9
$DIMTOFL
 70
     0
  9
$DIMTVP
 40
0.0
  9
$DIMTIX
 70
     0
  9
$DIMSOXD
 70
     0
  9
$DIMSAH
 70
     0
  9
$DIMBLK1
  1

  9
$DIMBLK2
  1

  9
$DIMSTYLE
  2
Standard
  9
$DIMCLRD
 70
     0
  9
$DIMCLRE
 70
     0
  9
$DIMCLRT
 70
     0
  9
$DIMTFAC
 40
1.0
  9
$DIMGAP
 40
0.09
  9
$DIMJUST
 70
     0
  9
$DIMSD1
 70
     0
  9
$DIMSD2
 70
     0
  9
$DIMTOLJ
 70
     1
  9
$DIMTZIN
 70
     0
  9
$DIMALTZ
 70
     0
  9
$DIMALTTZ
 70
     0
  9
$DIMUPT
 70
     0
  9
$DIMDEC
 70
     4
  9
$DIMTDEC
 70
     4
  9
$DIMALTU
 70
     2
  9
$DIMALTTD
 70
     2
  9
$DIMTXSTY
  7
Standard
  9
$DIMAUNIT
 70
     0
  9
$DIMADEC
 70
     0
  9
$DIMALTRND
 40
0.0
  9
$DIMAZIN
 70
     0
  9
$DIMDSEP
 70
    46
  9
$DIMATFIT
 70
     3
  9
$DIMFRAC
 70
     0
  9
$DIMLDRBLK
  1

  9
$DIMLUNIT
 70
     2
  9
$DIMLWD
 70
    -2
  9
$DIMLWE
 70
    -2
  9
$DIMTMOVE
 70
     2
  9
$LUNITS
 70
     2
  9
$LUPREC
 70
     4
  9
$SKETCHINC
 40
0.1
  9
$FILLETRAD
 40
0.5
  9
$AUNITS
 70
     0
  9
$AUPREC
 70
     0
  9
$MENU
  1
.
  9
$ELEVATION
 40
0.0
  9
$PELEVATION
 40
0.0
  9
$THICKNESS
 40
0.0
  9
$LIMCHECK
 70
     0
  9
$CHAMFERA
 40
0.5
  9
$CHAMFERB
 40
0.5
  9
$CHAMFERC
 40
1.0
  9
$CHAMFERD
 40
0.0
  9
$SKPOLY
 70
     0
  9
$TDCREATE
 40
2455824.985409607
  9
$TDUCREATE
 40
2455824.902076273
  9
$TDUPDATE
 40
2455824.996802118
  9
$TDUUPDATE
 40
2455824.913468785
  9
$TDINDWG
 40
0.0113896296
  9
$TDUSRTIMER
 40
0.0113896296
  9
$USRTIMER
 70
     1
  9
$ANGBASE
 50
0.0
  9
$ANGDIR
 70
     0
  9
$PDMODE
 70
     0
  9
$PDSIZE
 40
0.0
  9
$PLINEWID
 40
0.0
  9
$SPLFRAME
 70
     0
  9
$SPLINETYPE
 70
     6
  9
$SPLINESEGS
 70
     8
  9
$HANDSEED
  5
3DB7
  9
$SURFTAB1
 70
     6
  9
$SURFTAB2
 70
     6
  9
$SURFTYPE
 70
     6
  9
$SURFU
 70
     6
  9
$SURFV
 70
     6
  9
$UCSBASE
  2

  9
$UCSNAME
  2

  9
$UCSORG
 10
0.0
 20
0.0
 30
0.0
  9
$UCSXDIR
 10
1.0
 20
0.0
 30
0.0
  9
$UCSYDIR
 10
0.0
 20
1.0
 30
0.0
  9
$UCSORTHOREF
  2

  9
$UCSORTHOVIEW
 70
     0
  9
$UCSORGTOP
 10
0.0
 20
0.0
 30
0.0
  9
$UCSORGBOTTOM
 10
0.0
 20
0.0
 30
0.0
  9
$UCSORGLEFT
 10
0.0
 20
0.0
 30
0.0
  9
$UCSORGRIGHT
 10
0.0
 20
0.0
 30
0.0
  9
$UCSORGFRONT
 10
0.0
 20
0.0
 30
0.0
  9
$UCSORGBACK
 10
0.0
 20
0.0
 30
0.0
  9
$PUCSBASE
  2

  9
$PUCSNAME
  2

  9
$PUCSORG
 10
0.0
 20
0.0
 30
0.0
  9
$PUCSXDIR
 10
1.0
 20
0.0
 30
0.0
  9
$PUCSYDIR
 10
0.0
 20
1.0
 30
0.0
  9
$PUCSORTHOREF
  2

  9
$PUCSORTHOVIEW
 70
     0
  9
$PUCSORGTOP
 10
0.0
 20
0.0
 30
0.0
  9
$PUCSORGBOTTOM
 10
0.0
 20
0.0
 30
0.0
  9
$PUCSORGLEFT
 10
0.0
 20
0.0
 30
0.0
  9
$PUCSORGRIGHT
 10
0.0
 20
0.0
 30
0.0
  9
$PUCSORGFRONT
 10
0.0
 20
0.0
 30
0.0
  9
$PUCSORGBACK
 10
0.0
 20
0.0
 30
0.0
  9
$USERI1
 70
     0
  9
$USERI2
 70
     0
  9
$USERI3
 70
     0
  9
$USERI4
 70
     0
  9
$USERI5
 70
     0
  9
$USERR1
 40
0.0
  9
$USERR2
 40
0.0
  9
$USERR3
 40
0.0
  9
$USERR4
 40
0.0
  9
$USERR5
 40
0.0
  9
$WORLDVIEW
 70
     1
  9
$SHADEDGE
 70
     3
  9
$SHADEDIF
 70
    70
  9
$TILEMODE
 70
     1
  9
$MAXACTVP
 70
    64
  9
$PINSBASE
 10
0.0
 20
0.0
 30
0.0
  9
$PLIMCHECK
 70
     0
  9
$PEXTMIN
 10
1.000000000000E+20
 20
1.000000000000E+20
 30
1.000000000000E+20
  9
$PEXTMAX
 10
-1.000000000000E+20
 20
-1.000000000000E+20
 30
-1.000000000000E+20
  9
$PLIMMIN
 10
0.0
 20
0.0
  9
$PLIMMAX
 10
12.0
 20
9.0
  9
$UNITMODE
 70
     0
  9
$VISRETAIN
 70
     1
  9
$PLINEGEN
 70
     0
  9
$PSLTSCALE
 70
     1
  9
$TREEDEPTH
 70
  3020
  9
$CMLSTYLE
  2
Standard
  9
$CMLJUST
 70
     0
  9
$CMLSCALE
 40
1.0
  9
$PROXYGRAPHICS
 70
     1
  9
$MEASUREMENT
 70
     0
  9
$CELWEIGHT
370
    -1
  9
$ENDCAPS
280
     0
  9
$JOINSTYLE
280
     0
  9
$LWDISPLAY
290
     0
  9
$INSUNITS
 70
     0
  9
$HYPERLINKBASE
  1

  9
$STYLESHEET
  1

  9
$XEDIT
290
     1
  9
$CEPSNTYPE
380
     0
  9
$PSTYLEMODE
290
     1
  9
$FINGERPRINTGUID
  2
{FDF44530-F37E-4E57-B97D-3F6317F9552B}
  9
$VERSIONGUID
  2
{FAEB1C32-E019-11D5-929B-00C0DF256EC4}
  9
$EXTNAMES
290
     1
  9
$PSVPSCALE
 40
0.0
  9
$OLESTARTUP
290
     0
  0
ENDSEC
  0
SECTION
  2
CLASSES
  0
CLASS
  1
ACDBDICTIONARYWDFLT
  2
AcDbDictionaryWithDefault
  3
ObjectDBX Classes
 90
        0
280
     0
281
     0
  0
CLASS
  1
SCALE
  2
AcDbScale
  3
ObjectDBX Classes
 90
     1153
280
     0
281
     0
  0
CLASS
  1
DICTIONARYVAR
  2
AcDbDictionaryVar
  3
ObjectDBX Classes
 90
        0
280
     0
281
     0
  0
CLASS
  1
ACDBPLACEHOLDER
  2
AcDbPlaceHolder
  3
ObjectDBX Classes
 90
        0
280
     0
281
     0
  0
CLASS
  1
LAYOUT
  2
AcDbLayout
  3
ObjectDBX Classes
 90
        0
280
     0
281
     0
  0
ENDSEC
  0
SECTION
  2
TABLES
  0
TABLE
  2
VPORT
  5
8
330
0
100
AcDbSymbolTable
 70
     1
  0
VPORT
  5
39EB
330
8
100
AcDbSymbolTableRecord
100
AcDbViewportTableRecord
  2
*Active
 70
     0
 10
0.0
 20
0.0
 11
1.0
 21
1.0
 12
188.5
 22
1085.4215
 13
0.0
 23
0.0
 14
0.5
 24
0.5
 15
0.5
 25
0.5
 16
0.0
 26
0.0
 36
1.0
 17
0.0
 27
0.0
 37
0.0
 40
202.01406
 41
1.790857142857
 42
50.0
 43
0.0
 44
0.0
 50
0.0
 51
0.0
 71
    16
 72
   100
 73
     1
 74
     3
 75
     0
 76
     0
 77
     0
 78
     0
281
     0
 65
     1
110
0.0
120
0.0
130
0.0
111
1.0
121
0.0
131
0.0
112
0.0
122
1.0
132
0.0
 79
     0
146
0.0
  0
ENDTAB
  0
TABLE
  2
LTYPE
  5
5
330
0
100
AcDbSymbolTable
 70
     1
  0
LTYPE
  5
14
330
5
100
AcDbSymbolTableRecord
100
AcDbLinetypeTableRecord
  2
ByBlock
 70
     0
  3

 72
    65
 73
     0
 40
0.0
  0
LTYPE
  5
15
330
5
100
AcDbSymbolTableRecord
100
AcDbLinetypeTableRecord
  2
ByLayer
 70
     0
  3

 72
    65
 73
     0
 40
0.0
  0
LTYPE
  5
16
330
5
100
AcDbSymbolTableRecord
100
AcDbLinetypeTableRecord
  2
Continuous
 70
     0
  3
Solid line
 72
    65
 73
     0
 40
0.0
  0
ENDTAB
  0
TABLE
  2
LAYER
  5
2
330
0
100
AcDbSymbolTable
 70
     1
  0
LAYER
  5
10
330
2
100
AcDbSymbolTableRecord
100
AcDbLayerTableRecord
  2
0
 70
     0
 62
     7
  6
Continuous
370
    -3
390
F
  0
ENDTAB
  0
TABLE
  2
STYLE
  5
3
330
0
100
AcDbSymbolTable
 70
     1
  0
STYLE
  5
11
330
3
100
AcDbSymbolTableRecord
100
AcDbTextStyleTableRecord
  2
Standard
 70
     0
 40
0.0
 41
1.0
 50
0.0
 71
     0
 42
0.2
  3
txt
  4

  0
ENDTAB
  0
TABLE
  2
VIEW
  5
6
330
0
100
AcDbSymbolTable
 70
     0
  0
ENDTAB
  0
TABLE
  2
UCS
  5
7
330
0
100
AcDbSymbolTable
 70
     0
  0
ENDTAB
  0
TABLE
  2
APPID
  5
9
330
0
100
AcDbSymbolTable
 70
     1
  0
APPID
  5
12
330
9
100
AcDbSymbolTableRecord
100
AcDbRegAppTableRecord
  2
ACAD
 70
     0
  0
ENDTAB
  0
TABLE
  2
DIMSTYLE
  5
A
330
0
100
AcDbSymbolTable
 70
     1
100
AcDbDimStyleTable
  0
DIMSTYLE
105
20
330
A
100
AcDbSymbolTableRecord
100
AcDbDimStyleTableRecord
  2
Standard
 70
     0
340
11
  0
ENDTAB
  0
TABLE
  2
BLOCK_RECORD
  5
1
330
0
100
AcDbSymbolTable
 70
     0
  0
BLOCK_RECORD
  5
1D
330
1
100
AcDbSymbolTableRecord
100
AcDbBlockTableRecord
  2
*Model_Space
340
1E
  0
BLOCK_RECORD
  5
1B
330
1
100
AcDbSymbolTableRecord
100
AcDbBlockTableRecord
  2
*Paper_Space
340
1C
  0
ENDTAB
  0
ENDSEC
  0
SECTION
  2
BLOCKS
  0
BLOCK
  5
39EE
330
1D
100
AcDbEntity
  8
0
100
AcDbBlockBegin
  2
*Model_Space
 70
     0
 10
0.0
 20
0.0
 30
0.0
  3
*Model_Space
  1
*Model_Space
  0
ENDBLK
  5
39EF
330
1D
100
AcDbEntity
  8
0
100
AcDbBlockEnd
  0
BLOCK
  5
39EC
330
1B
100
AcDbEntity
 67
     1
  8
0
100
AcDbBlockBegin
  2
*Paper_Space
 70
     0
 10
0.0
 20
0.0
 30
0.0
  3
*Paper_Space
  1
*Paper_Space
  0
ENDBLK
  5
39ED
330
1B
100
AcDbEntity
 67
     1
  8
0
100
AcDbBlockEnd
  0
ENDSEC
  0
SECTION
  2
ENTITIES
  0
LINE
  5
E0
330
1D
100
AcDbEntity
  8
0
100
AcDbLine
 10
124.648
 20
1105.345
 30
0.0
 11
127.439
 21
1102.57
 31
0.0
  0
LINE
  5
E1
330
1D
100
AcDbEntity
  8
0
100
AcDbLine
 10
116.66
 20
1117.511
 30
0.0
 11
118.439
 21
1113.859
 31
0.0
  0
LINE
  5
E2
330
1D
100
AcDbEntity
  8
0
100
AcDbLine
 10
116.009
 20
1118.956
 30
0.0
 11
116.66
 21
1117.511
 31
0.0
  0
LINE
  5
E4
330
1D
100
AcDbEntity
  8
0
100
AcDbLine
 10
119.682169553172
 20
1111.8968821384
 30
0.0
 11
120.616
 21
1110.423
 31
0.0
  0
LINE
  5
E5
330
1D
100
AcDbEntity
  8
0
100
AcDbLine
 10
120.616
 20
1110.423
 30
0.0
 11
121.434
 21
1109.194
 31
0.0
  0
LINE
  5
E7
330
1D
100
AcDbEntity
  8
0
100
AcDbLine
 10
118.439
 20
1113.859
 30
0.0
 11
118.783272479945
 21
1113.31562827695
 31
0.0
  0
LINE
  5
E9
330
1D
100
AcDbEntity
  8
0
100
AcDbLine
 10
113.831
 20
1125.788
 30
0.0
 11
114.534
 21
1123.185
 31
0.0
  0
LINE
  5
EB
330
1D
100
AcDbEntity
  8
0
100
AcDbLine
 10
114.534
 20
1123.185
 30
0.0
 11
116.009
 21
1118.956
 31
0.0
  0
LINE
  5
EC
330
1D
100
AcDbEntity
  8
0
100
AcDbLine
 10
116.556
 20
1120.928
 30
0.0
 11
116.683
 21
1120.341
 31
0.0
  0
LINE
  5
F2
330
1D
100
AcDbEntity
  8
0
100
AcDbLine
 10
115.8756
 20
1124.074
 30
0.0
 11
116.683
 21
1120.341
 31
0.0
  0
LINE
  5
F4
330
1D
100
AcDbEntity
  8
0
100
AcDbLine
 10
116.683
 20
1120.341
 30
0.0
 11
117.872
 21
1116.722
 31
0.0
  0
LINE
  5
F5
330
1D
100
AcDbEntity
  8
0
100
AcDbLine
 10
120.929
 20
1124.207
 30
0.0
 11
121.128651278432
 21
1122.86539712677
 31
0.0
  0
LINE
  5
F6
330
1D
100
AcDbEntity
  8
0
100
AcDbLine
 10
121.206298173828
 20
1122.34363088125
 30
0.0
 11
121.375
 21
1121.21
 31
0.0
  0
LINE
  5
FE
330
1D
100
AcDbEntity
  8
0
100
AcDbLine
 10
113.047
 20
1129.905
 30
0.0
 11
113.831
 21
1125.788
 31
0.0
  0
LINE
  5
106
330
1D
100
AcDbEntity
  8
0
100
AcDbLine
 10
120.8
 20
1126.861
 30
0.0
 11
120.929
 21
1124.207
 31
0.0
  0
LINE
  5
107
330
1D
100
AcDbEntity
  8
0
100
AcDbLine
 10
120.8
 20
1126.861
 30
0.0
 11
121.045
 21
1130.546
 31
0.0
  0
LINE
  5
10A
330
1D
100
AcDbEntity
  8
0
100
AcDbLine
 10
115.5
 20
1129.025
 30
0.0
 11
115.8756
 21
1124.074
 31
0.0
  0
LINE
  5
10B
330
1D
100
AcDbEntity
  8
0
100
AcDbLine
 10
115.5
 20
1129.025
 30
0.0
 11
115.6123
 21
1131.997
 31
0.0
  0
LINE
  5
10E
330
1D
100
AcDbEntity
  8
0
100
AcDbLine
 10
112.72
 20
1132.235
 30
0.0
 11
113.047
 21
1129.905
 31
0.0
  0
LINE
  5
10F
330
1D
100
AcDbEntity
  8
0
100
AcDbLine
 10
112.5
 20
1135.906
 30
0.0
 11
112.72
 21
1132.235
 31
0.0
  0
LINE
  5
110
330
1D
100
AcDbEntity
  8
0
100
AcDbLine
 10
112.5
 20
1135.906
 30
0.0
 11
112.515
 21
1136.474
 31
0.0
  0
LINE
  5
113
330
1D
100
AcDbEntity
  8
0
100
AcDbLine
 10
112.61
 20
1138.462
 30
0.0
 11
112.877
 21
1141.104
 31
0.0
  0
LINE
  5
114
330
1D
100
AcDbEntity
  8
0
100
AcDbLine
 10
112.877
 20
1141.104
 30
0.0
 11
113.331
 21
1143.417
 31
0.0
  0
LINE
  5
115
330
1D
100
AcDbEntity
  8
0
100
AcDbLine
 10
112.515
 20
1136.474
 30
0.0
 11
112.536007856298
 21
1136.74269164271
 31
0.0
  0
LINE
  5
11B
330
1D
100
AcDbEntity
  8
0
100
AcDbLine
 10
121.045
 20
1130.546
 30
0.0
 11
121.779
 21
1134.176
 31
0.0
  0
LINE
  5
11D
330
1D
100
AcDbEntity
  8
0
100
AcDbLine
 10
117.543
 20
1139.761
 30
0.0
 11
119.125
 21
1143.342
 31
0.0
  0
LINE
  5
11F
330
1D
100
AcDbEntity
  8
0
100
AcDbLine
 10
116.2761
 20
1135.985
 30
0.0
 11
117.543
 21
1139.761
 31
0.0
  0
LINE
  5
12A
330
1D
100
AcDbEntity
  8
0
100
AcDbLine
 10
115.6123
 20
1131.997
 30
0.0
 11
116.2761
 21
1135.985
 31
0.0
  0
LINE
  5
12F
330
1D
100
AcDbEntity
  8
0
100
AcDbLine
 10
121.434
 20
1109.194
 30
0.0
 11
124.648
 21
1105.345
 31
0.0
  0
LINE
  5
130
330
1D
100
AcDbEntity
  8
0
100
AcDbLine
 10
121.375
 20
1121.21
 30
0.0
 11
121.469197309527
 21
1120.84258303828
 31
0.0
  0
LINE
  5
131
330
1D
100
AcDbEntity
  8
0
100
AcDbLine
 10
122.169
 20
1118.113
 30
0.0
 11
123.326438574239
 21
1115.00769954404
 31
0.0
  0
LINE
  5
133
330
1D
100
AcDbEntity
  8
0
100
AcDbLine
 10
121.474104773973
 20
1120.82344145467
 30
0.0
 11
122.169
 21
1118.113
 31
0.0
  0
LINE
  5
137
330
1D
100
AcDbEntity
  8
0
100
AcDbLine
 10
123.421
 20
1114.754
 30
0.0
 11
124.373143525739
 21
1112.84577847114
 31
0.0
  0
LINE
  5
138
330
1D
100
AcDbEntity
  8
0
100
AcDbLine
 10
123.375184709587
 20
1114.87691817931
 30
0.0
 11
123.421
 21
1114.754
 31
0.0
  0
LINE
  5
13A
330
1D
100
AcDbEntity
  8
0
100
AcDbLine
 10
125.225
 20
1111.112
 30
0.0
 11
126.674
 21
1108.751
 31
0.0
  0
LINE
  5
13C
330
1D
100
AcDbEntity
  8
0
100
AcDbLine
 10
121.779
 20
1134.176
 30
0.0
 11
123.009
 21
1137.765
 31
0.0
  0
LINE
  5
13F
330
1D
100
AcDbEntity
  8
0
100
AcDbLine
 10
123.009
 20
1137.765
 30
0.0
 11
125.034
 21
1141.812
 31
0.0
  0
LINE
  5
144
330
1D
100
AcDbEntity
  8
0
100
AcDbLine
 10
125.034
 20
1141.812
 30
0.0
 11
127.68
 21
1145.698
 31
0.0
  0
LINE
  5
14D
330
1D
100
AcDbEntity
  8
0
100
AcDbLine
 10
113.331
 20
1143.417
 30
0.0
 11
113.967
 21
1145.719
 31
0.0
  0
LINE
  5
14E
330
1D
100
AcDbEntity
  8
0
100
AcDbLine
 10
113.967
 20
1145.719
 30
0.0
 11
115.096
 21
1148.757
 31
0.0
  0
LINE
  5
14F
330
1D
100
AcDbEntity
  8
0
100
AcDbLine
 10
115.096
 20
1148.757
 30
0.0
 11
116.543
 21
1151.745
 31
0.0
  0
LINE
  5
151
330
1D
100
AcDbEntity
  8
0
100
AcDbLine
 10
119.125
 20
1143.342
 30
0.0
 11
121.611
 21
1147.488
 31
0.0
  0
LINE
  5
161
330
1D
100
AcDbEntity
  8
0
100
AcDbLine
 10
121.611
 20
1147.488
 30
0.0
 11
124.324
 21
1150.843
 31
0.0
  0
LINE
  5
165
330
1D
100
AcDbEntity
  8
0
100
AcDbLine
 10
118.3
 20
1154.667
 30
0.0
 11
118.637
 21
1155.216
 31
0.0
  0
LINE
  5
166
330
1D
100
AcDbEntity
  8
0
100
AcDbLine
 10
120.359
 20
1157.511
 30
0.0
 11
121.817
 21
1159.422
 31
0.0
  0
LINE
  5
167
330
1D
100
AcDbEntity
  8
0
100
AcDbLine
 10
118.637
 20
1155.216
 30
0.0
 11
120.359
 21
1157.511
 31
0.0
  0
LINE
  5
168
330
1D
100
AcDbEntity
  8
0
100
AcDbLine
 10
116.543
 20
1151.745
 30
0.0
 11
118.3
 21
1154.667
 31
0.0
  0
LINE
  5
16B
330
1D
100
AcDbEntity
  8
0
100
AcDbLine
 10
121.817
 20
1159.422
 30
0.0
 11
125.638
 21
1163.412
 31
0.0
  0
LINE
  5
171
330
1D
100
AcDbEntity
  8
0
100
AcDbLine
 10
125.638
 20
1163.412
 30
0.0
 11
130.064
 21
1167.144
 31
0.0
  0
LINE
  5
174
330
1D
100
AcDbEntity
  8
0
100
AcDbLine
 10
124.324
 20
1150.843
 30
0.0
 11
127.631
 21
1154.218
 31
0.0
  0
LINE
  5
177
330
1D
100
AcDbEntity
  8
0
100
AcDbLine
 10
126.674
 20
1108.751
 30
0.0
 11
129.897
 21
1104.511
 31
0.0
  0
LINE
  5
17E
330
1D
100
AcDbEntity
  8
0
100
AcDbLine
 10
130.515
 20
1099.893
 30
0.0
 11
133.835
 21
1097.323
 31
0.0
  0
LINE
  5
180
330
1D
100
AcDbEntity
  8
0
100
AcDbLine
 10
127.439
 20
1102.57
 30
0.0
 11
130.515
 21
1099.893
 31
0.0
  0
LINE
  5
18B
330
1D
100
AcDbEntity
  8
0
100
AcDbLine
 10
129.897
 20
1104.511
 30
0.0
 11
132.171
 21
1102.075
 31
0.0
  0
LINE
  5
18E
330
1D
100
AcDbEntity
  8
0
100
AcDbLine
 10
127.68
 20
1145.698
 30
0.0
 11
130.916
 21
1149.39
 31
0.0
  0
LINE
  5
193
330
1D
100
AcDbEntity
  8
0
100
AcDbLine
 10
127.631
 20
1154.218
 30
0.0
 11
129.949
 21
1156.312
 31
0.0
  0
LINE
  5
194
330
1D
100
AcDbEntity
  8
0
100
AcDbLine
 10
130.916
 20
1149.39
 30
0.0
 11
134.712
 21
1152.859
 31
0.0
  0
LINE
  5
19C
330
1D
100
AcDbEntity
  8
0
100
AcDbLine
 10
130.064
 20
1167.144
 30
0.0
 11
135.321
 21
1170.685
 31
0.0
  0
LINE
  5
1A1
330
1D
100
AcDbEntity
  8
0
100
AcDbLine
 10
129.949
 20
1156.312
 30
0.0
 11
132.368
 21
1158.471
 31
0.0
  0
LINE
  5
1CF
330
1D
100
AcDbEntity
  8
0
100
AcDbLine
 10
132.171
 20
1102.075
 30
0.0
 11
133.654130782373
 21
1100.8128422201
 31
0.0
  0
LINE
  5
21B
330
1D
100
AcDbEntity
  8
0
100
AcDbLine
 10
133.835
 20
1097.323
 30
0.0
 11
137.378
 21
1094.853
 31
0.0
  0
LINE
  5
226
330
1D
100
AcDbEntity
  8
0
100
AcDbLine
 10
133.654130782373
 20
1100.8128422201
 30
0.0
 11
134.865
 21
1099.681
 31
0.0
  0
LINE
  5
270
330
1D
100
AcDbEntity
  8
0
100
AcDbLine
 10
132.368
 20
1158.471
 30
0.0
 11
136.883
 21
1161.597
 31
0.0
  0
LINE
  5
2B5
330
1D
100
AcDbEntity
  8
0
100
AcDbLine
 10
134.865
 20
1099.681
 30
0.0
 11
136.029291273728
 21
1098.74210002986
 31
0.0
  0
LINE
  5
2E7
330
1D
100
AcDbEntity
  8
0
100
AcDbLine
 10
134.712
 20
1152.859
 30
0.0
 11
139.046
 21
1156.087
 31
0.0
  0
LINE
  5
327
330
1D
100
AcDbEntity
  8
0
100
AcDbLine
 10
137.378
 20
1094.853
 30
0.0
 11
137.858709279763
 21
1094.55599002244
 31
0.0
  0
LINE
  5
328
330
1D
100
AcDbEntity
  8
0
100
AcDbLine
 10
138.051
 20
1094.403
 30
0.0
 11
141.254
 21
1092.377
 31
0.0
  0
LINE
  5
382
330
1D
100
AcDbEntity
  8
0
100
AcDbLine
 10
139.347
 20
1095.99
 30
0.0
 11
142.04
 21
1094.185
 31
0.0
  0
LINE
  5
3A8
330
1D
100
AcDbEntity
  8
0
100
AcDbLine
 10
135.321
 20
1170.685
 30
0.0
 11
140.547
 21
1173.702
 31
0.0
  0
LINE
  5
436
330
1D
100
AcDbEntity
  8
0
100
AcDbLine
 10
136.883
 20
1161.597
 30
0.0
 11
141.178
 21
1164.143
 31
0.0
  0
LINE
  5
44B
330
1D
100
AcDbEntity
  8
0
100
AcDbLine
 10
139.046
 20
1156.087
 30
0.0
 11
143.866
 21
1159.029
 31
0.0
  0
LINE
  5
4F9
330
1D
100
AcDbEntity
  8
0
100
AcDbLine
 10
140.547
 20
1173.702
 30
0.0
 11
146.506
 21
1176.467
 31
0.0
  0
LINE
  5
549
330
1D
100
AcDbEntity
  8
0
100
AcDbLine
 10
141.254
 20
1092.377
 30
0.0
 11
145.701
 21
1089.796
 31
0.0
  0
LINE
  5
559
330
1D
100
AcDbEntity
  8
0
100
AcDbLine
 10
142.04
 20
1094.185
 30
0.0
 11
146.776
 21
1091.461
 31
0.0
  0
LINE
  5
5E0
330
1D
100
AcDbEntity
  8
0
100
AcDbLine
 10
141.178
 20
1164.143
 30
0.0
 11
145.96
 21
1166.461
 31
0.0
  0
LINE
  5
64D
330
1D
100
AcDbEntity
  8
0
100
AcDbLine
 10
143.866
 20
1159.029
 30
0.0
 11
149.126
 21
1161.659
 31
0.0
  0
LINE
  5
66F
330
1D
100
AcDbEntity
  8
0
100
AcDbLine
 10
145.701
 20
1089.796
 30
0.0
 11
149.123
 21
1087.921
 31
0.0
  0
LINE
  5
6CE
330
1D
100
AcDbEntity
  8
0
100
AcDbLine
 10
146.776
 20
1091.461
 30
0.0
 11
153.398
 21
1088.364
 31
0.0
  0
LINE
  5
75E
330
1D
100
AcDbEntity
  8
0
100
AcDbLine
 10
145.96
 20
1166.461
 30
0.0
 11
149.254
 21
1167.679
 31
0.0
  0
LINE
  5
75F
330
1D
100
AcDbEntity
  8
0
100
AcDbLine
 10
146.506
 20
1176.467
 30
0.0
 11
152.867
 21
1178.853
 31
0.0
  0
LINE
  5
7FB
330
1D
100
AcDbEntity
  8
0
100
AcDbLine
 10
149.123
 20
1087.921
 30
0.0
 11
155.974
 21
1084.166
 31
0.0
  0
LINE
  5
878
330
1D
100
AcDbEntity
  8
0
100
AcDbLine
 10
149.126
 20
1161.659
 30
0.0
 11
154.777
 21
1163.951
 31
0.0
  0
LINE
  5
89D
330
1D
100
AcDbEntity
  8
0
100
AcDbLine
 10
149.254
 20
1167.679
 30
0.0
 11
152.573
 21
1169.127
 31
0.0
  0
LINE
  5
CBC
330
1D
100
AcDbEntity
  8
0
100
AcDbLine
 10
152.573
 20
1169.127
 30
0.0
 11
156.108
 21
1170.125
 31
0.0
  0
LINE
  5
CBE
330
1D
100
AcDbEntity
  8
0
100
AcDbLine
 10
153.048
 20
1178.909
 30
0.0
 11
159.719
 21
1180.883
 31
0.0
  0
LINE
  5
CBF
330
1D
100
AcDbEntity
  8
0
100
AcDbLine
 10
152.867
 20
1178.853
 30
0.0
 11
153.048
 21
1178.909
 31
0.0
  0
LINE
  5
CC5
330
1D
100
AcDbEntity
  8
0
100
AcDbLine
 10
153.398
 20
1088.364
 30
0.0
 11
157.039
 21
1086.736
 31
0.0
  0
LINE
  5
D42
330
1D
100
AcDbEntity
  8
0
100
AcDbLine
 10
154.777
 20
1163.951
 30
0.0
 11
159.234
 21
1165.434
 31
0.0
  0
LINE
  5
D76
330
1D
100
AcDbEntity
  8
0
100
AcDbLine
 10
157.039
 20
1086.736
 30
0.0
 11
160.688
 21
1085.037
 31
0.0
  0
LINE
  5
E81
330
1D
100
AcDbEntity
  8
0
100
AcDbLine
 10
156.108
 20
1170.125
 30
0.0
 11
159.678
 21
1171.352
 31
0.0
  0
LINE
  5
F2B
330
1D
100
AcDbEntity
  8
0
100
AcDbLine
 10
159.137391930495
 20
1082.199487405
 30
0.0
 11
159.83
 21
1081.755
 31
0.0
  0
LINE
  5
F96
330
1D
100
AcDbEntity
  8
0
100
AcDbLine
 10
159.83
 20
1081.755
 30
0.0
 11
162.792
 21
1079.372
 31
0.0
  0
LINE
  5
106E
330
1D
100
AcDbEntity
  8
0
100
AcDbLine
 10
159.678
 20
1171.352
 30
0.0
 11
163.297
 21
1172.081
 31
0.0
  0
LINE
  5
106F
330
1D
100
AcDbEntity
  8
0
100
AcDbLine
 10
159.234
 20
1165.434
 30
0.0
 11
164.024
 21
1166.745
 31
0.0
  0
LINE
  5
1070
330
1D
100
AcDbEntity
  8
0
100
AcDbLine
 10
159.719
 20
1180.883
 30
0.0
 11
166.669
 21
1182.439
 31
0.0
  0
LINE
  5
1089
330
1D
100
AcDbEntity
  8
0
100
AcDbLine
 10
160.688
 20
1085.037
 30
0.0
 11
163.993
 21
1083.363
 31
0.0
  0
LINE
  5
1167
330
1D
100
AcDbEntity
  8
0
100
AcDbLine
 10
161.585130337321
 20
1117.47611234273
 30
0.0
 11
161.586409571177
 21
1117.3874797113
 31
0.0
  0
LINE
  5
11F4
330
1D
100
AcDbEntity
  8
0
100
AcDbLine
 10
162.792
 20
1079.372
 30
0.0
 11
164.747
 21
1077.243
 31
0.0
  0
LINE
  5
127E
330
1D
100
AcDbEntity
  8
0
100
AcDbLine
 10
163.297
 20
1172.081
 30
0.0
 11
166.956
 21
1173.044
 31
0.0
  0
LINE
  5
1293
330
1D
100
AcDbEntity
  8
0
100
AcDbLine
 10
163.993
 20
1083.363
 30
0.0
 11
166.368
 21
1082.049
 31
0.0
  0
LINE
  5
12B5
330
1D
100
AcDbEntity
  8
0
100
AcDbLine
 10
163.879
 20
1118.402
 30
0.0
 11
164.142
 21
1121.156
 31
0.0
  0
LINE
  5
12B6
330
1D
100
AcDbEntity
  8
0
100
AcDbLine
 10
163.879
 20
1118.402
 30
0.0
 11
164.007
 21
1116.289
 31
0.0
  0
LINE
  5
12D0
330
1D
100
AcDbEntity
  8
0
100
AcDbLine
 10
164.007
 20
1116.289
 30
0.0
 11
164.702
 21
1114.106
 31
0.0
  0
LINE
  5
12E0
330
1D
100
AcDbEntity
  8
0
100
AcDbLine
 10
164.142
 20
1121.156
 30
0.0
 11
164.652
 21
1122.852
 31
0.0
  0
LINE
  5
131C
330
1D
100
AcDbEntity
  8
0
100
AcDbLine
 10
164.747
 20
1077.243
 30
0.0
 11
165.336390815752
 21
1076.39966113428
 31
0.0
  0
LINE
  5
1321
330
1D
100
AcDbEntity
  8
0
100
AcDbLine
 10
165.336390815752
 20
1076.39966113428
 30
0.0
 11
165.868
 21
1075.639
 31
0.0
  0
LINE
  5
1325
330
1D
100
AcDbEntity
  8
0
100
AcDbLine
 10
166.626238069175
 20
1074.21557301379
 30
0.0
 11
167.596
 21
1071.874
 31
0.0
  0
LINE
  5
1329
330
1D
100
AcDbEntity
  8
0
100
AcDbLine
 10
166.368
 20
1082.049
 30
0.0
 11
167.729
 21
1081.202
 31
0.0
  0
LINE
  5
1334
330
1D
100
AcDbEntity
  8
0
100
AcDbLine
 10
164.702
 20
1114.106
 30
0.0
 11
165.87
 21
1112.093
 31
0.0
  0
LINE
  5
1345
330
1D
100
AcDbEntity
  8
0
100
AcDbLine
 10
165.87
 20
1112.093
 30
0.0
 11
168.297
 21
1109.169
 31
0.0
  0
LINE
  5
134C
330
1D
100
AcDbEntity
  8
0
100
AcDbLine
 10
167.995840870191
 20
1070.55610344759
 30
0.0
 11
168.654
 21
1067.478
 31
0.0
  0
LINE
  5
136B
330
1D
100
AcDbEntity
  8
0
100
AcDbLine
 10
167.729
 20
1081.202
 30
0.0
 11
170.993
 21
1079.277
 31
0.0
  0
LINE
  5
138A
330
1D
100
AcDbEntity
  8
0
100
AcDbLine
 10
168.297
 20
1109.169
 30
0.0
 11
173.959
 21
1105.704
 31
0.0
  0
LINE
  5
1391
330
1D
100
AcDbEntity
  8
0
100
AcDbLine
 10
164.652
 20
1122.852
 30
0.0
 11
165.449
 21
1124.159
 31
0.0
  0
LINE
  5
1398
330
1D
100
AcDbEntity
  8
0
100
AcDbLine
 10
165.449
 20
1124.159
 30
0.0
 11
167.332
 21
1126.774
 31
0.0
  0
LINE
  5
13D6
330
1D
100
AcDbEntity
  8
0
100
AcDbLine
 10
167.332
 20
1126.774
 30
0.0
 11
168.965
 21
1127.959
 31
0.0
  0
LINE
  5
140C
330
1D
100
AcDbEntity
  8
0
100
AcDbLine
 10
166.956
 20
1173.044
 30
0.0
 11
170.771
 21
1173.536
 31
0.0
  0
LINE
  5
140D
330
1D
100
AcDbEntity
  8
0
100
AcDbLine
 10
166.669
 20
1182.439
 30
0.0
 11
173.829
 21
1183.56
 31
0.0
  0
LINE
  5
1410
330
1D
100
AcDbEntity
  8
0
100
AcDbLine
 10
167.355
 20
1167.27
 30
0.0
 11
170.692
 21
1168.017
 31
0.0
  0
LINE
  5
141F
330
1D
100
AcDbEntity
  8
0
100
AcDbLine
 10
168.908334065258
 20
1065.97763579064
 30
0.0
 11
169.018
 21
1065.25
 31
0.0
  0
LINE
  5
1432
330
1D
100
AcDbEntity
  8
0
100
AcDbLine
 10
168.872
 20
1115.263
 30
0.0
 11
169.039181581548
 21
1116.39945906558
 31
0.0
  0
LINE
  5
1433
330
1D
100
AcDbEntity
  8
0
100
AcDbLine
 10
168.872
 20
1115.263
 30
0.0
 11
169.756
 21
1114.159
 31
0.0
  0
LINE
  5
1448
330
1D
100
AcDbEntity
  8
0
100
AcDbLine
 10
168.965
 20
1127.959
 30
0.0
 11
171.693
 21
1130.036
 31
0.0
  0
LINE
  5
144E
330
1D
100
AcDbEntity
  8
0
100
AcDbLine
 10
170.049
 20
1041.426
 30
0.0
 11
170.26
 21
1036.665
 31
0.0
  0
LINE
  5
1451
330
1D
100
AcDbEntity
  8
0
100
AcDbLine
 10
169.018
 20
1065.25
 30
0.0
 11
169.482787911641
 21
1060.84496510295
 31
0.0
  0
LINE
  5
1455
330
1D
100
AcDbEntity
  8
0
100
AcDbLine
 10
169.486084569018
 20
1060.79862679325
 30
0.0
 11
169.789
 21
1053.712
 31
0.0
  0
LINE
  5
1457
330
1D
100
AcDbEntity
  8
0
100
AcDbLine
 10
169.789
 20
1053.712
 30
0.0
 11
170.049
 21
1041.426
 31
0.0
  0
LINE
  5
1458
330
1D
100
AcDbEntity
  8
0
100
AcDbLine
 10
169.96
 20
1091.293
 30
0.0
 11
171.798
 21
1090.498
 31
0.0
  0
LINE
  5
1460
330
1D
100
AcDbEntity
  8
0
100
AcDbLine
 10
170.26
 20
1036.665
 30
0.0
 11
170.746
 21
1027.146
 31
0.0
  0
LINE
  5
147A
330
1D
100
AcDbEntity
  8
0
100
AcDbLine
 10
169.869639893489
 20
1091.91369447397
 30
0.0
 11
169.96
 21
1091.293
 31
0.0
  0
LINE
  5
14D0
330
1D
100
AcDbEntity
  8
0
100
AcDbLine
 10
170.746
 20
1027.146
 30
0.0
 11
171.323
 21
1019.76
 31
0.0
  0
LINE
  5
14FA
330
1D
100
AcDbEntity
  8
0
100
AcDbLine
 10
170.993
 20
1079.277
 30
0.0
 11
175.924
 21
1076.21
 31
0.0
  0
LINE
  5
14FB
330
1D
100
AcDbEntity
  8
0
100
AcDbLine
 10
171.323
 20
1019.76
 30
0.0
 11
172.16
 21
1010.087
 31
0.0
  0
LINE
  5
1516
330
1D
100
AcDbEntity
  8
0
100
AcDbLine
 10
172.004
 20
1092.182
 30
0.0
 11
173.155
 21
1091.338
 31
0.0
  0
LINE
  5
151E
330
1D
100
AcDbEntity
  8
0
100
AcDbLine
 10
171.798
 20
1090.498
 30
0.0
 11
173.155
 21
1091.338
 31
0.0
  0
LINE
  5
1534
330
1D
100
AcDbEntity
  8
0
100
AcDbLine
 10
172.16
 20
1010.087
 30
0.0
 11
172.413
 21
1007.576
 31
0.0
  0
LINE
  5
1545
330
1D
100
AcDbEntity
  8
0
100
AcDbLine
 10
172.413
 20
1007.576
 30
0.0
 11
172.52
 21
1006.36
 31
0.0
  0
LINE
  5
1548
330
1D
100
AcDbEntity
  8
0
100
AcDbLine
 10
172.52
 20
1006.36
 30
0.0
 11
172.623
 21
1005.015
 31
0.0
  0
LINE
  5
154A
330
1D
100
AcDbEntity
  8
0
100
AcDbLine
 10
172.745
 20
1003.736
 30
0.0
 11
173.703
 21
995.764
 31
0.0
  0
LINE
  5
154C
330
1D
100
AcDbEntity
  8
0
100
AcDbLine
 10
172.623
 20
1005.015
 30
0.0
 11
172.745
 21
1003.736
 31
0.0
  0
LINE
  5
1582
330
1D
100
AcDbEntity
  8
0
100
AcDbLine
 10
173.055181232303
 20
1003.88457772777
 30
0.0
 11
174.458
 21
999.581
 31
0.0
  0
LINE
  5
1583
330
1D
100
AcDbEntity
  8
0
100
AcDbLine
 10
173.155
 20
1091.338
 30
0.0
 11
173.310180386685
 21
1092.58639146901
 31
0.0
  0
LINE
  5
15A3
330
1D
100
AcDbEntity
  8
0
100
AcDbLine
 10
171.205
 20
1113.491
 30
0.0
 11
173.093
 21
1113.27
 31
0.0
  0
LINE
  5
15AA
330
1D
100
AcDbEntity
  8
0
100
AcDbLine
 10
173.093
 20
1113.27
 30
0.0
 11
174.919
 21
1113.547
 31
0.0
  0
LINE
  5
15B6
330
1D
100
AcDbEntity
  8
0
100
AcDbLine
 10
169.756
 20
1114.159
 30
0.0
 11
171.205
 21
1113.491
 31
0.0
  0
LINE
  5
15B7
330
1D
100
AcDbEntity
  8
0
100
AcDbLine
 10
170.101
 20
1117.494
 30
0.0
 11
171.024
 21
1117.846
 31
0.0
  0
LINE
  5
15BB
330
1D
100
AcDbEntity
  8
0
100
AcDbLine
 10
171.024
 20
1117.846
 30
0.0
 11
172.794
 21
1118.028
 31
0.0
  0
LINE
  5
15E2
330
1D
100
AcDbEntity
  8
0
100
AcDbLine
 10
171.693
 20
1130.036
 30
0.0
 11
174.697
 21
1131.58
 31
0.0
  0
LINE
  5
170A
330
1D
100
AcDbEntity
  8
0
100
AcDbLine
 10
173.703
 20
995.764
 30
0.0
 11
173.968
 21
994.539
 31
0.0
  0
LINE
  5
1711
330
1D
100
AcDbEntity
  8
0
100
AcDbLine
 10
174.408
 20
993.117
 30
0.0
 11
174.691
 21
992.427
 31
0.0
  0
LINE
  5
1712
330
1D
100
AcDbEntity
  8
0
100
AcDbLine
 10
174.185
 20
993.614
 30
0.0
 11
174.408
 21
993.117
 31
0.0
  0
LINE
  5
1714
330
1D
100
AcDbEntity
  8
0
100
AcDbLine
 10
174.691
 20
992.427
 30
0.0
 11
175.216
 21
991.605
 31
0.0
  0
LINE
  5
1715
330
1D
100
AcDbEntity
  8
0
100
AcDbLine
 10
173.968
 20
994.539
 30
0.0
 11
174.185
 21
993.614
 31
0.0
  0
LINE
  5
1717
330
1D
100
AcDbEntity
  8
0
100
AcDbLine
 10
174.458
 20
999.581
 30
0.0
 11
177.297
 21
996.678
 31
0.0
  0
LINE
  5
1718
330
1D
100
AcDbEntity
  8
0
100
AcDbLine
 10
175.216
 20
991.605
 30
0.0
 11
175.601
 21
991.04
 31
0.0
  0
LINE
  5
171A
330
1D
100
AcDbEntity
  8
0
100
AcDbLine
 10
173.959
 20
1105.704
 30
0.0
 11
177.96
 21
1104.143
 31
0.0
  0
LINE
  5
1730
330
1D
100
AcDbEntity
  8
0
100
AcDbLine
 10
174.919
 20
1113.547
 30
0.0
 11
176.338
 21
1114.32
 31
0.0
  0
LINE
  5
1752
330
1D
100
AcDbEntity
  8
0
100
AcDbLine
 10
174.697
 20
1131.58
 30
0.0
 11
178.871
 21
1133.012
 31
0.0
  0
LINE
  5
1760
330
1D
100
AcDbEntity
  8
0
100
AcDbLine
 10
174.626
 20
1117.774
 30
0.0
 11
175.868
 21
1117.206
 31
0.0
  0
LINE
  5
1765
330
1D
100
AcDbEntity
  8
0
100
AcDbLine
 10
170.692
 20
1168.017
 30
0.0
 11
177.534
 21
1168.961
 31
0.0
  0
LINE
  5
176A
330
1D
100
AcDbEntity
  8
0
100
AcDbLine
 10
170.771
 20
1173.536
 30
0.0
 11
174.635
 21
1174.257
 31
0.0
  0
LINE
  5
1775
330
1D
100
AcDbEntity
  8
0
100
AcDbLine
 10
173.829
 20
1183.56
 30
0.0
 11
181.13
 21
1184.24
 31
0.0
  0
LINE
  5
1779
330
1D
100
AcDbEntity
  8
0
100
AcDbLine
 10
174.635
 20
1174.257
 30
0.0
 11
181.363
 21
1174.874
 31
0.0
  0
LINE
  5
1786
330
1D
100
AcDbEntity
  8
0
100
AcDbLine
 10
178.784
 20
988.497
 30
0.0
 11
179.906
 21
987.938
 31
0.0
  0
LINE
  5
1787
330
1D
100
AcDbEntity
  8
0
100
AcDbLine
 10
179.906
 20
987.938
 30
0.0
 11
181.173
 21
987.457
 31
0.0
  0
LINE
  5
1790
330
1D
100
AcDbEntity
  8
0
100
AcDbLine
 10
175.601
 20
991.04
 30
0.0
 11
176.267
 21
990.276
 31
0.0
  0
LINE
  5
1792
330
1D
100
AcDbEntity
  8
0
100
AcDbLine
 10
175.924
 20
1076.21
 30
0.0
 11
177.9
 21
1075.089
 31
0.0
  0
LINE
  5
17B8
330
1D
100
AcDbEntity
  8
0
100
AcDbLine
 10
176.267
 20
990.276
 30
0.0
 11
177.222
 21
989.448
 31
0.0
  0
LINE
  5
17BF
330
1D
100
AcDbEntity
  8
0
100
AcDbLine
 10
176.338
 20
1114.32
 30
0.0
 11
177.022429040369
 21
1115.31278811337
 31
0.0
  0
LINE
  5
1814
330
1D
100
AcDbEntity
  8
0
100
AcDbLine
 10
177.222
 20
989.448
 30
0.0
 11
178.784
 21
988.497
 31
0.0
  0
LINE
  5
1819
330
1D
100
AcDbEntity
  8
0
100
AcDbLine
 10
177.297
 20
996.678
 30
0.0
 11
180.057
 21
995.003
 31
0.0
  0
LINE
  5
188D
330
1D
100
AcDbEntity
  8
0
100
AcDbLine
 10
177.96
 20
1104.143
 30
0.0
 11
183.088
 21
1103.011
 31
0.0
  0
LINE
  5
1968
330
1D
100
AcDbEntity
  8
0
100
AcDbLine
 10
178.871
 20
1133.012
 30
0.0
 11
184.406
 21
1134.078
 31
0.0
  0
LINE
  5
19BA
330
1D
100
AcDbEntity
  8
0
100
AcDbLine
 10
177.534
 20
1168.961
 30
0.0
 11
188.494
 21
1169.576
 31
0.0
  0
LINE
  5
1B6C
330
1D
100
AcDbEntity
  8
0
100
AcDbLine
 10
181.173
 20
987.457
 30
0.0
 11
182.541
 21
987.066
 31
0.0
  0
LINE
  5
1B77
330
1D
100
AcDbEntity
  8
0
100
AcDbLine
 10
182.541
 20
987.066
 30
0.0
 11
185.456
 21
986.56
 31
0.0
  0
LINE
  5
1B7B
330
1D
100
AcDbEntity
  8
0
100
AcDbLine
 10
182.533
 20
993.991
 30
0.0
 11
185.657
 21
993.422
 31
0.0
  0
LINE
  5
1BF6
330
1D
100
AcDbEntity
  8
0
100
AcDbLine
 10
181.13
 20
1184.24
 30
0.0
 11
188.5
 21
1184.448
 31
0.0
  0
LINE
  5
1BF7
330
1D
100
AcDbEntity
  8
0
100
AcDbLine
 10
181.363
 20
1174.874
 30
0.0
 11
188.322
 21
1174.914
 31
0.0
  0
LINE
  5
1BF8
330
1D
100
AcDbEntity
  8
0
100
AcDbLine
 10
181.363
 20
1174.874
 30
0.0
 11
188.5
 21
1174.914
 31
0.0
  0
LINE
  5
1C58
330
1D
100
AcDbEntity
  8
0
100
AcDbLine
 10
185.456
 20
986.56
 30
0.0
 11
188.5
 21
986.395
 31
0.0
  0
LINE
  5
1C59
330
1D
100
AcDbEntity
  8
0
100
AcDbLine
 10
188.5
 20
986.395
 30
0.0
 11
191.544
 21
986.56
 31
0.0
  0
LINE
  5
1C5B
330
1D
100
AcDbEntity
  8
0
100
AcDbLine
 10
191.544
 20
986.56
 30
0.0
 11
194.459
 21
987.066
 31
0.0
  0
LINE
  5
1C63
330
1D
100
AcDbEntity
  8
0
100
AcDbLine
 10
194.459
 20
987.066
 30
0.0
 11
195.827
 21
987.457
 31
0.0
  0
LINE
  5
1C64
330
1D
100
AcDbEntity
  8
0
100
AcDbLine
 10
195.827
 20
987.457
 30
0.0
 11
197.094
 21
987.938
 31
0.0
  0
LINE
  5
1CE4
330
1D
100
AcDbEntity
  8
0
100
AcDbLine
 10
185.363
 20
1073.624
 30
0.0
 11
187.93
 21
1073.244
 31
0.0
  0
LINE
  5
1CF0
330
1D
100
AcDbEntity
  8
0
100
AcDbLine
 10
185.657
 20
993.422
 30
0.0
 11
188.5
 21
993.229
 31
0.0
  0
LINE
  5
1D1A
330
1D
100
AcDbEntity
  8
0
100
AcDbLine
 10
185.584
 20
1102.922
 30
0.0
 11
188.5
 21
1102.854
 31
0.0
  0
LINE
  5
1D1D
330
1D
100
AcDbEntity
  8
0
100
AcDbLine
 10
186.424538672273
 20
1071.65937480149
 30
0.0
 11
188.5
 21
1071.413
 31
0.0
  0
LINE
  5
1D98
330
1D
100
AcDbEntity
  8
0
100
AcDbLine
 10
197.094
 20
987.938
 30
0.0
 11
198.216
 21
988.497
 31
0.0
  0
LINE
  5
1DC1
330
1D
100
AcDbEntity
  8
0
100
AcDbLine
 10
198.216
 20
988.497
 30
0.0
 11
199.778
 21
989.448
 31
0.0
  0
LINE
  5
1FCA
330
1D
100
AcDbEntity
  8
0
100
AcDbLine
 10
184.406
 20
1134.078
 30
0.0
 11
188.5
 21
1134.319
 31
0.0
  0
LINE
  5
22E3
330
1D
100
AcDbEntity
  8
0
100
AcDbLine
 10
188.322
 20
1174.914
 30
0.0
 11
188.5
 21
1174.914
 31
0.0
  0
LINE
  5
22F2
330
1D
100
AcDbEntity
  8
0
100
AcDbLine
 10
188.5
 20
1174.914
 30
0.0
 11
188.678
 21
1174.914
 31
0.0
  0
LINE
  5
2319
330
1D
100
AcDbEntity
  8
0
100
AcDbLine
 10
199.778
 20
989.448
 30
0.0
 11
200.733
 21
990.276
 31
0.0
  0
LINE
  5
2323
330
1D
100
AcDbEntity
  8
0
100
AcDbLine
 10
200.733
 20
990.276
 30
0.0
 11
201.399
 21
991.04
 31
0.0
  0
LINE
  5
23BF
330
1D
100
AcDbEntity
  8
0
100
AcDbLine
 10
201.784
 20
991.605
 30
0.0
 11
202.309
 21
992.427
 31
0.0
  0
LINE
  5
23C0
330
1D
100
AcDbEntity
  8
0
100
AcDbLine
 10
201.399
 20
991.04
 30
0.0
 11
201.784
 21
991.605
 31
0.0
  0
LINE
  5
23C1
330
1D
100
AcDbEntity
  8
0
100
AcDbLine
 10
202.309
 20
992.427
 30
0.0
 11
202.592
 21
993.117
 31
0.0
  0
LINE
  5
23C2
330
1D
100
AcDbEntity
  8
0
100
AcDbLine
 10
202.592
 20
993.117
 30
0.0
 11
202.815
 21
993.614
 31
0.0
  0
LINE
  5
382B
330
1D
100
AcDbEntity
  8
0
100
AcDbLine
 10
182.547748237493
 20
987.064828607831
 30
0.0
 11
182.8
 21
986.951
 31
0.0
  0
LINE
  5
3A12
330
1D
100
AcDbEntity
  8
0
100
AcDbLine
 10
180.057
 20
995.003
 30
0.0
 11
182.533
 21
993.991
 31
0.0
  0
LINE
  5
3A13
330
1D
100
AcDbEntity
  8
0
100
AcDbLine
 10
188.5
 20
1090.4
 30
0.0
 11
185.334854044154
 21
1090.126335116816
 31
0.0
  0
LINE
  5
3A14
330
1D
100
AcDbEntity
  8
0
100
AcDbLine
 10
185.334854044154
 20
1090.126335116816
 30
0.0
 11
183.113264423544
 21
1089.656275852002
 31
0.0
  0
LINE
  5
3A15
330
1D
100
AcDbEntity
  8
0
100
AcDbLine
 10
183.113264423544
 20
1089.656275852002
 30
0.0
 11
179.651304677977
 21
1088.328889658653
 31
0.0
  0
LINE
  5
3A16
330
1D
100
AcDbEntity
  8
0
100
AcDbLine
 10
179.651304677977
 20
1088.328889658653
 30
0.0
 11
177.700770192041
 21
1087.026373274357
 31
0.0
  0
LINE
  5
3A17
330
1D
100
AcDbEntity
  8
0
100
AcDbLine
 10
177.700770192041
 20
1087.026373274357
 30
0.0
 11
176.748772579002
 21
1085.867303300251
 31
0.0
  0
LINE
  5
3A18
330
1D
100
AcDbEntity
  8
0
100
AcDbLine
 10
176.748772579002
 20
1085.867303300251
 30
0.0
 11
175.837463513575
 21
1083.409634349206
 31
0.0
  0
LINE
  5
3A19
330
1D
100
AcDbEntity
  8
0
100
AcDbLine
 10
175.837463513575
 20
1083.409634349206
 30
0.0
 11
175.837463513575
 21
1082.794212955272
 31
0.0
  0
LINE
  5
3A1A
330
1D
100
AcDbEntity
  8
0
100
AcDbLine
 10
175.837463513575
 20
1082.794212955272
 30
0.0
 11
175.906371700541
 21
1082.067112775566
 31
0.0
  0
LINE
  5
3A1B
330
1D
100
AcDbEntity
  8
0
100
AcDbLine
 10
175.906371700541
 20
1082.067112775566
 30
0.0
 11
176.177993405103
 21
1080.721244343954
 31
0.0
  0
LINE
  5
3A1C
330
1D
100
AcDbEntity
  8
0
100
AcDbLine
 10
176.177993405103
 20
1080.721244343954
 30
0.0
 11
176.480670332967
 21
1080.014080976126
 31
0.0
  0
LINE
  5
3A1D
330
1D
100
AcDbEntity
  8
0
100
AcDbLine
 10
176.480670332967
 20
1080.014080976126
 30
0.0
 11
177.494212049903
 21
1078.463693035219
 31
0.0
  0
LINE
  5
3A1E
330
1D
100
AcDbEntity
  8
0
100
AcDbLine
 10
177.494212049903
 20
1078.463693035219
 30
0.0
 11
178.125517761174
 21
1077.738786792624
 31
0.0
  0
LINE
  5
3A1F
330
1D
100
AcDbEntity
  8
0
100
AcDbLine
 10
178.125517761174
 20
1077.738786792624
 30
0.0
 11
178.960311025469
 21
1076.895775325077
 31
0.0
  0
LINE
  5
3A20
330
1D
100
AcDbEntity
  8
0
100
AcDbLine
 10
178.960311025469
 20
1076.895775325077
 30
0.0
 11
180.060544008788
 21
1075.987970803236
 31
0.0
  0
LINE
  5
3A21
330
1D
100
AcDbEntity
  8
0
100
AcDbLine
 10
180.060544008788
 20
1075.987970803236
 30
0.0
 11
180.986035381235
 21
1075.326911199068
 31
0.0
  0
LINE
  5
3A22
330
1D
100
AcDbEntity
  8
0
100
AcDbLine
 10
180.986035381235
 20
1075.326911199068
 30
0.0
 11
182.329242287864
 21
1074.518291656616
 31
0.0
  0
LINE
  5
3A23
330
1D
100
AcDbEntity
  8
0
100
AcDbLine
 10
182.329242287864
 20
1074.518291656616
 30
0.0
 11
185.363
 21
1073.624
 31
0.0
  0
LINE
  5
3A24
330
1D
100
AcDbEntity
  8
0
100
AcDbLine
 10
155.974
 20
1084.166
 30
0.0
 11
159.137391930495
 21
1082.199487405
 31
0.0
  0
LINE
  5
3A25
330
1D
100
AcDbEntity
  8
0
100
AcDbLine
 10
167.995840870191
 20
1070.55610344759
 30
0.0
 11
167.596
 21
1071.874
 31
0.0
  0
LINE
  5
3A26
330
1D
100
AcDbEntity
  8
0
100
AcDbLine
 10
166.626238069175
 20
1074.21557301379
 30
0.0
 11
165.868
 21
1075.639
 31
0.0
  0
LINE
  5
3A27
330
1D
100
AcDbEntity
  8
0
100
AcDbLine
 10
168.908334065258
 20
1065.97763579064
 30
0.0
 11
168.654
 21
1067.478
 31
0.0
  0
LINE
  5
3A28
330
1D
100
AcDbEntity
  8
0
100
AcDbLine
 10
186.424538672273
 20
1071.65937480149
 30
0.0
 11
184.830482019268
 21
1072.023589356665
 31
0.0
  0
LINE
  5
3A29
330
1D
100
AcDbEntity
  8
0
100
AcDbLine
 10
184.830482019268
 20
1072.023589356665
 30
0.0
 11
182.369709486201
 21
1072.838720258243
 31
0.0
  0
LINE
  5
3A2A
330
1D
100
AcDbEntity
  8
0
100
AcDbLine
 10
182.369709486201
 20
1072.838720258243
 30
0.0
 11
179.778208412315
 21
1074.053726696445
 31
0.0
  0
LINE
  5
3A2B
330
1D
100
AcDbEntity
  8
0
100
AcDbLine
 10
179.778208412315
 20
1074.053726696445
 30
0.0
 11
177.9
 21
1075.089
 31
0.0
  0
LINE
  5
3A2C
330
1D
100
AcDbEntity
  8
0
100
AcDbLine
 10
136.029291273728
 20
1098.74210002986
 30
0.0
 11
139.347
 21
1095.99
 31
0.0
  0
LINE
  5
3A2D
330
1D
100
AcDbEntity
  8
0
100
AcDbLine
 10
137.858709279763
 20
1094.55599002244
 30
0.0
 11
138.051
 21
1094.403
 31
0.0
  0
LINE
  5
3A2E
330
1D
100
AcDbEntity
  8
0
100
AcDbLine
 10
118.783272479945
 20
1113.31562827695
 30
0.0
 11
119.682169553172
 21
1111.8968821384
 31
0.0
  0
LINE
  5
3A2F
330
1D
100
AcDbEntity
  8
0
100
AcDbLine
 10
169.039181581548
 20
1116.39945906558
 30
0.0
 11
170.101
 21
1117.494
 31
0.0
  0
LINE
  5
3A30
330
1D
100
AcDbEntity
  8
0
100
AcDbLine
 10
172.794
 20
1118.028
 30
0.0
 11
174.626
 21
1117.774
 31
0.0
  0
LINE
  5
3A31
330
1D
100
AcDbEntity
  8
0
100
AcDbLine
 10
175.868
 20
1117.206
 30
0.0
 11
176.793026805357
 21
1116.262169354934
 31
0.0
  0
LINE
  5
3A32
330
1D
100
AcDbEntity
  8
0
100
AcDbLine
 10
176.793026805357
 20
1116.262169354934
 30
0.0
 11
177.022429040369
 21
1115.31278811337
 31
0.0
  0
LINE
  5
3A33
330
1D
100
AcDbEntity
  8
0
100
AcDbLine
 10
180.31726886517
 20
1124.847967320339
 30
0.0
 11
182.14326886517
 21
1125.124967320339
 31
0.0
  0
LINE
  5
3A34
330
1D
100
AcDbEntity
  8
0
100
AcDbLine
 10
181.85026886517
 20
1129.351967320339
 30
0.0
 11
183.09226886517
 21
1128.783967320339
 31
0.0
  0
LINE
  5
3A35
330
1D
100
AcDbEntity
  8
0
100
AcDbLine
 10
176.09626886517
 20
1126.840967320339
 30
0.0
 11
176.98026886517
 21
1125.736967320339
 31
0.0
  0
LINE
  5
3A36
330
1D
100
AcDbEntity
  8
0
100
AcDbLine
 10
178.42926886517
 20
1125.068967320339
 30
0.0
 11
180.31726886517
 21
1124.847967320339
 31
0.0
  0
LINE
  5
3A37
330
1D
100
AcDbEntity
  8
0
100
AcDbLine
 10
176.98026886517
 20
1125.736967320339
 30
0.0
 11
178.42926886517
 21
1125.068967320339
 31
0.0
  0
LINE
  5
3A38
330
1D
100
AcDbEntity
  8
0
100
AcDbLine
 10
176.09626886517
 20
1126.840967320339
 30
0.0
 11
176.263450446718
 21
1127.977426385919
 31
0.0
  0
LINE
  5
3A39
330
1D
100
AcDbEntity
  8
0
100
AcDbLine
 10
177.32526886517
 20
1129.071967320339
 30
0.0
 11
178.24826886517
 21
1129.423967320339
 31
0.0
  0
LINE
  5
3A3A
330
1D
100
AcDbEntity
  8
0
100
AcDbLine
 10
178.24826886517
 20
1129.423967320339
 30
0.0
 11
180.01826886517
 21
1129.605967320339
 31
0.0
  0
LINE
  5
3A3B
330
1D
100
AcDbEntity
  8
0
100
AcDbLine
 10
176.263450446718
 20
1127.977426385919
 30
0.0
 11
177.32526886517
 21
1129.071967320339
 31
0.0
  0
LINE
  5
3A3C
330
1D
100
AcDbEntity
  8
0
100
AcDbLine
 10
180.01826886517
 20
1129.605967320339
 30
0.0
 11
181.85026886517
 21
1129.351967320339
 31
0.0
  0
LINE
  5
3A3D
330
1D
100
AcDbEntity
  8
0
100
AcDbLine
 10
183.56226886517
 20
1125.897967320339
 30
0.0
 11
184.246697905539
 21
1126.890755433709
 31
0.0
  0
LINE
  5
3A3E
330
1D
100
AcDbEntity
  8
0
100
AcDbLine
 10
182.14326886517
 20
1125.124967320339
 30
0.0
 11
183.56226886517
 21
1125.897967320339
 31
0.0
  0
LINE
  5
3A3F
330
1D
100
AcDbEntity
  8
0
100
AcDbLine
 10
183.09226886517
 20
1128.783967320339
 30
0.0
 11
184.017295670527
 21
1127.840136675273
 31
0.0
  0
LINE
  5
3A40
330
1D
100
AcDbEntity
  8
0
100
AcDbLine
 10
184.017295670527
 20
1127.840136675273
 30
0.0
 11
184.246697905539
 21
1126.890755433709
 31
0.0
  0
LINE
  5
3A43
330
1D
100
AcDbEntity
  8
0
100
AcDbLine
 10
184.454922157062
 20
1109.705454335593
 30
0.0
 11
185.338922157062
 21
1108.601454335593
 31
0.0
  0
LINE
  5
3A44
330
1D
100
AcDbEntity
  8
0
100
AcDbLine
 10
186.787922157062
 20
1107.933454335593
 30
0.0
 11
188.675922157062
 21
1107.712454335593
 31
0.0
  0
LINE
  5
3A45
330
1D
100
AcDbEntity
  8
0
100
AcDbLine
 10
185.338922157062
 20
1108.601454335593
 30
0.0
 11
186.787922157062
 21
1107.933454335593
 31
0.0
  0
LINE
  5
3A46
330
1D
100
AcDbEntity
  8
0
100
AcDbLine
 10
184.454922157062
 20
1109.705454335593
 30
0.0
 11
184.62210373861
 21
1110.841913401173
 31
0.0
  0
LINE
  5
3A47
330
1D
100
AcDbEntity
  8
0
100
AcDbLine
 10
185.683922157062
 20
1111.936454335593
 30
0.0
 11
186.606922157062
 21
1112.288454335593
 31
0.0
  0
LINE
  5
3A48
330
1D
100
AcDbEntity
  8
0
100
AcDbLine
 10
186.606922157062
 20
1112.288454335593
 30
0.0
 11
188.376922157062
 21
1112.470454335593
 31
0.0
  0
LINE
  5
3A49
330
1D
100
AcDbEntity
  8
0
100
AcDbLine
 10
184.62210373861
 20
1110.841913401173
 30
0.0
 11
185.683922157062
 21
1111.936454335593
 31
0.0
  0
LINE
  5
3A4F
330
1D
100
AcDbEntity
  8
0
100
AcDbLine
 10
183.088
 20
1103.011
 30
0.0
 11
185.584
 21
1102.922
 31
0.0
  0
LINE
  5
3A50
330
1D
100
AcDbEntity
  8
0
100
AcDbLine
 10
172.004
 20
1092.182
 30
0.0
 11
171.039462872202
 21
1092.079088627642
 31
0.0
  0
LINE
  5
3A51
330
1D
100
AcDbEntity
  8
0
100
AcDbLine
 10
171.039462872202
 20
1092.079088627642
 30
0.0
 11
170.138459758681
 21
1091.769219831987
 31
0.0
  0
LINE
  5
3A52
330
1D
100
AcDbEntity
  8
0
100
AcDbLine
 10
170.138459758681
 20
1091.769219831987
 30
0.0
 11
169.96
 21
1091.293
 31
0.0
  0
LINE
  5
3A53
330
1D
100
AcDbEntity
  8
0
100
AcDbLine
 10
162.896056563623
 20
1088.168563480064
 30
0.0
 11
164.734056563623
 21
1087.373563480064
 31
0.0
  0
LINE
  5
3A54
330
1D
100
AcDbEntity
  8
0
100
AcDbLine
 10
164.734056563623
 20
1087.373563480064
 30
0.0
 11
166.091056563623
 21
1088.213563480064
 31
0.0
  0
LINE
  5
3A55
330
1D
100
AcDbEntity
  8
0
100
AcDbLine
 10
164.940056563623
 20
1089.057563480064
 30
0.0
 11
163.975519435826
 21
1088.954652107707
 31
0.0
  0
LINE
  5
3A56
330
1D
100
AcDbEntity
  8
0
100
AcDbLine
 10
163.975519435826
 20
1088.954652107707
 30
0.0
 11
163.074516322305
 21
1088.644783312051
 31
0.0
  0
LINE
  5
3A57
330
1D
100
AcDbEntity
  8
0
100
AcDbLine
 10
162.805696457112
 20
1088.789257954034
 30
0.0
 11
162.896056563623
 21
1088.168563480064
 31
0.0
  0
LINE
  5
3A58
330
1D
100
AcDbEntity
  8
0
100
AcDbLine
 10
163.074516322305
 20
1088.644783312051
 30
0.0
 11
162.896056563623
 21
1088.168563480064
 31
0.0
  0
LINE
  5
3A59
330
1D
100
AcDbEntity
  8
0
100
AcDbLine
 10
166.091056563623
 20
1088.213563480064
 30
0.0
 11
166.246236950308
 21
1089.461954949074
 31
0.0
  0
LINE
  5
3A5A
330
1D
100
AcDbEntity
  8
0
100
AcDbLine
 10
164.940056563623
 20
1089.057563480064
 30
0.0
 11
166.091056563623
 21
1088.213563480064
 31
0.0
  0
LINE
  5
3A5B
330
1D
100
AcDbEntity
  8
0
100
AcDbLine
 10
160.864704581098
 20
1095.713971718188
 30
0.0
 11
162.015704581098
 21
1094.869971718188
 31
0.0
  0
LINE
  5
3A5C
330
1D
100
AcDbEntity
  8
0
100
AcDbLine
 10
162.015704581098
 20
1094.869971718188
 30
0.0
 11
162.170884967783
 21
1096.118363187198
 31
0.0
  0
LINE
  5
3A5D
330
1D
100
AcDbEntity
  8
0
100
AcDbLine
 10
158.99916433978
 20
1095.301191550175
 30
0.0
 11
158.820704581098
 21
1094.824971718188
 31
0.0
  0
LINE
  5
3A5E
330
1D
100
AcDbEntity
  8
0
100
AcDbLine
 10
158.730344474587
 20
1095.445666192158
 30
0.0
 11
158.820704581098
 21
1094.824971718188
 31
0.0
  0
LINE
  5
3A5F
330
1D
100
AcDbEntity
  8
0
100
AcDbLine
 10
159.900167453301
 20
1095.611060345831
 30
0.0
 11
158.99916433978
 21
1095.301191550175
 31
0.0
  0
LINE
  5
3A60
330
1D
100
AcDbEntity
  8
0
100
AcDbLine
 10
160.864704581098
 20
1095.713971718188
 30
0.0
 11
159.900167453301
 21
1095.611060345831
 31
0.0
  0
LINE
  5
3A61
330
1D
100
AcDbEntity
  8
0
100
AcDbLine
 10
160.658704581098
 20
1094.029971718188
 30
0.0
 11
162.015704581098
 21
1094.869971718188
 31
0.0
  0
LINE
  5
3A62
330
1D
100
AcDbEntity
  8
0
100
AcDbLine
 10
158.820704581098
 20
1094.824971718188
 30
0.0
 11
160.658704581098
 21
1094.029971718188
 31
0.0
  0
LINE
  5
3A63
330
1D
100
AcDbEntity
  8
0
100
AcDbLine
 10
150.031060560886
 20
1094.830978788641
 30
0.0
 11
151.182060560886
 21
1093.986978788641
 31
0.0
  0
LINE
  5
3A64
330
1D
100
AcDbEntity
  8
0
100
AcDbLine
 10
151.182060560886
 20
1093.986978788641
 30
0.0
 11
151.337240947571
 21
1095.235370257651
 31
0.0
  0
LINE
  5
3A65
330
1D
100
AcDbEntity
  8
0
100
AcDbLine
 10
148.165520319567
 20
1094.418198620628
 30
0.0
 11
147.987060560886
 21
1093.941978788641
 31
0.0
  0
LINE
  5
3A66
330
1D
100
AcDbEntity
  8
0
100
AcDbLine
 10
147.896700454375
 20
1094.562673262611
 30
0.0
 11
147.987060560886
 21
1093.941978788641
 31
0.0
  0
LINE
  5
3A67
330
1D
100
AcDbEntity
  8
0
100
AcDbLine
 10
149.066523433088
 20
1094.728067416284
 30
0.0
 11
148.165520319567
 21
1094.418198620628
 31
0.0
  0
LINE
  5
3A68
330
1D
100
AcDbEntity
  8
0
100
AcDbLine
 10
150.031060560886
 20
1094.830978788641
 30
0.0
 11
149.066523433088
 21
1094.728067416284
 31
0.0
  0
LINE
  5
3A69
330
1D
100
AcDbEntity
  8
0
100
AcDbLine
 10
149.825060560886
 20
1093.146978788641
 30
0.0
 11
151.182060560886
 21
1093.986978788641
 31
0.0
  0
LINE
  5
3A6A
330
1D
100
AcDbEntity
  8
0
100
AcDbLine
 10
147.987060560886
 20
1093.941978788641
 30
0.0
 11
149.825060560886
 21
1093.146978788641
 31
0.0
  0
LINE
  5
3A6B
330
1D
100
AcDbEntity
  8
0
100
AcDbLine
 10
166.361912100798
 20
1099.192200412574
 30
0.0
 11
168.199912100798
 21
1098.397200412574
 31
0.0
  0
LINE
  5
3A6C
330
1D
100
AcDbEntity
  8
0
100
AcDbLine
 10
168.199912100798
 20
1098.397200412574
 30
0.0
 11
169.556912100798
 21
1099.237200412574
 31
0.0
  0
LINE
  5
3A6D
330
1D
100
AcDbEntity
  8
0
100
AcDbLine
 10
168.405912100798
 20
1100.081200412574
 30
0.0
 11
167.441374973
 21
1099.978289040217
 31
0.0
  0
LINE
  5
3A6E
330
1D
100
AcDbEntity
  8
0
100
AcDbLine
 10
167.441374973
 20
1099.978289040217
 30
0.0
 11
166.540371859479
 21
1099.668420244561
 31
0.0
  0
LINE
  5
3A6F
330
1D
100
AcDbEntity
  8
0
100
AcDbLine
 10
166.271551994287
 20
1099.812894886544
 30
0.0
 11
166.361912100798
 21
1099.192200412574
 31
0.0
  0
LINE
  5
3A70
330
1D
100
AcDbEntity
  8
0
100
AcDbLine
 10
166.540371859479
 20
1099.668420244561
 30
0.0
 11
166.361912100798
 21
1099.192200412574
 31
0.0
  0
LINE
  5
3A71
330
1D
100
AcDbEntity
  8
0
100
AcDbLine
 10
169.556912100798
 20
1099.237200412574
 30
0.0
 11
169.712092487483
 21
1100.485591881584
 31
0.0
  0
LINE
  5
3A72
330
1D
100
AcDbEntity
  8
0
100
AcDbLine
 10
168.405912100798
 20
1100.081200412574
 30
0.0
 11
169.556912100798
 21
1099.237200412574
 31
0.0
  0
LINE
  5
3A73
330
1D
100
AcDbEntity
  8
0
100
AcDbLine
 10
176.795770943669
 20
1099.765489359984
 30
0.0
 11
178.633770943669
 21
1098.970489359985
 31
0.0
  0
LINE
  5
3A74
330
1D
100
AcDbEntity
  8
0
100
AcDbLine
 10
178.633770943669
 20
1098.970489359985
 30
0.0
 11
179.990770943669
 21
1099.810489359985
 31
0.0
  0
LINE
  5
3A75
330
1D
100
AcDbEntity
  8
0
100
AcDbLine
 10
178.839770943669
 20
1100.654489359985
 30
0.0
 11
177.875233815871
 21
1100.551577987627
 31
0.0
  0
LINE
  5
3A76
330
1D
100
AcDbEntity
  8
0
100
AcDbLine
 10
177.875233815871
 20
1100.551577987627
 30
0.0
 11
176.97423070235
 21
1100.241709191972
 31
0.0
  0
LINE
  5
3A77
330
1D
100
AcDbEntity
  8
0
100
AcDbLine
 10
176.705410837158
 20
1100.386183833955
 30
0.0
 11
176.795770943669
 21
1099.765489359984
 31
0.0
  0
LINE
  5
3A78
330
1D
100
AcDbEntity
  8
0
100
AcDbLine
 10
176.97423070235
 20
1100.241709191972
 30
0.0
 11
176.795770943669
 21
1099.765489359984
 31
0.0
  0
LINE
  5
3A79
330
1D
100
AcDbEntity
  8
0
100
AcDbLine
 10
179.990770943669
 20
1099.810489359985
 30
0.0
 11
180.145951330354
 21
1101.058880828995
 31
0.0
  0
LINE
  5
3A7A
330
1D
100
AcDbEntity
  8
0
100
AcDbLine
 10
178.839770943669
 20
1100.654489359985
 30
0.0
 11
179.990770943669
 21
1099.810489359985
 31
0.0
  0
LINE
  5
3A7B
330
1D
100
AcDbEntity
  8
0
100
AcDbLine
 10
179.776873470203
 20
1094.824971718188
 30
0.0
 11
181.614873470203
 21
1094.029971718188
 31
0.0
  0
LINE
  5
3A7C
330
1D
100
AcDbEntity
  8
0
100
AcDbLine
 10
181.614873470203
 20
1094.029971718188
 30
0.0
 11
182.971873470203
 21
1094.869971718188
 31
0.0
  0
LINE
  5
3A7D
330
1D
100
AcDbEntity
  8
0
100
AcDbLine
 10
181.820873470203
 20
1095.713971718188
 30
0.0
 11
180.856336342405
 21
1095.611060345831
 31
0.0
  0
LINE
  5
3A7E
330
1D
100
AcDbEntity
  8
0
100
AcDbLine
 10
180.856336342405
 20
1095.611060345831
 30
0.0
 11
179.955333228884
 21
1095.301191550175
 31
0.0
  0
LINE
  5
3A7F
330
1D
100
AcDbEntity
  8
0
100
AcDbLine
 10
179.686513363692
 20
1095.445666192158
 30
0.0
 11
179.776873470203
 21
1094.824971718188
 31
0.0
  0
LINE
  5
3A80
330
1D
100
AcDbEntity
  8
0
100
AcDbLine
 10
179.955333228884
 20
1095.301191550175
 30
0.0
 11
179.776873470203
 21
1094.824971718188
 31
0.0
  0
LINE
  5
3A81
330
1D
100
AcDbEntity
  8
0
100
AcDbLine
 10
182.971873470203
 20
1094.869971718188
 30
0.0
 11
183.127053856888
 21
1096.118363187198
 31
0.0
  0
LINE
  5
3A82
330
1D
100
AcDbEntity
  8
0
100
AcDbLine
 10
181.820873470203
 20
1095.713971718188
 30
0.0
 11
182.971873470203
 21
1094.869971718188
 31
0.0
  0
LINE
  5
3A83
330
1D
100
AcDbEntity
  8
0
100
AcDbLine
 10
163.954098521674
 20
1104.351800939268
 30
0.0
 11
165.792098521674
 21
1103.556800939268
 31
0.0
  0
LINE
  5
3A84
330
1D
100
AcDbEntity
  8
0
100
AcDbLine
 10
165.792098521674
 20
1103.556800939268
 30
0.0
 11
167.149098521674
 21
1104.396800939268
 31
0.0
  0
LINE
  5
3A85
330
1D
100
AcDbEntity
  8
0
100
AcDbLine
 10
165.998098521674
 20
1105.240800939268
 30
0.0
 11
165.033561393876
 21
1105.137889566911
 31
0.0
  0
LINE
  5
3A86
330
1D
100
AcDbEntity
  8
0
100
AcDbLine
 10
165.033561393876
 20
1105.137889566911
 30
0.0
 11
164.132558280355
 21
1104.828020771256
 31
0.0
  0
LINE
  5
3A87
330
1D
100
AcDbEntity
  8
0
100
AcDbLine
 10
163.863738415163
 20
1104.972495413238
 30
0.0
 11
163.954098521674
 21
1104.351800939268
 31
0.0
  0
LINE
  5
3A88
330
1D
100
AcDbEntity
  8
0
100
AcDbLine
 10
164.132558280355
 20
1104.828020771256
 30
0.0
 11
163.954098521674
 21
1104.351800939268
 31
0.0
  0
LINE
  5
3A89
330
1D
100
AcDbEntity
  8
0
100
AcDbLine
 10
167.149098521674
 20
1104.396800939268
 30
0.0
 11
167.304278908359
 21
1105.645192408278
 31
0.0
  0
LINE
  5
3A8A
330
1D
100
AcDbEntity
  8
0
100
AcDbLine
 10
165.998098521674
 20
1105.240800939268
 30
0.0
 11
167.149098521674
 21
1104.396800939268
 31
0.0
  0
LINE
  5
3A8B
330
1D
100
AcDbEntity
  8
0
100
AcDbLine
 10
153.978870836732
 20
1103.778511991858
 30
0.0
 11
155.816870836732
 21
1102.983511991858
 31
0.0
  0
LINE
  5
3A8C
330
1D
100
AcDbEntity
  8
0
100
AcDbLine
 10
155.816870836732
 20
1102.983511991858
 30
0.0
 11
157.173870836732
 21
1103.823511991858
 31
0.0
  0
LINE
  5
3A8D
330
1D
100
AcDbEntity
  8
0
100
AcDbLine
 10
156.022870836732
 20
1104.667511991858
 30
0.0
 11
155.058333708934
 21
1104.5646006195
 31
0.0
  0
LINE
  5
3A8E
330
1D
100
AcDbEntity
  8
0
100
AcDbLine
 10
155.058333708934
 20
1104.5646006195
 30
0.0
 11
154.157330595413
 21
1104.254731823845
 31
0.0
  0
LINE
  5
3A8F
330
1D
100
AcDbEntity
  8
0
100
AcDbLine
 10
153.888510730221
 20
1104.399206465828
 30
0.0
 11
153.978870836732
 21
1103.778511991858
 31
0.0
  0
LINE
  5
3A90
330
1D
100
AcDbEntity
  8
0
100
AcDbLine
 10
154.157330595413
 20
1104.254731823845
 30
0.0
 11
153.978870836732
 21
1103.778511991858
 31
0.0
  0
LINE
  5
3A91
330
1D
100
AcDbEntity
  8
0
100
AcDbLine
 10
157.173870836732
 20
1103.823511991858
 30
0.0
 11
157.329051223417
 21
1105.071903460868
 31
0.0
  0
LINE
  5
3A92
330
1D
100
AcDbEntity
  8
0
100
AcDbLine
 10
156.022870836732
 20
1104.667511991858
 30
0.0
 11
157.173870836732
 21
1103.823511991858
 31
0.0
  0
LINE
  5
3A93
330
1D
100
AcDbEntity
  8
0
100
AcDbLine
 10
143.659669783343
 20
1103.090565254965
 30
0.0
 11
145.497669783343
 21
1102.295565254966
 31
0.0
  0
LINE
  5
3A94
330
1D
100
AcDbEntity
  8
0
100
AcDbLine
 10
145.497669783343
 20
1102.295565254966
 30
0.0
 11
146.854669783343
 21
1103.135565254966
 31
0.0
  0
LINE
  5
3A95
330
1D
100
AcDbEntity
  8
0
100
AcDbLine
 10
145.703669783343
 20
1103.979565254966
 30
0.0
 11
144.739132655545
 21
1103.876653882608
 31
0.0
  0
LINE
  5
3A96
330
1D
100
AcDbEntity
  8
0
100
AcDbLine
 10
144.739132655545
 20
1103.876653882608
 30
0.0
 11
143.838129542024
 21
1103.566785086953
 31
0.0
  0
LINE
  5
3A97
330
1D
100
AcDbEntity
  8
0
100
AcDbLine
 10
143.569309676832
 20
1103.711259728936
 30
0.0
 11
143.659669783343
 21
1103.090565254965
 31
0.0
  0
LINE
  5
3A98
330
1D
100
AcDbEntity
  8
0
100
AcDbLine
 10
143.838129542024
 20
1103.566785086953
 30
0.0
 11
143.659669783343
 21
1103.090565254965
 31
0.0
  0
LINE
  5
3A99
330
1D
100
AcDbEntity
  8
0
100
AcDbLine
 10
146.854669783343
 20
1103.135565254966
 30
0.0
 11
147.009850170028
 21
1104.383956723976
 31
0.0
  0
LINE
  5
3A9A
330
1D
100
AcDbEntity
  8
0
100
AcDbLine
 10
145.703669783343
 20
1103.979565254966
 30
0.0
 11
146.854669783343
 21
1103.135565254966
 31
0.0
  0
LINE
  5
3A9B
330
1D
100
AcDbEntity
  8
0
100
AcDbLine
 10
137.353491361828
 20
1109.167428097516
 30
0.0
 11
139.191491361828
 21
1108.372428097517
 31
0.0
  0
LINE
  5
3A9C
330
1D
100
AcDbEntity
  8
0
100
AcDbLine
 10
139.191491361828
 20
1108.372428097517
 30
0.0
 11
140.548491361828
 21
1109.212428097517
 31
0.0
  0
LINE
  5
3A9D
330
1D
100
AcDbEntity
  8
0
100
AcDbLine
 10
139.397491361828
 20
1110.056428097517
 30
0.0
 11
138.43295423403
 21
1109.953516725159
 31
0.0
  0
LINE
  5
3A9E
330
1D
100
AcDbEntity
  8
0
100
AcDbLine
 10
138.43295423403
 20
1109.953516725159
 30
0.0
 11
137.531951120509
 21
1109.643647929504
 31
0.0
  0
LINE
  5
3A9F
330
1D
100
AcDbEntity
  8
0
100
AcDbLine
 10
137.263131255317
 20
1109.788122571487
 30
0.0
 11
137.353491361828
 21
1109.167428097516
 31
0.0
  0
LINE
  5
3AA0
330
1D
100
AcDbEntity
  8
0
100
AcDbLine
 10
137.531951120509
 20
1109.643647929504
 30
0.0
 11
137.353491361828
 21
1109.167428097516
 31
0.0
  0
LINE
  5
3AA1
330
1D
100
AcDbEntity
  8
0
100
AcDbLine
 10
140.548491361828
 20
1109.212428097517
 30
0.0
 11
140.703671748513
 21
1110.460819566527
 31
0.0
  0
LINE
  5
3AA2
330
1D
100
AcDbEntity
  8
0
100
AcDbLine
 10
139.397491361828
 20
1110.056428097517
 30
0.0
 11
140.548491361828
 21
1109.212428097517
 31
0.0
  0
LINE
  5
3AA3
330
1D
100
AcDbEntity
  8
0
100
AcDbLine
 10
147.902007994181
 20
1110.887294939748
 30
0.0
 11
149.740007994181
 21
1110.092294939748
 31
0.0
  0
LINE
  5
3AA4
330
1D
100
AcDbEntity
  8
0
100
AcDbLine
 10
149.740007994181
 20
1110.092294939748
 30
0.0
 11
151.097007994181
 21
1110.932294939748
 31
0.0
  0
LINE
  5
3AA5
330
1D
100
AcDbEntity
  8
0
100
AcDbLine
 10
149.946007994181
 20
1111.776294939748
 30
0.0
 11
148.981470866383
 21
1111.67338356739
 31
0.0
  0
LINE
  5
3AA6
330
1D
100
AcDbEntity
  8
0
100
AcDbLine
 10
148.981470866383
 20
1111.67338356739
 30
0.0
 11
148.080467752862
 21
1111.363514771735
 31
0.0
  0
LINE
  5
3AA7
330
1D
100
AcDbEntity
  8
0
100
AcDbLine
 10
147.81164788767
 20
1111.507989413718
 30
0.0
 11
147.902007994181
 21
1110.887294939748
 31
0.0
  0
LINE
  5
3AA8
330
1D
100
AcDbEntity
  8
0
100
AcDbLine
 10
148.080467752862
 20
1111.363514771735
 30
0.0
 11
147.902007994181
 21
1110.887294939748
 31
0.0
  0
LINE
  5
3AA9
330
1D
100
AcDbEntity
  8
0
100
AcDbLine
 10
151.097007994181
 20
1110.932294939748
 30
0.0
 11
151.252188380866
 21
1112.180686408758
 31
0.0
  0
LINE
  5
3AAA
330
1D
100
AcDbEntity
  8
0
100
AcDbLine
 10
149.946007994181
 20
1111.776294939748
 30
0.0
 11
151.097007994181
 21
1110.932294939748
 31
0.0
  0
LINE
  5
3AAB
330
1D
100
AcDbEntity
  8
0
100
AcDbLine
 10
158.820704581098
 20
1111.345926097676
 30
0.0
 11
160.658704581098
 21
1110.550926097676
 31
0.0
  0
LINE
  5
3AAC
330
1D
100
AcDbEntity
  8
0
100
AcDbLine
 10
160.658704581098
 20
1110.550926097676
 30
0.0
 11
162.015704581098
 21
1111.390926097676
 31
0.0
  0
LINE
  5
3AAD
330
1D
100
AcDbEntity
  8
0
100
AcDbLine
 10
160.864704581098
 20
1112.234926097676
 30
0.0
 11
159.900167453301
 21
1112.132014725319
 31
0.0
  0
LINE
  5
3AAE
330
1D
100
AcDbEntity
  8
0
100
AcDbLine
 10
159.900167453301
 20
1112.132014725319
 30
0.0
 11
158.99916433978
 21
1111.822145929664
 31
0.0
  0
LINE
  5
3AAF
330
1D
100
AcDbEntity
  8
0
100
AcDbLine
 10
158.730344474587
 20
1111.966620571646
 30
0.0
 11
158.820704581098
 21
1111.345926097676
 31
0.0
  0
LINE
  5
3AB0
330
1D
100
AcDbEntity
  8
0
100
AcDbLine
 10
158.99916433978
 20
1111.822145929664
 30
0.0
 11
158.820704581098
 21
1111.345926097676
 31
0.0
  0
LINE
  5
3AB1
330
1D
100
AcDbEntity
  8
0
100
AcDbLine
 10
162.015704581098
 20
1111.390926097676
 30
0.0
 11
162.170884967783
 21
1112.639317566686
 31
0.0
  0
LINE
  5
3AB2
330
1D
100
AcDbEntity
  8
0
100
AcDbLine
 10
160.864704581098
 20
1112.234926097676
 30
0.0
 11
162.015704581098
 21
1111.390926097676
 31
0.0
  0
LINE
  5
3AB3
330
1D
100
AcDbEntity
  8
0
100
AcDbLine
 10
157.074631152749
 20
1119.830602519351
 30
0.0
 11
158.912631152749
 21
1119.035602519351
 31
0.0
  0
LINE
  5
3AB4
330
1D
100
AcDbEntity
  8
0
100
AcDbLine
 10
158.912631152749
 20
1119.035602519351
 30
0.0
 11
160.269631152749
 21
1119.875602519351
 31
0.0
  0
LINE
  5
3AB5
330
1D
100
AcDbEntity
  8
0
100
AcDbLine
 10
159.118631152748
 20
1120.719602519351
 30
0.0
 11
158.154094024951
 21
1120.616691146994
 31
0.0
  0
LINE
  5
3AB6
330
1D
100
AcDbEntity
  8
0
100
AcDbLine
 10
158.154094024951
 20
1120.616691146994
 30
0.0
 11
157.25309091143
 21
1120.306822351338
 31
0.0
  0
LINE
  5
3AB7
330
1D
100
AcDbEntity
  8
0
100
AcDbLine
 10
156.984271046237
 20
1120.451296993321
 30
0.0
 11
157.074631152749
 21
1119.830602519351
 31
0.0
  0
LINE
  5
3AB8
330
1D
100
AcDbEntity
  8
0
100
AcDbLine
 10
157.25309091143
 20
1120.306822351338
 30
0.0
 11
157.074631152749
 21
1119.830602519351
 31
0.0
  0
LINE
  5
3AB9
330
1D
100
AcDbEntity
  8
0
100
AcDbLine
 10
160.269631152749
 20
1119.875602519351
 30
0.0
 11
160.424811539434
 21
1121.123993988361
 31
0.0
  0
LINE
  5
3ABA
330
1D
100
AcDbEntity
  8
0
100
AcDbLine
 10
159.118631152748
 20
1120.719602519351
 30
0.0
 11
160.269631152749
 21
1119.875602519351
 31
0.0
  0
LINE
  5
3ABB
330
1D
100
AcDbEntity
  8
0
100
AcDbLine
 10
146.526114520396
 20
1121.091838203654
 30
0.0
 11
148.364114520396
 21
1120.296838203654
 31
0.0
  0
LINE
  5
3ABC
330
1D
100
AcDbEntity
  8
0
100
AcDbLine
 10
148.364114520396
 20
1120.296838203654
 30
0.0
 11
149.721114520396
 21
1121.136838203654
 31
0.0
  0
LINE
  5
3ABD
330
1D
100
AcDbEntity
  8
0
100
AcDbLine
 10
148.570114520396
 20
1121.980838203654
 30
0.0
 11
147.605577392598
 21
1121.877926831297
 31
0.0
  0
LINE
  5
3ABE
330
1D
100
AcDbEntity
  8
0
100
AcDbLine
 10
147.605577392598
 20
1121.877926831297
 30
0.0
 11
146.704574279077
 21
1121.568058035642
 31
0.0
  0
LINE
  5
3ABF
330
1D
100
AcDbEntity
  8
0
100
AcDbLine
 10
146.435754413885
 20
1121.712532677624
 30
0.0
 11
146.526114520396
 21
1121.091838203654
 31
0.0
  0
LINE
  5
3AC0
330
1D
100
AcDbEntity
  8
0
100
AcDbLine
 10
146.704574279077
 20
1121.568058035642
 30
0.0
 11
146.526114520396
 21
1121.091838203654
 31
0.0
  0
LINE
  5
3AC1
330
1D
100
AcDbEntity
  8
0
100
AcDbLine
 10
149.721114520396
 20
1121.136838203654
 30
0.0
 11
149.876294907081
 21
1122.385229672665
 31
0.0
  0
LINE
  5
3AC2
330
1D
100
AcDbEntity
  8
0
100
AcDbLine
 10
148.570114520396
 20
1121.980838203654
 30
0.0
 11
149.721114520396
 21
1121.136838203654
 31
0.0
  0
LINE
  5
3AC3
330
1D
100
AcDbEntity
  8
0
100
AcDbLine
 10
136.436229045971
 20
1120.86252262469
 30
0.0
 11
138.274229045971
 21
1120.06752262469
 31
0.0
  0
LINE
  5
3AC4
330
1D
100
AcDbEntity
  8
0
100
AcDbLine
 10
138.274229045971
 20
1120.06752262469
 30
0.0
 11
139.631229045971
 21
1120.90752262469
 31
0.0
  0
LINE
  5
3AC5
330
1D
100
AcDbEntity
  8
0
100
AcDbLine
 10
138.480229045971
 20
1121.75152262469
 30
0.0
 11
137.515691918173
 21
1121.648611252333
 31
0.0
  0
LINE
  5
3AC6
330
1D
100
AcDbEntity
  8
0
100
AcDbLine
 10
137.515691918173
 20
1121.648611252333
 30
0.0
 11
136.614688804652
 21
1121.338742456677
 31
0.0
  0
LINE
  5
3AC7
330
1D
100
AcDbEntity
  8
0
100
AcDbLine
 10
136.34586893946
 20
1121.48321709866
 30
0.0
 11
136.436229045971
 21
1120.86252262469
 31
0.0
  0
LINE
  5
3AC8
330
1D
100
AcDbEntity
  8
0
100
AcDbLine
 10
136.614688804652
 20
1121.338742456677
 30
0.0
 11
136.436229045971
 21
1120.86252262469
 31
0.0
  0
LINE
  5
3AC9
330
1D
100
AcDbEntity
  8
0
100
AcDbLine
 10
139.631229045971
 20
1120.90752262469
 30
0.0
 11
139.786409432656
 21
1122.1559140937
 31
0.0
  0
LINE
  5
3ACA
330
1D
100
AcDbEntity
  8
0
100
AcDbLine
 10
138.480229045971
 20
1121.75152262469
 30
0.0
 11
139.631229045971
 21
1120.90752262469
 31
0.0
  0
LINE
  5
3ACB
330
1D
100
AcDbEntity
  8
0
100
AcDbLine
 10
131.047312940313
 20
1124.875545256563
 30
0.0
 11
132.885312940313
 21
1124.080545256563
 31
0.0
  0
LINE
  5
3ACC
330
1D
100
AcDbEntity
  8
0
100
AcDbLine
 10
132.885312940313
 20
1124.080545256563
 30
0.0
 11
134.242312940313
 21
1124.920545256563
 31
0.0
  0
LINE
  5
3ACD
330
1D
100
AcDbEntity
  8
0
100
AcDbLine
 10
133.091312940313
 20
1125.764545256563
 30
0.0
 11
132.126775812515
 21
1125.661633884206
 31
0.0
  0
LINE
  5
3ACE
330
1D
100
AcDbEntity
  8
0
100
AcDbLine
 10
132.126775812515
 20
1125.661633884206
 30
0.0
 11
131.225772698994
 21
1125.351765088551
 31
0.0
  0
LINE
  5
3ACF
330
1D
100
AcDbEntity
  8
0
100
AcDbLine
 10
130.956952833802
 20
1125.496239730533
 30
0.0
 11
131.047312940313
 21
1124.875545256563
 31
0.0
  0
LINE
  5
3AD0
330
1D
100
AcDbEntity
  8
0
100
AcDbLine
 10
131.225772698994
 20
1125.351765088551
 30
0.0
 11
131.047312940313
 21
1124.875545256563
 31
0.0
  0
LINE
  5
3AD1
330
1D
100
AcDbEntity
  8
0
100
AcDbLine
 10
134.242312940313
 20
1124.920545256563
 30
0.0
 11
134.397493326998
 21
1126.168936725574
 31
0.0
  0
LINE
  5
3AD2
330
1D
100
AcDbEntity
  8
0
100
AcDbLine
 10
133.091312940313
 20
1125.764545256563
 30
0.0
 11
134.242312940313
 21
1124.920545256563
 31
0.0
  0
LINE
  5
3AD3
330
1D
100
AcDbEntity
  8
0
100
AcDbLine
 10
132.079233045652
 20
1133.589537257203
 30
0.0
 11
133.917233045652
 21
1132.794537257203
 31
0.0
  0
LINE
  5
3AD4
330
1D
100
AcDbEntity
  8
0
100
AcDbLine
 10
133.917233045652
 20
1132.794537257203
 30
0.0
 11
135.274233045652
 21
1133.634537257203
 31
0.0
  0
LINE
  5
3AD5
330
1D
100
AcDbEntity
  8
0
100
AcDbLine
 10
134.123233045652
 20
1134.478537257203
 30
0.0
 11
133.158695917854
 21
1134.375625884845
 31
0.0
  0
LINE
  5
3AD6
330
1D
100
AcDbEntity
  8
0
100
AcDbLine
 10
133.158695917854
 20
1134.375625884845
 30
0.0
 11
132.257692804333
 21
1134.06575708919
 31
0.0
  0
LINE
  5
3AD7
330
1D
100
AcDbEntity
  8
0
100
AcDbLine
 10
131.988872939141
 20
1134.210231731173
 30
0.0
 11
132.079233045652
 21
1133.589537257203
 31
0.0
  0
LINE
  5
3AD8
330
1D
100
AcDbEntity
  8
0
100
AcDbLine
 10
132.257692804333
 20
1134.06575708919
 30
0.0
 11
132.079233045652
 21
1133.589537257203
 31
0.0
  0
LINE
  5
3AD9
330
1D
100
AcDbEntity
  8
0
100
AcDbLine
 10
135.274233045652
 20
1133.634537257203
 30
0.0
 11
135.429413432337
 21
1134.882928726213
 31
0.0
  0
LINE
  5
3ADA
330
1D
100
AcDbEntity
  8
0
100
AcDbLine
 10
134.123233045652
 20
1134.478537257203
 30
0.0
 11
135.274233045652
 21
1133.634537257203
 31
0.0
  0
LINE
  5
3ADB
330
1D
100
AcDbEntity
  8
0
100
AcDbLine
 10
129.78607725601
 20
1115.35894872955
 30
0.0
 11
131.62407725601
 21
1114.56394872955
 31
0.0
  0
LINE
  5
3ADC
330
1D
100
AcDbEntity
  8
0
100
AcDbLine
 10
131.62407725601
 20
1114.56394872955
 30
0.0
 11
132.98107725601
 21
1115.40394872955
 31
0.0
  0
LINE
  5
3ADD
330
1D
100
AcDbEntity
  8
0
100
AcDbLine
 10
131.83007725601
 20
1116.24794872955
 30
0.0
 11
130.865540128212
 21
1116.145037357192
 31
0.0
  0
LINE
  5
3ADE
330
1D
100
AcDbEntity
  8
0
100
AcDbLine
 10
130.865540128212
 20
1116.145037357192
 30
0.0
 11
129.964537014691
 21
1115.835168561537
 31
0.0
  0
LINE
  5
3ADF
330
1D
100
AcDbEntity
  8
0
100
AcDbLine
 10
129.695717149499
 20
1115.97964320352
 30
0.0
 11
129.78607725601
 21
1115.35894872955
 31
0.0
  0
LINE
  5
3AE0
330
1D
100
AcDbEntity
  8
0
100
AcDbLine
 10
129.964537014691
 20
1115.835168561537
 30
0.0
 11
129.78607725601
 21
1115.35894872955
 31
0.0
  0
LINE
  5
3AE1
330
1D
100
AcDbEntity
  8
0
100
AcDbLine
 10
132.98107725601
 20
1115.40394872955
 30
0.0
 11
133.136257642695
 21
1116.65234019856
 31
0.0
  0
LINE
  5
3AE2
330
1D
100
AcDbEntity
  8
0
100
AcDbLine
 10
131.83007725601
 20
1116.24794872955
 30
0.0
 11
132.98107725601
 21
1115.40394872955
 31
0.0
  0
LINE
  5
3AE3
330
1D
100
AcDbEntity
  8
0
100
AcDbLine
 10
137.46814915131
 20
1140.469004626128
 30
0.0
 11
139.30614915131
 21
1139.674004626129
 31
0.0
  0
LINE
  5
3AE4
330
1D
100
AcDbEntity
  8
0
100
AcDbLine
 10
139.30614915131
 20
1139.674004626129
 30
0.0
 11
140.66314915131
 21
1140.514004626129
 31
0.0
  0
LINE
  5
3AE5
330
1D
100
AcDbEntity
  8
0
100
AcDbLine
 10
139.51214915131
 20
1141.358004626129
 30
0.0
 11
138.547612023512
 21
1141.255093253771
 31
0.0
  0
LINE
  5
3AE6
330
1D
100
AcDbEntity
  8
0
100
AcDbLine
 10
138.547612023512
 20
1141.255093253771
 30
0.0
 11
137.646608909991
 21
1140.945224458116
 31
0.0
  0
LINE
  5
3AE7
330
1D
100
AcDbEntity
  8
0
100
AcDbLine
 10
137.377789044799
 20
1141.089699100099
 30
0.0
 11
137.46814915131
 21
1140.469004626128
 31
0.0
  0
LINE
  5
3AE8
330
1D
100
AcDbEntity
  8
0
100
AcDbLine
 10
137.646608909991
 20
1140.945224458116
 30
0.0
 11
137.46814915131
 21
1140.469004626128
 31
0.0
  0
LINE
  5
3AE9
330
1D
100
AcDbEntity
  8
0
100
AcDbLine
 10
140.66314915131
 20
1140.514004626129
 30
0.0
 11
140.818329537995
 21
1141.762396095139
 31
0.0
  0
LINE
  5
3AEA
330
1D
100
AcDbEntity
  8
0
100
AcDbLine
 10
139.51214915131
 20
1141.358004626129
 30
0.0
 11
140.66314915131
 21
1140.514004626129
 31
0.0
  0
LINE
  5
3AEB
330
1D
100
AcDbEntity
  8
0
100
AcDbLine
 10
143.430354204379
 20
1146.889840837126
 30
0.0
 11
145.268354204379
 21
1146.094840837126
 31
0.0
  0
LINE
  5
3AEC
330
1D
100
AcDbEntity
  8
0
100
AcDbLine
 10
145.268354204379
 20
1146.094840837126
 30
0.0
 11
146.625354204379
 21
1146.934840837126
 31
0.0
  0
LINE
  5
3AED
330
1D
100
AcDbEntity
  8
0
100
AcDbLine
 10
145.474354204379
 20
1147.778840837126
 30
0.0
 11
144.509817076581
 21
1147.675929464768
 31
0.0
  0
LINE
  5
3AEE
330
1D
100
AcDbEntity
  8
0
100
AcDbLine
 10
144.509817076581
 20
1147.675929464768
 30
0.0
 11
143.60881396306
 21
1147.366060669113
 31
0.0
  0
LINE
  5
3AEF
330
1D
100
AcDbEntity
  8
0
100
AcDbLine
 10
143.339994097868
 20
1147.510535311096
 30
0.0
 11
143.430354204379
 21
1146.889840837126
 31
0.0
  0
LINE
  5
3AF0
330
1D
100
AcDbEntity
  8
0
100
AcDbLine
 10
143.60881396306
 20
1147.366060669113
 30
0.0
 11
143.430354204379
 21
1146.889840837126
 31
0.0
  0
LINE
  5
3AF1
330
1D
100
AcDbEntity
  8
0
100
AcDbLine
 10
146.625354204379
 20
1146.934840837126
 30
0.0
 11
146.780534591064
 21
1148.183232306136
 31
0.0
  0
LINE
  5
3AF2
330
1D
100
AcDbEntity
  8
0
100
AcDbLine
 10
145.474354204379
 20
1147.778840837126
 30
0.0
 11
146.625354204379
 21
1146.934840837126
 31
0.0
  0
LINE
  5
3AF3
330
1D
100
AcDbEntity
  8
0
100
AcDbLine
 10
150.768452731233
 20
1153.081361469159
 30
0.0
 11
152.606452731233
 21
1152.286361469159
 31
0.0
  0
LINE
  5
3AF4
330
1D
100
AcDbEntity
  8
0
100
AcDbLine
 10
152.606452731233
 20
1152.286361469159
 30
0.0
 11
153.963452731233
 21
1153.126361469159
 31
0.0
  0
LINE
  5
3AF5
330
1D
100
AcDbEntity
  8
0
100
AcDbLine
 10
152.812452731233
 20
1153.970361469159
 30
0.0
 11
151.847915603435
 21
1153.867450096801
 31
0.0
  0
LINE
  5
3AF6
330
1D
100
AcDbEntity
  8
0
100
AcDbLine
 10
151.847915603435
 20
1153.867450096801
 30
0.0
 11
150.946912489914
 21
1153.557581301146
 31
0.0
  0
LINE
  5
3AF7
330
1D
100
AcDbEntity
  8
0
100
AcDbLine
 10
150.678092624722
 20
1153.702055943129
 30
0.0
 11
150.768452731233
 21
1153.081361469159
 31
0.0
  0
LINE
  5
3AF8
330
1D
100
AcDbEntity
  8
0
100
AcDbLine
 10
150.946912489914
 20
1153.557581301146
 30
0.0
 11
150.768452731233
 21
1153.081361469159
 31
0.0
  0
LINE
  5
3AF9
330
1D
100
AcDbEntity
  8
0
100
AcDbLine
 10
153.963452731233
 20
1153.126361469159
 30
0.0
 11
154.118633117918
 21
1154.374752938169
 31
0.0
  0
LINE
  5
3AFA
330
1D
100
AcDbEntity
  8
0
100
AcDbLine
 10
152.812452731233
 20
1153.970361469159
 30
0.0
 11
153.963452731233
 21
1153.126361469159
 31
0.0
  0
LINE
  5
3AFB
330
1D
100
AcDbEntity
  8
0
100
AcDbLine
 10
158.820704581098
 20
1157.667673048443
 30
0.0
 11
160.658704581098
 21
1156.872673048443
 31
0.0
  0
LINE
  5
3AFC
330
1D
100
AcDbEntity
  8
0
100
AcDbLine
 10
160.658704581098
 20
1156.872673048443
 30
0.0
 11
162.015704581098
 21
1157.712673048443
 31
0.0
  0
LINE
  5
3AFD
330
1D
100
AcDbEntity
  8
0
100
AcDbLine
 10
160.864704581098
 20
1158.556673048443
 30
0.0
 11
159.900167453301
 21
1158.453761676085
 31
0.0
  0
LINE
  5
3AFE
330
1D
100
AcDbEntity
  8
0
100
AcDbLine
 10
159.900167453301
 20
1158.453761676085
 30
0.0
 11
158.99916433978
 21
1158.14389288043
 31
0.0
  0
LINE
  5
3AFF
330
1D
100
AcDbEntity
  8
0
100
AcDbLine
 10
158.730344474587
 20
1158.288367522413
 30
0.0
 11
158.820704581098
 21
1157.667673048443
 31
0.0
  0
LINE
  5
3B00
330
1D
100
AcDbEntity
  8
0
100
AcDbLine
 10
158.99916433978
 20
1158.14389288043
 30
0.0
 11
158.820704581098
 21
1157.667673048443
 31
0.0
  0
LINE
  5
3B01
330
1D
100
AcDbEntity
  8
0
100
AcDbLine
 10
162.015704581098
 20
1157.712673048443
 30
0.0
 11
162.170884967783
 21
1158.961064517453
 31
0.0
  0
LINE
  5
3B02
330
1D
100
AcDbEntity
  8
0
100
AcDbLine
 10
160.864704581098
 20
1158.556673048443
 30
0.0
 11
162.015704581098
 21
1157.712673048443
 31
0.0
  0
LINE
  5
3B03
330
1D
100
AcDbEntity
  8
0
100
AcDbLine
 10
169.686987995779
 20
1160.075486627567
 30
0.0
 11
171.524987995779
 21
1159.280486627567
 31
0.0
  0
LINE
  5
3B04
330
1D
100
AcDbEntity
  8
0
100
AcDbLine
 10
171.524987995779
 20
1159.280486627567
 30
0.0
 11
172.881987995779
 21
1160.120486627567
 31
0.0
  0
LINE
  5
3B05
330
1D
100
AcDbEntity
  8
0
100
AcDbLine
 10
171.730987995779
 20
1160.964486627567
 30
0.0
 11
170.766450867981
 21
1160.861575255209
 31
0.0
  0
LINE
  5
3B06
330
1D
100
AcDbEntity
  8
0
100
AcDbLine
 10
170.766450867981
 20
1160.861575255209
 30
0.0
 11
169.86544775446
 21
1160.551706459554
 31
0.0
  0
LINE
  5
3B07
330
1D
100
AcDbEntity
  8
0
100
AcDbLine
 10
169.596627889268
 20
1160.696181101537
 30
0.0
 11
169.686987995779
 21
1160.075486627567
 31
0.0
  0
LINE
  5
3B08
330
1D
100
AcDbEntity
  8
0
100
AcDbLine
 10
169.86544775446
 20
1160.551706459554
 30
0.0
 11
169.686987995779
 21
1160.075486627567
 31
0.0
  0
LINE
  5
3B09
330
1D
100
AcDbEntity
  8
0
100
AcDbLine
 10
172.881987995779
 20
1160.120486627567
 30
0.0
 11
173.037168382464
 21
1161.368878096577
 31
0.0
  0
LINE
  5
3B0A
330
1D
100
AcDbEntity
  8
0
100
AcDbLine
 10
171.730987995779
 20
1160.964486627567
 30
0.0
 11
172.881987995779
 21
1160.120486627567
 31
0.0
  0
LINE
  5
3B0B
330
1D
100
AcDbEntity
  8
0
100
AcDbLine
 10
141.022540625255
 20
1128.659252309473
 30
0.0
 11
142.860540625255
 21
1127.864252309473
 31
0.0
  0
LINE
  5
3B0C
330
1D
100
AcDbEntity
  8
0
100
AcDbLine
 10
142.860540625255
 20
1127.864252309473
 30
0.0
 11
144.217540625255
 21
1128.704252309473
 31
0.0
  0
LINE
  5
3B0D
330
1D
100
AcDbEntity
  8
0
100
AcDbLine
 10
143.066540625255
 20
1129.548252309473
 30
0.0
 11
142.102003497457
 21
1129.445340937115
 31
0.0
  0
LINE
  5
3B0E
330
1D
100
AcDbEntity
  8
0
100
AcDbLine
 10
142.102003497457
 20
1129.445340937115
 30
0.0
 11
141.201000383936
 21
1129.13547214146
 31
0.0
  0
LINE
  5
3B0F
330
1D
100
AcDbEntity
  8
0
100
AcDbLine
 10
140.932180518744
 20
1129.279946783443
 30
0.0
 11
141.022540625255
 21
1128.659252309473
 31
0.0
  0
LINE
  5
3B10
330
1D
100
AcDbEntity
  8
0
100
AcDbLine
 10
141.201000383936
 20
1129.13547214146
 30
0.0
 11
141.022540625255
 21
1128.659252309473
 31
0.0
  0
LINE
  5
3B11
330
1D
100
AcDbEntity
  8
0
100
AcDbLine
 10
144.217540625255
 20
1128.704252309473
 30
0.0
 11
144.37272101194
 21
1129.952643778483
 31
0.0
  0
LINE
  5
3B12
330
1D
100
AcDbEntity
  8
0
100
AcDbLine
 10
143.066540625255
 20
1129.548252309473
 30
0.0
 11
144.217540625255
 21
1128.704252309473
 31
0.0
  0
LINE
  5
3B13
330
1D
100
AcDbEntity
  8
0
100
AcDbLine
 10
148.245981362627
 20
1137.143928731148
 30
0.0
 11
150.083981362627
 21
1136.348928731148
 31
0.0
  0
LINE
  5
3B14
330
1D
100
AcDbEntity
  8
0
100
AcDbLine
 10
150.083981362627
 20
1136.348928731148
 30
0.0
 11
151.440981362627
 21
1137.188928731148
 31
0.0
  0
LINE
  5
3B15
330
1D
100
AcDbEntity
  8
0
100
AcDbLine
 10
150.289981362627
 20
1138.032928731148
 30
0.0
 11
149.325444234829
 21
1137.93001735879
 31
0.0
  0
LINE
  5
3B16
330
1D
100
AcDbEntity
  8
0
100
AcDbLine
 10
149.325444234829
 20
1137.93001735879
 30
0.0
 11
148.424441121308
 21
1137.620148563135
 31
0.0
  0
LINE
  5
3B17
330
1D
100
AcDbEntity
  8
0
100
AcDbLine
 10
148.155621256116
 20
1137.764623205118
 30
0.0
 11
148.245981362627
 21
1137.143928731148
 31
0.0
  0
LINE
  5
3B18
330
1D
100
AcDbEntity
  8
0
100
AcDbLine
 10
148.424441121308
 20
1137.620148563135
 30
0.0
 11
148.245981362627
 21
1137.143928731148
 31
0.0
  0
LINE
  5
3B19
330
1D
100
AcDbEntity
  8
0
100
AcDbLine
 10
151.440981362627
 20
1137.188928731148
 30
0.0
 11
151.596161749312
 21
1138.437320200158
 31
0.0
  0
LINE
  5
3B1A
330
1D
100
AcDbEntity
  8
0
100
AcDbLine
 10
150.289981362627
 20
1138.032928731148
 30
0.0
 11
151.440981362627
 21
1137.188928731148
 31
0.0
  0
LINE
  5
3B1B
330
1D
100
AcDbEntity
  8
0
100
AcDbLine
 10
154.896133152589
 20
1145.399289573858
 30
0.0
 11
156.734133152589
 21
1144.604289573859
 31
0.0
  0
LINE
  5
3B1C
330
1D
100
AcDbEntity
  8
0
100
AcDbLine
 10
156.734133152589
 20
1144.604289573859
 30
0.0
 11
158.091133152589
 21
1145.444289573858
 31
0.0
  0
LINE
  5
3B1D
330
1D
100
AcDbEntity
  8
0
100
AcDbLine
 10
156.940133152589
 20
1146.288289573858
 30
0.0
 11
155.975596024791
 21
1146.185378201501
 31
0.0
  0
LINE
  5
3B1E
330
1D
100
AcDbEntity
  8
0
100
AcDbLine
 10
155.975596024791
 20
1146.185378201501
 30
0.0
 11
155.07459291127
 21
1145.875509405846
 31
0.0
  0
LINE
  5
3B1F
330
1D
100
AcDbEntity
  8
0
100
AcDbLine
 10
154.805773046078
 20
1146.019984047829
 30
0.0
 11
154.896133152589
 21
1145.399289573858
 31
0.0
  0
LINE
  5
3B20
330
1D
100
AcDbEntity
  8
0
100
AcDbLine
 10
155.07459291127
 20
1145.875509405846
 30
0.0
 11
154.896133152589
 21
1145.399289573858
 31
0.0
  0
LINE
  5
3B21
330
1D
100
AcDbEntity
  8
0
100
AcDbLine
 10
158.091133152589
 20
1145.444289573858
 30
0.0
 11
158.246313539274
 21
1146.692681042869
 31
0.0
  0
LINE
  5
3B22
330
1D
100
AcDbEntity
  8
0
100
AcDbLine
 10
156.940133152589
 20
1146.288289573858
 30
0.0
 11
158.091133152589
 21
1145.444289573858
 31
0.0
  0
LINE
  5
3B23
330
1D
100
AcDbEntity
  8
0
100
AcDbLine
 10
151.915030626054
 20
1127.627332204134
 30
0.0
 11
153.753030626054
 21
1126.832332204134
 31
0.0
  0
LINE
  5
3B24
330
1D
100
AcDbEntity
  8
0
100
AcDbLine
 10
153.753030626054
 20
1126.832332204134
 30
0.0
 11
155.110030626054
 21
1127.672332204134
 31
0.0
  0
LINE
  5
3B25
330
1D
100
AcDbEntity
  8
0
100
AcDbLine
 10
153.959030626054
 20
1128.516332204134
 30
0.0
 11
152.994493498256
 21
1128.413420831776
 31
0.0
  0
LINE
  5
3B26
330
1D
100
AcDbEntity
  8
0
100
AcDbLine
 10
152.994493498256
 20
1128.413420831776
 30
0.0
 11
152.093490384735
 21
1128.103552036121
 31
0.0
  0
LINE
  5
3B27
330
1D
100
AcDbEntity
  8
0
100
AcDbLine
 10
151.824670519543
 20
1128.248026678104
 30
0.0
 11
151.915030626054
 21
1127.627332204134
 31
0.0
  0
LINE
  5
3B28
330
1D
100
AcDbEntity
  8
0
100
AcDbLine
 10
152.093490384735
 20
1128.103552036121
 30
0.0
 11
151.915030626054
 21
1127.627332204134
 31
0.0
  0
LINE
  5
3B29
330
1D
100
AcDbEntity
  8
0
100
AcDbLine
 10
155.110030626054
 20
1127.672332204134
 30
0.0
 11
155.265211012739
 21
1128.920723673144
 31
0.0
  0
LINE
  5
3B2A
330
1D
100
AcDbEntity
  8
0
100
AcDbLine
 10
153.959030626054
 20
1128.516332204134
 30
0.0
 11
155.110030626054
 21
1127.672332204134
 31
0.0
  0
LINE
  5
3B2B
330
1D
100
AcDbEntity
  8
0
100
AcDbLine
 10
158.820704581098
 20
1136.455981994255
 30
0.0
 11
160.658704581098
 21
1135.660981994255
 31
0.0
  0
LINE
  5
3B2C
330
1D
100
AcDbEntity
  8
0
100
AcDbLine
 10
160.658704581098
 20
1135.660981994255
 30
0.0
 11
162.015704581098
 21
1136.500981994255
 31
0.0
  0
LINE
  5
3B2D
330
1D
100
AcDbEntity
  8
0
100
AcDbLine
 10
160.864704581098
 20
1137.344981994255
 30
0.0
 11
159.900167453301
 21
1137.242070621898
 31
0.0
  0
LINE
  5
3B2E
330
1D
100
AcDbEntity
  8
0
100
AcDbLine
 10
159.900167453301
 20
1137.242070621898
 30
0.0
 11
158.99916433978
 21
1136.932201826242
 31
0.0
  0
LINE
  5
3B2F
330
1D
100
AcDbEntity
  8
0
100
AcDbLine
 10
158.730344474587
 20
1137.076676468225
 30
0.0
 11
158.820704581098
 21
1136.455981994255
 31
0.0
  0
LINE
  5
3B30
330
1D
100
AcDbEntity
  8
0
100
AcDbLine
 10
158.99916433978
 20
1136.932201826242
 30
0.0
 11
158.820704581098
 21
1136.455981994255
 31
0.0
  0
LINE
  5
3B31
330
1D
100
AcDbEntity
  8
0
100
AcDbLine
 10
162.015704581098
 20
1136.500981994255
 30
0.0
 11
162.170884967783
 21
1137.749373463265
 31
0.0
  0
LINE
  5
3B32
330
1D
100
AcDbEntity
  8
0
100
AcDbLine
 10
160.864704581098
 20
1137.344981994255
 30
0.0
 11
162.015704581098
 21
1136.500981994255
 31
0.0
  0
LINE
  5
3B33
330
1D
100
AcDbEntity
  8
0
100
AcDbLine
 10
165.100676416495
 20
1151.132179047963
 30
0.0
 11
166.938676416495
 21
1150.337179047963
 31
0.0
  0
LINE
  5
3B34
330
1D
100
AcDbEntity
  8
0
100
AcDbLine
 10
166.938676416495
 20
1150.337179047963
 30
0.0
 11
168.295676416495
 21
1151.177179047963
 31
0.0
  0
LINE
  5
3B35
330
1D
100
AcDbEntity
  8
0
100
AcDbLine
 10
167.144676416495
 20
1152.021179047963
 30
0.0
 11
166.180139288697
 21
1151.918267675606
 31
0.0
  0
LINE
  5
3B36
330
1D
100
AcDbEntity
  8
0
100
AcDbLine
 10
166.180139288697
 20
1151.918267675606
 30
0.0
 11
165.279136175176
 21
1151.608398879951
 31
0.0
  0
LINE
  5
3B37
330
1D
100
AcDbEntity
  8
0
100
AcDbLine
 10
165.010316309984
 20
1151.752873521933
 30
0.0
 11
165.100676416495
 21
1151.132179047963
 31
0.0
  0
LINE
  5
3B38
330
1D
100
AcDbEntity
  8
0
100
AcDbLine
 10
165.279136175176
 20
1151.608398879951
 30
0.0
 11
165.100676416495
 21
1151.132179047963
 31
0.0
  0
LINE
  5
3B39
330
1D
100
AcDbEntity
  8
0
100
AcDbLine
 10
168.295676416495
 20
1151.177179047963
 30
0.0
 11
168.45085680318
 21
1152.425570516973
 31
0.0
  0
LINE
  5
3B3A
330
1D
100
AcDbEntity
  8
0
100
AcDbLine
 10
167.144676416495
 20
1152.021179047963
 30
0.0
 11
168.295676416495
 21
1151.177179047963
 31
0.0
  0
LINE
  5
3B3B
330
1D
100
AcDbEntity
  8
0
100
AcDbLine
 10
169.299858837691
 20
1144.76187146836
 30
0.0
 11
170.450858837691
 21
1143.91787146836
 31
0.0
  0
LINE
  5
3B3C
330
1D
100
AcDbEntity
  8
0
100
AcDbLine
 10
170.450858837691
 20
1143.91787146836
 30
0.0
 11
170.606039224376
 21
1145.16626293737
 31
0.0
  0
LINE
  5
3B3D
330
1D
100
AcDbEntity
  8
0
100
AcDbLine
 10
167.434318596372
 20
1144.349091300347
 30
0.0
 11
167.255858837691
 21
1143.87287146836
 31
0.0
  0
LINE
  5
3B3E
330
1D
100
AcDbEntity
  8
0
100
AcDbLine
 10
167.16549873118
 20
1144.49356594233
 30
0.0
 11
167.255858837691
 21
1143.87287146836
 31
0.0
  0
LINE
  5
3B3F
330
1D
100
AcDbEntity
  8
0
100
AcDbLine
 10
168.335321709893
 20
1144.658960096002
 30
0.0
 11
167.434318596372
 21
1144.349091300347
 31
0.0
  0
LINE
  5
3B40
330
1D
100
AcDbEntity
  8
0
100
AcDbLine
 10
169.299858837691
 20
1144.76187146836
 30
0.0
 11
168.335321709893
 21
1144.658960096002
 31
0.0
  0
LINE
  5
3B41
330
1D
100
AcDbEntity
  8
0
100
AcDbLine
 10
169.093858837691
 20
1143.07787146836
 30
0.0
 11
170.450858837691
 21
1143.91787146836
 31
0.0
  0
LINE
  5
3B42
330
1D
100
AcDbEntity
  8
0
100
AcDbLine
 10
167.255858837691
 20
1143.87287146836
 30
0.0
 11
169.093858837691
 21
1143.07787146836
 31
0.0
  0
LINE
  5
3B43
330
1D
100
AcDbEntity
  8
0
100
AcDbLine
 10
169.299858837691
 20
1135.47459052031
 30
0.0
 11
170.450858837691
 21
1134.63059052031
 31
0.0
  0
LINE
  5
3B44
330
1D
100
AcDbEntity
  8
0
100
AcDbLine
 10
170.450858837691
 20
1134.63059052031
 30
0.0
 11
170.606039224376
 21
1135.87898198932
 31
0.0
  0
LINE
  5
3B45
330
1D
100
AcDbEntity
  8
0
100
AcDbLine
 10
167.434318596372
 20
1135.061810352297
 30
0.0
 11
167.255858837691
 21
1134.58559052031
 31
0.0
  0
LINE
  5
3B46
330
1D
100
AcDbEntity
  8
0
100
AcDbLine
 10
167.16549873118
 20
1135.20628499428
 30
0.0
 11
167.255858837691
 21
1134.58559052031
 31
0.0
  0
LINE
  5
3B47
330
1D
100
AcDbEntity
  8
0
100
AcDbLine
 10
168.335321709893
 20
1135.371679147953
 30
0.0
 11
167.434318596372
 21
1135.061810352297
 31
0.0
  0
LINE
  5
3B48
330
1D
100
AcDbEntity
  8
0
100
AcDbLine
 10
169.299858837691
 20
1135.47459052031
 30
0.0
 11
168.335321709893
 21
1135.371679147953
 31
0.0
  0
LINE
  5
3B49
330
1D
100
AcDbEntity
  8
0
100
AcDbLine
 10
169.093858837691
 20
1133.79059052031
 30
0.0
 11
170.450858837691
 21
1134.63059052031
 31
0.0
  0
LINE
  5
3B4A
330
1D
100
AcDbEntity
  8
0
100
AcDbLine
 10
167.255858837691
 20
1134.58559052031
 30
0.0
 11
169.093858837691
 21
1133.79059052031
 31
0.0
  0
LINE
  5
3B4B
330
1D
100
AcDbEntity
  8
0
100
AcDbLine
 10
180.421664417454
 20
1137.344981994255
 30
0.0
 11
181.572664417454
 21
1136.500981994255
 31
0.0
  0
LINE
  5
3B4C
330
1D
100
AcDbEntity
  8
0
100
AcDbLine
 10
181.572664417454
 20
1136.500981994255
 30
0.0
 11
181.727844804139
 21
1137.749373463265
 31
0.0
  0
LINE
  5
3B4D
330
1D
100
AcDbEntity
  8
0
100
AcDbLine
 10
178.556124176135
 20
1136.932201826242
 30
0.0
 11
178.377664417454
 21
1136.455981994255
 31
0.0
  0
LINE
  5
3B4E
330
1D
100
AcDbEntity
  8
0
100
AcDbLine
 10
178.287304310943
 20
1137.076676468225
 30
0.0
 11
178.377664417454
 21
1136.455981994255
 31
0.0
  0
LINE
  5
3B4F
330
1D
100
AcDbEntity
  8
0
100
AcDbLine
 10
179.457127289656
 20
1137.242070621898
 30
0.0
 11
178.556124176135
 21
1136.932201826242
 31
0.0
  0
LINE
  5
3B50
330
1D
100
AcDbEntity
  8
0
100
AcDbLine
 10
180.421664417454
 20
1137.344981994255
 30
0.0
 11
179.457127289656
 21
1137.242070621898
 31
0.0
  0
LINE
  5
3B51
330
1D
100
AcDbEntity
  8
0
100
AcDbLine
 10
180.215664417454
 20
1135.660981994255
 30
0.0
 11
181.572664417454
 21
1136.500981994255
 31
0.0
  0
LINE
  5
3B52
330
1D
100
AcDbEntity
  8
0
100
AcDbLine
 10
178.377664417454
 20
1136.455981994255
 30
0.0
 11
180.215664417454
 21
1135.660981994255
 31
0.0
  0
LINE
  5
3B53
330
1D
100
AcDbEntity
  8
0
100
AcDbLine
 10
179.389744312115
 20
1148.774894100233
 30
0.0
 11
180.540744312115
 21
1147.930894100233
 31
0.0
  0
LINE
  5
3B54
330
1D
100
AcDbEntity
  8
0
100
AcDbLine
 10
180.540744312115
 20
1147.930894100233
 30
0.0
 11
180.6959246988
 21
1149.179285569243
 31
0.0
  0
LINE
  5
3B55
330
1D
100
AcDbEntity
  8
0
100
AcDbLine
 10
177.524204070796
 20
1148.36211393222
 30
0.0
 11
177.345744312115
 21
1147.885894100233
 31
0.0
  0
LINE
  5
3B56
330
1D
100
AcDbEntity
  8
0
100
AcDbLine
 10
177.255384205604
 20
1148.506588574203
 30
0.0
 11
177.345744312115
 21
1147.885894100233
 31
0.0
  0
LINE
  5
3B57
330
1D
100
AcDbEntity
  8
0
100
AcDbLine
 10
178.425207184317
 20
1148.671982727876
 30
0.0
 11
177.524204070796
 21
1148.36211393222
 31
0.0
  0
LINE
  5
3B58
330
1D
100
AcDbEntity
  8
0
100
AcDbLine
 10
179.389744312115
 20
1148.774894100233
 30
0.0
 11
178.425207184317
 21
1148.671982727876
 31
0.0
  0
LINE
  5
3B59
330
1D
100
AcDbEntity
  8
0
100
AcDbLine
 10
179.183744312115
 20
1147.090894100233
 30
0.0
 11
180.540744312115
 21
1147.930894100233
 31
0.0
  0
LINE
  5
3B5A
330
1D
100
AcDbEntity
  8
0
100
AcDbLine
 10
177.345744312115
 20
1147.885894100233
 30
0.0
 11
179.183744312115
 21
1147.090894100233
 31
0.0
  0
LINE
  5
3B5B
330
1D
100
AcDbEntity
  8
0
100
AcDbLine
 10
180.307006627972
 20
1157.37422831139
 30
0.0
 11
181.458006627972
 21
1156.53022831139
 31
0.0
  0
LINE
  5
3B5C
330
1D
100
AcDbEntity
  8
0
100
AcDbLine
 10
181.458006627972
 20
1156.53022831139
 30
0.0
 11
181.613187014657
 21
1157.778619780401
 31
0.0
  0
LINE
  5
3B5D
330
1D
100
AcDbEntity
  8
0
100
AcDbLine
 10
178.441466386653
 20
1156.961448143378
 30
0.0
 11
178.263006627972
 21
1156.48522831139
 31
0.0
  0
LINE
  5
3B5E
330
1D
100
AcDbEntity
  8
0
100
AcDbLine
 10
178.172646521461
 20
1157.10592278536
 30
0.0
 11
178.263006627972
 21
1156.48522831139
 31
0.0
  0
LINE
  5
3B5F
330
1D
100
AcDbEntity
  8
0
100
AcDbLine
 10
179.342469500174
 20
1157.271316939033
 30
0.0
 11
178.441466386653
 21
1156.961448143378
 31
0.0
  0
LINE
  5
3B60
330
1D
100
AcDbEntity
  8
0
100
AcDbLine
 10
180.307006627972
 20
1157.37422831139
 30
0.0
 11
179.342469500174
 21
1157.271316939033
 31
0.0
  0
LINE
  5
3B61
330
1D
100
AcDbEntity
  8
0
100
AcDbLine
 10
180.101006627972
 20
1155.69022831139
 30
0.0
 11
181.458006627972
 21
1156.53022831139
 31
0.0
  0
LINE
  5
3B62
330
1D
100
AcDbEntity
  8
0
100
AcDbLine
 10
178.263006627972
 20
1156.48522831139
 30
0.0
 11
180.101006627972
 21
1155.69022831139
 31
0.0
  0
LINE
  5
3B73
330
1D
100
AcDbEntity
  8
0
100
AcDbLine
 10
164.024
 20
1166.745
 30
0.0
 11
167.355
 21
1167.27
 31
0.0
  0
LINE
  5
3B74
330
1D
100
AcDbEntity
  8
0
100
AcDbLine
 10
125.225
 20
1111.112
 30
0.0
 11
124.373143525739
 21
1112.84577847114
 31
0.0
  0
LINE
  5
3B75
330
1D
100
AcDbEntity
  8
0
100
AcDbLine
 10
123.375184709587
 20
1114.87691817931
 30
0.0
 11
123.326438574239
 21
1115.00769954404
 31
0.0
  0
LINE
  5
3B76
330
1D
100
AcDbEntity
  8
0
100
AcDbLine
 10
121.206298173828
 20
1122.34363088125
 30
0.0
 11
121.128651278432
 21
1122.86539712677
 31
0.0
  0
LINE
  5
3B77
330
1D
100
AcDbEntity
  8
0
100
AcDbLine
 10
112.536007856298
 20
1136.74269164271
 30
0.0
 11
112.61
 21
1138.462
 31
0.0
  0
LINE
  5
3B78
330
1D
100
AcDbEntity
  8
0
100
AcDbLine
 10
258.363
 20
1155.216
 30
0.0
 11
256.641
 21
1157.511
 31
0.0
  0
LINE
  5
3B79
330
1D
100
AcDbEntity
  8
0
100
AcDbLine
 10
237.954
 20
1156.087
 30
0.0
 11
233.134
 21
1159.029
 31
0.0
  0
LINE
  5
3B7A
330
1D
100
AcDbEntity
  8
0
100
AcDbLine
 10
216.341295418902
 20
1156.872673048443
 30
0.0
 11
214.984295418902
 21
1157.712673048443
 31
0.0
  0
LINE
  5
3B7B
330
1D
100
AcDbEntity
  8
0
100
AcDbLine
 10
218.179295418902
 20
1157.667673048443
 30
0.0
 11
216.341295418902
 21
1156.872673048443
 31
0.0
  0
LINE
  5
3B7C
330
1D
100
AcDbEntity
  8
0
100
AcDbLine
 10
197.657530499826
 20
1157.271316939033
 30
0.0
 11
198.558533613347
 21
1156.961448143378
 31
0.0
  0
LINE
  5
3B7D
330
1D
100
AcDbEntity
  8
0
100
AcDbLine
 10
195.541993372028
 20
1156.53022831139
 30
0.0
 11
195.386812985343
 21
1157.778619780401
 31
0.0
  0
LINE
  5
3B7E
330
1D
100
AcDbEntity
  8
0
100
AcDbLine
 10
196.692993372028
 20
1157.37422831139
 30
0.0
 11
195.541993372028
 21
1156.53022831139
 31
0.0
  0
LINE
  5
3B7F
330
1D
100
AcDbEntity
  8
0
100
AcDbLine
 10
247.051
 20
1156.312
 30
0.0
 11
244.632
 21
1158.471
 31
0.0
  0
LINE
  5
3B84
330
1D
100
AcDbEntity
  8
0
100
AcDbLine
 10
207.513915430982
 20
1060.79862679325
 30
0.0
 11
207.211
 21
1053.712
 31
0.0
  0
LINE
  5
3B85
330
1D
100
AcDbEntity
  8
0
100
AcDbLine
 10
207.211
 20
1053.712
 30
0.0
 11
206.951
 21
1041.426
 31
0.0
  0
LINE
  5
3B86
330
1D
100
AcDbEntity
  8
0
100
AcDbLine
 10
235.746
 20
1092.377
 30
0.0
 11
231.299
 21
1089.796
 31
0.0
  0
LINE
  5
3B87
330
1D
100
AcDbEntity
  8
0
100
AcDbLine
 10
234.96
 20
1094.185
 30
0.0
 11
230.224
 21
1091.461
 31
0.0
  0
LINE
  5
3B88
330
1D
100
AcDbEntity
  8
0
100
AcDbLine
 10
232.260867344455
 20
1103.876653882608
 30
0.0
 11
233.161870457976
 21
1103.566785086953
 31
0.0
  0
LINE
  5
3B89
330
1D
100
AcDbEntity
  8
0
100
AcDbLine
 10
233.340330216657
 20
1103.090565254965
 30
0.0
 11
231.502330216657
 21
1102.295565254966
 31
0.0
  0
LINE
  5
3B8A
330
1D
100
AcDbEntity
  8
0
100
AcDbLine
 10
231.525645795621
 20
1147.778840837126
 30
0.0
 11
232.490182923419
 21
1147.675929464768
 31
0.0
  0
LINE
  5
3B8B
330
1D
100
AcDbEntity
  8
0
100
AcDbLine
 10
233.569645795621
 20
1146.889840837126
 30
0.0
 11
231.731645795621
 21
1146.094840837126
 31
0.0
  0
LINE
  5
3B8C
330
1D
100
AcDbEntity
  8
0
100
AcDbLine
 10
255.566
 20
1109.194
 30
0.0
 11
252.352
 21
1105.345
 31
0.0
  0
LINE
  5
3B8D
330
1D
100
AcDbEntity
  8
0
100
AcDbLine
 10
251.775
 20
1111.112
 30
0.0
 11
250.326
 21
1108.751
 31
0.0
  0
LINE
  5
3B8E
330
1D
100
AcDbEntity
  8
0
100
AcDbLine
 10
237.808508638172
 20
1108.372428097517
 30
0.0
 11
236.451508638172
 21
1109.212428097517
 31
0.0
  0
LINE
  5
3B8F
330
1D
100
AcDbEntity
  8
0
100
AcDbLine
 10
239.646508638172
 20
1109.167428097516
 30
0.0
 11
237.808508638172
 21
1108.372428097517
 31
0.0
  0
LINE
  5
3B90
330
1D
100
AcDbEntity
  8
0
100
AcDbLine
 10
246.485
 20
1099.893
 30
0.0
 11
243.165
 21
1097.323
 31
0.0
  0
LINE
  5
3B91
330
1D
100
AcDbEntity
  8
0
100
AcDbLine
 10
244.829
 20
1102.075
 30
0.0
 11
243.345869217627
 21
1100.8128422201
 31
0.0
  0
LINE
  5
3B92
330
1D
100
AcDbEntity
  8
0
100
AcDbLine
 10
252.352
 20
1105.345
 30
0.0
 11
249.561
 21
1102.57
 31
0.0
  0
LINE
  5
3B93
330
1D
100
AcDbEntity
  8
0
100
AcDbLine
 10
250.326
 20
1108.751
 30
0.0
 11
247.103
 21
1104.511
 31
0.0
  0
LINE
  5
3B94
330
1D
100
AcDbEntity
  8
0
100
AcDbLine
 10
249.561
 20
1102.57
 30
0.0
 11
246.485
 21
1099.893
 31
0.0
  0
LINE
  5
3B95
330
1D
100
AcDbEntity
  8
0
100
AcDbLine
 10
247.103
 20
1104.511
 30
0.0
 11
244.829
 21
1102.075
 31
0.0
  0
LINE
  5
3B96
330
1D
100
AcDbEntity
  8
0
100
AcDbLine
 10
243.165
 20
1097.323
 30
0.0
 11
239.622
 21
1094.853
 31
0.0
  0
LINE
  5
3B97
330
1D
100
AcDbEntity
  8
0
100
AcDbLine
 10
240.970708726272
 20
1098.74210002986
 30
0.0
 11
237.653
 21
1095.99
 31
0.0
  0
LINE
  5
3B98
330
1D
100
AcDbEntity
  8
0
100
AcDbLine
 10
239.622
 20
1094.853
 30
0.0
 11
239.141290720237
 21
1094.55599002244
 31
0.0
  0
LINE
  5
3B99
330
1D
100
AcDbEntity
  8
0
100
AcDbLine
 10
238.949
 20
1094.403
 30
0.0
 11
235.746
 21
1092.377
 31
0.0
  0
LINE
  5
3B9A
330
1D
100
AcDbEntity
  8
0
100
AcDbLine
 10
237.653
 20
1095.99
 30
0.0
 11
234.96
 21
1094.185
 31
0.0
  0
LINE
  5
3B9B
330
1D
100
AcDbEntity
  8
0
100
AcDbLine
 10
239.141290720237
 20
1094.55599002244
 30
0.0
 11
238.949
 21
1094.403
 31
0.0
  0
LINE
  5
3B9C
330
1D
100
AcDbEntity
  8
0
100
AcDbLine
 10
242.135
 20
1099.681
 30
0.0
 11
240.970708726272
 21
1098.74210002986
 31
0.0
  0
LINE
  5
3B9D
330
1D
100
AcDbEntity
  8
0
100
AcDbLine
 10
243.345869217627
 20
1100.8128422201
 30
0.0
 11
242.135
 21
1099.681
 31
0.0
  0
LINE
  5
3B9E
330
1D
100
AcDbEntity
  8
0
100
AcDbLine
 10
233.161870457976
 20
1103.566785086953
 30
0.0
 11
233.340330216657
 21
1103.090565254965
 31
0.0
  0
LINE
  5
3B9F
330
1D
100
AcDbEntity
  8
0
100
AcDbLine
 10
233.430690323168
 20
1103.711259728936
 30
0.0
 11
233.340330216657
 21
1103.090565254965
 31
0.0
  0
LINE
  5
3BA0
330
1D
100
AcDbEntity
  8
0
100
AcDbLine
 10
257.317830446828
 20
1111.8968821384
 30
0.0
 11
256.384
 21
1110.423
 31
0.0
  0
LINE
  5
3BA1
330
1D
100
AcDbEntity
  8
0
100
AcDbLine
 10
257.875
 20
1143.342
 30
0.0
 11
255.389
 21
1147.488
 31
0.0
  0
LINE
  5
3BA2
330
1D
100
AcDbEntity
  8
0
100
AcDbLine
 10
264.5
 20
1135.906
 30
0.0
 11
264.28
 21
1132.235
 31
0.0
  0
LINE
  5
3BA3
330
1D
100
AcDbEntity
  8
0
100
AcDbLine
 10
261.3877
 20
1131.997
 30
0.0
 11
260.7239
 21
1135.985
 31
0.0
  0
LINE
  5
3BA4
330
1D
100
AcDbEntity
  8
0
100
AcDbLine
 10
262.466
 20
1123.185
 30
0.0
 11
260.991
 21
1118.956
 31
0.0
  0
LINE
  5
3BA5
330
1D
100
AcDbEntity
  8
0
100
AcDbLine
 10
261.1244
 20
1124.074
 30
0.0
 11
260.317
 21
1120.341
 31
0.0
  0
LINE
  5
3BA6
330
1D
100
AcDbEntity
  8
0
100
AcDbLine
 10
260.34
 20
1117.511
 30
0.0
 11
258.561
 21
1113.859
 31
0.0
  0
LINE
  5
3BA7
330
1D
100
AcDbEntity
  8
0
100
AcDbLine
 10
260.991
 20
1118.956
 30
0.0
 11
260.34
 21
1117.511
 31
0.0
  0
LINE
  5
3BA8
330
1D
100
AcDbEntity
  8
0
100
AcDbLine
 10
258.561
 20
1113.859
 30
0.0
 11
258.216727520055
 21
1113.31562827695
 31
0.0
  0
LINE
  5
3BA9
330
1D
100
AcDbEntity
  8
0
100
AcDbLine
 10
260.444
 20
1120.928
 30
0.0
 11
260.317
 21
1120.341
 31
0.0
  0
LINE
  5
3BAA
330
1D
100
AcDbEntity
  8
0
100
AcDbLine
 10
260.317
 20
1120.341
 30
0.0
 11
259.128
 21
1116.722
 31
0.0
  0
LINE
  5
3BAB
330
1D
100
AcDbEntity
  8
0
100
AcDbLine
 10
258.216727520055
 20
1113.31562827695
 30
0.0
 11
257.317830446828
 21
1111.8968821384
 31
0.0
  0
LINE
  5
3BAC
330
1D
100
AcDbEntity
  8
0
100
AcDbLine
 10
263.169
 20
1125.788
 30
0.0
 11
262.466
 21
1123.185
 31
0.0
  0
LINE
  5
3BAD
330
1D
100
AcDbEntity
  8
0
100
AcDbLine
 10
263.953
 20
1129.905
 30
0.0
 11
263.169
 21
1125.788
 31
0.0
  0
LINE
  5
3BAE
330
1D
100
AcDbEntity
  8
0
100
AcDbLine
 10
261.5
 20
1129.025
 30
0.0
 11
261.1244
 21
1124.074
 31
0.0
  0
LINE
  5
3BAF
330
1D
100
AcDbEntity
  8
0
100
AcDbLine
 10
261.5
 20
1129.025
 30
0.0
 11
261.3877
 21
1131.997
 31
0.0
  0
LINE
  5
3BB0
330
1D
100
AcDbEntity
  8
0
100
AcDbLine
 10
264.28
 20
1132.235
 30
0.0
 11
263.953
 21
1129.905
 31
0.0
  0
LINE
  5
3BB1
330
1D
100
AcDbEntity
  8
0
100
AcDbLine
 10
263.669
 20
1143.417
 30
0.0
 11
263.033
 21
1145.719
 31
0.0
  0
LINE
  5
3BB2
330
1D
100
AcDbEntity
  8
0
100
AcDbLine
 10
264.5
 20
1135.906
 30
0.0
 11
264.485
 21
1136.474
 31
0.0
  0
LINE
  5
3BB3
330
1D
100
AcDbEntity
  8
0
100
AcDbLine
 10
264.39
 20
1138.462
 30
0.0
 11
264.123
 21
1141.104
 31
0.0
  0
LINE
  5
3BB4
330
1D
100
AcDbEntity
  8
0
100
AcDbLine
 10
264.123
 20
1141.104
 30
0.0
 11
263.669
 21
1143.417
 31
0.0
  0
LINE
  5
3BB5
330
1D
100
AcDbEntity
  8
0
100
AcDbLine
 10
264.485
 20
1136.474
 30
0.0
 11
264.463992143702
 21
1136.74269164271
 31
0.0
  0
LINE
  5
3BB6
330
1D
100
AcDbEntity
  8
0
100
AcDbLine
 10
264.463992143702
 20
1136.74269164271
 30
0.0
 11
264.39
 21
1138.462
 31
0.0
  0
LINE
  5
3BB7
330
1D
100
AcDbEntity
  8
0
100
AcDbLine
 10
259.457
 20
1139.761
 30
0.0
 11
257.875
 21
1143.342
 31
0.0
  0
LINE
  5
3BB8
330
1D
100
AcDbEntity
  8
0
100
AcDbLine
 10
260.7239
 20
1135.985
 30
0.0
 11
259.457
 21
1139.761
 31
0.0
  0
LINE
  5
3BB9
330
1D
100
AcDbEntity
  8
0
100
AcDbLine
 10
263.033
 20
1145.719
 30
0.0
 11
261.904
 21
1148.757
 31
0.0
  0
LINE
  5
3BBA
330
1D
100
AcDbEntity
  8
0
100
AcDbLine
 10
261.904
 20
1148.757
 30
0.0
 11
260.457
 21
1151.745
 31
0.0
  0
LINE
  5
3BBB
330
1D
100
AcDbEntity
  8
0
100
AcDbLine
 10
258.7
 20
1154.667
 30
0.0
 11
258.363
 21
1155.216
 31
0.0
  0
LINE
  5
3BBC
330
1D
100
AcDbEntity
  8
0
100
AcDbLine
 10
260.457
 20
1151.745
 30
0.0
 11
258.7
 21
1154.667
 31
0.0
  0
LINE
  5
3BBD
330
1D
100
AcDbEntity
  8
0
100
AcDbLine
 10
255.955
 20
1130.546
 30
0.0
 11
255.221
 21
1134.176
 31
0.0
  0
LINE
  5
3BBE
330
1D
100
AcDbEntity
  8
0
100
AcDbLine
 10
243.082766954348
 20
1132.794537257203
 30
0.0
 11
241.725766954348
 21
1133.634537257203
 31
0.0
  0
LINE
  5
3BBF
330
1D
100
AcDbEntity
  8
0
100
AcDbLine
 10
244.920766954348
 20
1133.589537257203
 30
0.0
 11
243.082766954348
 21
1132.794537257203
 31
0.0
  0
LINE
  5
3BC0
330
1D
100
AcDbEntity
  8
0
100
AcDbLine
 10
243.908687059687
 20
1125.764545256563
 30
0.0
 11
244.873224187485
 21
1125.661633884206
 31
0.0
  0
LINE
  5
3BC1
330
1D
100
AcDbEntity
  8
0
100
AcDbLine
 10
245.952687059687
 20
1124.875545256563
 30
0.0
 11
244.114687059687
 21
1124.080545256563
 31
0.0
  0
LINE
  5
3BC2
330
1D
100
AcDbEntity
  8
0
100
AcDbLine
 10
245.16992274399
 20
1116.24794872955
 30
0.0
 11
244.01892274399
 21
1115.40394872955
 31
0.0
  0
LINE
  5
3BC3
330
1D
100
AcDbEntity
  8
0
100
AcDbLine
 10
245.37592274399
 20
1114.56394872955
 30
0.0
 11
244.01892274399
 21
1115.40394872955
 31
0.0
  0
LINE
  5
3BC4
330
1D
100
AcDbEntity
  8
0
100
AcDbLine
 10
255.625
 20
1121.21
 30
0.0
 11
255.530802690473
 21
1120.84258303828
 31
0.0
  0
LINE
  5
3BC5
330
1D
100
AcDbEntity
  8
0
100
AcDbLine
 10
256.384
 20
1110.423
 30
0.0
 11
255.566
 21
1109.194
 31
0.0
  0
LINE
  5
3BC6
330
1D
100
AcDbEntity
  8
0
100
AcDbLine
 10
254.831
 20
1118.113
 30
0.0
 11
253.673561425761
 21
1115.00769954404
 31
0.0
  0
LINE
  5
3BC7
330
1D
100
AcDbEntity
  8
0
100
AcDbLine
 10
255.525895226027
 20
1120.82344145467
 30
0.0
 11
254.831
 21
1118.113
 31
0.0
  0
LINE
  5
3BC8
330
1D
100
AcDbEntity
  8
0
100
AcDbLine
 10
253.579
 20
1114.754
 30
0.0
 11
252.626856474261
 21
1112.84577847114
 31
0.0
  0
LINE
  5
3BC9
330
1D
100
AcDbEntity
  8
0
100
AcDbLine
 10
253.624815290413
 20
1114.87691817931
 30
0.0
 11
253.579
 21
1114.754
 31
0.0
  0
LINE
  5
3BCA
330
1D
100
AcDbEntity
  8
0
100
AcDbLine
 10
247.035462985309
 20
1115.835168561537
 30
0.0
 11
247.21392274399
 21
1115.35894872955
 31
0.0
  0
LINE
  5
3BCB
330
1D
100
AcDbEntity
  8
0
100
AcDbLine
 10
247.304282850501
 20
1115.97964320352
 30
0.0
 11
247.21392274399
 21
1115.35894872955
 31
0.0
  0
LINE
  5
3BCC
330
1D
100
AcDbEntity
  8
0
100
AcDbLine
 10
246.134459871788
 20
1116.145037357192
 30
0.0
 11
247.035462985309
 21
1115.835168561537
 31
0.0
  0
LINE
  5
3BCD
330
1D
100
AcDbEntity
  8
0
100
AcDbLine
 10
245.16992274399
 20
1116.24794872955
 30
0.0
 11
246.134459871788
 21
1116.145037357192
 31
0.0
  0
LINE
  5
3BCE
330
1D
100
AcDbEntity
  8
0
100
AcDbLine
 10
247.21392274399
 20
1115.35894872955
 30
0.0
 11
245.37592274399
 21
1114.56394872955
 31
0.0
  0
LINE
  5
3BCF
330
1D
100
AcDbEntity
  8
0
100
AcDbLine
 10
251.775
 20
1111.112
 30
0.0
 11
252.626856474261
 21
1112.84577847114
 31
0.0
  0
LINE
  5
3BD0
330
1D
100
AcDbEntity
  8
0
100
AcDbLine
 10
253.624815290413
 20
1114.87691817931
 30
0.0
 11
253.673561425761
 21
1115.00769954404
 31
0.0
  0
LINE
  5
3BD1
330
1D
100
AcDbEntity
  8
0
100
AcDbLine
 10
256.071
 20
1124.207
 30
0.0
 11
255.871348721568
 21
1122.86539712677
 31
0.0
  0
LINE
  5
3BD2
330
1D
100
AcDbEntity
  8
0
100
AcDbLine
 10
255.793701826172
 20
1122.34363088125
 30
0.0
 11
255.625
 21
1121.21
 31
0.0
  0
LINE
  5
3BD3
330
1D
100
AcDbEntity
  8
0
100
AcDbLine
 10
256.2
 20
1126.861
 30
0.0
 11
256.071
 21
1124.207
 31
0.0
  0
LINE
  5
3BD4
330
1D
100
AcDbEntity
  8
0
100
AcDbLine
 10
256.2
 20
1126.861
 30
0.0
 11
255.955
 21
1130.546
 31
0.0
  0
LINE
  5
3BD5
330
1D
100
AcDbEntity
  8
0
100
AcDbLine
 10
255.793701826172
 20
1122.34363088125
 30
0.0
 11
255.871348721568
 21
1122.86539712677
 31
0.0
  0
LINE
  5
3BD6
330
1D
100
AcDbEntity
  8
0
100
AcDbLine
 10
245.774227301006
 20
1125.351765088551
 30
0.0
 11
245.952687059687
 21
1124.875545256563
 31
0.0
  0
LINE
  5
3BD7
330
1D
100
AcDbEntity
  8
0
100
AcDbLine
 10
246.043047166198
 20
1125.496239730533
 30
0.0
 11
245.952687059687
 21
1124.875545256563
 31
0.0
  0
LINE
  5
3BD8
330
1D
100
AcDbEntity
  8
0
100
AcDbLine
 10
244.873224187485
 20
1125.661633884206
 30
0.0
 11
245.774227301006
 21
1125.351765088551
 31
0.0
  0
LINE
  5
3BD9
330
1D
100
AcDbEntity
  8
0
100
AcDbLine
 10
238.519770954029
 20
1121.75152262469
 30
0.0
 11
237.368770954029
 21
1120.90752262469
 31
0.0
  0
LINE
  5
3BDA
330
1D
100
AcDbEntity
  8
0
100
AcDbLine
 10
237.368770954029
 20
1120.90752262469
 30
0.0
 11
237.213590567344
 21
1122.1559140937
 31
0.0
  0
LINE
  5
3BDB
330
1D
100
AcDbEntity
  8
0
100
AcDbLine
 10
240.385311195348
 20
1121.338742456677
 30
0.0
 11
240.563770954029
 21
1120.86252262469
 31
0.0
  0
LINE
  5
3BDC
330
1D
100
AcDbEntity
  8
0
100
AcDbLine
 10
240.65413106054
 20
1121.48321709866
 30
0.0
 11
240.563770954029
 21
1120.86252262469
 31
0.0
  0
LINE
  5
3BDD
330
1D
100
AcDbEntity
  8
0
100
AcDbLine
 10
237.602508638172
 20
1110.056428097517
 30
0.0
 11
236.451508638172
 21
1109.212428097517
 31
0.0
  0
LINE
  5
3BDE
330
1D
100
AcDbEntity
  8
0
100
AcDbLine
 10
236.451508638172
 20
1109.212428097517
 30
0.0
 11
236.296328251487
 21
1110.460819566527
 31
0.0
  0
LINE
  5
3BDF
330
1D
100
AcDbEntity
  8
0
100
AcDbLine
 10
239.468048879491
 20
1109.643647929504
 30
0.0
 11
239.646508638172
 21
1109.167428097516
 31
0.0
  0
LINE
  5
3BE0
330
1D
100
AcDbEntity
  8
0
100
AcDbLine
 10
239.736868744683
 20
1109.788122571487
 30
0.0
 11
239.646508638172
 21
1109.167428097516
 31
0.0
  0
LINE
  5
3BE1
330
1D
100
AcDbEntity
  8
0
100
AcDbLine
 10
238.56704576597
 20
1109.953516725159
 30
0.0
 11
239.468048879491
 21
1109.643647929504
 31
0.0
  0
LINE
  5
3BE2
330
1D
100
AcDbEntity
  8
0
100
AcDbLine
 10
237.602508638172
 20
1110.056428097517
 30
0.0
 11
238.56704576597
 21
1109.953516725159
 31
0.0
  0
LINE
  5
3BE3
330
1D
100
AcDbEntity
  8
0
100
AcDbLine
 10
238.725770954029
 20
1120.06752262469
 30
0.0
 11
237.368770954029
 21
1120.90752262469
 31
0.0
  0
LINE
  5
3BE4
330
1D
100
AcDbEntity
  8
0
100
AcDbLine
 10
240.563770954029
 20
1120.86252262469
 30
0.0
 11
238.725770954029
 21
1120.06752262469
 31
0.0
  0
LINE
  5
3BE5
330
1D
100
AcDbEntity
  8
0
100
AcDbLine
 10
244.01892274399
 20
1115.40394872955
 30
0.0
 11
243.863742357305
 21
1116.65234019856
 31
0.0
  0
LINE
  5
3BE6
330
1D
100
AcDbEntity
  8
0
100
AcDbLine
 10
239.484308081827
 20
1121.648611252333
 30
0.0
 11
240.385311195348
 21
1121.338742456677
 31
0.0
  0
LINE
  5
3BE7
330
1D
100
AcDbEntity
  8
0
100
AcDbLine
 10
238.519770954029
 20
1121.75152262469
 30
0.0
 11
239.484308081827
 21
1121.648611252333
 31
0.0
  0
LINE
  5
3BE8
330
1D
100
AcDbEntity
  8
0
100
AcDbLine
 10
243.908687059687
 20
1125.764545256563
 30
0.0
 11
242.757687059687
 21
1124.920545256563
 31
0.0
  0
LINE
  5
3BE9
330
1D
100
AcDbEntity
  8
0
100
AcDbLine
 10
242.757687059687
 20
1124.920545256563
 30
0.0
 11
242.602506673002
 21
1126.168936725574
 31
0.0
  0
LINE
  5
3BEA
330
1D
100
AcDbEntity
  8
0
100
AcDbLine
 10
244.114687059687
 20
1124.080545256563
 30
0.0
 11
242.757687059687
 21
1124.920545256563
 31
0.0
  0
LINE
  5
3BEB
330
1D
100
AcDbEntity
  8
0
100
AcDbLine
 10
233.933459374745
 20
1129.548252309473
 30
0.0
 11
232.782459374745
 21
1128.704252309473
 31
0.0
  0
LINE
  5
3BEC
330
1D
100
AcDbEntity
  8
0
100
AcDbLine
 10
232.782459374745
 20
1128.704252309473
 30
0.0
 11
232.62727898806
 21
1129.952643778483
 31
0.0
  0
LINE
  5
3BED
330
1D
100
AcDbEntity
  8
0
100
AcDbLine
 10
235.798999616064
 20
1129.13547214146
 30
0.0
 11
235.977459374745
 21
1128.659252309473
 31
0.0
  0
LINE
  5
3BEE
330
1D
100
AcDbEntity
  8
0
100
AcDbLine
 10
236.067819481256
 20
1129.279946783443
 30
0.0
 11
235.977459374745
 21
1128.659252309473
 31
0.0
  0
LINE
  5
3BEF
330
1D
100
AcDbEntity
  8
0
100
AcDbLine
 10
234.897996502543
 20
1129.445340937115
 30
0.0
 11
235.798999616064
 21
1129.13547214146
 31
0.0
  0
LINE
  5
3BF0
330
1D
100
AcDbEntity
  8
0
100
AcDbLine
 10
233.933459374745
 20
1129.548252309473
 30
0.0
 11
234.897996502543
 21
1129.445340937115
 31
0.0
  0
LINE
  5
3BF1
330
1D
100
AcDbEntity
  8
0
100
AcDbLine
 10
234.139459374745
 20
1127.864252309473
 30
0.0
 11
232.782459374745
 21
1128.704252309473
 31
0.0
  0
LINE
  5
3BF2
330
1D
100
AcDbEntity
  8
0
100
AcDbLine
 10
235.977459374745
 20
1128.659252309473
 30
0.0
 11
234.139459374745
 21
1127.864252309473
 31
0.0
  0
LINE
  5
3BF3
330
1D
100
AcDbEntity
  8
0
100
AcDbLine
 10
246.084
 20
1149.39
 30
0.0
 11
242.288
 21
1152.859
 31
0.0
  0
LINE
  5
3BF4
330
1D
100
AcDbEntity
  8
0
100
AcDbLine
 10
243.841304082146
 20
1134.375625884845
 30
0.0
 11
244.742307195667
 21
1134.06575708919
 31
0.0
  0
LINE
  5
3BF5
330
1D
100
AcDbEntity
  8
0
100
AcDbLine
 10
251.966
 20
1141.812
 30
0.0
 11
249.32
 21
1145.698
 31
0.0
  0
LINE
  5
3BF6
330
1D
100
AcDbEntity
  8
0
100
AcDbLine
 10
255.221
 20
1134.176
 30
0.0
 11
253.991
 21
1137.765
 31
0.0
  0
LINE
  5
3BF7
330
1D
100
AcDbEntity
  8
0
100
AcDbLine
 10
253.991
 20
1137.765
 30
0.0
 11
251.966
 21
1141.812
 31
0.0
  0
LINE
  5
3BF8
330
1D
100
AcDbEntity
  8
0
100
AcDbLine
 10
244.742307195667
 20
1134.06575708919
 30
0.0
 11
244.920766954348
 21
1133.589537257203
 31
0.0
  0
LINE
  5
3BF9
330
1D
100
AcDbEntity
  8
0
100
AcDbLine
 10
245.011127060859
 20
1134.210231731173
 30
0.0
 11
244.920766954348
 21
1133.589537257203
 31
0.0
  0
LINE
  5
3BFA
330
1D
100
AcDbEntity
  8
0
100
AcDbLine
 10
252.676
 20
1150.843
 30
0.0
 11
249.369
 21
1154.218
 31
0.0
  0
LINE
  5
3BFB
330
1D
100
AcDbEntity
  8
0
100
AcDbLine
 10
255.389
 20
1147.488
 30
0.0
 11
252.676
 21
1150.843
 31
0.0
  0
LINE
  5
3BFC
330
1D
100
AcDbEntity
  8
0
100
AcDbLine
 10
249.32
 20
1145.698
 30
0.0
 11
246.084
 21
1149.39
 31
0.0
  0
LINE
  5
3BFD
330
1D
100
AcDbEntity
  8
0
100
AcDbLine
 10
249.369
 20
1154.218
 30
0.0
 11
247.051
 21
1156.312
 31
0.0
  0
LINE
  5
3BFE
330
1D
100
AcDbEntity
  8
0
100
AcDbLine
 10
242.876766954348
 20
1134.478537257203
 30
0.0
 11
241.725766954348
 21
1133.634537257203
 31
0.0
  0
LINE
  5
3BFF
330
1D
100
AcDbEntity
  8
0
100
AcDbLine
 10
241.725766954348
 20
1133.634537257203
 30
0.0
 11
241.570586567663
 21
1134.882928726213
 31
0.0
  0
LINE
  5
3C00
330
1D
100
AcDbEntity
  8
0
100
AcDbLine
 10
242.876766954348
 20
1134.478537257203
 30
0.0
 11
243.841304082146
 21
1134.375625884845
 31
0.0
  0
LINE
  5
3C01
330
1D
100
AcDbEntity
  8
0
100
AcDbLine
 10
237.48785084869
 20
1141.358004626129
 30
0.0
 11
236.33685084869
 21
1140.514004626129
 31
0.0
  0
LINE
  5
3C02
330
1D
100
AcDbEntity
  8
0
100
AcDbLine
 10
236.33685084869
 20
1140.514004626129
 30
0.0
 11
236.181670462005
 21
1141.762396095139
 31
0.0
  0
LINE
  5
3C03
330
1D
100
AcDbEntity
  8
0
100
AcDbLine
 10
239.353391090009
 20
1140.945224458116
 30
0.0
 11
239.53185084869
 21
1140.469004626128
 31
0.0
  0
LINE
  5
3C04
330
1D
100
AcDbEntity
  8
0
100
AcDbLine
 10
239.622210955201
 20
1141.089699100099
 30
0.0
 11
239.53185084869
 21
1140.469004626128
 31
0.0
  0
LINE
  5
3C05
330
1D
100
AcDbEntity
  8
0
100
AcDbLine
 10
238.452387976488
 20
1141.255093253771
 30
0.0
 11
239.353391090009
 21
1140.945224458116
 31
0.0
  0
LINE
  5
3C06
330
1D
100
AcDbEntity
  8
0
100
AcDbLine
 10
237.48785084869
 20
1141.358004626129
 30
0.0
 11
238.452387976488
 21
1141.255093253771
 31
0.0
  0
LINE
  5
3C07
330
1D
100
AcDbEntity
  8
0
100
AcDbLine
 10
237.69385084869
 20
1139.674004626129
 30
0.0
 11
236.33685084869
 21
1140.514004626129
 31
0.0
  0
LINE
  5
3C08
330
1D
100
AcDbEntity
  8
0
100
AcDbLine
 10
239.53185084869
 20
1140.469004626128
 30
0.0
 11
237.69385084869
 21
1139.674004626129
 31
0.0
  0
LINE
  5
3C09
330
1D
100
AcDbEntity
  8
0
100
AcDbLine
 10
242.288
 20
1152.859
 30
0.0
 11
237.954
 21
1156.087
 31
0.0
  0
LINE
  5
3C0A
330
1D
100
AcDbEntity
  8
0
100
AcDbLine
 10
233.39118603694
 20
1147.366060669113
 30
0.0
 11
233.569645795621
 21
1146.889840837126
 31
0.0
  0
LINE
  5
3C0B
330
1D
100
AcDbEntity
  8
0
100
AcDbLine
 10
233.660005902132
 20
1147.510535311096
 30
0.0
 11
233.569645795621
 21
1146.889840837126
 31
0.0
  0
LINE
  5
3C0C
330
1D
100
AcDbEntity
  8
0
100
AcDbLine
 10
232.490182923419
 20
1147.675929464768
 30
0.0
 11
233.39118603694
 21
1147.366060669113
 31
0.0
  0
LINE
  5
3C0D
330
1D
100
AcDbEntity
  8
0
100
AcDbLine
 10
208.703
 20
1109.169
 30
0.0
 11
203.041
 21
1105.704
 31
0.0
  0
LINE
  5
3C0E
330
1D
100
AcDbEntity
  8
0
100
AcDbLine
 10
192.545077842938
 20
1109.705454335593
 30
0.0
 11
191.661077842938
 21
1108.601454335593
 31
0.0
  0
LINE
  5
3C0F
330
1D
100
AcDbEntity
  8
0
100
AcDbLine
 10
209.271
 20
1081.202
 30
0.0
 11
206.007
 21
1079.277
 31
0.0
  0
LINE
  5
3C10
330
1D
100
AcDbEntity
  8
0
100
AcDbLine
 10
208.091665934742
 20
1065.97763579064
 30
0.0
 11
208.346
 21
1067.478
 31
0.0
  0
LINE
  5
3C11
330
1D
100
AcDbEntity
  8
0
100
AcDbLine
 10
208.594087899202
 20
1100.081200412574
 30
0.0
 11
207.443087899202
 21
1099.237200412574
 31
0.0
  0
LINE
  5
3C12
330
1D
100
AcDbEntity
  8
0
100
AcDbLine
 10
208.800087899202
 20
1098.397200412574
 30
0.0
 11
207.443087899202
 21
1099.237200412574
 31
0.0
  0
LINE
  5
3C13
330
1D
100
AcDbEntity
  8
0
100
AcDbLine
 10
227.877
 20
1087.921
 30
0.0
 11
221.026
 21
1084.166
 31
0.0
  0
LINE
  5
3C14
330
1D
100
AcDbEntity
  8
0
100
AcDbLine
 10
216.312
 20
1085.037
 30
0.0
 11
213.007
 21
1083.363
 31
0.0
  0
LINE
  5
3C15
330
1D
100
AcDbEntity
  8
0
100
AcDbLine
 10
221.026
 20
1084.166
 30
0.0
 11
217.862608069505
 21
1082.199487405
 31
0.0
  0
LINE
  5
3C16
330
1D
100
AcDbEntity
  8
0
100
AcDbLine
 10
210.373761930825
 20
1074.21557301379
 30
0.0
 11
209.404
 21
1071.874
 31
0.0
  0
LINE
  5
3C17
330
1D
100
AcDbEntity
  8
0
100
AcDbLine
 10
209.004159129809
 20
1070.55610344759
 30
0.0
 11
208.346
 21
1067.478
 31
0.0
  0
LINE
  5
3C18
330
1D
100
AcDbEntity
  8
0
100
AcDbLine
 10
209.004159129809
 20
1070.55610344759
 30
0.0
 11
209.404
 21
1071.874
 31
0.0
  0
LINE
  5
3C19
330
1D
100
AcDbEntity
  8
0
100
AcDbLine
 10
217.17
 20
1081.755
 30
0.0
 11
214.208
 21
1079.372
 31
0.0
  0
LINE
  5
3C1A
330
1D
100
AcDbEntity
  8
0
100
AcDbLine
 10
217.862608069505
 20
1082.199487405
 30
0.0
 11
217.17
 21
1081.755
 31
0.0
  0
LINE
  5
3C1B
330
1D
100
AcDbEntity
  8
0
100
AcDbLine
 10
214.208
 20
1079.372
 30
0.0
 11
212.253
 21
1077.243
 31
0.0
  0
LINE
  5
3C1C
330
1D
100
AcDbEntity
  8
0
100
AcDbLine
 10
213.007
 20
1083.363
 30
0.0
 11
210.632
 21
1082.049
 31
0.0
  0
LINE
  5
3C1D
330
1D
100
AcDbEntity
  8
0
100
AcDbLine
 10
212.253
 20
1077.243
 30
0.0
 11
211.663609184248
 21
1076.39966113428
 31
0.0
  0
LINE
  5
3C1E
330
1D
100
AcDbEntity
  8
0
100
AcDbLine
 10
210.632
 20
1082.049
 30
0.0
 11
209.271
 21
1081.202
 31
0.0
  0
LINE
  5
3C1F
330
1D
100
AcDbEntity
  8
0
100
AcDbLine
 10
210.373761930825
 20
1074.21557301379
 30
0.0
 11
211.132
 21
1075.639
 31
0.0
  0
LINE
  5
3C20
330
1D
100
AcDbEntity
  8
0
100
AcDbLine
 10
211.663609184248
 20
1076.39966113428
 30
0.0
 11
211.132
 21
1075.639
 31
0.0
  0
LINE
  5
3C21
330
1D
100
AcDbEntity
  8
0
100
AcDbLine
 10
223.602
 20
1088.364
 30
0.0
 11
219.961
 21
1086.736
 31
0.0
  0
LINE
  5
3C22
330
1D
100
AcDbEntity
  8
0
100
AcDbLine
 10
220.977129163268
 20
1104.667511991858
 30
0.0
 11
219.826129163268
 21
1103.823511991858
 31
0.0
  0
LINE
  5
3C23
330
1D
100
AcDbEntity
  8
0
100
AcDbLine
 10
221.183129163268
 20
1102.983511991858
 30
0.0
 11
219.826129163268
 21
1103.823511991858
 31
0.0
  0
LINE
  5
3C24
330
1D
100
AcDbEntity
  8
0
100
AcDbLine
 10
230.224
 20
1091.461
 30
0.0
 11
223.602
 21
1088.364
 31
0.0
  0
LINE
  5
3C25
330
1D
100
AcDbEntity
  8
0
100
AcDbLine
 10
227.174939439114
 20
1093.146978788641
 30
0.0
 11
225.817939439114
 21
1093.986978788641
 31
0.0
  0
LINE
  5
3C26
330
1D
100
AcDbEntity
  8
0
100
AcDbLine
 10
226.968939439114
 20
1094.830978788641
 30
0.0
 11
225.817939439114
 21
1093.986978788641
 31
0.0
  0
LINE
  5
3C27
330
1D
100
AcDbEntity
  8
0
100
AcDbLine
 10
231.299
 20
1089.796
 30
0.0
 11
227.877
 21
1087.921
 31
0.0
  0
LINE
  5
3C28
330
1D
100
AcDbEntity
  8
0
100
AcDbLine
 10
229.012939439114
 20
1093.941978788641
 30
0.0
 11
227.174939439114
 21
1093.146978788641
 31
0.0
  0
LINE
  5
3C29
330
1D
100
AcDbEntity
  8
0
100
AcDbLine
 10
226.968939439114
 20
1094.830978788641
 30
0.0
 11
227.933476566912
 21
1094.728067416284
 31
0.0
  0
LINE
  5
3C2A
330
1D
100
AcDbEntity
  8
0
100
AcDbLine
 10
227.933476566912
 20
1094.728067416284
 30
0.0
 11
228.834479680433
 21
1094.418198620628
 31
0.0
  0
LINE
  5
3C2B
330
1D
100
AcDbEntity
  8
0
100
AcDbLine
 10
229.103299545625
 20
1094.562673262611
 30
0.0
 11
229.012939439114
 21
1093.941978788641
 31
0.0
  0
LINE
  5
3C2C
330
1D
100
AcDbEntity
  8
0
100
AcDbLine
 10
228.834479680433
 20
1094.418198620628
 30
0.0
 11
229.012939439114
 21
1093.941978788641
 31
0.0
  0
LINE
  5
3C2D
330
1D
100
AcDbEntity
  8
0
100
AcDbLine
 10
225.817939439114
 20
1093.986978788641
 30
0.0
 11
225.662759052429
 21
1095.235370257651
 31
0.0
  0
LINE
  5
3C2E
330
1D
100
AcDbEntity
  8
0
100
AcDbLine
 10
222.842669404587
 20
1104.254731823845
 30
0.0
 11
223.021129163268
 21
1103.778511991858
 31
0.0
  0
LINE
  5
3C2F
330
1D
100
AcDbEntity
  8
0
100
AcDbLine
 10
223.111489269779
 20
1104.399206465828
 30
0.0
 11
223.021129163268
 21
1103.778511991858
 31
0.0
  0
LINE
  5
3C30
330
1D
100
AcDbEntity
  8
0
100
AcDbLine
 10
221.941666291066
 20
1104.5646006195
 30
0.0
 11
222.842669404587
 21
1104.254731823845
 31
0.0
  0
LINE
  5
3C31
330
1D
100
AcDbEntity
  8
0
100
AcDbLine
 10
220.977129163268
 20
1104.667511991858
 30
0.0
 11
221.941666291066
 21
1104.5646006195
 31
0.0
  0
LINE
  5
3C32
330
1D
100
AcDbEntity
  8
0
100
AcDbLine
 10
223.021129163268
 20
1103.778511991858
 30
0.0
 11
221.183129163268
 21
1102.983511991858
 31
0.0
  0
LINE
  5
3C33
330
1D
100
AcDbEntity
  8
0
100
AcDbLine
 10
231.296330216657
 20
1103.979565254966
 30
0.0
 11
230.145330216657
 21
1103.135565254966
 31
0.0
  0
LINE
  5
3C34
330
1D
100
AcDbEntity
  8
0
100
AcDbLine
 10
230.145330216657
 20
1103.135565254966
 30
0.0
 11
229.990149829972
 21
1104.383956723976
 31
0.0
  0
LINE
  5
3C35
330
1D
100
AcDbEntity
  8
0
100
AcDbLine
 10
231.296330216657
 20
1103.979565254966
 30
0.0
 11
232.260867344455
 21
1103.876653882608
 31
0.0
  0
LINE
  5
3C36
330
1D
100
AcDbEntity
  8
0
100
AcDbLine
 10
231.502330216657
 20
1102.295565254966
 30
0.0
 11
230.145330216657
 21
1103.135565254966
 31
0.0
  0
LINE
  5
3C37
330
1D
100
AcDbEntity
  8
0
100
AcDbLine
 10
219.961
 20
1086.736
 30
0.0
 11
216.312
 21
1085.037
 31
0.0
  0
LINE
  5
3C38
330
1D
100
AcDbEntity
  8
0
100
AcDbLine
 10
218.179295418902
 20
1094.824971718188
 30
0.0
 11
216.341295418902
 21
1094.029971718188
 31
0.0
  0
LINE
  5
3C39
330
1D
100
AcDbEntity
  8
0
100
AcDbLine
 10
216.341295418902
 20
1094.029971718188
 30
0.0
 11
214.984295418902
 21
1094.869971718188
 31
0.0
  0
LINE
  5
3C3A
330
1D
100
AcDbEntity
  8
0
100
AcDbLine
 10
216.135295418902
 20
1095.713971718188
 30
0.0
 11
217.099832546699
 21
1095.611060345831
 31
0.0
  0
LINE
  5
3C3B
330
1D
100
AcDbEntity
  8
0
100
AcDbLine
 10
217.099832546699
 20
1095.611060345831
 30
0.0
 11
218.00083566022
 21
1095.301191550175
 31
0.0
  0
LINE
  5
3C3C
330
1D
100
AcDbEntity
  8
0
100
AcDbLine
 10
218.269655525413
 20
1095.445666192158
 30
0.0
 11
218.179295418902
 21
1094.824971718188
 31
0.0
  0
LINE
  5
3C3D
330
1D
100
AcDbEntity
  8
0
100
AcDbLine
 10
218.00083566022
 20
1095.301191550175
 30
0.0
 11
218.179295418902
 21
1094.824971718188
 31
0.0
  0
LINE
  5
3C3E
330
1D
100
AcDbEntity
  8
0
100
AcDbLine
 10
214.984295418902
 20
1094.869971718188
 30
0.0
 11
214.829115032217
 21
1096.118363187198
 31
0.0
  0
LINE
  5
3C3F
330
1D
100
AcDbEntity
  8
0
100
AcDbLine
 10
216.135295418902
 20
1095.713971718188
 30
0.0
 11
214.984295418902
 21
1094.869971718188
 31
0.0
  0
LINE
  5
3C40
330
1D
100
AcDbEntity
  8
0
100
AcDbLine
 10
212.059943436377
 20
1089.057563480064
 30
0.0
 11
210.908943436377
 21
1088.213563480064
 31
0.0
  0
LINE
  5
3C41
330
1D
100
AcDbEntity
  8
0
100
AcDbLine
 10
210.908943436377
 20
1088.213563480064
 30
0.0
 11
210.753763049692
 21
1089.461954949074
 31
0.0
  0
LINE
  5
3C42
330
1D
100
AcDbEntity
  8
0
100
AcDbLine
 10
213.925483677695
 20
1088.644783312051
 30
0.0
 11
214.103943436377
 21
1088.168563480064
 31
0.0
  0
LINE
  5
3C43
330
1D
100
AcDbEntity
  8
0
100
AcDbLine
 10
214.194303542888
 20
1088.789257954034
 30
0.0
 11
214.103943436377
 21
1088.168563480064
 31
0.0
  0
LINE
  5
3C44
330
1D
100
AcDbEntity
  8
0
100
AcDbLine
 10
213.024480564174
 20
1088.954652107707
 30
0.0
 11
213.925483677695
 21
1088.644783312051
 31
0.0
  0
LINE
  5
3C45
330
1D
100
AcDbEntity
  8
0
100
AcDbLine
 10
212.059943436377
 20
1089.057563480064
 30
0.0
 11
213.024480564174
 21
1088.954652107707
 31
0.0
  0
LINE
  5
3C46
330
1D
100
AcDbEntity
  8
0
100
AcDbLine
 10
212.265943436377
 20
1087.373563480064
 30
0.0
 11
210.908943436377
 21
1088.213563480064
 31
0.0
  0
LINE
  5
3C47
330
1D
100
AcDbEntity
  8
0
100
AcDbLine
 10
214.103943436377
 20
1088.168563480064
 30
0.0
 11
212.265943436377
 21
1087.373563480064
 31
0.0
  0
LINE
  5
3C48
330
1D
100
AcDbEntity
  8
0
100
AcDbLine
 10
210.459628140521
 20
1099.668420244561
 30
0.0
 11
210.638087899202
 21
1099.192200412574
 31
0.0
  0
LINE
  5
3C49
330
1D
100
AcDbEntity
  8
0
100
AcDbLine
 10
210.728448005713
 20
1099.812894886544
 30
0.0
 11
210.638087899202
 21
1099.192200412574
 31
0.0
  0
LINE
  5
3C4A
330
1D
100
AcDbEntity
  8
0
100
AcDbLine
 10
209.558625027
 20
1099.978289040217
 30
0.0
 11
210.459628140521
 21
1099.668420244561
 31
0.0
  0
LINE
  5
3C4B
330
1D
100
AcDbEntity
  8
0
100
AcDbLine
 10
208.594087899202
 20
1100.081200412574
 30
0.0
 11
209.558625027
 21
1099.978289040217
 31
0.0
  0
LINE
  5
3C4C
330
1D
100
AcDbEntity
  8
0
100
AcDbLine
 10
210.638087899202
 20
1099.192200412574
 30
0.0
 11
208.800087899202
 21
1098.397200412574
 31
0.0
  0
LINE
  5
3C4D
330
1D
100
AcDbEntity
  8
0
100
AcDbLine
 10
211.001901478326
 20
1105.240800939268
 30
0.0
 11
209.850901478326
 21
1104.396800939268
 31
0.0
  0
LINE
  5
3C4E
330
1D
100
AcDbEntity
  8
0
100
AcDbLine
 10
209.850901478326
 20
1104.396800939268
 30
0.0
 11
209.695721091641
 21
1105.645192408278
 31
0.0
  0
LINE
  5
3C4F
330
1D
100
AcDbEntity
  8
0
100
AcDbLine
 10
212.867441719645
 20
1104.828020771256
 30
0.0
 11
213.045901478326
 21
1104.351800939268
 31
0.0
  0
LINE
  5
3C50
330
1D
100
AcDbEntity
  8
0
100
AcDbLine
 10
213.136261584837
 20
1104.972495413238
 30
0.0
 11
213.045901478326
 21
1104.351800939268
 31
0.0
  0
LINE
  5
3C51
330
1D
100
AcDbEntity
  8
0
100
AcDbLine
 10
211.966438606124
 20
1105.137889566911
 30
0.0
 11
212.867441719645
 21
1104.828020771256
 31
0.0
  0
LINE
  5
3C52
330
1D
100
AcDbEntity
  8
0
100
AcDbLine
 10
211.001901478326
 20
1105.240800939268
 30
0.0
 11
211.966438606124
 21
1105.137889566911
 31
0.0
  0
LINE
  5
3C53
330
1D
100
AcDbEntity
  8
0
100
AcDbLine
 10
211.207901478326
 20
1103.556800939268
 30
0.0
 11
209.850901478326
 21
1104.396800939268
 31
0.0
  0
LINE
  5
3C54
330
1D
100
AcDbEntity
  8
0
100
AcDbLine
 10
213.045901478326
 20
1104.351800939268
 30
0.0
 11
211.207901478326
 21
1103.556800939268
 31
0.0
  0
LINE
  5
3C55
330
1D
100
AcDbEntity
  8
0
100
AcDbLine
 10
219.826129163268
 20
1103.823511991858
 30
0.0
 11
219.670948776583
 21
1105.071903460868
 31
0.0
  0
LINE
  5
3C56
330
1D
100
AcDbEntity
  8
0
100
AcDbLine
 10
200.251227420998
 20
1085.867303300251
 30
0.0
 11
201.162536486425
 21
1083.409634349206
 31
0.0
  0
LINE
  5
3C57
330
1D
100
AcDbEntity
  8
0
100
AcDbLine
 10
196.939455991212
 20
1075.987970803236
 30
0.0
 11
196.013964618765
 21
1075.326911199068
 31
0.0
  0
LINE
  5
3C58
330
1D
100
AcDbEntity
  8
0
100
AcDbLine
 10
194.630290513799
 20
1072.838720258243
 30
0.0
 11
197.221791587685
 21
1074.053726696445
 31
0.0
  0
LINE
  5
3C59
330
1D
100
AcDbEntity
  8
0
100
AcDbLine
 10
208.091665934742
 20
1065.97763579064
 30
0.0
 11
207.982
 21
1065.25
 31
0.0
  0
LINE
  5
3C5A
330
1D
100
AcDbEntity
  8
0
100
AcDbLine
 10
207.982
 20
1065.25
 30
0.0
 11
207.517212088359
 21
1060.84496510295
 31
0.0
  0
LINE
  5
3C5B
330
1D
100
AcDbEntity
  8
0
100
AcDbLine
 10
206.007
 20
1079.277
 30
0.0
 11
201.076
 21
1076.21
 31
0.0
  0
LINE
  5
3C5C
330
1D
100
AcDbEntity
  8
0
100
AcDbLine
 10
200.519329667033
 20
1080.014080976126
 30
0.0
 11
199.505787950097
 21
1078.463693035219
 31
0.0
  0
LINE
  5
3C5D
330
1D
100
AcDbEntity
  8
0
100
AcDbLine
 10
201.076
 20
1076.21
 30
0.0
 11
199.1
 21
1075.089
 31
0.0
  0
LINE
  5
3C5E
330
1D
100
AcDbEntity
  8
0
100
AcDbLine
 10
199.505787950097
 20
1078.463693035219
 30
0.0
 11
198.874482238826
 21
1077.738786792624
 31
0.0
  0
LINE
  5
3C5F
330
1D
100
AcDbEntity
  8
0
100
AcDbLine
 10
198.874482238826
 20
1077.738786792624
 30
0.0
 11
198.039688974531
 21
1076.895775325077
 31
0.0
  0
LINE
  5
3C60
330
1D
100
AcDbEntity
  8
0
100
AcDbLine
 10
198.039688974531
 20
1076.895775325077
 30
0.0
 11
196.939455991212
 21
1075.987970803236
 31
0.0
  0
LINE
  5
3C61
330
1D
100
AcDbEntity
  8
0
100
AcDbLine
 10
197.221791587685
 20
1074.053726696445
 30
0.0
 11
199.1
 21
1075.089
 31
0.0
  0
LINE
  5
3C62
330
1D
100
AcDbEntity
  8
0
100
AcDbLine
 10
201.093628299459
 20
1082.067112775566
 30
0.0
 11
200.822006594897
 21
1080.721244343954
 31
0.0
  0
LINE
  5
3C63
330
1D
100
AcDbEntity
  8
0
100
AcDbLine
 10
200.822006594897
 20
1080.721244343954
 30
0.0
 11
200.519329667033
 21
1080.014080976126
 31
0.0
  0
LINE
  5
3C64
330
1D
100
AcDbEntity
  8
0
100
AcDbLine
 10
201.162536486425
 20
1083.409634349206
 30
0.0
 11
201.162536486425
 21
1082.794212955272
 31
0.0
  0
LINE
  5
3C65
330
1D
100
AcDbEntity
  8
0
100
AcDbLine
 10
201.162536486425
 20
1082.794212955272
 30
0.0
 11
201.093628299459
 21
1082.067112775566
 31
0.0
  0
LINE
  5
3C66
330
1D
100
AcDbEntity
  8
0
100
AcDbLine
 10
190.575461327727
 20
1071.65937480149
 30
0.0
 11
188.5
 21
1071.413
 31
0.0
  0
LINE
  5
3C67
330
1D
100
AcDbEntity
  8
0
100
AcDbLine
 10
190.575461327727
 20
1071.65937480149
 30
0.0
 11
192.169517980732
 21
1072.023589356665
 31
0.0
  0
LINE
  5
3C68
330
1D
100
AcDbEntity
  8
0
100
AcDbLine
 10
192.169517980732
 20
1072.023589356665
 30
0.0
 11
194.630290513799
 21
1072.838720258243
 31
0.0
  0
LINE
  5
3C69
330
1D
100
AcDbEntity
  8
0
100
AcDbLine
 10
191.637
 20
1073.624
 30
0.0
 11
189.07
 21
1073.244
 31
0.0
  0
LINE
  5
3C6A
330
1D
100
AcDbEntity
  8
0
100
AcDbLine
 10
196.013964618765
 20
1075.326911199068
 30
0.0
 11
194.670757712136
 21
1074.518291656616
 31
0.0
  0
LINE
  5
3C6B
330
1D
100
AcDbEntity
  8
0
100
AcDbLine
 10
194.670757712136
 20
1074.518291656616
 30
0.0
 11
191.637
 21
1073.624
 31
0.0
  0
LINE
  5
3C6C
330
1D
100
AcDbEntity
  8
0
100
AcDbLine
 10
199.04
 20
1104.143
 30
0.0
 11
193.912
 21
1103.011
 31
0.0
  0
LINE
  5
3C6D
330
1D
100
AcDbEntity
  8
0
100
AcDbLine
 10
193.886735576456
 20
1089.656275852002
 30
0.0
 11
197.348695322023
 21
1088.328889658653
 31
0.0
  0
LINE
  5
3C6E
330
1D
100
AcDbEntity
  8
0
100
AcDbLine
 10
196.143663657595
 20
1095.611060345831
 30
0.0
 11
197.044666771116
 21
1095.301191550175
 31
0.0
  0
LINE
  5
3C6F
330
1D
100
AcDbEntity
  8
0
100
AcDbLine
 10
197.223126529797
 20
1094.824971718188
 30
0.0
 11
195.385126529797
 21
1094.029971718188
 31
0.0
  0
LINE
  5
3C70
330
1D
100
AcDbEntity
  8
0
100
AcDbLine
 10
207.04
 20
1091.293
 30
0.0
 11
205.202
 21
1090.498
 31
0.0
  0
LINE
  5
3C71
330
1D
100
AcDbEntity
  8
0
100
AcDbLine
 10
205.202
 20
1090.498
 30
0.0
 11
203.845
 21
1091.338
 31
0.0
  0
LINE
  5
3C72
330
1D
100
AcDbEntity
  8
0
100
AcDbLine
 10
204.996
 20
1092.182
 30
0.0
 11
205.960537127798
 21
1092.079088627642
 31
0.0
  0
LINE
  5
3C73
330
1D
100
AcDbEntity
  8
0
100
AcDbLine
 10
205.960537127798
 20
1092.079088627642
 30
0.0
 11
206.861540241319
 21
1091.769219831987
 31
0.0
  0
LINE
  5
3C74
330
1D
100
AcDbEntity
  8
0
100
AcDbLine
 10
207.130360106511
 20
1091.91369447397
 30
0.0
 11
207.04
 21
1091.293
 31
0.0
  0
LINE
  5
3C75
330
1D
100
AcDbEntity
  8
0
100
AcDbLine
 10
206.861540241319
 20
1091.769219831987
 30
0.0
 11
207.04
 21
1091.293
 31
0.0
  0
LINE
  5
3C76
330
1D
100
AcDbEntity
  8
0
100
AcDbLine
 10
203.845
 20
1091.338
 30
0.0
 11
203.689819613315
 21
1092.58639146901
 31
0.0
  0
LINE
  5
3C77
330
1D
100
AcDbEntity
  8
0
100
AcDbLine
 10
204.996
 20
1092.182
 30
0.0
 11
203.845
 21
1091.338
 31
0.0
  0
LINE
  5
3C78
330
1D
100
AcDbEntity
  8
0
100
AcDbLine
 10
197.348695322023
 20
1088.328889658653
 30
0.0
 11
199.299229807959
 21
1087.026373274357
 31
0.0
  0
LINE
  5
3C79
330
1D
100
AcDbEntity
  8
0
100
AcDbLine
 10
199.299229807959
 20
1087.026373274357
 30
0.0
 11
200.251227420998
 21
1085.867303300251
 31
0.0
  0
LINE
  5
3C7A
330
1D
100
AcDbEntity
  8
0
100
AcDbLine
 10
197.044666771116
 20
1095.301191550175
 30
0.0
 11
197.223126529797
 21
1094.824971718188
 31
0.0
  0
LINE
  5
3C7B
330
1D
100
AcDbEntity
  8
0
100
AcDbLine
 10
197.313486636308
 20
1095.445666192158
 30
0.0
 11
197.223126529797
 21
1094.824971718188
 31
0.0
  0
LINE
  5
3C7C
330
1D
100
AcDbEntity
  8
0
100
AcDbLine
 10
203.041
 20
1105.704
 30
0.0
 11
199.04
 21
1104.143
 31
0.0
  0
LINE
  5
3C7D
330
1D
100
AcDbEntity
  8
0
100
AcDbLine
 10
207.443087899202
 20
1099.237200412574
 30
0.0
 11
207.287907512517
 21
1100.485591881584
 31
0.0
  0
LINE
  5
3C7E
330
1D
100
AcDbEntity
  8
0
100
AcDbLine
 10
198.160229056331
 20
1100.654489359985
 30
0.0
 11
197.009229056331
 21
1099.810489359985
 31
0.0
  0
LINE
  5
3C7F
330
1D
100
AcDbEntity
  8
0
100
AcDbLine
 10
197.009229056331
 20
1099.810489359985
 30
0.0
 11
196.854048669646
 21
1101.058880828995
 31
0.0
  0
LINE
  5
3C80
330
1D
100
AcDbEntity
  8
0
100
AcDbLine
 10
200.02576929765
 20
1100.241709191972
 30
0.0
 11
200.204229056331
 21
1099.765489359984
 31
0.0
  0
LINE
  5
3C81
330
1D
100
AcDbEntity
  8
0
100
AcDbLine
 10
200.294589162842
 20
1100.386183833955
 30
0.0
 11
200.204229056331
 21
1099.765489359984
 31
0.0
  0
LINE
  5
3C82
330
1D
100
AcDbEntity
  8
0
100
AcDbLine
 10
199.124766184129
 20
1100.551577987627
 30
0.0
 11
200.02576929765
 21
1100.241709191972
 31
0.0
  0
LINE
  5
3C83
330
1D
100
AcDbEntity
  8
0
100
AcDbLine
 10
198.160229056331
 20
1100.654489359985
 30
0.0
 11
199.124766184129
 21
1100.551577987627
 31
0.0
  0
LINE
  5
3C84
330
1D
100
AcDbEntity
  8
0
100
AcDbLine
 10
198.366229056331
 20
1098.970489359985
 30
0.0
 11
197.009229056331
 21
1099.810489359985
 31
0.0
  0
LINE
  5
3C85
330
1D
100
AcDbEntity
  8
0
100
AcDbLine
 10
200.204229056331
 20
1099.765489359984
 30
0.0
 11
198.366229056331
 21
1098.970489359985
 31
0.0
  0
LINE
  5
3C86
330
1D
100
AcDbEntity
  8
0
100
AcDbLine
 10
188.5
 20
1090.4
 30
0.0
 11
191.665145955846
 21
1090.126335116816
 31
0.0
  0
LINE
  5
3C87
330
1D
100
AcDbEntity
  8
0
100
AcDbLine
 10
191.665145955846
 20
1090.126335116816
 30
0.0
 11
193.886735576456
 21
1089.656275852002
 31
0.0
  0
LINE
  5
3C88
330
1D
100
AcDbEntity
  8
0
100
AcDbLine
 10
195.179126529797
 20
1095.713971718188
 30
0.0
 11
194.028126529797
 21
1094.869971718188
 31
0.0
  0
LINE
  5
3C89
330
1D
100
AcDbEntity
  8
0
100
AcDbLine
 10
194.028126529797
 20
1094.869971718188
 30
0.0
 11
193.872946143112
 21
1096.118363187198
 31
0.0
  0
LINE
  5
3C8A
330
1D
100
AcDbEntity
  8
0
100
AcDbLine
 10
195.179126529797
 20
1095.713971718188
 30
0.0
 11
196.143663657595
 21
1095.611060345831
 31
0.0
  0
LINE
  5
3C8B
330
1D
100
AcDbEntity
  8
0
100
AcDbLine
 10
195.385126529797
 20
1094.029971718188
 30
0.0
 11
194.028126529797
 21
1094.869971718188
 31
0.0
  0
LINE
  5
3C8C
330
1D
100
AcDbEntity
  8
0
100
AcDbLine
 10
191.416
 20
1102.922
 30
0.0
 11
188.5
 21
1102.854
 31
0.0
  0
LINE
  5
3C8D
330
1D
100
AcDbEntity
  8
0
100
AcDbLine
 10
190.212077842938
 20
1107.933454335593
 30
0.0
 11
188.324077842938
 21
1107.712454335593
 31
0.0
  0
LINE
  5
3C8E
330
1D
100
AcDbEntity
  8
0
100
AcDbLine
 10
193.912
 20
1103.011
 30
0.0
 11
191.416
 21
1102.922
 31
0.0
  0
LINE
  5
3C8F
330
1D
100
AcDbEntity
  8
0
100
AcDbLine
 10
191.661077842938
 20
1108.601454335593
 30
0.0
 11
190.212077842938
 21
1107.933454335593
 31
0.0
  0
LINE
  5
3C90
330
1D
100
AcDbEntity
  8
0
100
AcDbLine
 10
209.668
 20
1126.774
 30
0.0
 11
208.035
 21
1127.959
 31
0.0
  0
LINE
  5
3C91
330
1D
100
AcDbEntity
  8
0
100
AcDbLine
 10
209.744141162309
 20
1143.87287146836
 30
0.0
 11
207.906141162309
 21
1143.07787146836
 31
0.0
  0
LINE
  5
3C92
330
1D
100
AcDbEntity
  8
0
100
AcDbLine
 10
207.700141162309
 20
1144.76187146836
 30
0.0
 11
208.664678290107
 21
1144.658960096002
 31
0.0
  0
LINE
  5
3C93
330
1D
100
AcDbEntity
  8
0
100
AcDbLine
 10
209.744141162309
 20
1134.58559052031
 30
0.0
 11
207.906141162309
 21
1133.79059052031
 31
0.0
  0
LINE
  5
3C94
330
1D
100
AcDbEntity
  8
0
100
AcDbLine
 10
207.700141162309
 20
1135.47459052031
 30
0.0
 11
208.664678290107
 21
1135.371679147953
 31
0.0
  0
LINE
  5
3C95
330
1D
100
AcDbEntity
  8
0
100
AcDbLine
 10
228.635885479604
 20
1120.296838203654
 30
0.0
 11
227.278885479604
 21
1121.136838203654
 31
0.0
  0
LINE
  5
3C96
330
1D
100
AcDbEntity
  8
0
100
AcDbLine
 10
230.473885479604
 20
1121.091838203654
 30
0.0
 11
228.635885479604
 21
1120.296838203654
 31
0.0
  0
LINE
  5
3C97
330
1D
100
AcDbEntity
  8
0
100
AcDbLine
 10
227.053992005819
 20
1111.776294939748
 30
0.0
 11
225.902992005819
 21
1110.932294939748
 31
0.0
  0
LINE
  5
3C98
330
1D
100
AcDbEntity
  8
0
100
AcDbLine
 10
225.902992005819
 20
1110.932294939748
 30
0.0
 11
225.747811619134
 21
1112.180686408758
 31
0.0
  0
LINE
  5
3C99
330
1D
100
AcDbEntity
  8
0
100
AcDbLine
 10
228.919532247138
 20
1111.363514771735
 30
0.0
 11
229.097992005819
 21
1110.887294939748
 31
0.0
  0
LINE
  5
3C9A
330
1D
100
AcDbEntity
  8
0
100
AcDbLine
 10
229.18835211233
 20
1111.507989413718
 30
0.0
 11
229.097992005819
 21
1110.887294939748
 31
0.0
  0
LINE
  5
3C9B
330
1D
100
AcDbEntity
  8
0
100
AcDbLine
 10
228.018529133617
 20
1111.67338356739
 30
0.0
 11
228.919532247138
 21
1111.363514771735
 31
0.0
  0
LINE
  5
3C9C
330
1D
100
AcDbEntity
  8
0
100
AcDbLine
 10
227.053992005819
 20
1111.776294939748
 30
0.0
 11
228.018529133617
 21
1111.67338356739
 31
0.0
  0
LINE
  5
3C9D
330
1D
100
AcDbEntity
  8
0
100
AcDbLine
 10
227.259992005819
 20
1110.092294939748
 30
0.0
 11
225.902992005819
 21
1110.932294939748
 31
0.0
  0
LINE
  5
3C9E
330
1D
100
AcDbEntity
  8
0
100
AcDbLine
 10
229.097992005819
 20
1110.887294939748
 30
0.0
 11
227.259992005819
 21
1110.092294939748
 31
0.0
  0
LINE
  5
3C9F
330
1D
100
AcDbEntity
  8
0
100
AcDbLine
 10
228.429885479604
 20
1121.980838203654
 30
0.0
 11
227.278885479604
 21
1121.136838203654
 31
0.0
  0
LINE
  5
3CA0
330
1D
100
AcDbEntity
  8
0
100
AcDbLine
 10
227.278885479604
 20
1121.136838203654
 30
0.0
 11
227.123705092919
 21
1122.385229672665
 31
0.0
  0
LINE
  5
3CA1
330
1D
100
AcDbEntity
  8
0
100
AcDbLine
 10
230.295425720923
 20
1121.568058035642
 30
0.0
 11
230.473885479604
 21
1121.091838203654
 31
0.0
  0
LINE
  5
3CA2
330
1D
100
AcDbEntity
  8
0
100
AcDbLine
 10
230.564245586115
 20
1121.712532677624
 30
0.0
 11
230.473885479604
 21
1121.091838203654
 31
0.0
  0
LINE
  5
3CA3
330
1D
100
AcDbEntity
  8
0
100
AcDbLine
 10
229.394422607402
 20
1121.877926831297
 30
0.0
 11
230.295425720923
 21
1121.568058035642
 31
0.0
  0
LINE
  5
3CA4
330
1D
100
AcDbEntity
  8
0
100
AcDbLine
 10
228.429885479604
 20
1121.980838203654
 30
0.0
 11
229.394422607402
 21
1121.877926831297
 31
0.0
  0
LINE
  5
3CA5
330
1D
100
AcDbEntity
  8
0
100
AcDbLine
 10
223.040969373946
 20
1128.516332204134
 30
0.0
 11
221.889969373946
 21
1127.672332204134
 31
0.0
  0
LINE
  5
3CA6
330
1D
100
AcDbEntity
  8
0
100
AcDbLine
 10
221.889969373946
 20
1127.672332204134
 30
0.0
 11
221.734788987261
 21
1128.920723673144
 31
0.0
  0
LINE
  5
3CA7
330
1D
100
AcDbEntity
  8
0
100
AcDbLine
 10
224.906509615265
 20
1128.103552036121
 30
0.0
 11
225.084969373946
 21
1127.627332204134
 31
0.0
  0
LINE
  5
3CA8
330
1D
100
AcDbEntity
  8
0
100
AcDbLine
 10
225.175329480457
 20
1128.248026678104
 30
0.0
 11
225.084969373946
 21
1127.627332204134
 31
0.0
  0
LINE
  5
3CA9
330
1D
100
AcDbEntity
  8
0
100
AcDbLine
 10
224.005506501744
 20
1128.413420831776
 30
0.0
 11
224.906509615265
 21
1128.103552036121
 31
0.0
  0
LINE
  5
3CAA
330
1D
100
AcDbEntity
  8
0
100
AcDbLine
 10
223.040969373946
 20
1128.516332204134
 30
0.0
 11
224.005506501744
 21
1128.413420831776
 31
0.0
  0
LINE
  5
3CAB
330
1D
100
AcDbEntity
  8
0
100
AcDbLine
 10
223.246969373946
 20
1126.832332204134
 30
0.0
 11
221.889969373946
 21
1127.672332204134
 31
0.0
  0
LINE
  5
3CAC
330
1D
100
AcDbEntity
  8
0
100
AcDbLine
 10
225.084969373946
 20
1127.627332204134
 30
0.0
 11
223.246969373946
 21
1126.832332204134
 31
0.0
  0
LINE
  5
3CAD
330
1D
100
AcDbEntity
  8
0
100
AcDbLine
 10
213.121
 20
1118.402
 30
0.0
 11
212.858
 21
1121.156
 31
0.0
  0
LINE
  5
3CAE
330
1D
100
AcDbEntity
  8
0
100
AcDbLine
 10
216.730368847251
 20
1119.875602519351
 30
0.0
 11
216.575188460566
 21
1121.123993988361
 31
0.0
  0
LINE
  5
3CAF
330
1D
100
AcDbEntity
  8
0
100
AcDbLine
 10
216.135295418902
 20
1112.234926097676
 30
0.0
 11
214.984295418902
 21
1111.390926097676
 31
0.0
  0
LINE
  5
3CB0
330
1D
100
AcDbEntity
  8
0
100
AcDbLine
 10
214.984295418902
 20
1111.390926097676
 30
0.0
 11
214.829115032217
 21
1112.639317566686
 31
0.0
  0
LINE
  5
3CB1
330
1D
100
AcDbEntity
  8
0
100
AcDbLine
 10
218.00083566022
 20
1111.822145929664
 30
0.0
 11
218.179295418902
 21
1111.345926097676
 31
0.0
  0
LINE
  5
3CB2
330
1D
100
AcDbEntity
  8
0
100
AcDbLine
 10
218.269655525413
 20
1111.966620571646
 30
0.0
 11
218.179295418902
 21
1111.345926097676
 31
0.0
  0
LINE
  5
3CB3
330
1D
100
AcDbEntity
  8
0
100
AcDbLine
 10
217.099832546699
 20
1112.132014725319
 30
0.0
 11
218.00083566022
 21
1111.822145929664
 31
0.0
  0
LINE
  5
3CB4
330
1D
100
AcDbEntity
  8
0
100
AcDbLine
 10
216.135295418902
 20
1112.234926097676
 30
0.0
 11
217.099832546699
 21
1112.132014725319
 31
0.0
  0
LINE
  5
3CB5
330
1D
100
AcDbEntity
  8
0
100
AcDbLine
 10
216.341295418902
 20
1110.550926097676
 30
0.0
 11
214.984295418902
 21
1111.390926097676
 31
0.0
  0
LINE
  5
3CB6
330
1D
100
AcDbEntity
  8
0
100
AcDbLine
 10
218.179295418902
 20
1111.345926097676
 30
0.0
 11
216.341295418902
 21
1110.550926097676
 31
0.0
  0
LINE
  5
3CB7
330
1D
100
AcDbEntity
  8
0
100
AcDbLine
 10
217.881368847252
 20
1120.719602519351
 30
0.0
 11
216.730368847251
 21
1119.875602519351
 31
0.0
  0
LINE
  5
3CB8
330
1D
100
AcDbEntity
  8
0
100
AcDbLine
 10
218.087368847251
 20
1119.035602519351
 30
0.0
 11
216.730368847251
 21
1119.875602519351
 31
0.0
  0
LINE
  5
3CB9
330
1D
100
AcDbEntity
  8
0
100
AcDbLine
 10
219.74690908857
 20
1120.306822351338
 30
0.0
 11
219.925368847251
 21
1119.830602519351
 31
0.0
  0
LINE
  5
3CBA
330
1D
100
AcDbEntity
  8
0
100
AcDbLine
 10
220.015728953763
 20
1120.451296993321
 30
0.0
 11
219.925368847251
 21
1119.830602519351
 31
0.0
  0
LINE
  5
3CBB
330
1D
100
AcDbEntity
  8
0
100
AcDbLine
 10
218.845905975049
 20
1120.616691146994
 30
0.0
 11
219.74690908857
 21
1120.306822351338
 31
0.0
  0
LINE
  5
3CBC
330
1D
100
AcDbEntity
  8
0
100
AcDbLine
 10
217.881368847252
 20
1120.719602519351
 30
0.0
 11
218.845905975049
 21
1120.616691146994
 31
0.0
  0
LINE
  5
3CBD
330
1D
100
AcDbEntity
  8
0
100
AcDbLine
 10
219.925368847251
 20
1119.830602519351
 30
0.0
 11
218.087368847251
 21
1119.035602519351
 31
0.0
  0
LINE
  5
3CBE
330
1D
100
AcDbEntity
  8
0
100
AcDbLine
 10
215.414869662679
 20
1117.47611234273
 30
0.0
 11
215.413590428823
 21
1117.3874797113
 31
0.0
  0
LINE
  5
3CBF
330
1D
100
AcDbEntity
  8
0
100
AcDbLine
 10
212.993
 20
1116.289
 30
0.0
 11
212.298
 21
1114.106
 31
0.0
  0
LINE
  5
3CC0
330
1D
100
AcDbEntity
  8
0
100
AcDbLine
 10
212.298
 20
1114.106
 30
0.0
 11
211.13
 21
1112.093
 31
0.0
  0
LINE
  5
3CC1
330
1D
100
AcDbEntity
  8
0
100
AcDbLine
 10
211.13
 20
1112.093
 30
0.0
 11
208.703
 21
1109.169
 31
0.0
  0
LINE
  5
3CC2
330
1D
100
AcDbEntity
  8
0
100
AcDbLine
 10
213.121
 20
1118.402
 30
0.0
 11
212.993
 21
1116.289
 31
0.0
  0
LINE
  5
3CC3
330
1D
100
AcDbEntity
  8
0
100
AcDbLine
 10
212.858
 20
1121.156
 30
0.0
 11
212.348
 21
1122.852
 31
0.0
  0
LINE
  5
3CC4
330
1D
100
AcDbEntity
  8
0
100
AcDbLine
 10
212.348
 20
1122.852
 30
0.0
 11
211.551
 21
1124.159
 31
0.0
  0
LINE
  5
3CC5
330
1D
100
AcDbEntity
  8
0
100
AcDbLine
 10
211.551
 20
1124.159
 30
0.0
 11
209.668
 21
1126.774
 31
0.0
  0
LINE
  5
3CC6
330
1D
100
AcDbEntity
  8
0
100
AcDbLine
 10
220.059866847411
 20
1146.288289573858
 30
0.0
 11
221.024403975209
 21
1146.185378201501
 31
0.0
  0
LINE
  5
3CC7
330
1D
100
AcDbEntity
  8
0
100
AcDbLine
 10
222.103866847411
 20
1145.399289573858
 30
0.0
 11
220.265866847411
 21
1144.604289573859
 31
0.0
  0
LINE
  5
3CC8
330
1D
100
AcDbEntity
  8
0
100
AcDbLine
 10
226.710018637373
 20
1138.032928731148
 30
0.0
 11
225.559018637373
 21
1137.188928731148
 31
0.0
  0
LINE
  5
3CC9
330
1D
100
AcDbEntity
  8
0
100
AcDbLine
 10
225.559018637373
 20
1137.188928731148
 30
0.0
 11
225.403838250688
 21
1138.437320200158
 31
0.0
  0
LINE
  5
3CCA
330
1D
100
AcDbEntity
  8
0
100
AcDbLine
 10
228.575558878692
 20
1137.620148563135
 30
0.0
 11
228.754018637373
 21
1137.143928731148
 31
0.0
  0
LINE
  5
3CCB
330
1D
100
AcDbEntity
  8
0
100
AcDbLine
 10
228.844378743884
 20
1137.764623205118
 30
0.0
 11
228.754018637373
 21
1137.143928731148
 31
0.0
  0
LINE
  5
3CCC
330
1D
100
AcDbEntity
  8
0
100
AcDbLine
 10
227.674555765171
 20
1137.93001735879
 30
0.0
 11
228.575558878692
 21
1137.620148563135
 31
0.0
  0
LINE
  5
3CCD
330
1D
100
AcDbEntity
  8
0
100
AcDbLine
 10
226.710018637373
 20
1138.032928731148
 30
0.0
 11
227.674555765171
 21
1137.93001735879
 31
0.0
  0
LINE
  5
3CCE
330
1D
100
AcDbEntity
  8
0
100
AcDbLine
 10
226.916018637373
 20
1136.348928731148
 30
0.0
 11
225.559018637373
 21
1137.188928731148
 31
0.0
  0
LINE
  5
3CCF
330
1D
100
AcDbEntity
  8
0
100
AcDbLine
 10
228.754018637373
 20
1137.143928731148
 30
0.0
 11
226.916018637373
 21
1136.348928731148
 31
0.0
  0
LINE
  5
3CD0
330
1D
100
AcDbEntity
  8
0
100
AcDbLine
 10
231.525645795621
 20
1147.778840837126
 30
0.0
 11
230.374645795621
 21
1146.934840837126
 31
0.0
  0
LINE
  5
3CD1
330
1D
100
AcDbEntity
  8
0
100
AcDbLine
 10
230.374645795621
 20
1146.934840837126
 30
0.0
 11
230.219465408936
 21
1148.183232306136
 31
0.0
  0
LINE
  5
3CD2
330
1D
100
AcDbEntity
  8
0
100
AcDbLine
 10
231.731645795621
 20
1146.094840837126
 30
0.0
 11
230.374645795621
 21
1146.934840837126
 31
0.0
  0
LINE
  5
3CD3
330
1D
100
AcDbEntity
  8
0
100
AcDbLine
 10
224.187547268767
 20
1153.970361469159
 30
0.0
 11
223.036547268767
 21
1153.126361469159
 31
0.0
  0
LINE
  5
3CD4
330
1D
100
AcDbEntity
  8
0
100
AcDbLine
 10
223.036547268767
 20
1153.126361469159
 30
0.0
 11
222.881366882082
 21
1154.374752938169
 31
0.0
  0
LINE
  5
3CD5
330
1D
100
AcDbEntity
  8
0
100
AcDbLine
 10
226.053087510086
 20
1153.557581301146
 30
0.0
 11
226.231547268767
 21
1153.081361469159
 31
0.0
  0
LINE
  5
3CD6
330
1D
100
AcDbEntity
  8
0
100
AcDbLine
 10
226.321907375278
 20
1153.702055943129
 30
0.0
 11
226.231547268767
 21
1153.081361469159
 31
0.0
  0
LINE
  5
3CD7
330
1D
100
AcDbEntity
  8
0
100
AcDbLine
 10
225.152084396565
 20
1153.867450096801
 30
0.0
 11
226.053087510086
 21
1153.557581301146
 31
0.0
  0
LINE
  5
3CD8
330
1D
100
AcDbEntity
  8
0
100
AcDbLine
 10
224.187547268767
 20
1153.970361469159
 30
0.0
 11
225.152084396565
 21
1153.867450096801
 31
0.0
  0
LINE
  5
3CD9
330
1D
100
AcDbEntity
  8
0
100
AcDbLine
 10
224.393547268767
 20
1152.286361469159
 30
0.0
 11
223.036547268767
 21
1153.126361469159
 31
0.0
  0
LINE
  5
3CDA
330
1D
100
AcDbEntity
  8
0
100
AcDbLine
 10
226.231547268767
 20
1153.081361469159
 30
0.0
 11
224.393547268767
 21
1152.286361469159
 31
0.0
  0
LINE
  5
3CDB
330
1D
100
AcDbEntity
  8
0
100
AcDbLine
 10
221.92540708873
 20
1145.875509405846
 30
0.0
 11
222.103866847411
 21
1145.399289573858
 31
0.0
  0
LINE
  5
3CDC
330
1D
100
AcDbEntity
  8
0
100
AcDbLine
 10
222.194226953922
 20
1146.019984047829
 30
0.0
 11
222.103866847411
 21
1145.399289573858
 31
0.0
  0
LINE
  5
3CDD
330
1D
100
AcDbEntity
  8
0
100
AcDbLine
 10
221.024403975209
 20
1146.185378201501
 30
0.0
 11
221.92540708873
 21
1145.875509405846
 31
0.0
  0
LINE
  5
3CDE
330
1D
100
AcDbEntity
  8
0
100
AcDbLine
 10
220.265866847411
 20
1144.604289573859
 30
0.0
 11
218.908866847411
 21
1145.444289573858
 31
0.0
  0
LINE
  5
3CDF
330
1D
100
AcDbEntity
  8
0
100
AcDbLine
 10
216.135295418902
 20
1137.344981994255
 30
0.0
 11
214.984295418902
 21
1136.500981994255
 31
0.0
  0
LINE
  5
3CE0
330
1D
100
AcDbEntity
  8
0
100
AcDbLine
 10
214.984295418902
 20
1136.500981994255
 30
0.0
 11
214.829115032217
 21
1137.749373463265
 31
0.0
  0
LINE
  5
3CE1
330
1D
100
AcDbEntity
  8
0
100
AcDbLine
 10
218.00083566022
 20
1136.932201826242
 30
0.0
 11
218.179295418902
 21
1136.455981994255
 31
0.0
  0
LINE
  5
3CE2
330
1D
100
AcDbEntity
  8
0
100
AcDbLine
 10
218.269655525413
 20
1137.076676468225
 30
0.0
 11
218.179295418902
 21
1136.455981994255
 31
0.0
  0
LINE
  5
3CE3
330
1D
100
AcDbEntity
  8
0
100
AcDbLine
 10
217.099832546699
 20
1137.242070621898
 30
0.0
 11
218.00083566022
 21
1136.932201826242
 31
0.0
  0
LINE
  5
3CE4
330
1D
100
AcDbEntity
  8
0
100
AcDbLine
 10
216.135295418902
 20
1137.344981994255
 30
0.0
 11
217.099832546699
 21
1137.242070621898
 31
0.0
  0
LINE
  5
3CE5
330
1D
100
AcDbEntity
  8
0
100
AcDbLine
 10
216.341295418902
 20
1135.660981994255
 30
0.0
 11
214.984295418902
 21
1136.500981994255
 31
0.0
  0
LINE
  5
3CE6
330
1D
100
AcDbEntity
  8
0
100
AcDbLine
 10
218.179295418902
 20
1136.455981994255
 30
0.0
 11
216.341295418902
 21
1135.660981994255
 31
0.0
  0
LINE
  5
3CE7
330
1D
100
AcDbEntity
  8
0
100
AcDbLine
 10
208.664678290107
 20
1144.658960096002
 30
0.0
 11
209.565681403628
 21
1144.349091300347
 31
0.0
  0
LINE
  5
3CE8
330
1D
100
AcDbEntity
  8
0
100
AcDbLine
 10
209.83450126882
 20
1144.49356594233
 30
0.0
 11
209.744141162309
 21
1143.87287146836
 31
0.0
  0
LINE
  5
3CE9
330
1D
100
AcDbEntity
  8
0
100
AcDbLine
 10
209.565681403628
 20
1144.349091300347
 30
0.0
 11
209.744141162309
 21
1143.87287146836
 31
0.0
  0
LINE
  5
3CEA
330
1D
100
AcDbEntity
  8
0
100
AcDbLine
 10
208.664678290107
 20
1135.371679147953
 30
0.0
 11
209.565681403628
 21
1135.061810352297
 31
0.0
  0
LINE
  5
3CEB
330
1D
100
AcDbEntity
  8
0
100
AcDbLine
 10
209.83450126882
 20
1135.20628499428
 30
0.0
 11
209.744141162309
 21
1134.58559052031
 31
0.0
  0
LINE
  5
3CEC
330
1D
100
AcDbEntity
  8
0
100
AcDbLine
 10
209.565681403628
 20
1135.061810352297
 30
0.0
 11
209.744141162309
 21
1134.58559052031
 31
0.0
  0
LINE
  5
3CED
330
1D
100
AcDbEntity
  8
0
100
AcDbLine
 10
220.059866847411
 20
1146.288289573858
 30
0.0
 11
218.908866847411
 21
1145.444289573858
 31
0.0
  0
LINE
  5
3CEE
330
1D
100
AcDbEntity
  8
0
100
AcDbLine
 10
218.908866847411
 20
1145.444289573858
 30
0.0
 11
218.753686460726
 21
1146.692681042869
 31
0.0
  0
LINE
  5
3CEF
330
1D
100
AcDbEntity
  8
0
100
AcDbLine
 10
209.855323583505
 20
1152.021179047963
 30
0.0
 11
208.704323583505
 21
1151.177179047963
 31
0.0
  0
LINE
  5
3CF0
330
1D
100
AcDbEntity
  8
0
100
AcDbLine
 10
208.704323583505
 20
1151.177179047963
 30
0.0
 11
208.54914319682
 21
1152.425570516973
 31
0.0
  0
LINE
  5
3CF1
330
1D
100
AcDbEntity
  8
0
100
AcDbLine
 10
211.720863824824
 20
1151.608398879951
 30
0.0
 11
211.899323583505
 21
1151.132179047963
 31
0.0
  0
LINE
  5
3CF2
330
1D
100
AcDbEntity
  8
0
100
AcDbLine
 10
211.989683690016
 20
1151.752873521933
 30
0.0
 11
211.899323583505
 21
1151.132179047963
 31
0.0
  0
LINE
  5
3CF3
330
1D
100
AcDbEntity
  8
0
100
AcDbLine
 10
210.819860711303
 20
1151.918267675606
 30
0.0
 11
211.720863824824
 21
1151.608398879951
 31
0.0
  0
LINE
  5
3CF4
330
1D
100
AcDbEntity
  8
0
100
AcDbLine
 10
209.855323583505
 20
1152.021179047963
 30
0.0
 11
210.819860711303
 21
1151.918267675606
 31
0.0
  0
LINE
  5
3CF5
330
1D
100
AcDbEntity
  8
0
100
AcDbLine
 10
210.061323583505
 20
1150.337179047963
 30
0.0
 11
208.704323583505
 21
1151.177179047963
 31
0.0
  0
LINE
  5
3CF6
330
1D
100
AcDbEntity
  8
0
100
AcDbLine
 10
211.899323583505
 20
1151.132179047963
 30
0.0
 11
210.061323583505
 21
1150.337179047963
 31
0.0
  0
LINE
  5
3CF7
330
1D
100
AcDbEntity
  8
0
100
AcDbLine
 10
198.129
 20
1133.012
 30
0.0
 11
192.594
 21
1134.078
 31
0.0
  0
LINE
  5
3CF8
330
1D
100
AcDbEntity
  8
0
100
AcDbLine
 10
196.98173113483
 20
1129.605967320339
 30
0.0
 11
195.14973113483
 21
1129.351967320339
 31
0.0
  0
LINE
  5
3CF9
330
1D
100
AcDbEntity
  8
0
100
AcDbLine
 10
196.68273113483
 20
1124.847967320339
 30
0.0
 11
194.85673113483
 21
1125.124967320339
 31
0.0
  0
LINE
  5
3CFA
330
1D
100
AcDbEntity
  8
0
100
AcDbLine
 10
203.907
 20
1113.27
 30
0.0
 11
202.081
 21
1113.547
 31
0.0
  0
LINE
  5
3CFB
330
1D
100
AcDbEntity
  8
0
100
AcDbLine
 10
202.374
 20
1117.774
 30
0.0
 11
201.132
 21
1117.206
 31
0.0
  0
LINE
  5
3CFC
330
1D
100
AcDbEntity
  8
0
100
AcDbLine
 10
208.128
 20
1115.263
 30
0.0
 11
207.244
 21
1114.159
 31
0.0
  0
LINE
  5
3CFD
330
1D
100
AcDbEntity
  8
0
100
AcDbLine
 10
205.795
 20
1113.491
 30
0.0
 11
203.907
 21
1113.27
 31
0.0
  0
LINE
  5
3CFE
330
1D
100
AcDbEntity
  8
0
100
AcDbLine
 10
207.244
 20
1114.159
 30
0.0
 11
205.795
 21
1113.491
 31
0.0
  0
LINE
  5
3CFF
330
1D
100
AcDbEntity
  8
0
100
AcDbLine
 10
208.128
 20
1115.263
 30
0.0
 11
207.960818418452
 21
1116.39945906558
 31
0.0
  0
LINE
  5
3D00
330
1D
100
AcDbEntity
  8
0
100
AcDbLine
 10
206.899
 20
1117.494
 30
0.0
 11
205.976
 21
1117.846
 31
0.0
  0
LINE
  5
3D01
330
1D
100
AcDbEntity
  8
0
100
AcDbLine
 10
205.976
 20
1117.846
 30
0.0
 11
204.206
 21
1118.028
 31
0.0
  0
LINE
  5
3D02
330
1D
100
AcDbEntity
  8
0
100
AcDbLine
 10
207.960818418452
 20
1116.39945906558
 30
0.0
 11
206.899
 21
1117.494
 31
0.0
  0
LINE
  5
3D03
330
1D
100
AcDbEntity
  8
0
100
AcDbLine
 10
204.206
 20
1118.028
 30
0.0
 11
202.374
 21
1117.774
 31
0.0
  0
LINE
  5
3D04
330
1D
100
AcDbEntity
  8
0
100
AcDbLine
 10
200.662
 20
1114.32
 30
0.0
 11
199.977570959631
 21
1115.31278811337
 31
0.0
  0
LINE
  5
3D05
330
1D
100
AcDbEntity
  8
0
100
AcDbLine
 10
202.081
 20
1113.547
 30
0.0
 11
200.662
 21
1114.32
 31
0.0
  0
LINE
  5
3D06
330
1D
100
AcDbEntity
  8
0
100
AcDbLine
 10
201.132
 20
1117.206
 30
0.0
 11
200.206973194643
 21
1116.262169354934
 31
0.0
  0
LINE
  5
3D07
330
1D
100
AcDbEntity
  8
0
100
AcDbLine
 10
200.206973194643
 20
1116.262169354934
 30
0.0
 11
199.977570959631
 21
1115.31278811337
 31
0.0
  0
LINE
  5
3D08
330
1D
100
AcDbEntity
  8
0
100
AcDbLine
 10
202.303
 20
1131.58
 30
0.0
 11
198.129
 21
1133.012
 31
0.0
  0
LINE
  5
3D09
330
1D
100
AcDbEntity
  8
0
100
AcDbLine
 10
208.035
 20
1127.959
 30
0.0
 11
205.307
 21
1130.036
 31
0.0
  0
LINE
  5
3D0A
330
1D
100
AcDbEntity
  8
0
100
AcDbLine
 10
205.307
 20
1130.036
 30
0.0
 11
202.303
 21
1131.58
 31
0.0
  0
LINE
  5
3D0B
330
1D
100
AcDbEntity
  8
0
100
AcDbLine
 10
200.90373113483
 20
1126.840967320339
 30
0.0
 11
200.736549553282
 21
1127.977426385919
 31
0.0
  0
LINE
  5
3D0C
330
1D
100
AcDbEntity
  8
0
100
AcDbLine
 10
200.01973113483
 20
1125.736967320339
 30
0.0
 11
198.57073113483
 21
1125.068967320339
 31
0.0
  0
LINE
  5
3D0D
330
1D
100
AcDbEntity
  8
0
100
AcDbLine
 10
198.57073113483
 20
1125.068967320339
 30
0.0
 11
196.68273113483
 21
1124.847967320339
 31
0.0
  0
LINE
  5
3D0E
330
1D
100
AcDbEntity
  8
0
100
AcDbLine
 10
200.90373113483
 20
1126.840967320339
 30
0.0
 11
200.01973113483
 21
1125.736967320339
 31
0.0
  0
LINE
  5
3D0F
330
1D
100
AcDbEntity
  8
0
100
AcDbLine
 10
200.736549553282
 20
1127.977426385919
 30
0.0
 11
199.67473113483
 21
1129.071967320339
 31
0.0
  0
LINE
  5
3D10
330
1D
100
AcDbEntity
  8
0
100
AcDbLine
 10
198.75173113483
 20
1129.423967320339
 30
0.0
 11
196.98173113483
 21
1129.605967320339
 31
0.0
  0
LINE
  5
3D11
330
1D
100
AcDbEntity
  8
0
100
AcDbLine
 10
199.67473113483
 20
1129.071967320339
 30
0.0
 11
198.75173113483
 21
1129.423967320339
 31
0.0
  0
LINE
  5
3D12
330
1D
100
AcDbEntity
  8
0
100
AcDbLine
 10
192.37789626139
 20
1110.841913401173
 30
0.0
 11
191.316077842938
 21
1111.936454335593
 31
0.0
  0
LINE
  5
3D13
330
1D
100
AcDbEntity
  8
0
100
AcDbLine
 10
190.393077842938
 20
1112.288454335593
 30
0.0
 11
188.623077842938
 21
1112.470454335593
 31
0.0
  0
LINE
  5
3D14
330
1D
100
AcDbEntity
  8
0
100
AcDbLine
 10
191.316077842938
 20
1111.936454335593
 30
0.0
 11
190.393077842938
 21
1112.288454335593
 31
0.0
  0
LINE
  5
3D15
330
1D
100
AcDbEntity
  8
0
100
AcDbLine
 10
192.545077842938
 20
1109.705454335593
 30
0.0
 11
192.37789626139
 21
1110.841913401173
 31
0.0
  0
LINE
  5
3D16
330
1D
100
AcDbEntity
  8
0
100
AcDbLine
 10
192.982704329473
 20
1127.840136675273
 30
0.0
 11
192.753302094461
 21
1126.890755433709
 31
0.0
  0
LINE
  5
3D17
330
1D
100
AcDbEntity
  8
0
100
AcDbLine
 10
193.90773113483
 20
1128.783967320339
 30
0.0
 11
192.982704329473
 21
1127.840136675273
 31
0.0
  0
LINE
  5
3D18
330
1D
100
AcDbEntity
  8
0
100
AcDbLine
 10
194.85673113483
 20
1125.124967320339
 30
0.0
 11
193.43773113483
 21
1125.897967320339
 31
0.0
  0
LINE
  5
3D19
330
1D
100
AcDbEntity
  8
0
100
AcDbLine
 10
193.43773113483
 20
1125.897967320339
 30
0.0
 11
192.753302094461
 21
1126.890755433709
 31
0.0
  0
LINE
  5
3D1A
330
1D
100
AcDbEntity
  8
0
100
AcDbLine
 10
195.14973113483
 20
1129.351967320339
 30
0.0
 11
193.90773113483
 21
1128.783967320339
 31
0.0
  0
LINE
  5
3D1B
330
1D
100
AcDbEntity
  8
0
100
AcDbLine
 10
196.784335582546
 20
1135.660981994255
 30
0.0
 11
195.427335582546
 21
1136.500981994255
 31
0.0
  0
LINE
  5
3D1C
330
1D
100
AcDbEntity
  8
0
100
AcDbLine
 10
196.578335582546
 20
1137.344981994255
 30
0.0
 11
195.427335582546
 21
1136.500981994255
 31
0.0
  0
LINE
  5
3D1D
330
1D
100
AcDbEntity
  8
0
100
AcDbLine
 10
196.898993372028
 20
1155.69022831139
 30
0.0
 11
195.541993372028
 21
1156.53022831139
 31
0.0
  0
LINE
  5
3D1E
330
1D
100
AcDbEntity
  8
0
100
AcDbLine
 10
207.906141162309
 20
1143.07787146836
 30
0.0
 11
206.549141162309
 21
1143.91787146836
 31
0.0
  0
LINE
  5
3D1F
330
1D
100
AcDbEntity
  8
0
100
AcDbLine
 10
206.549141162309
 20
1143.91787146836
 30
0.0
 11
206.393960775624
 21
1145.16626293737
 31
0.0
  0
LINE
  5
3D20
330
1D
100
AcDbEntity
  8
0
100
AcDbLine
 10
207.700141162309
 20
1144.76187146836
 30
0.0
 11
206.549141162309
 21
1143.91787146836
 31
0.0
  0
LINE
  5
3D21
330
1D
100
AcDbEntity
  8
0
100
AcDbLine
 10
207.906141162309
 20
1133.79059052031
 30
0.0
 11
206.549141162309
 21
1134.63059052031
 31
0.0
  0
LINE
  5
3D22
330
1D
100
AcDbEntity
  8
0
100
AcDbLine
 10
206.549141162309
 20
1134.63059052031
 30
0.0
 11
206.393960775624
 21
1135.87898198932
 31
0.0
  0
LINE
  5
3D23
330
1D
100
AcDbEntity
  8
0
100
AcDbLine
 10
207.700141162309
 20
1135.47459052031
 30
0.0
 11
206.549141162309
 21
1134.63059052031
 31
0.0
  0
LINE
  5
3D24
330
1D
100
AcDbEntity
  8
0
100
AcDbLine
 10
198.622335582546
 20
1136.455981994255
 30
0.0
 11
196.784335582546
 21
1135.660981994255
 31
0.0
  0
LINE
  5
3D25
330
1D
100
AcDbEntity
  8
0
100
AcDbLine
 10
196.578335582546
 20
1137.344981994255
 30
0.0
 11
197.542872710344
 21
1137.242070621898
 31
0.0
  0
LINE
  5
3D26
330
1D
100
AcDbEntity
  8
0
100
AcDbLine
 10
197.542872710344
 20
1137.242070621898
 30
0.0
 11
198.443875823865
 21
1136.932201826242
 31
0.0
  0
LINE
  5
3D27
330
1D
100
AcDbEntity
  8
0
100
AcDbLine
 10
198.712695689057
 20
1137.076676468225
 30
0.0
 11
198.622335582546
 21
1136.455981994255
 31
0.0
  0
LINE
  5
3D28
330
1D
100
AcDbEntity
  8
0
100
AcDbLine
 10
198.443875823865
 20
1136.932201826242
 30
0.0
 11
198.622335582546
 21
1136.455981994255
 31
0.0
  0
LINE
  5
3D29
330
1D
100
AcDbEntity
  8
0
100
AcDbLine
 10
199.654255687885
 20
1147.885894100233
 30
0.0
 11
197.816255687885
 21
1147.090894100233
 31
0.0
  0
LINE
  5
3D2A
330
1D
100
AcDbEntity
  8
0
100
AcDbLine
 10
197.816255687885
 20
1147.090894100233
 30
0.0
 11
196.459255687885
 21
1147.930894100233
 31
0.0
  0
LINE
  5
3D2B
330
1D
100
AcDbEntity
  8
0
100
AcDbLine
 10
197.610255687885
 20
1148.774894100233
 30
0.0
 11
198.574792815683
 21
1148.671982727876
 31
0.0
  0
LINE
  5
3D2C
330
1D
100
AcDbEntity
  8
0
100
AcDbLine
 10
198.574792815683
 20
1148.671982727876
 30
0.0
 11
199.475795929204
 21
1148.36211393222
 31
0.0
  0
LINE
  5
3D2D
330
1D
100
AcDbEntity
  8
0
100
AcDbLine
 10
199.744615794396
 20
1148.506588574203
 30
0.0
 11
199.654255687885
 21
1147.885894100233
 31
0.0
  0
LINE
  5
3D2E
330
1D
100
AcDbEntity
  8
0
100
AcDbLine
 10
199.475795929204
 20
1148.36211393222
 30
0.0
 11
199.654255687885
 21
1147.885894100233
 31
0.0
  0
LINE
  5
3D2F
330
1D
100
AcDbEntity
  8
0
100
AcDbLine
 10
196.459255687885
 20
1147.930894100233
 30
0.0
 11
196.3040753012
 21
1149.179285569243
 31
0.0
  0
LINE
  5
3D30
330
1D
100
AcDbEntity
  8
0
100
AcDbLine
 10
197.610255687885
 20
1148.774894100233
 30
0.0
 11
196.459255687885
 21
1147.930894100233
 31
0.0
  0
LINE
  5
3D31
330
1D
100
AcDbEntity
  8
0
100
AcDbLine
 10
198.736993372028
 20
1156.48522831139
 30
0.0
 11
196.898993372028
 21
1155.69022831139
 31
0.0
  0
LINE
  5
3D32
330
1D
100
AcDbEntity
  8
0
100
AcDbLine
 10
198.827353478539
 20
1157.10592278536
 30
0.0
 11
198.736993372028
 21
1156.48522831139
 31
0.0
  0
LINE
  5
3D33
330
1D
100
AcDbEntity
  8
0
100
AcDbLine
 10
198.558533613347
 20
1156.961448143378
 30
0.0
 11
198.736993372028
 21
1156.48522831139
 31
0.0
  0
LINE
  5
3D34
330
1D
100
AcDbEntity
  8
0
100
AcDbLine
 10
192.594
 20
1134.078
 30
0.0
 11
188.5
 21
1134.319
 31
0.0
  0
LINE
  5
3D35
330
1D
100
AcDbEntity
  8
0
100
AcDbLine
 10
195.427335582546
 20
1136.500981994255
 30
0.0
 11
195.272155195861
 21
1137.749373463265
 31
0.0
  0
LINE
  5
3D42
330
1D
100
AcDbEntity
  8
0
100
AcDbLine
 10
236.453
 20
1173.702
 30
0.0
 11
230.494
 21
1176.467
 31
0.0
  0
LINE
  5
3D43
330
1D
100
AcDbEntity
  8
0
100
AcDbLine
 10
235.822
 20
1164.143
 30
0.0
 11
231.04
 21
1166.461
 31
0.0
  0
LINE
  5
3D44
330
1D
100
AcDbEntity
  8
0
100
AcDbLine
 10
233.134
 20
1159.029
 30
0.0
 11
227.874
 21
1161.659
 31
0.0
  0
LINE
  5
3D45
330
1D
100
AcDbEntity
  8
0
100
AcDbLine
 10
256.641
 20
1157.511
 30
0.0
 11
255.183
 21
1159.422
 31
0.0
  0
LINE
  5
3D46
330
1D
100
AcDbEntity
  8
0
100
AcDbLine
 10
246.936
 20
1167.144
 30
0.0
 11
241.679
 21
1170.685
 31
0.0
  0
LINE
  5
3D47
330
1D
100
AcDbEntity
  8
0
100
AcDbLine
 10
244.632
 20
1158.471
 30
0.0
 11
240.117
 21
1161.597
 31
0.0
  0
LINE
  5
3D48
330
1D
100
AcDbEntity
  8
0
100
AcDbLine
 10
255.183
 20
1159.422
 30
0.0
 11
251.362
 21
1163.412
 31
0.0
  0
LINE
  5
3D49
330
1D
100
AcDbEntity
  8
0
100
AcDbLine
 10
251.362
 20
1163.412
 30
0.0
 11
246.936
 21
1167.144
 31
0.0
  0
LINE
  5
3D4A
330
1D
100
AcDbEntity
  8
0
100
AcDbLine
 10
241.679
 20
1170.685
 30
0.0
 11
236.453
 21
1173.702
 31
0.0
  0
LINE
  5
3D4B
330
1D
100
AcDbEntity
  8
0
100
AcDbLine
 10
240.117
 20
1161.597
 30
0.0
 11
235.822
 21
1164.143
 31
0.0
  0
LINE
  5
3D4C
330
1D
100
AcDbEntity
  8
0
100
AcDbLine
 10
210.044
 20
1173.044
 30
0.0
 11
206.229
 21
1173.536
 31
0.0
  0
LINE
  5
3D4D
330
1D
100
AcDbEntity
  8
0
100
AcDbLine
 10
210.331
 20
1182.439
 30
0.0
 11
203.171
 21
1183.56
 31
0.0
  0
LINE
  5
3D4E
330
1D
100
AcDbEntity
  8
0
100
AcDbLine
 10
209.645
 20
1167.27
 30
0.0
 11
206.308
 21
1168.017
 31
0.0
  0
LINE
  5
3D4F
330
1D
100
AcDbEntity
  8
0
100
AcDbLine
 10
217.281
 20
1180.883
 30
0.0
 11
210.331
 21
1182.439
 31
0.0
  0
LINE
  5
3D50
330
1D
100
AcDbEntity
  8
0
100
AcDbLine
 10
223.952
 20
1178.909
 30
0.0
 11
217.281
 21
1180.883
 31
0.0
  0
LINE
  5
3D51
330
1D
100
AcDbEntity
  8
0
100
AcDbLine
 10
222.223
 20
1163.951
 30
0.0
 11
217.766
 21
1165.434
 31
0.0
  0
LINE
  5
3D52
330
1D
100
AcDbEntity
  8
0
100
AcDbLine
 10
220.892
 20
1170.125
 30
0.0
 11
217.322
 21
1171.352
 31
0.0
  0
LINE
  5
3D53
330
1D
100
AcDbEntity
  8
0
100
AcDbLine
 10
231.04
 20
1166.461
 30
0.0
 11
227.746
 21
1167.679
 31
0.0
  0
LINE
  5
3D54
330
1D
100
AcDbEntity
  8
0
100
AcDbLine
 10
230.494
 20
1176.467
 30
0.0
 11
224.133
 21
1178.853
 31
0.0
  0
LINE
  5
3D55
330
1D
100
AcDbEntity
  8
0
100
AcDbLine
 10
227.874
 20
1161.659
 30
0.0
 11
222.223
 21
1163.951
 31
0.0
  0
LINE
  5
3D56
330
1D
100
AcDbEntity
  8
0
100
AcDbLine
 10
227.746
 20
1167.679
 30
0.0
 11
224.427
 21
1169.127
 31
0.0
  0
LINE
  5
3D57
330
1D
100
AcDbEntity
  8
0
100
AcDbLine
 10
224.427
 20
1169.127
 30
0.0
 11
220.892
 21
1170.125
 31
0.0
  0
LINE
  5
3D58
330
1D
100
AcDbEntity
  8
0
100
AcDbLine
 10
224.133
 20
1178.853
 30
0.0
 11
223.952
 21
1178.909
 31
0.0
  0
LINE
  5
3D59
330
1D
100
AcDbEntity
  8
0
100
AcDbLine
 10
217.766
 20
1165.434
 30
0.0
 11
212.976
 21
1166.745
 31
0.0
  0
LINE
  5
3D5A
330
1D
100
AcDbEntity
  8
0
100
AcDbLine
 10
216.135295418902
 20
1158.556673048443
 30
0.0
 11
214.984295418902
 21
1157.712673048443
 31
0.0
  0
LINE
  5
3D5B
330
1D
100
AcDbEntity
  8
0
100
AcDbLine
 10
214.984295418902
 20
1157.712673048443
 30
0.0
 11
214.829115032217
 21
1158.961064517453
 31
0.0
  0
LINE
  5
3D5C
330
1D
100
AcDbEntity
  8
0
100
AcDbLine
 10
218.00083566022
 20
1158.14389288043
 30
0.0
 11
218.179295418902
 21
1157.667673048443
 31
0.0
  0
LINE
  5
3D5D
330
1D
100
AcDbEntity
  8
0
100
AcDbLine
 10
218.269655525413
 20
1158.288367522413
 30
0.0
 11
218.179295418902
 21
1157.667673048443
 31
0.0
  0
LINE
  5
3D5E
330
1D
100
AcDbEntity
  8
0
100
AcDbLine
 10
217.099832546699
 20
1158.453761676085
 30
0.0
 11
218.00083566022
 21
1158.14389288043
 31
0.0
  0
LINE
  5
3D5F
330
1D
100
AcDbEntity
  8
0
100
AcDbLine
 10
216.135295418902
 20
1158.556673048443
 30
0.0
 11
217.099832546699
 21
1158.453761676085
 31
0.0
  0
LINE
  5
3D60
330
1D
100
AcDbEntity
  8
0
100
AcDbLine
 10
212.976
 20
1166.745
 30
0.0
 11
209.645
 21
1167.27
 31
0.0
  0
LINE
  5
3D61
330
1D
100
AcDbEntity
  8
0
100
AcDbLine
 10
217.322
 20
1171.352
 30
0.0
 11
213.703
 21
1172.081
 31
0.0
  0
LINE
  5
3D62
330
1D
100
AcDbEntity
  8
0
100
AcDbLine
 10
213.703
 20
1172.081
 30
0.0
 11
210.044
 21
1173.044
 31
0.0
  0
LINE
  5
3D63
330
1D
100
AcDbEntity
  8
0
100
AcDbLine
 10
202.365
 20
1174.257
 30
0.0
 11
195.637
 21
1174.874
 31
0.0
  0
LINE
  5
3D64
330
1D
100
AcDbEntity
  8
0
100
AcDbLine
 10
199.466
 20
1168.961
 30
0.0
 11
188.506
 21
1169.576
 31
0.0
  0
LINE
  5
3D65
330
1D
100
AcDbEntity
  8
0
100
AcDbLine
 10
206.308
 20
1168.017
 30
0.0
 11
199.466
 21
1168.961
 31
0.0
  0
LINE
  5
3D66
330
1D
100
AcDbEntity
  8
0
100
AcDbLine
 10
205.269012004221
 20
1160.964486627567
 30
0.0
 11
204.118012004221
 21
1160.120486627567
 31
0.0
  0
LINE
  5
3D67
330
1D
100
AcDbEntity
  8
0
100
AcDbLine
 10
204.118012004221
 20
1160.120486627567
 30
0.0
 11
203.962831617536
 21
1161.368878096577
 31
0.0
  0
LINE
  5
3D68
330
1D
100
AcDbEntity
  8
0
100
AcDbLine
 10
207.13455224554
 20
1160.551706459554
 30
0.0
 11
207.313012004221
 21
1160.075486627567
 31
0.0
  0
LINE
  5
3D69
330
1D
100
AcDbEntity
  8
0
100
AcDbLine
 10
207.403372110732
 20
1160.696181101537
 30
0.0
 11
207.313012004221
 21
1160.075486627567
 31
0.0
  0
LINE
  5
3D6A
330
1D
100
AcDbEntity
  8
0
100
AcDbLine
 10
206.233549132019
 20
1160.861575255209
 30
0.0
 11
207.13455224554
 21
1160.551706459554
 31
0.0
  0
LINE
  5
3D6B
330
1D
100
AcDbEntity
  8
0
100
AcDbLine
 10
205.269012004221
 20
1160.964486627567
 30
0.0
 11
206.233549132019
 21
1160.861575255209
 31
0.0
  0
LINE
  5
3D6C
330
1D
100
AcDbEntity
  8
0
100
AcDbLine
 10
205.475012004221
 20
1159.280486627567
 30
0.0
 11
204.118012004221
 21
1160.120486627567
 31
0.0
  0
LINE
  5
3D6D
330
1D
100
AcDbEntity
  8
0
100
AcDbLine
 10
207.313012004221
 20
1160.075486627567
 30
0.0
 11
205.475012004221
 21
1159.280486627567
 31
0.0
  0
LINE
  5
3D6E
330
1D
100
AcDbEntity
  8
0
100
AcDbLine
 10
196.692993372028
 20
1157.37422831139
 30
0.0
 11
197.657530499826
 21
1157.271316939033
 31
0.0
  0
LINE
  5
3D6F
330
1D
100
AcDbEntity
  8
0
100
AcDbLine
 10
206.229
 20
1173.536
 30
0.0
 11
202.365
 21
1174.257
 31
0.0
  0
LINE
  5
3D78
330
1D
100
AcDbEntity
  8
0
100
AcDbLine
 10
195.637
 20
1174.874
 30
0.0
 11
188.678
 21
1174.914
 31
0.0
  0
LINE
  5
3D79
330
1D
100
AcDbEntity
  8
0
100
AcDbLine
 10
195.637
 20
1174.874
 30
0.0
 11
188.5
 21
1174.914
 31
0.0
  0
LINE
  5
3D7A
330
1D
100
AcDbEntity
  8
0
100
AcDbLine
 10
188.678
 20
1174.914
 30
0.0
 11
188.5
 21
1174.914
 31
0.0
  0
LINE
  5
3D7B
330
1D
100
AcDbEntity
  8
0
100
AcDbLine
 10
188.5
 20
1174.914
 30
0.0
 11
188.322
 21
1174.914
 31
0.0
  0
LINE
  5
3D7C
330
1D
100
AcDbEntity
  8
0
100
AcDbLine
 10
203.171
 20
1183.56
 30
0.0
 11
195.87
 21
1184.24
 31
0.0
  0
LINE
  5
3D7D
330
1D
100
AcDbEntity
  8
0
100
AcDbLine
 10
195.87
 20
1184.24
 30
0.0
 11
188.5
 21
1184.448
 31
0.0
  0
LINE
  5
3D7E
330
1D
100
AcDbEntity
  8
0
100
AcDbLine
 10
196.943
 20
995.003
 30
0.0
 11
194.467
 21
993.991
 31
0.0
  0
LINE
  5
3D7F
330
1D
100
AcDbEntity
  8
0
100
AcDbLine
 10
204.255
 20
1003.736
 30
0.0
 11
203.297
 21
995.764
 31
0.0
  0
LINE
  5
3D80
330
1D
100
AcDbEntity
  8
0
100
AcDbLine
 10
203.944818767697
 20
1003.88457772777
 30
0.0
 11
202.542
 21
999.581
 31
0.0
  0
LINE
  5
3D81
330
1D
100
AcDbEntity
  8
0
100
AcDbLine
 10
203.297
 20
995.764
 30
0.0
 11
203.032
 21
994.539
 31
0.0
  0
LINE
  5
3D82
330
1D
100
AcDbEntity
  8
0
100
AcDbLine
 10
203.032
 20
994.539
 30
0.0
 11
202.815
 21
993.614
 31
0.0
  0
LINE
  5
3D83
330
1D
100
AcDbEntity
  8
0
100
AcDbLine
 10
202.542
 20
999.581
 30
0.0
 11
199.703
 21
996.678
 31
0.0
  0
LINE
  5
3D84
330
1D
100
AcDbEntity
  8
0
100
AcDbLine
 10
199.703
 20
996.678
 30
0.0
 11
196.943
 21
995.003
 31
0.0
  0
LINE
  5
3D85
330
1D
100
AcDbEntity
  8
0
100
AcDbLine
 10
204.587
 20
1007.576
 30
0.0
 11
204.48
 21
1006.36
 31
0.0
  0
LINE
  5
3D86
330
1D
100
AcDbEntity
  8
0
100
AcDbLine
 10
204.48
 20
1006.36
 30
0.0
 11
204.377
 21
1005.015
 31
0.0
  0
LINE
  5
3D87
330
1D
100
AcDbEntity
  8
0
100
AcDbLine
 10
204.377
 20
1005.015
 30
0.0
 11
204.255
 21
1003.736
 31
0.0
  0
LINE
  5
3D88
330
1D
100
AcDbEntity
  8
0
100
AcDbLine
 10
205.677
 20
1019.76
 30
0.0
 11
204.84
 21
1010.087
 31
0.0
  0
LINE
  5
3D89
330
1D
100
AcDbEntity
  8
0
100
AcDbLine
 10
204.84
 20
1010.087
 30
0.0
 11
204.587
 21
1007.576
 31
0.0
  0
LINE
  5
3D8A
330
1D
100
AcDbEntity
  8
0
100
AcDbLine
 10
206.951
 20
1041.426
 30
0.0
 11
206.74
 21
1036.665
 31
0.0
  0
LINE
  5
3D8B
330
1D
100
AcDbEntity
  8
0
100
AcDbLine
 10
206.74
 20
1036.665
 30
0.0
 11
206.254
 21
1027.146
 31
0.0
  0
LINE
  5
3D8C
330
1D
100
AcDbEntity
  8
0
100
AcDbLine
 10
206.254
 20
1027.146
 30
0.0
 11
205.677
 21
1019.76
 31
0.0
  0
LINE
  5
3D8D
330
1D
100
AcDbEntity
  8
0
100
AcDbLine
 10
187.93
 20
1073.244
 30
0.0
 11
189.07
 21
1073.244
 31
0.0
  0
LINE
  5
3D8E
330
1D
100
AcDbEntity
  8
0
100
AcDbLine
 10
187.550965684281
 20
1143.026034744429
 30
0.0
 11
189.388965684281
 21
1142.231034744429
 31
0.0
  0
LINE
  5
3D8F
330
1D
100
AcDbEntity
  8
0
100
AcDbLine
 10
189.388965684281
 20
1142.231034744429
 30
0.0
 11
190.745965684281
 21
1143.071034744429
 31
0.0
  0
LINE
  5
3D90
330
1D
100
AcDbEntity
  8
0
100
AcDbLine
 10
189.594965684281
 20
1143.915034744429
 30
0.0
 11
188.630428556483
 21
1143.812123372071
 31
0.0
  0
LINE
  5
3D91
330
1D
100
AcDbEntity
  8
0
100
AcDbLine
 10
188.630428556483
 20
1143.812123372071
 30
0.0
 11
187.729425442962
 21
1143.502254576416
 31
0.0
  0
LINE
  5
3D92
330
1D
100
AcDbEntity
  8
0
100
AcDbLine
 10
187.46060557777
 20
1143.646729218399
 30
0.0
 11
187.550965684281
 21
1143.026034744429
 31
0.0
  0
LINE
  5
3D93
330
1D
100
AcDbEntity
  8
0
100
AcDbLine
 10
187.729425442962
 20
1143.502254576416
 30
0.0
 11
187.550965684281
 21
1143.026034744429
 31
0.0
  0
LINE
  5
3D94
330
1D
100
AcDbEntity
  8
0
100
AcDbLine
 10
190.745965684281
 20
1143.071034744429
 30
0.0
 11
190.901146070966
 21
1144.319426213439
 31
0.0
  0
LINE
  5
3D95
330
1D
100
AcDbEntity
  8
0
100
AcDbLine
 10
189.594965684281
 20
1143.915034744429
 30
0.0
 11
190.745965684281
 21
1143.071034744429
 31
0.0
  0
LINE
  5
3D96
330
1D
100
AcDbEntity
  8
0
100
AcDbLine
 10
187.613088532977
 20
1152.779321989656
 30
0.0
 11
189.451088532977
 21
1151.984321989656
 31
0.0
  0
LINE
  5
3D97
330
1D
100
AcDbEntity
  8
0
100
AcDbLine
 10
189.451088532977
 20
1151.984321989656
 30
0.0
 11
190.808088532977
 21
1152.824321989656
 31
0.0
  0
LINE
  5
3D98
330
1D
100
AcDbEntity
  8
0
100
AcDbLine
 10
189.657088532977
 20
1153.668321989656
 30
0.0
 11
188.692551405179
 21
1153.565410617298
 31
0.0
  0
LINE
  5
3D99
330
1D
100
AcDbEntity
  8
0
100
AcDbLine
 10
188.692551405179
 20
1153.565410617298
 30
0.0
 11
187.791548291658
 21
1153.255541821643
 31
0.0
  0
LINE
  5
3D9A
330
1D
100
AcDbEntity
  8
0
100
AcDbLine
 10
187.522728426466
 20
1153.400016463626
 30
0.0
 11
187.613088532977
 21
1152.779321989656
 31
0.0
  0
LINE
  5
3D9B
330
1D
100
AcDbEntity
  8
0
100
AcDbLine
 10
187.791548291658
 20
1153.255541821643
 30
0.0
 11
187.613088532977
 21
1152.779321989656
 31
0.0
  0
LINE
  5
3D9C
330
1D
100
AcDbEntity
  8
0
100
AcDbLine
 10
190.808088532977
 20
1152.824321989656
 30
0.0
 11
190.963268919662
 21
1154.072713458666
 31
0.0
  0
LINE
  5
3D9D
330
1D
100
AcDbEntity
  8
0
100
AcDbLine
 10
189.657088532977
 20
1153.668321989656
 30
0.0
 11
190.808088532977
 21
1152.824321989656
 31
0.0
  0
LINE
  5
3D9E
330
1D
100
AcDbEntity
  8
0
100
AcDbLine
 10
188.047948473847
 20
1163.650820511406
 30
0.0
 11
189.885948473847
 21
1162.855820511406
 31
0.0
  0
LINE
  5
3D9F
330
1D
100
AcDbEntity
  8
0
100
AcDbLine
 10
189.885948473847
 20
1162.855820511406
 30
0.0
 11
191.242948473847
 21
1163.695820511406
 31
0.0
  0
LINE
  5
3DA0
330
1D
100
AcDbEntity
  8
0
100
AcDbLine
 10
190.091948473847
 20
1164.539820511406
 30
0.0
 11
189.127411346049
 21
1164.436909139048
 31
0.0
  0
LINE
  5
3DA1
330
1D
100
AcDbEntity
  8
0
100
AcDbLine
 10
189.127411346049
 20
1164.436909139048
 30
0.0
 11
188.226408232528
 21
1164.127040343393
 31
0.0
  0
LINE
  5
3DA2
330
1D
100
AcDbEntity
  8
0
100
AcDbLine
 10
187.957588367336
 20
1164.271514985376
 30
0.0
 11
188.047948473847
 21
1163.650820511406
 31
0.0
  0
LINE
  5
3DA3
330
1D
100
AcDbEntity
  8
0
100
AcDbLine
 10
188.226408232528
 20
1164.127040343393
 30
0.0
 11
188.047948473847
 21
1163.650820511406
 31
0.0
  0
LINE
  5
3DA4
330
1D
100
AcDbEntity
  8
0
100
AcDbLine
 10
191.242948473847
 20
1163.695820511406
 30
0.0
 11
191.398128860532
 21
1164.944211980416
 31
0.0
  0
LINE
  5
3DA5
330
1D
100
AcDbEntity
  8
0
100
AcDbLine
 10
190.091948473847
 20
1164.539820511406
 30
0.0
 11
191.242948473847
 21
1163.695820511406
 31
0.0
  0
LINE
  5
3DA6
330
1D
100
AcDbEntity
  8
0
100
AcDbLine
 10
187.95672827272
 20
1098.280001993396
 30
0.0
 11
187.055725159199
 21
1097.970133197741
 31
0.0
  0
LINE
  5
3DA7
330
1D
100
AcDbEntity
  8
0
100
AcDbLine
 10
186.877265400518
 20
1097.493913365754
 30
0.0
 11
188.715265400518
 21
1096.698913365754
 31
0.0
  0
LINE
  5
3DA8
330
1D
100
AcDbEntity
  8
0
100
AcDbLine
 10
187.055725159199
 20
1097.970133197741
 30
0.0
 11
186.877265400518
 21
1097.493913365754
 31
0.0
  0
LINE
  5
3DA9
330
1D
100
AcDbEntity
  8
0
100
AcDbLine
 10
186.786905294007
 20
1098.114607839724
 30
0.0
 11
186.877265400518
 21
1097.493913365754
 31
0.0
  0
LINE
  5
3DAA
330
1D
100
AcDbEntity
  8
0
100
AcDbLine
 10
188.921265400518
 20
1098.382913365754
 30
0.0
 11
190.072265400518
 21
1097.538913365754
 31
0.0
  0
LINE
  5
3DAB
330
1D
100
AcDbEntity
  8
0
100
AcDbLine
 10
190.072265400518
 20
1097.538913365754
 30
0.0
 11
190.227445787203
 21
1098.787304834764
 31
0.0
  0
LINE
  5
3DAC
330
1D
100
AcDbEntity
  8
0
100
AcDbLine
 10
188.921265400518
 20
1098.382913365754
 30
0.0
 11
187.95672827272
 21
1098.280001993396
 31
0.0
  0
LINE
  5
3DAD
330
1D
100
AcDbEntity
  8
0
100
AcDbLine
 10
188.715265400518
 20
1096.698913365754
 30
0.0
 11
190.072265400518
 21
1097.538913365754
 31
0.0
  0
LINE
  5
3DAE
330
1D
100
AcDbEntity
  8
0
100
AcDbLine
 10
188.5
 20
993.229
 30
0.0
 11
194.467
 21
993.991
 31
0.0
  0
ENDSEC
  0
SECTION
  2
OBJECTS
  0
DICTIONARY
  5
C
330
0
100
AcDbDictionary
281
     1
  3
ACAD_GROUP
350
D
  3
ACAD_LAYOUT
350
1A
  3
ACAD_MLEADERSTYLE
350
3DB1
  3
ACAD_MLINESTYLE
350
17
  3
ACAD_PLOTSETTINGS
350
19
  3
ACAD_PLOTSTYLENAME
350
E
  3
ACAD_SCALELIST
350
39F0
  3
AcDbVariableDictionary
350
3DAF
  3
DWGPROPS
350
3DB6
  0
DICTIONARY
  5
D
102
{ACAD_REACTORS
330
C
102
}
330
C
100
AcDbDictionary
281
     1
  0
DICTIONARY
  5
1A
102
{ACAD_REACTORS
330
C
102
}
330
C
100
AcDbDictionary
281
     1
  3
Layout1
350
1C
  3
Model
350
1E
  0
DICTIONARY
  5
3DB1
102
{ACAD_REACTORS
330
C
102
}
330
C
100
AcDbDictionary
281
     1
  0
DICTIONARY
  5
17
102
{ACAD_REACTORS
330
C
102
}
330
C
100
AcDbDictionary
281
     1
  3
Standard
350
18
  0
DICTIONARY
  5
19
102
{ACAD_REACTORS
330
C
102
}
330
C
100
AcDbDictionary
281
     1
  0
ACDBDICTIONARYWDFLT
  5
E
102
{ACAD_REACTORS
330
C
102
}
330
C
100
AcDbDictionary
281
     1
  3
Normal
350
F
100
AcDbDictionaryWithDefault
340
F
  0
DICTIONARY
  5
39F0
102
{ACAD_REACTORS
330
C
102
}
330
C
100
AcDbDictionary
281
     1
  3
A0
350
39F1
  3
A1
350
39F2
  3
A2
350
39F3
  3
A3
350
39F4
  3
A4
350
39F5
  3
A5
350
39F6
  3
A6
350
39F7
  3
A7
350
39F8
  3
A8
350
39F9
  3
A9
350
39FA
  3
B0
350
39FB
  3
B1
350
39FC
  3
B2
350
39FD
  3
B3
350
39FE
  3
B4
350
39FF
  3
B5
350
3A00
  3
B6
350
3A01
  3
B7
350
3A02
  3
B8
350
3A03
  3
B9
350
3A04
  3
C0
350
3A05
  3
C1
350
3A06
  3
C2
350
3A07
  3
C3
350
3A08
  3
C4
350
3A09
  3
C5
350
3A0A
  3
C6
350
3A0B
  3
C7
350
3A0C
  3
C8
350
3A0D
  3
C9
350
3A0E
  3
D0
350
3A0F
  3
D1
350
3A10
  3
D2
350
3A11
  0
DICTIONARY
  5
3DAF
102
{ACAD_REACTORS
330
C
102
}
330
C
100
AcDbDictionary
281
     1
  3
CANNOSCALE
350
3DB2
  0
XRECORD
  5
3DB6
102
{ACAD_REACTORS
330
C
102
}
330
C
100
AcDbXrecord
280
     1
  1
DWGPROPS COOKIE
  2

  3

  4

  6

  7

  8
MARTIN
  9

300
=
301
=
302
=
303
=
304
=
305
=
306
=
307
=
308
=
309
=
 40
0.0
 41
2455824.902076273
 42
2455824.913468785
  1

 90
        0
  0
LAYOUT
  5
1C
102
{ACAD_REACTORS
330
1A
102
}
330
1A
100
AcDbPlotSettings
  1

  2
none_device
  4

  6

 40
0.0
 41
0.0
 42
0.0
 43
0.0
 44
0.0
 45
0.0
 46
0.0
 47
0.0
 48
0.0
 49
0.0
140
0.0
141
0.0
142
1.0
143
1.0
 70
   688
 72
     0
 73
     0
 74
     5
  7

 75
    16
147
1.0
148
0.0
149
0.0
100
AcDbLayout
  1
Layout1
 70
     1
 71
     1
 10
0.0
 20
0.0
 11
12.0
 21
9.0
 12
0.0
 22
0.0
 32
0.0
 14
1.000000000000E+20
 24
1.000000000000E+20
 34
1.000000000000E+20
 15
-1.000000000000E+20
 25
-1.000000000000E+20
 35
-1.000000000000E+20
146
0.0
 13
0.0
 23
0.0
 33
0.0
 16
1.0
 26
0.0
 36
0.0
 17
0.0
 27
1.0
 37
0.0
 76
     0
330
1B
  0
LAYOUT
  5
1E
102
{ACAD_REACTORS
330
1A
102
}
330
1A
100
AcDbPlotSettings
  1

  2
none_device
  4

  6

 40
0.0
 41
0.0
 42
0.0
 43
0.0
 44
0.0
 45
0.0
 46
0.0
 47
0.0
 48
0.0
 49
0.0
140
0.0
141
0.0
142
1.0
143
1.0
 70
  1712
 72
     0
 73
     0
 74
     0
  7

 75
     0
147
1.0
148
0.0
149
0.0
100
AcDbLayout
  1
Model
 70
     1
 71
     0
 10
0.0
 20
0.0
 11
12.0
 21
9.0
 12
0.0
 22
0.0
 32
0.0
 14
112.5
 24
986.395
 34
0.0
 15
264.5
 25
1184.448
 35
0.0
146
0.0
 13
0.0
 23
0.0
 33
0.0
 16
1.0
 26
0.0
 36
0.0
 17
0.0
 27
1.0
 37
0.0
 76
     0
330
1D
331
39EB
  0
MLINESTYLE
  5
18
102
{ACAD_REACTORS
330
17
102
}
330
17
100
AcDbMlineStyle
  2
Standard
 70
     0
  3

 62
   256
 51
90.0
 52
90.0
 71
     2
 49
0.5
 62
   256
  6
BYLAYER
 49
-0.5
 62
   256
  6
BYLAYER
  0
ACDBPLACEHOLDER
  5
F
102
{ACAD_REACTORS
330
E
102
}
330
E
  0
SCALE
  5
39F1
102
{ACAD_REACTORS
330
39F0
102
}
330
39F0
100
AcDbScale
 70
     0
300
1:1
140
1.0
141
1.0
290
     1
  0
SCALE
  5
39F2
102
{ACAD_REACTORS
330
39F0
102
}
330
39F0
100
AcDbScale
 70
     0
300
1:2
140
1.0
141
2.0
290
     0
  0
SCALE
  5
39F3
102
{ACAD_REACTORS
330
39F0
102
}
330
39F0
100
AcDbScale
 70
     0
300
1:4
140
1.0
141
4.0
290
     0
  0
SCALE
  5
39F4
102
{ACAD_REACTORS
330
39F0
102
}
330
39F0
100
AcDbScale
 70
     0
300
1:5
140
1.0
141
5.0
290
     0
  0
SCALE
  5
39F5
102
{ACAD_REACTORS
330
39F0
102
}
330
39F0
100
AcDbScale
 70
     0
300
1:8
140
1.0
141
8.0
290
     0
  0
SCALE
  5
39F6
102
{ACAD_REACTORS
330
39F0
102
}
330
39F0
100
AcDbScale
 70
     0
300
1:10
140
1.0
141
10.0
290
     0
  0
SCALE
  5
39F7
102
{ACAD_REACTORS
330
39F0
102
}
330
39F0
100
AcDbScale
 70
     0
300
1:16
140
1.0
141
16.0
290
     0
  0
SCALE
  5
39F8
102
{ACAD_REACTORS
330
39F0
102
}
330
39F0
100
AcDbScale
 70
     0
300
1:20
140
1.0
141
20.0
290
     0
  0
SCALE
  5
39F9
102
{ACAD_REACTORS
330
39F0
102
}
330
39F0
100
AcDbScale
 70
     0
300
1:30
140
1.0
141
30.0
290
     0
  0
SCALE
  5
39FA
102
{ACAD_REACTORS
330
39F0
102
}
330
39F0
100
AcDbScale
 70
     0
300
1:40
140
1.0
141
40.0
290
     0
  0
SCALE
  5
39FB
102
{ACAD_REACTORS
330
39F0
102
}
330
39F0
100
AcDbScale
 70
     0
300
1:50
140
1.0
141
50.0
290
     0
  0
SCALE
  5
39FC
102
{ACAD_REACTORS
330
39F0
102
}
330
39F0
100
AcDbScale
 70
     0
300
1:100
140
1.0
141
100.0
290
     0
  0
SCALE
  5
39FD
102
{ACAD_REACTORS
330
39F0
102
}
330
39F0
100
AcDbScale
 70
     0
300
2:1
140
2.0
141
1.0
290
     0
  0
SCALE
  5
39FE
102
{ACAD_REACTORS
330
39F0
102
}
330
39F0
100
AcDbScale
 70
     0
300
4:1
140
4.0
141
1.0
290
     0
  0
SCALE
  5
39FF
102
{ACAD_REACTORS
330
39F0
102
}
330
39F0
100
AcDbScale
 70
     0
300
8:1
140
8.0
141
1.0
290
     0
  0
SCALE
  5
3A00
102
{ACAD_REACTORS
330
39F0
102
}
330
39F0
100
AcDbScale
 70
     0
300
10:1
140
10.0
141
1.0
290
     0
  0
SCALE
  5
3A01
102
{ACAD_REACTORS
330
39F0
102
}
330
39F0
100
AcDbScale
 70
     0
300
100:1
140
100.0
141
1.0
290
     0
  0
SCALE
  5
3A02
102
{ACAD_REACTORS
330
39F0
102
}
330
39F0
100
AcDbScale
 70
     0
300
1/128" = 1'-0"
140
0.0078125
141
12.0
290
     0
  0
SCALE
  5
3A03
102
{ACAD_REACTORS
330
39F0
102
}
330
39F0
100
AcDbScale
 70
     0
300
1/64" = 1'-0"
140
0.015625
141
12.0
290
     0
  0
SCALE
  5
3A04
102
{ACAD_REACTORS
330
39F0
102
}
330
39F0
100
AcDbScale
 70
     0
300
1/32" = 1'-0"
140
0.03125
141
12.0
290
     0
  0
SCALE
  5
3A05
102
{ACAD_REACTORS
330
39F0
102
}
330
39F0
100
AcDbScale
 70
     0
300
1/16" = 1'-0"
140
0.0625
141
12.0
290
     0
  0
SCALE
  5
3A06
102
{ACAD_REACTORS
330
39F0
102
}
330
39F0
100
AcDbScale
 70
     0
300
3/32" = 1'-0"
140
0.09375
141
12.0
290
     0
  0
SCALE
  5
3A07
102
{ACAD_REACTORS
330
39F0
102
}
330
39F0
100
AcDbScale
 70
     0
300
1/8" = 1'-0"
140
0.125
141
12.0
290
     0
  0
SCALE
  5
3A08
102
{ACAD_REACTORS
330
39F0
102
}
330
39F0
100
AcDbScale
 70
     0
300
3/16" = 1'-0"
140
0.1875
141
12.0
290
     0
  0
SCALE
  5
3A09
102
{ACAD_REACTORS
330
39F0
102
}
330
39F0
100
AcDbScale
 70
     0
300
1/4" = 1'-0"
140
0.25
141
12.0
290
     0
  0
SCALE
  5
3A0A
102
{ACAD_REACTORS
330
39F0
102
}
330
39F0
100
AcDbScale
 70
     0
300
3/8" = 1'-0"
140
0.375
141
12.0
290
     0
  0
SCALE
  5
3A0B
102
{ACAD_REACTORS
330
39F0
102
}
330
39F0
100
AcDbScale
 70
     0
300
1/2" = 1'-0"
140
0.5
141
12.0
290
     0
  0
SCALE
  5
3A0C
102
{ACAD_REACTORS
330
39F0
102
}
330
39F0
100
AcDbScale
 70
     0
300
3/4" = 1'-0"
140
0.75
141
12.0
290
     0
  0
SCALE
  5
3A0D
102
{ACAD_REACTORS
330
39F0
102
}
330
39F0
100
AcDbScale
 70
     0
300
1" = 1'-0"
140
1.0
141
12.0
290
     0
  0
SCALE
  5
3A0E
102
{ACAD_REACTORS
330
39F0
102
}
330
39F0
100
AcDbScale
 70
     0
300
1-1/2" = 1'-0"
140
1.5
141
12.0
290
     0
  0
SCALE
  5
3A0F
102
{ACAD_REACTORS
330
39F0
102
}
330
39F0
100
AcDbScale
 70
     0
300
3" = 1'-0"
140
3.0
141
12.0
290
     0
  0
SCALE
  5
3A10
102
{ACAD_REACTORS
330
39F0
102
}
330
39F0
100
AcDbScale
 70
     0
300
6" = 1'-0"
140
6.0
141
12.0
290
     0
  0
SCALE
  5
3A11
102
{ACAD_REACTORS
330
39F0
102
}
330
39F0
100
AcDbScale
 70
     0
300
1'-0" = 1'-0"
140
12.0
141
12.0
290
     0
  0
DICTIONARYVAR
  5
3DB2
102
{ACAD_REACTORS
330
3DAF
102
}
330
3DAF
100
DictionaryVariables
280
     0
  1
1:1
  0
ENDSEC
  0
SECTION
  2
THUMBNAILIMAGE
 90
    16364
310
28000000B40000005500000001000800000000000000000000000000000000000000000000000000FFFFFF000000FF0000FFFF0000FF0000FFFF0000FF000000FF00FF000000000080808000C0C0C0000000FF007F7FFF000000A5005252A50000007F003F3F7F0000004C0026264C000000260013132600003FFF007F9FFF
310
000029A5005267A500001F7F003F4F7F0000134C00262F4C000009260013172600007FFF007FBFFF000052A500527CA500003F7F003F5F7F0000264C0026394C0000132600131C260000BFFF007FDFFF00007CA5005291A500005F7F003F6F7F0000394C0026424C00001C26001321260000FFFF007FFFFF0000A5A50052A5
310
A500007F7F003F7F7F00004C4C00264C4C00002626001326260000FFBF007FFFDF0000A57C0052A59100007F5F003F7F6F00004C3900264C420000261C001326210000FF7F007FFFBF0000A5520052A57C00007F3F003F7F5F00004C2600264C39000026130013261C0000FF3F007FFF9F0000A5290052A56700007F1F003F
310
7F4F00004C1300264C2F00002609001326170000FF00007FFF7F0000A5000052A55200007F00003F7F3F00004C0000264C260000260000132613003FFF00009FFF7F0029A5000067A552001F7F00004F7F3F00134C00002F4C260009260000172613007FFF0000BFFF7F0052A500007CA552003F7F00005F7F3F00264C0000
310
394C2600132600001C261300BFFF0000DFFF7F007CA5000091A552005F7F00006F7F3F00394C0000424C26001C26000021261300FFFF0000FFFF7F00A5A50000A5A552007F7F00007F7F3F004C4C00004C4C26002626000026261300FFBF0000FFDF7F00A57C0000A59152007F5F00007F6F3F004C3900004C422600261C00
310
0026211300FF7F0000FFBF7F00A5520000A57C52007F3F00007F5F3F004C2600004C39260026130000261C1300FF3F0000FF9F7F00A5290000A56752007F1F00007F4F3F004C1300004C2F26002609000026171300FF000000FF7F7F00A5000000A55252007F0000007F3F3F004C0000004C2626002600000026131300FF00
310
3F00FF7F9F00A5002900A55267007F001F007F3F4F004C0013004C262F002600090026131700FF007F00FF7FBF00A5005200A5527C007F003F007F3F5F004C0026004C2639002600130026131C00FF00BF00FF7FDF00A5007C00A55291007F005F007F3F6F004C0039004C26420026001C0026132100FF00FF00FF7FFF00A5
310
00A500A552A5007F007F007F3F7F004C004C004C264C002600260026132600BF00FF00DF7FFF007C00A5009152A5005F007F006F3F7F0039004C0042264C001C002600211326007F00FF00BF7FFF005200A5007C52A5003F007F005F3F7F0026004C0039264C00130026001C1326003F00FF009F7FFF002900A5006752A500
310
1F007F004F3F7F0013004C002F264C000900260017132600000000002D2D2D005B5B5B0089898900B7B7B700B3B3B30000000000000000000000000000000000000000000000000000000000000000000000000000000000000000000000000000000000000000000000000000000000000000000000000000000000000000
310
00000000000000000000000007070707070700000000000000000000000000000000000000000000000000000000000000000000000000000000000000000000000000000000000000000000000000000000000000000000000000000000000000000000000000000000000000000000000000000000000000000000000000
310
00000000000000000000000000000000000000000000000000000000000000000000000000000000000000000000000000000000000000000000000000000000070707070707070707000000000000000000000000000000000000000000000000000000000000000000000000000000000000000000000000000000000000
310
00000000000000000000000000000000000000000000000000000000000000000000000000000000000000000000000000000000000000000000000000000000000000000000000000000000000000000000000000000000000000000000000000000000000000000000000000000000000000000707070000000000070707
310
00000000000000000000000000000000000000000000000000000000000000000000000000000000000000000000000000000000000000000000000000000000000000000000000000000000000000000000000000000000000000000000000000000000000000000000000000000000000000000000000000000000000000
310
00000000000000000000000000000000000000000000000000000000000000000000000000000000000707070000000000000007070000000000000000000000000000000000000000000000000000000000000000000000000000000000000000000000000000000000000000000000000000000000000000000000000000
310
00000000000000000000000000000000000000000000000000000000000000000000000000000000000000000000000000000000000000000000000000000000000000000000000000000000000000000000000000000000000000000000070700000000000000000007070000000000000000000000000000000000000000
310
00000000000000000000000000000000000000000000000000000000000000000000000000000000000000000000000000000000000000000000000000000000000000000000000000000000000000000000000000000000000000000000000000000000000000000000000000000000000000000000000000000000000000
310
00000000000000000000000000000000000000000707000000000000000000070700000000000000000000000000000000000000000000000000000000000000000000000000000000000000000000000000000000000000000000000000000000000000000000000000000000000000000000000000000000000000000000
310
00000000000000000000000000000000000000000000000000000000000000000000000000000000000000000000000000000000000000000000000000000000000000000000000000070000000000000000000000000000000000000000000000000000000000000000000000000000000000000000000000000000000000
310
00000000000000000000000000000000000000000000000000000000000000000000000000000000000000000000000000000000000000000000000000000000000000000000000000000000000000000000000000000000000000000000000000000000000000000000000000000000000000000000000000000000000007
310
00000000000000000000070700000000000000000000000000000000000000000000000000000000000000000000000000000000000000000000000000000000000000000000000000000000000000000000000000000000000000000000000000000000000000000000000000000000000000000000000000000000000000
310
00000000000000000000000000000000000000000000000000000000000000000000000000000000000000000000000000000000070000000000000000000007070000000000000000000000000000000000000000000000000000000000000000000000000000000000000000000000000000000000000000000000000000
310
00000000000000000000000000000000000000000000000000000000000000000000000000000000000000000000000000000000000000000000000000000000000000000000000000000000000000000000000000000000000000000000000000000000000000000007000000000000000000000707000000000000000000
310
00000000000000000000000000000000000000000000000000000000000000000000000000000000000000000000000000000000000000000000000000000000000000000000000000000000000000000000000000000000000000000000000000000000000000000000000000000000000000000000000000000000000000
310
00000000000000000000000000000000000000000000000000000000000000070000000000000000000007070000000000000000000000000000000000000000000000000000000000000000000000000000000000000000000000000000000000000000000000000000000000000000000000000000000000000000000000
310
00000000000000000000000000000000000000000000000000000000000000000000000000000000000000000000000000000000000000000000000000000000000000000000000000000000000000000000000007000000000000000000000707000000000000000000000000000000000000000000000000000000000000
310
00000000000000000000000000000000000000000000000000000000000000000000000000000000000000000000000000000000000000000000000000000000000000000000000000000000000000000000000000000000000000000000000000000000000000000000000000000000000000000000000000000000000000
310
00000000000000000000070000000000000000000707000000000000000000000000000000000000000000000000000000000000000000000000000000000000000000000000000000000000000000000000000000000000000000000000000000000000000000000000000000000000000000000000000000000000000000
310
00000000000000000000000000000000000000000000000000000000000000000000000000000000000000000000000000000000000000000000000000000007000000000000000000070700000000000000000000000000000000000000000000000000000000000000000000000000000000000000000000000000000000
310
00000000000000000000000000000000000000000000000000000000000000000000000000000000000000000000000000000000000000000000000000000000000000000000000000000000000000000000000000000000000000000000000000000000000000000000000000000000000000000700000000000000000007
310
07000000000000000000000000000000000000000000000000000000000000000000000000000000000000000000000000000000000000000000000000000000000000000000000000000000000000000000000000000000000000000000000000000000000000000000000000000000000000000000000000000000000000
310
00000000000000000000000000000000000000000000000000000000000000000000000000000000000007000000000000000007070000000000000000000000000000000000000000000000000000000000000000000000000000000000000000000000000000000000000000000000000000000000000000000000000000
310
00000000000000000000000000000000000000000000000000000000000000000000000000000000000000000000000000000000000000000000000000000000000000000000000000000000000000000000000000000000000000000000000700000000000000000707000000000000000000000000000000000000000000
310
00000000000000000000000000000000000000000000000000000000000000000000000000000000000000000000000000000000000000000000000000000000000000000000000000000000000000000000000000000000000000000000000000000000000000000000000000000000000000000000000000000000000000
310
00000000000000000000000000000000000000000007000000000000000007070000000000000000000000000000000000000000000000000000000000000000000000000000000000000000000000000000000000000000000000000000000000000000000000000000000000000000000000000000000000000000000000
310
00000000000000000000000000000000000000000000000000000000000000000000000000000000000000000000000000000000000000000000000000000000000000000000000000070700000000000000070007000000000000000000000000000000000000000000000000000000000000000000000000000000000000
310
00000000000000000000000000000000000000000000000000000000000000000000000000000000000000000000000000000000000000000000000000000000000000000000000000000000000000000000000000000000000000000000000000000000000000000000000000000000000000000000000000000707070007
310
07000007070700000707000000000000000000000000000000000000000000000000000000000000000000000000000000000000000000000000000000000000000000000000000000000000000000000000000000000000000000000000000000000000000000000000000000000000000000000000000000000000000000
310
00000000000000000000000000000000000000000000000000000000000000000000000000000000000000000007070707070707070707070707070707070700000000000000000000000000000000000000000000000000000000000000000000000000000000000000000000000000000000000000000000000000000000
310
00000000000000000000000000000000000000000000000000000000000000000000000000000000000000000000000000000000000000000000000000000000000000000000000000000000000000000000000000000000000000000000000000000700070700000000000000000007070007070000000000000000000000
310
00000000000000000000000000000000000000000000000000000000000000000000000000000000000000000000000000000000000000000000000000000000000000000000000000000000000000000000000000000000000000000000000000000000000000000000000000000000000000000000000000000000000000
310
00000000000000000000000000000000000000000000000007070707070707070707070707070707070000000000000000000000000000000000000000000000000000000000000000000000000000000000000000000000000000000000000000000000000000000000000000000000000000000000000000000000000000
310
00000000000000000000000000000000000000000000000000000000000000000000000000000000000000000000000000000000000000000000000000000000000000000000000000000000000000000707000007000700000700000707000000000000000000000000000000000000000000000000000000000000000000
310
00000000000000000000000000000000000000000000000000000000000000000000000000000000000000000000000000000000000000000000000000000000000000000000000000000000000000000000000000000000000000000000000000000000000000000000000000000000000000000000000000000000000000
310
00000000000000000000070007000000000707000000000000000000000000000000000000000000000000000000000000000000000000000000000000000000000000000000000000000000000000000000000000000000000000000000000000000000000000000000000000000000000000000000000000000000000000
310
00000000000000000000000000000000000000000000000000000000000000000000000000000000000000000000000000000000000000000000000000000007000700000000070700000000000000000000000000000000000000000000000000000000000000000000000000000000000000000000000000000000000000
310
00000000000000000000000000000000000000000000000000000000000000000000000000000000000000000000000000000000000000000000000000000000000000000000000000000000000000000000000000000000000000000000000000000000000000000000000000000000000000000700070000000700070000
310
00000000000000000000000000000000000000000000000000000000000000000000000000000000000000000000000000000000000000000000000000000000000000000000000000000000000000000000000000000000000000000000000000000000000000000000000000000000000000000000000000000000000000
310
00000000000000000000000000000000000000000000000000000000000000000000000000000000000007000700000007070000000000000000000000000000000000000000000000000000000000000000000000000000000000000000000000000000000000000000000000000000000000000000000000000000000000
310
00000000000000000000000000000000000000000000000000000000000000000000000000000000000000000000000000000000000000000000000000000000000000000000000000000000000000000000000000000000000000000000000700070000070007000000000000000000000000000000000000000000000000
310
00000000000000000000000000000000000000000000000000000000000000000000000000000000000000000000000000000000000000000000000000000000000000000000000000000000000000000000000000000000000000000000000000000000000000000000000000000000000000000000000000000000000000
310
00000000000000000000000000000000000000000007000700000707000000000000000000000000000000000000000000000000000000000000000000000000000000000000000000000000000000000000000000000000000000000000000000000000000000000000000000000000000000000000000000000000000000
310
00000000000000000000000000000000000000000000000000000000000000000000000000000000000000000000000000000000000000000000000000000000000000000000000000000700070000070700000000000000000000000000000000000000000000000000000000000000000000000000000000000000000000
310
00000000000000000000000000000000000000000000000000000000000000000000000000000000000000000000000000000000000000000000000000000000000000000000000000000000000000000000000000000000000000000000000000000000000000000000000000000000000000000000000000000000000000
310
07000700000707000000000000000000000000000000000000000000000000000000000000000000000000000000000000000000000000000000000000000000000000000000000000000000000000000000000000000000000000000000000000000000000000000000000000000000000000000000000000000000000000
310
00000000000000000000000000000000000000000000000000000000000000000000000000000000000000000000000000000000000700070007000700000000000000000000000000000000000000000000000000000000000000000000000000000000000000000000000000000000000000000000000000000000000000
310
00000000000000000000000000000000000000000000000000000000000000000000000000000000000000000000000000000000000000000000000000000000000000000000000000000000000000000000000000000000000000000000000000000000000000000000070007000707000000000000000000000000000000
310
00000000000000000000000000000000000000000000000000000000000000000000000000000000000000000000000000000000000000000000000000000000000000000000000000000000000000000000000000000000000000000000000000000000000000000000000000000000000000000000000000000000000000
310
00000000000000000000000000000000000000000000000000000000000000000700070007070000000000000000000000000000000000000000000000000000000000000000000000000000000000000000000000000000000000000000000000000000000000000000000000000000000000000000000000000000000000
310
00000000000000000000000000000000000000000000000000000000000000000000000000000000000000000000000000000000000000000000000000000000000000000000000000000000000000000000000000070007000707000000000000000000000000000000000000000000000000000000000000000000000000
310
00000000000000000000000000000000000000000000000000000000000000000000000000000000000000000000000000000000000000000000000000000000000000000000000000000000000000000000000000000000000000000000000000000000000000000000000000000000000000000000000000000000000000
310
00000000000000000000000700070007070000000000000000000000000000000000000000000000000000000000000000000000000000000000000000000000000000000000000000000000000000000000000000000000000000000000000000000000000000000000000000000000000000000000000000000000000000
310
00000000000000000000000000000000000000000000000000000000000000000000000000000000000000000000000000000000000000000000000000000000070007000707000000000000000000000000000000000000000000000000000000000000000000000000000000000000000000000000000000000000000000
310
00000000000000000000000000000000000000000000000000000000000000000000000000000000000000000000000000000000000000000000000000000000000000000000000000000000000000000000000000000000000000000000000000000000000000000000000000000000000000000007000707070000000000
310
00000000000000000000000000000000000000000000000000000000000000000000000000000000000000000000000000000000000000000000000000000000000000000000000000000000000000000000000000000000000000000000000000000000000000000000000000000000000000000000000000000000000000
310
00000000000000000000000000000000000000000000000000000000000000000000000000000000000000070007070700000000000000000000000000000000000000000000000000000000000000000000000000000000000000000000000000000000000000000000000000000000000000000000000000000000000000
310
00000000000000000000000000000000000000000000000000000000000000000000000000000000000000000000000000000000000000000000000000000000000000000000000000000000000000000000000000000000000000000000000007000707070000000000000000000000000000000000000000000000000000
310
00000000000000000000000000000000000000000000000000000000000000000000000000000000000000000000000000000000000000000000000000000000000000000000000000000000000000000000000000000000000000000000000000000000000000000000000000000000000000000000000000000000000000
310
00000000000000000000000000000000000000000000070007070700000000000000000000000000000000000000000000000000000000000000000000000000000000000000000000000000000000000000000000000000000000000000000000000000000000000000000000000000000000000000000000000000000000
310
00000000000000000000000000000000000000000000000000000000000000000000000000000000000000000000000000000000000000000000000000000000000000000000000000000007000707070000000000000000000000000000000000000000000000000000000000000000000000000000000000000000000000
310
00000000000000000000000000000000000000000000000000000000000000000000000000000000000000000000000000000000000000000000000000000000000000000000000000000000000000000000000000000000000000000000000000000000000000000000000000000000000000000000000000000000000000
310
00070007070000000000000000000000000000000000000000000000000000000000000000000000000000000000000000000000000000000000000000000000000000000000000000000000000000000000000000000000000000000000000000000000000000000000000000000000000000000000000000000000000000
310
00000000000000000000000000000000000000000000000000000000000000000000000000000000000000000000000000000000000007000707000000000000000000000000000000000000000000000000000000000000000000000000000000000000000000000000000000000000000000000000000000000000000000
310
00000000000000000000000000000000000000000000000000000000000000000000000000000000000000000000000000000000000000000000000000000000000000000000000000000000000000000000000000000000000000000000000000000000000000000000000700070700000000000000000000000000000000
310
00000000000000000000000000000000000000000000000000000000000000000000000000000000000000000000000000000000000000000000000000000000000000000000000000000000000000000000000000000000000000000000000000000000000000000000000000000000000000000000000000000000000000
310
00000000000000000000000000000000000000000000000000000000000000000007000707000000000000000000000000000000000000000000000000000000000000000000000000000000000000000000000000000000000000000000000000000000000000000000000000000000000000000000000000000000000000
310
00000000000000000000000000000000000000000000000000000000000000000000000000000000000000000000000000000000000000000000000000000000000000000000000000000000000000000000000000000700070700000000000000000000000000000000000000000000000000000000000000000000000000
310
00000000000000000000000000000000000000000000000000000000000000000000000000000000000000000000000000000000000000000000000000000000000000000000000000000000000000000000000000000000000000000000000000000000000000000000000000000000000000000000000000000000000000
310
00000000000000000000000007000707000000000000000000000000000000000000000000000000000000000000000000000000000000000000000000000000000000000000000000000000000000000000000000000000000000000000000000000000000000000000000000000000000000000000000000000000000000
310
00000000000000000000000000000000000000000000000000000000000000000000000000000000000000000000000000000000000000000000000000000000000700070700000000000000000000000000000000000000000000000000000000000000000000000000000000000000000000000000000000000000000000
310
00000000000000000000000000000000000000000000000000000000000000000000000000000000000000000000000000000000000000000000000000000000000000000000000000000000000000000000000000000000000000000000000000000000000000000000000000000000000000000000070707070000000000
310
00000000000000000000000000000000000000000000000000000000000000000000000000000000000000000000000000000000000000000000000000000000000000000000000000000000000000000000000000000000000000000000000000000000000000000000000000000000000000000000000000000000000000
310
00000000000000000000000000000000000000000000000000000000000000000000000000000000000000000700070700000000000000000000000000000000000000000000000000000000000000000000000000000000000000000000000000000000000000000000000000000000000000000000000000000000000000
310
00000000000000000000000000000000000000000000000000000000000000000000000000000000000000000000000000000000000000000000000000000000000000000000000000000000000000000000000000000000000000000000000000070707070700000000000000000000000000000000000000000000000000
310
00000000000000000000000000000000000000000000000000000000000000000000000000000000000000000000000000000000000000000000000000000000000000000000000000000000000000000000000000000000000000000000000000000000000000000000000000000000000000000000000000000000000000
310
00000000000000000000000000000000000000000000000700070707000000000000000000000000000000000000000000000000000000000000000000000000000000000000000000000000000000000000000000000000000000000000000000000000000000000000000000000000000000000000000000000000000000
310
00000000000000000000000000000000000000000000000000000000000000000000000000000000000000000000000000000000000000000000000000000000000000000000000000000000070007070700000000000000000000000000000000000000000000000000000000000000000000000000000000000000000000
310
00000000000000000000000000000000000000000000000000000000000000000000000000000000000000000000000000000000000000000000000000000000000000000000000000000000000000000000000000000000000000000000000000000000000000000000000000000000000000000000000000000000000000
310
00000700070007000000000000000000000000000000000000000000000000000000000000000000000000000000000000000000000000000000000000000000000000000000000000000000000000000000000000000000000000000000000000000000000000000000000000000000000000000000000000000000000000
310
00000000000000000000000000000000000000000000000000000000000000000000000000000000000000000000000000000000000000070007000700000000000000000000000000000000000000000000000000000000000000000000000000000000000000000000000000000000000000000000000000000000000000
310
00000000000000000000000000000000000000000000000000000000000000000000000000000000000000000000000000000000000000000000000000000000000000000000000000000000000000000000000000000000000000000000000000000000000000000000000007000700070000000000000000000000000000
310
00000000000000000000000000000000000000000000000000000000000000000000000000000000000000000000000000000000000000000000000000000000000000000000000000000000000000000000000000000000000000000000000000000000000000000000000000000000000000000000000000000000000000
310
00000000000000000000000000000000000000000000000000000000000000000000070707070707000000000000000000000000000000000000000000000000000000000000000000000000000000000000000000000000000000000000000000000000000000000000000000000000000000000000000000000000000000
310
00000000000000000000000000000000000000000000000000000000000000000000000000000000000000000000000000000000000000000000000000000000000000000000000000000000000000000000000000000007070707070707000000000000000000000000000000000000000000000000000000000000000000
310
00000000000000000000000000000000000000000000000000000000000000000000000000000000000000000000000000000000000000000000000000000000000000000000000000000000000000000000000000000000000000000000000000000000000000000000000000000000000000000000000000000000000000
310
00000000000000000000000007070707070707070700000000000000000000000000000000000000000000000000000000000000000000000000000000000000000000000000000000000000000000000000000000000000000000000000000000000000000000000000000000000000000000000000000000000000000000
310
00000000000000000000000000000000000000000000000000000000000000000000000000000000000000000000000000000000000000000000000000000000000707070707070707070000000000000000000000000000000000000000000000000000000000000000000000000000000000000000000000000000000000
310
00000000000000000000000000000000000000000000000000000000000000000000000000000000000000000000000000000000000000000000000000000000000000000000000000000000000000000000000000000000000000000000000000000000000000000000000000000000000000000000070707070707070707
310
00000000000000000000000000000000000000000000000000000000000000000000000000000000000000000000000000000000000000000000000000000000000000000000000000000000000000000000000000000000000000000000000000000000000000000000000000000000000000000000000000000000000000
310
00000000000000000000000000000000000000000000000000000000000000000000000000000000000000000007070707070707000000000000000000000000000000000000000000000000000000000000000000000000000000000000000000000000000000000000000000000000000000000000000000000000000000
310
00000000000000000000000000000000000000000000000000000000000000000000000000000000000000000000000000000000000000000000000000000000000000000000000000000000000000000000000000000000000000000000000000000707070707070000000000000000000000000000000000000000000000
310
00000000000000000000000000000000000000000000000000000000000000000000000000000000000000000000000000000000000000000000000000000000000000000000000000000000000000000000000000000000000000000000000000000000000000000000000000000000000000000000000000000000000000
310
00000000000000000000000000000000000000000000000007000700000000000000000000000000000000000000000000000000000000000000000000000000000000000000000000000000000000000000000000000000000000000000000000000000000000000000000000000000000000000000000000000000000000
310
00000000000000000000000000000000000000000000000000000000000000000000000000000000000000000000000000000000000000000000000000000000000000000000000000000000000700070000000000000000000000000000000000000000000000000000000000000000000000000000000000000000000000
310
00000000000000000000000000000000000000000000000000000000000000000000000000000000000000000000000000000000000000000000000000000000000000000000000000000000000000000000000000000000000000000000000000000000000000000000000000000000000000000000000000000000000000
310
00000007000700000000000000000000000000000000000000000000000000000000000000000000000000000000000000000000000000000000000000000000000000000000000000000000000000000000000000000000000000000000000000000000000000000000000000000000000000000000000000000000000000
310
00000000000000000000000000000000000000000000000000000000000000000000000000000000000000000000000000000000000000000700070000000000000000000000000000000000000000000000000000000000000000000000000000000000000000000000000000000000000000000000000000000000000000
310
00000000000000000000000000000000000000000000000000000000000000000000000000000000000000000000000000000000000000000000000000000000000000000000000000000000000000000000000000000000000000000000000000000000000000000000000000070007000000000000000000000000000000
310
00000000000000000000000000000000000000000000000000000000000000000000000000000000000000000000000000000000000000000000000000000000000000000000000000000000000000000000000000000000000000000000000000000000000000000000000000000000000000000000000000000000000000
310
00000000000000000000000000000000000000000000000000000000000000000000000700070000000000000000000000000000000000000000000000000000000000000000000000000000000000000000000000000000000000000000000000000000000000000000000000000000000000000000000000000000000000
310
00000000000000000000000000000000000000000000000000000000000000000000000000000000000000000000000000000000000000000000000000000000000000000000000000000000000000000000000000000000070007000000000000000000000000000000000000000000000000000000000000000000000000
310
00000000000000000000000000000000000000000000000000000000000000000000000000000000000000000000000000000000000000000000000000000000000000000000000000000000000000000000000000000000000000000000000000000000000000000000000000000000000000000000000000000000000000
310
00000000000000000000000000000700070000000000000000000000000000000000000000000000000000000000000000000000000000000000000000000000000000000000000000000000000000000000000000000000000000000000000000000000000000000000000000000000000000000000000000000000000000
310
00000000000000000000000000000000000000000000000000000000000000000000000000000000000000000000000000000000000000000000000000000000000000070007000000000000000000000000000000000000000000000000000000000000000000000000000000000000000000000000000000000000000000
310
00000000000000000000000000000000000000000000000000000000000000000000000000000000000000000000000000000000000000000000000000000000000000000000000000000000000000000000000000000000000000000000000000000000000000000000000000000000000000000000000007000700000000
310
00000000000000000000000000000000000000000000000000000000000000000000000000000000000000000000000000000000000000000000000000000000000000000000000000000000000000000000000000000000000000000000000000000000000000000000000000000000000000000000000000000000000000
310
00000000000000000000000000000000000000000000000000000000000000000000000000000000000000000000070007000000000000000000000000000000000000000000000000000000000000000000000000000000000000000000000000000000000000000000000000000000000000000000000000000000000000
310
00000000000000000000000000000000000000000000000000000000000000000000000000000000000000000000000000000000000000000000000000000000000000000000000000000000000000000000000000000000000000000000000000000007000700000000000000000000000000000000000000000000000000
310
00000000000000000000000000000000000000000000000000000000000000000000000000000000000000000000000000000000000000000000000000000000000000000000000000000000000000000000000000000000000000000000000000000000000000000000000000000000000000000000000000000000000000
310
00000000000000000000000000000000000000000000000000070007000000000000000000000000000000000000000000000000000000000000000000000000000000000000000000000000000000000000000000000000000000000000000000000000000000000000000000000000000000000000000000000000000000
310
00000000000000000000000000000000000000000000000000000000000000000000000000000000000000000000000000000000000000000000000000000000000000000000000000000000000707070707000000000000000000000000000000000000000000000000000000000000000000000000000000000000000000
310
00000000000000000000000000000000000000000000000000000000000000000000000000000000000000000000000000000000000000000000000000000000000000000000000000000000000000000000000000000000000000000000000000000000000000000000000000000000000000000000000000000000000000
310
00000007070007070000000000000000000000000000000000000000000000000000000000000000000000000000000000000000000000000000000000000000000000000000000000000000000000000000000000000000000000000000000000000000000000000000000000000000000000000000000000000000000000
310
00000000000000000000000000000000000000000000000000000000000000000000000000000000000000000000000000000707070707070707070707070707070707000000000000000000000000000000000000000000000000000000000000000000000000000000000000000000000000000000000000000000000000
310
00000000000000000000000000000000000000000000000000000000000000000000000000000000000000000000000000000000000000000000000000000000000000000000000000000000000000000000000000000000000000000000000000000000000000070707070707070707070707070707070700000000000000
310
00000000000000000000000000000000000000000000000000000000000000000000000000000000000000000000000000000000000000000000000000000000000000000000000000000000000000000000000000000000000000000000000000000000000000000000000000000000000000000000000000000000000000
310
00000000000000000000000000000000000000000000000000000000000000000000000007070700000000000000000000000000000000000000000000000000000000000000000000000000000000000000000000000000000000000000000000000000000000000000000000000000000000000000000000000000000000
310
00000000000000000000000000000000000000000000000000000000000000000000000000000000000000000000000000000000000000000000000000000000000000000000000000000000000000000000000000000000000707070000000000000000000000000000000000000000000000000000000000000000000000
310
00000000000000000000000000000000000000000000000000000000000000000000000000000000000000000000000000000000000000000000000000000000000000000000000000000000000000000000000000000000000000000000000000000000000000000000000000000000000000000000000000000000000000
310
000000000000000000000000000000000000000000000000000000000000000000000000000000000000000000000000000000000000000000000000000000000000000000000000000000000000000000000000000000000000000000000000000000000000000000000000
  0
ENDSEC
  0
EOF
