  0
SECTION
  2
HEADER
  9
$ACADVER
  1
AC1015
  9
$ACADMAINTVER
 70
    13
  9
$DWGCODEPAGE
  3
ANSI_1252
  9
$INSBASE
 10
0.0
 20
0.0
 30
0.0
  9
$EXTMIN
 10
0.0000084999999951
 20
0.0000000000000012
 30
0.0
  9
$EXTMAX
 10
142.9999914999999
 20
38.0
 30
0.0
  9
$LIMMIN
 10
0.0
 20
0.0
  9
$LIMMAX
 10
12.0
 20
9.0
  9
$ORTHOMODE
 70
     0
  9
$REGENMODE
 70
     1
  9
$FILLMODE
 70
     1
  9
$QTEXTMODE
 70
     0
  9
$MIRRTEXT
 70
     1
  9
$LTSCALE
 40
1.0
  9
$ATTMODE
 70
     1
  9
$TEXTSIZE
 40
0.2
  9
$TRACEWID
 40
0.05
  9
$TEXTSTYLE
  7
Standard
  9
$CLAYER
  8
0
  9
$CELTYPE
  6
Continuous
  9
$CECOLOR
 62
   256
  9
$CELTSCALE
 40
1.0
  9
$DISPSILH
 70
     0
  9
$DIMSCALE
 40
1.0
  9
$DIMASZ
 40
0.18
  9
$DIMEXO
 40
0.0625
  9
$DIMDLI
 40
0.38
  9
$DIMRND
 40
0.0
  9
$DIMDLE
 40
0.0
  9
$DIMEXE
 40
0.18
  9
$DIMTP
 40
0.0
  9
$DIMTM
 40
0.0
  9
$DIMTXT
 40
0.18
  9
$DIMCEN
 40
0.09
  9
$DIMTSZ
 40
0.0
  9
$DIMTOL
 70
     0
  9
$DIMLIM
 70
     0
  9
$DIMTIH
 70
     1
  9
$DIMTOH
 70
     1
  9
$DIMSE1
 70
     0
  9
$DIMSE2
 70
     0
  9
$DIMTAD
 70
     0
  9
$DIMZIN
 70
     0
  9
$DIMBLK
  1

  9
$DIMASO
 70
     1
  9
$DIMSHO
 70
     1
  9
$DIMPOST
  1

  9
$DIMAPOST
  1

  9
$DIMALT
 70
     0
  9
$DIMALTD
 70
     2
  9
$DIMALTF
 40
25.4
  9
$DIMLFAC
 40
1.0
  9
$DIMTOFL
 70
     0
  9
$DIMTVP
 40
0.0
  9
$DIMTIX
 70
     0
  9
$DIMSOXD
 70
     0
  9
$DIMSAH
 70
     0
  9
$DIMBLK1
  1

  9
$DIMBLK2
  1

  9
$DIMSTYLE
  2
Standard
  9
$DIMCLRD
 70
     0
  9
$DIMCLRE
 70
     0
  9
$DIMCLRT
 70
     0
  9
$DIMTFAC
 40
1.0
  9
$DIMGAP
 40
0.09
  9
$DIMJUST
 70
     0
  9
$DIMSD1
 70
     0
  9
$DIMSD2
 70
     0
  9
$DIMTOLJ
 70
     1
  9
$DIMTZIN
 70
     0
  9
$DIMALTZ
 70
     0
  9
$DIMALTTZ
 70
     0
  9
$DIMUPT
 70
     0
  9
$DIMDEC
 70
     4
  9
$DIMTDEC
 70
     4
  9
$DIMALTU
 70
     2
  9
$DIMALTTD
 70
     2
  9
$DIMTXSTY
  7
Standard
  9
$DIMAUNIT
 70
     0
  9
$DIMADEC
 70
     0
  9
$DIMALTRND
 40
0.0
  9
$DIMAZIN
 70
     0
  9
$DIMDSEP
 70
    46
  9
$DIMATFIT
 70
     3
  9
$DIMFRAC
 70
     0
  9
$DIMLDRBLK
  1

  9
$DIMLUNIT
 70
     2
  9
$DIMLWD
 70
    -2
  9
$DIMLWE
 70
    -2
  9
$DIMTMOVE
 70
     0
  9
$LUNITS
 70
     2
  9
$LUPREC
 70
     4
  9
$SKETCHINC
 40
0.1
  9
$FILLETRAD
 40
0.0
  9
$AUNITS
 70
     0
  9
$AUPREC
 70
     0
  9
$MENU
  1
.
  9
$ELEVATION
 40
0.0
  9
$PELEVATION
 40
0.0
  9
$THICKNESS
 40
0.0
  9
$LIMCHECK
 70
     0
  9
$CHAMFERA
 40
0.0
  9
$CHAMFERB
 40
0.0
  9
$CHAMFERC
 40
0.0
  9
$CHAMFERD
 40
0.0
  9
$SKPOLY
 70
     0
  9
$TDCREATE
 40
2455655.373613275
  9
$TDUCREATE
 40
2455655.290279942
  9
$TDUPDATE
 40
2455655.375816875
  9
$TDUUPDATE
 40
2455655.292483541
  9
$TDINDWG
 40
0.0022035995
  9
$TDUSRTIMER
 40
0.0022035995
  9
$USRTIMER
 70
     1
  9
$ANGBASE
 50
0.0
  9
$ANGDIR
 70
     0
  9
$PDMODE
 70
     0
  9
$PDSIZE
 40
0.0
  9
$PLINEWID
 40
0.0
  9
$SPLFRAME
 70
     0
  9
$SPLINETYPE
 70
     6
  9
$SPLINESEGS
 70
     8
  9
$HANDSEED
  5
32C
  9
$SURFTAB1
 70
     6
  9
$SURFTAB2
 70
     6
  9
$SURFTYPE
 70
     6
  9
$SURFU
 70
     6
  9
$SURFV
 70
     6
  9
$UCSBASE
  2

  9
$UCSNAME
  2

  9
$UCSORG
 10
0.0
 20
0.0
 30
0.0
  9
$UCSXDIR
 10
1.0
 20
0.0
 30
0.0
  9
$UCSYDIR
 10
0.0
 20
1.0
 30
0.0
  9
$UCSORTHOREF
  2

  9
$UCSORTHOVIEW
 70
     1
  9
$UCSORGTOP
 10
0.0
 20
0.0
 30
0.0
  9
$UCSORGBOTTOM
 10
0.0
 20
0.0
 30
0.0
  9
$UCSORGLEFT
 10
0.0
 20
0.0
 30
0.0
  9
$UCSORGRIGHT
 10
0.0
 20
0.0
 30
0.0
  9
$UCSORGFRONT
 10
0.0
 20
0.0
 30
0.0
  9
$UCSORGBACK
 10
0.0
 20
0.0
 30
0.0
  9
$PUCSBASE
  2

  9
$PUCSNAME
  2

  9
$PUCSORG
 10
0.0
 20
0.0
 30
0.0
  9
$PUCSXDIR
 10
1.0
 20
0.0
 30
0.0
  9
$PUCSYDIR
 10
0.0
 20
1.0
 30
0.0
  9
$PUCSORTHOREF
  2

  9
$PUCSORTHOVIEW
 70
     0
  9
$PUCSORGTOP
 10
0.0
 20
0.0
 30
0.0
  9
$PUCSORGBOTTOM
 10
0.0
 20
0.0
 30
0.0
  9
$PUCSORGLEFT
 10
0.0
 20
0.0
 30
0.0
  9
$PUCSORGRIGHT
 10
0.0
 20
0.0
 30
0.0
  9
$PUCSORGFRONT
 10
0.0
 20
0.0
 30
0.0
  9
$PUCSORGBACK
 10
0.0
 20
0.0
 30
0.0
  9
$USERI1
 70
     0
  9
$USERI2
 70
     0
  9
$USERI3
 70
     0
  9
$USERI4
 70
     0
  9
$USERI5
 70
     0
  9
$USERR1
 40
0.0
  9
$USERR2
 40
0.0
  9
$USERR3
 40
0.0
  9
$USERR4
 40
0.0
  9
$USERR5
 40
0.0
  9
$WORLDVIEW
 70
     1
  9
$SHADEDGE
 70
     3
  9
$SHADEDIF
 70
    70
  9
$TILEMODE
 70
     1
  9
$MAXACTVP
 70
    64
  9
$PINSBASE
 10
0.0
 20
0.0
 30
0.0
  9
$PLIMCHECK
 70
     0
  9
$PEXTMIN
 10
1.000000000000000E+20
 20
1.000000000000000E+20
 30
1.000000000000000E+20
  9
$PEXTMAX
 10
-1.000000000000000E+20
 20
-1.000000000000000E+20
 30
-1.000000000000000E+20
  9
$PLIMMIN
 10
0.0
 20
0.0
  9
$PLIMMAX
 10
12.0
 20
9.0
  9
$UNITMODE
 70
     0
  9
$VISRETAIN
 70
     1
  9
$PLINEGEN
 70
     0
  9
$PSLTSCALE
 70
     1
  9
$TREEDEPTH
 70
  3020
  9
$CMLSTYLE
  2
Standard
  9
$CMLJUST
 70
     0
  9
$CMLSCALE
 40
1.0
  9
$PROXYGRAPHICS
 70
     1
  9
$MEASUREMENT
 70
     0
  9
$CELWEIGHT
370
    -1
  9
$ENDCAPS
280
     0
  9
$JOINSTYLE
280
     0
  9
$LWDISPLAY
290
     0
  9
$INSUNITS
 70
     0
  9
$HYPERLINKBASE
  1

  9
$STYLESHEET
  1

  9
$XEDIT
290
     1
  9
$CEPSNTYPE
380
     0
  9
$PSTYLEMODE
290
     1
  9
$FINGERPRINTGUID
  2
{D950435C-3358-479D-8C82-5D3E4916302C}
  9
$VERSIONGUID
  2
{0544CD01-9167-4B05-8896-44BB53528CD7}
  9
$EXTNAMES
290
     1
  9
$PSVPSCALE
 40
0.0
  9
$OLESTARTUP
290
     0
  0
ENDSEC
  0
SECTION
  2
CLASSES
  0
CLASS
  1
ACDBDICTIONARYWDFLT
  2
AcDbDictionaryWithDefault
  3
AutoCAD 2000
 90
        0
280
     0
281
     0
  0
CLASS
  1
ACDBPLACEHOLDER
  2
AcDbPlaceHolder
  3
AutoCAD 2000
 90
        0
280
     0
281
     0
  0
CLASS
  1
LAYOUT
  2
AcDbLayout
  3
AutoCAD 2000
 90
        0
280
     0
281
     0
  0
CLASS
  1
DICTIONARYVAR
  2
AcDbDictionaryVar
  3
AutoCAD 2000
 90
        0
280
     0
281
     0
  0
ENDSEC
  0
SECTION
  2
TABLES
  0
TABLE
  2
VPORT
  5
8
330
0
100
AcDbSymbolTable
 70
     3
  0
VPORT
  5
32B
330
8
100
AcDbSymbolTableRecord
100
AcDbViewportTableRecord
  2
*Active
 70
     0
 10
0.0
 20
0.0
 11
1.0
 21
1.0
 12
71.49999999999998
 22
19.0
 13
0.0
 23
0.0
 14
1.0
 24
1.0
 15
0.0
 25
0.0
 16
0.0
 26
0.0
 36
1.0
 17
0.0
 27
0.0
 37
0.0
 40
69.19519874851307
 41
2.073363431151241
 42
50.0
 43
0.0
 44
0.0
 50
0.0
 51
0.0
 71
     0
 72
   100
 73
     1
 74
     3
 75
     0
 76
     0
 77
     0
 78
     0
281
     0
 65
     1
110
0.0
120
0.0
130
0.0
111
1.0
121
0.0
131
0.0
112
0.0
122
1.0
132
0.0
 79
     1
146
0.0
  0
ENDTAB
  0
TABLE
  2
LTYPE
  5
5
330
0
100
AcDbSymbolTable
 70
     1
  0
LTYPE
  5
13
330
5
100
AcDbSymbolTableRecord
100
AcDbLinetypeTableRecord
  2
ByBlock
 70
     0
  3

 72
    65
 73
     0
 40
0.0
  0
LTYPE
  5
14
330
5
100
AcDbSymbolTableRecord
100
AcDbLinetypeTableRecord
  2
ByLayer
 70
     0
  3

 72
    65
 73
     0
 40
0.0
  0
LTYPE
  5
15
330
5
100
AcDbSymbolTableRecord
100
AcDbLinetypeTableRecord
  2
Continuous
 70
     0
  3
Solid line
 72
    65
 73
     0
 40
0.0
  0
ENDTAB
  0
TABLE
  2
LAYER
  5
2
330
0
100
AcDbSymbolTable
 70
     1
  0
LAYER
  5
10
330
2
100
AcDbSymbolTableRecord
100
AcDbLayerTableRecord
  2
0
 70
     0
 62
     7
  6
Continuous
370
    -3
390
F
  0
ENDTAB
  0
TABLE
  2
STYLE
  5
3
330
0
100
AcDbSymbolTable
 70
     1
  0
STYLE
  5
11
330
3
100
AcDbSymbolTableRecord
100
AcDbTextStyleTableRecord
  2
Standard
 70
     0
 40
0.0
 41
1.0
 50
0.0
 71
     0
 42
0.2
  3
txt
  4

  0
ENDTAB
  0
TABLE
  2
VIEW
  5
6
330
0
100
AcDbSymbolTable
 70
     0
  0
ENDTAB
  0
TABLE
  2
UCS
  5
7
330
0
100
AcDbSymbolTable
 70
     0
  0
ENDTAB
  0
TABLE
  2
APPID
  5
9
330
0
100
AcDbSymbolTable
 70
     1
  0
APPID
  5
12
330
9
100
AcDbSymbolTableRecord
100
AcDbRegAppTableRecord
  2
ACAD
 70
     0
  0
ENDTAB
  0
TABLE
  2
DIMSTYLE
  5
A
330
0
100
AcDbSymbolTable
 70
     1
100
AcDbDimStyleTable
 71
     0
  0
DIMSTYLE
105
324
330
A
100
AcDbSymbolTableRecord
100
AcDbDimStyleTableRecord
  2
Standard
 70
     0
340
11
  0
ENDTAB
  0
TABLE
  2
BLOCK_RECORD
  5
1
330
0
100
AcDbSymbolTable
 70
     0
  0
BLOCK_RECORD
  5
1E
330
1
100
AcDbSymbolTableRecord
100
AcDbBlockTableRecord
  2
*Model_Space
340
21
  0
BLOCK_RECORD
  5
1A
330
1
100
AcDbSymbolTableRecord
100
AcDbBlockTableRecord
  2
*Paper_Space
340
1D
  0
ENDTAB
  0
ENDSEC
  0
SECTION
  2
BLOCKS
  0
BLOCK
  5
1F
330
1E
100
AcDbEntity
  8
0
100
AcDbBlockBegin
  2
*Model_Space
 70
     0
 10
0.0
 20
0.0
 30
0.0
  3
*Model_Space
  1

  0
ENDBLK
  5
20
330
1E
100
AcDbEntity
  8
0
100
AcDbBlockEnd
  0
BLOCK
  5
1B
330
1A
100
AcDbEntity
 67
     1
  8
0
100
AcDbBlockBegin
  2
*Paper_Space
 70
     0
 10
0.0
 20
0.0
 30
0.0
  3
*Paper_Space
  1

  0
ENDBLK
  5
1C
330
1A
100
AcDbEntity
 67
     1
  8
0
100
AcDbBlockEnd
  0
ENDSEC
  0
SECTION
  2
ENTITIES
  0
LINE
  5
22
330
1E
100
AcDbEntity
  8
0
100
AcDbLine
 10
9.8508115
 20
1.0
 30
0.0
 11
11.33189149999999
 21
1.0
 31
0.0
  0
LINE
  5
23
330
1E
100
AcDbEntity
  8
0
100
AcDbLine
 10
14.6380915
 20
1.0
 30
0.0
 11
16.4221915
 21
1.0
 31
0.0
  0
LINE
  5
24
330
1E
100
AcDbEntity
  8
0
100
AcDbLine
 10
16.4221915
 20
1.0
 30
0.0
 11
18.2632915
 21
1.0
 31
0.0
  0
LINE
  5
25
330
1E
100
AcDbEntity
  8
0
100
AcDbLine
 10
18.2632915
 20
1.0
 30
0.0
 11
20.13849149999999
 21
1.0
 31
0.0
  0
LINE
  5
26
330
1E
100
AcDbEntity
  8
0
100
AcDbLine
 10
20.13849149999999
 20
1.0
 30
0.0
 11
20.99999149999999
 21
1.0
 31
0.0
  0
LINE
  5
27
330
1E
100
AcDbEntity
  8
0
100
AcDbLine
 10
20.99999149999999
 20
1.0
 30
0.0
 11
21.5554915
 21
1.0
 31
0.0
  0
LINE
  5
28
330
1E
100
AcDbEntity
  8
0
100
AcDbLine
 10
21.5554915
 20
1.0
 30
0.0
 11
23.4175915
 21
1.0
 31
0.0
  0
LINE
  5
29
330
1E
100
AcDbEntity
  8
0
100
AcDbLine
 10
20.99999149999999
 20
1.0
 30
0.0
 11
21.86149149999999
 21
1.0
 31
0.0
  0
LINE
  5
2A
330
1E
100
AcDbEntity
  8
0
100
AcDbLine
 10
25.5777915
 20
1.0
 30
0.0
 11
27.36189149999999
 21
1.0
 31
0.0
  0
LINE
  5
2B
330
1E
100
AcDbEntity
  8
0
100
AcDbLine
 10
25.2466915
 20
1.0
 30
0.0
 11
27.01789149999999
 21
1.0
 31
0.0
  0
LINE
  5
2C
330
1E
100
AcDbEntity
  8
0
100
AcDbLine
 10
23.4175915
 20
1.0
 30
0.0
 11
25.2466915
 21
1.0
 31
0.0
  0
LINE
  5
2D
330
1E
100
AcDbEntity
  8
0
100
AcDbLine
 10
27.36189149999999
 20
1.0
 30
0.0
 11
29.06599149999999
 21
1.0
 31
0.0
  0
LINE
  5
2E
330
1E
100
AcDbEntity
  8
0
100
AcDbLine
 10
27.01789149999999
 20
1.0
 30
0.0
 11
28.70899149999999
 21
1.0
 31
0.0
  0
LINE
  5
2F
330
1E
100
AcDbEntity
  8
0
100
AcDbLine
 10
29.06599149999999
 20
1.0
 30
0.0
 11
30.6680915
 21
1.0
 31
0.0
  0
LINE
  5
30
330
1E
100
AcDbEntity
  8
0
100
AcDbLine
 10
21.86149149999999
 20
1.0
 30
0.0
 11
23.7366915
 21
1.0
 31
0.0
  0
LINE
  5
31
330
1E
100
AcDbEntity
  8
0
100
AcDbLine
 10
23.7366915
 20
1.0
 30
0.0
 11
25.5777915
 21
1.0
 31
0.0
  0
LINE
  5
32
330
1E
100
AcDbEntity
  8
0
100
AcDbLine
 10
20.4444915
 20
1.0
 30
0.0
 11
20.99999149999999
 21
1.0
 31
0.0
  0
LINE
  5
33
330
1E
100
AcDbEntity
  8
0
100
AcDbLine
 10
18.5823915
 20
1.0
 30
0.0
 11
20.4444915
 21
1.0
 31
0.0
  0
LINE
  5
34
330
1E
100
AcDbEntity
  8
0
100
AcDbLine
 10
16.7532915
 20
1.0
 30
0.0
 11
18.5823915
 21
1.0
 31
0.0
  0
LINE
  5
35
330
1E
100
AcDbEntity
  8
0
100
AcDbLine
 10
30.29409149999999
 20
1.0
 30
0.0
 11
31.75519149999999
 21
1.0
 31
0.0
  0
LINE
  5
36
330
1E
100
AcDbEntity
  8
0
100
AcDbLine
 10
30.6680915
 20
1.0
 30
0.0
 11
32.1491915
 21
1.0
 31
0.0
  0
LINE
  5
37
330
1E
100
AcDbEntity
  8
0
100
AcDbLine
 10
28.70899149999999
 20
1.0
 30
0.0
 11
30.29409149999999
 21
1.0
 31
0.0
  0
LINE
  5
38
330
1E
100
AcDbEntity
  8
0
100
AcDbLine
 10
32.1491915
 20
1.0
 30
0.0
 11
33.4892915
 21
1.0
 31
0.0
  0
LINE
  5
39
330
1E
100
AcDbEntity
  8
0
100
AcDbLine
 10
14.9820915
 20
1.0
 30
0.0
 11
16.7532915
 21
1.0
 31
0.0
  0
LINE
  5
3A
330
1E
100
AcDbEntity
  8
0
100
AcDbLine
 10
12.93399149999999
 20
1.0
 30
0.0
 11
14.6380915
 21
1.0
 31
0.0
  0
LINE
  5
3B
330
1E
100
AcDbEntity
  8
0
100
AcDbLine
 10
13.2909915
 20
1.0
 30
0.0
 11
14.9820915
 21
1.0
 31
0.0
  0
LINE
  5
3C
330
1E
100
AcDbEntity
  8
0
100
AcDbLine
 10
11.33189149999999
 20
1.0
 30
0.0
 11
12.93399149999999
 21
1.0
 31
0.0
  0
LINE
  5
3D
330
1E
100
AcDbEntity
  8
0
100
AcDbLine
 10
4.2074515
 20
1.0
 30
0.0
 11
4.92550149999999
 21
1.0
 31
0.0
  0
LINE
  5
3E
330
1E
100
AcDbEntity
  8
0
100
AcDbLine
 10
4.2074515
 20
1.0
 30
0.0
 11
4.42747149999999
 21
1.0
 31
0.0
  0
LINE
  5
3F
330
1E
100
AcDbEntity
  8
0
100
AcDbLine
 10
4.42747149999999
 20
1.0
 30
0.0
 11
4.856491499999999
 21
1.0
 31
0.0
  0
LINE
  5
40
330
1E
100
AcDbEntity
  8
0
100
AcDbLine
 10
4.42747149999999
 20
1.0
 30
0.0
 11
4.92550149999999
 21
1.0
 31
0.0
  0
LINE
  5
41
330
1E
100
AcDbEntity
  8
0
100
AcDbLine
 10
4.856491499999999
 20
1.0
 30
0.0
 11
5.4885415
 21
1.0
 31
0.0
  0
LINE
  5
42
330
1E
100
AcDbEntity
  8
0
100
AcDbLine
 10
4.2074515
 20
1.0
 30
0.0
 11
4.42747149999999
 21
1.0
 31
0.0
  0
LINE
  5
43
330
1E
100
AcDbEntity
  8
0
100
AcDbLine
 10
4.2074515
 20
1.0
 30
0.0
 11
4.92550149999999
 21
1.0
 31
0.0
  0
LINE
  5
44
330
1E
100
AcDbEntity
  8
0
100
AcDbLine
 10
4.42747149999999
 20
1.0
 30
0.0
 11
4.856491499999999
 21
1.0
 31
0.0
  0
LINE
  5
45
330
1E
100
AcDbEntity
  8
0
100
AcDbLine
 10
4.42747149999999
 20
1.0
 30
0.0
 11
4.92550149999999
 21
1.0
 31
0.0
  0
LINE
  5
46
330
1E
100
AcDbEntity
  8
0
100
AcDbLine
 10
4.856491499999999
 20
1.0
 30
0.0
 11
5.4885415
 21
1.0
 31
0.0
  0
LINE
  5
47
330
1E
100
AcDbEntity
  8
0
100
AcDbLine
 10
2.5833515
 20
7.4
 30
0.0
 11
2.882371499999999
 21
7.4
 31
0.0
  0
LINE
  5
48
330
1E
100
AcDbEntity
  8
0
100
AcDbLine
 10
2.882371499999999
 20
7.4
 30
0.0
 11
3.394401499999999
 21
7.4
 31
0.0
  0
LINE
  5
49
330
1E
100
AcDbEntity
  8
0
100
AcDbLine
 10
3.631421499999999
 20
6.299999999999999
 30
0.0
 11
3.8594315
 21
6.299999999999999
 31
0.0
  0
LINE
  5
4A
330
1E
100
AcDbEntity
  8
0
100
AcDbLine
 10
4.302461499999999
 20
6.299999999999999
 30
0.0
 11
4.956501499999999
 21
6.299999999999999
 31
0.0
  0
LINE
  5
4B
330
1E
100
AcDbEntity
  8
0
100
AcDbLine
 10
3.8594315
 20
6.299999999999999
 30
0.0
 11
4.302461499999999
 21
6.299999999999999
 31
0.0
  0
LINE
  5
4C
330
1E
100
AcDbEntity
  8
0
100
AcDbLine
 10
3.6259815
 20
6.299999999999999
 30
0.0
 11
3.6259815
 21
2.0
 31
0.0
  0
LINE
  5
4D
330
1E
100
AcDbEntity
  8
0
100
AcDbLine
 10
3.6259815
 20
2.0
 30
0.0
 11
3.6259815
 21
6.299999999999999
 31
0.0
  0
LINE
  5
4E
330
1E
100
AcDbEntity
  8
0
100
AcDbLine
 10
3.6259815
 20
2.0
 30
0.0
 11
4.202561499999999
 21
1.0
 31
0.0
  0
LINE
  5
4F
330
1E
100
AcDbEntity
  8
0
100
AcDbLine
 10
5.4885415
 20
1.0
 30
0.0
 11
6.3155915
 21
1.0
 31
0.0
  0
LINE
  5
50
330
1E
100
AcDbEntity
  8
0
100
AcDbLine
 10
6.3155915
 20
1.0
 30
0.0
 11
7.326651499999999
 21
1.0
 31
0.0
  0
LINE
  5
51
330
1E
100
AcDbEntity
  8
0
100
AcDbLine
 10
8.510721499999998
 20
1.0
 30
0.0
 11
9.8508115
 21
1.0
 31
0.0
  0
LINE
  5
52
330
1E
100
AcDbEntity
  8
0
100
AcDbLine
 10
31.75519149999999
 20
1.0
 30
0.0
 11
33.06919149999999
 21
1.0
 31
0.0
  0
LINE
  5
53
330
1E
100
AcDbEntity
  8
0
100
AcDbLine
 10
33.06919149999999
 20
1.0
 30
0.0
 11
34.22129149999999
 21
1.0
 31
0.0
  0
LINE
  5
54
330
1E
100
AcDbEntity
  8
0
100
AcDbLine
 10
33.4892915
 20
1.0
 30
0.0
 11
34.67329149999999
 21
1.0
 31
0.0
  0
LINE
  5
55
330
1E
100
AcDbEntity
  8
0
100
AcDbLine
 10
34.67329149999999
 20
1.0
 30
0.0
 11
35.68439149999999
 21
1.0
 31
0.0
  0
LINE
  5
56
330
1E
100
AcDbEntity
  8
0
100
AcDbLine
 10
35.68439149999999
 20
1.0
 30
0.0
 11
36.51139149999999
 21
1.0
 31
0.0
  0
LINE
  5
57
330
1E
100
AcDbEntity
  8
0
100
AcDbLine
 10
34.22129149999999
 20
1.0
 30
0.0
 11
35.19439149999999
 21
1.0
 31
0.0
  0
LINE
  5
58
330
1E
100
AcDbEntity
  8
0
100
AcDbLine
 10
10.2447915
 20
1.0
 30
0.0
 11
11.7058915
 21
1.0
 31
0.0
  0
LINE
  5
59
330
1E
100
AcDbEntity
  8
0
100
AcDbLine
 10
8.930751499999999
 20
1.0
 30
0.0
 11
10.2447915
 21
1.0
 31
0.0
  0
LINE
  5
5A
330
1E
100
AcDbEntity
  8
0
100
AcDbLine
 10
35.19439149999999
 20
1.0
 30
0.0
 11
35.97439149999999
 21
1.0
 31
0.0
  0
LINE
  5
5B
330
1E
100
AcDbEntity
  8
0
100
AcDbLine
 10
36.51139149999999
 20
1.0
 30
0.0
 11
37.14349149999999
 21
1.0
 31
0.0
  0
LINE
  5
5C
330
1E
100
AcDbEntity
  8
0
100
AcDbLine
 10
35.97439149999999
 20
1.0
 30
0.0
 11
36.5534915
 21
1.0
 31
0.0
  0
LINE
  5
5D
330
1E
100
AcDbEntity
  8
0
100
AcDbLine
 10
7.7786815
 20
1.0
 30
0.0
 11
8.930751499999999
 21
1.0
 31
0.0
  0
LINE
  5
5E
330
1E
100
AcDbEntity
  8
0
100
AcDbLine
 10
6.805621499999999
 20
1.0
 30
0.0
 11
7.7786815
 21
1.0
 31
0.0
  0
LINE
  5
5F
330
1E
100
AcDbEntity
  8
0
100
AcDbLine
 10
37.57249149999999
 20
1.0
 30
0.0
 11
37.7924915
 21
1.0
 31
0.0
  0
LINE
  5
60
330
1E
100
AcDbEntity
  8
0
100
AcDbLine
 10
37.14349149999999
 20
1.0
 30
0.0
 11
37.57249149999999
 21
1.0
 31
0.0
  0
LINE
  5
61
330
1E
100
AcDbEntity
  8
0
100
AcDbLine
 10
36.92149149999999
 20
1.0
 30
0.0
 11
37.0744915
 21
1.0
 31
0.0
  0
LINE
  5
62
330
1E
100
AcDbEntity
  8
0
100
AcDbLine
 10
36.5534915
 20
1.0
 30
0.0
 11
36.92149149999999
 21
1.0
 31
0.0
  0
LINE
  5
63
330
1E
100
AcDbEntity
  8
0
100
AcDbLine
 10
6.02557149999999
 20
1.0
 30
0.0
 11
6.805621499999999
 21
1.0
 31
0.0
  0
LINE
  5
64
330
1E
100
AcDbEntity
  8
0
100
AcDbLine
 10
5.446531499999999
 20
1.0
 30
0.0
 11
6.02557149999999
 21
1.0
 31
0.0
  0
LINE
  5
65
330
1E
100
AcDbEntity
  8
0
100
AcDbLine
 10
4.956501499999999
 20
6.299999999999999
 30
0.0
 11
5.8115515
 21
6.299999999999999
 31
0.0
  0
LINE
  5
66
330
1E
100
AcDbEntity
  8
0
100
AcDbLine
 10
37.79739149999999
 20
1.0
 30
0.0
 11
38.37399149999999
 21
2.0
 31
0.0
  0
LINE
  5
67
330
1E
100
AcDbEntity
  8
0
100
AcDbLine
 10
5.078511499999999
 20
1.0
 30
0.0
 11
5.446531499999999
 21
1.0
 31
0.0
  0
LINE
  5
68
330
1E
100
AcDbEntity
  8
0
100
AcDbLine
 10
6.3155915
 20
1.0
 30
0.0
 11
7.326651499999999
 21
1.0
 31
0.0
  0
LINE
  5
69
330
1E
100
AcDbEntity
  8
0
100
AcDbLine
 10
6.02557149999999
 20
1.0
 30
0.0
 11
6.805621499999999
 21
1.0
 31
0.0
  0
LINE
  5
6A
330
1E
100
AcDbEntity
  8
0
100
AcDbLine
 10
5.4885415
 20
1.0
 30
0.0
 11
6.3155915
 21
1.0
 31
0.0
  0
LINE
  5
6B
330
1E
100
AcDbEntity
  8
0
100
AcDbLine
 10
5.446531499999999
 20
1.0
 30
0.0
 11
6.02557149999999
 21
1.0
 31
0.0
  0
LINE
  5
6C
330
1E
100
AcDbEntity
  8
0
100
AcDbLine
 10
8.930751499999999
 20
1.0
 30
0.0
 11
10.2447915
 21
1.0
 31
0.0
  0
LINE
  5
6D
330
1E
100
AcDbEntity
  8
0
100
AcDbLine
 10
7.7786815
 20
1.0
 30
0.0
 11
8.930751499999999
 21
1.0
 31
0.0
  0
LINE
  5
6E
330
1E
100
AcDbEntity
  8
0
100
AcDbLine
 10
8.510721499999998
 20
1.0
 30
0.0
 11
9.8508115
 21
1.0
 31
0.0
  0
LINE
  5
6F
330
1E
100
AcDbEntity
  8
0
100
AcDbLine
 10
6.805621499999999
 20
1.0
 30
0.0
 11
7.7786815
 21
1.0
 31
0.0
  0
LINE
  5
70
330
1E
100
AcDbEntity
  8
0
100
AcDbLine
 10
10.2447915
 20
1.0
 30
0.0
 11
11.7058915
 21
1.0
 31
0.0
  0
LINE
  5
71
330
1E
100
AcDbEntity
  8
0
100
AcDbLine
 10
9.8508115
 20
1.0
 30
0.0
 11
11.33189149999999
 21
1.0
 31
0.0
  0
LINE
  5
72
330
1E
100
AcDbEntity
  8
0
100
AcDbLine
 10
30.29409149999999
 20
1.0
 30
0.0
 11
31.75519149999999
 21
1.0
 31
0.0
  0
LINE
  5
73
330
1E
100
AcDbEntity
  8
0
100
AcDbLine
 10
11.7058915
 20
1.0
 30
0.0
 11
13.2909915
 21
1.0
 31
0.0
  0
LINE
  5
74
330
1E
100
AcDbEntity
  8
0
100
AcDbLine
 10
7.326651499999999
 20
1.0
 30
0.0
 11
8.510721499999998
 21
1.0
 31
0.0
  0
LINE
  5
75
330
1E
100
AcDbEntity
  8
0
100
AcDbLine
 10
32.1491915
 20
1.0
 30
0.0
 11
33.4892915
 21
1.0
 31
0.0
  0
LINE
  5
76
330
1E
100
AcDbEntity
  8
0
100
AcDbLine
 10
12.93399149999999
 20
1.0
 30
0.0
 11
14.6380915
 21
1.0
 31
0.0
  0
LINE
  5
77
330
1E
100
AcDbEntity
  8
0
100
AcDbLine
 10
14.9820915
 20
1.0
 30
0.0
 11
16.7532915
 21
1.0
 31
0.0
  0
LINE
  5
78
330
1E
100
AcDbEntity
  8
0
100
AcDbLine
 10
14.6380915
 20
1.0
 30
0.0
 11
16.4221915
 21
1.0
 31
0.0
  0
LINE
  5
79
330
1E
100
AcDbEntity
  8
0
100
AcDbLine
 10
16.7532915
 20
1.0
 30
0.0
 11
18.5823915
 21
1.0
 31
0.0
  0
LINE
  5
7A
330
1E
100
AcDbEntity
  8
0
100
AcDbLine
 10
13.2909915
 20
1.0
 30
0.0
 11
14.9820915
 21
1.0
 31
0.0
  0
LINE
  5
7B
330
1E
100
AcDbEntity
  8
0
100
AcDbLine
 10
11.33189149999999
 20
1.0
 30
0.0
 11
12.93399149999999
 21
1.0
 31
0.0
  0
LINE
  5
7C
330
1E
100
AcDbEntity
  8
0
100
AcDbLine
 10
20.4444915
 20
1.0
 30
0.0
 11
20.99999149999999
 21
1.0
 31
0.0
  0
LINE
  5
7D
330
1E
100
AcDbEntity
  8
0
100
AcDbLine
 10
18.5823915
 20
1.0
 30
0.0
 11
20.4444915
 21
1.0
 31
0.0
  0
LINE
  5
7E
330
1E
100
AcDbEntity
  8
0
100
AcDbLine
 10
20.13849149999999
 20
1.0
 30
0.0
 11
20.99999149999999
 21
1.0
 31
0.0
  0
LINE
  5
7F
330
1E
100
AcDbEntity
  8
0
100
AcDbLine
 10
18.2632915
 20
1.0
 30
0.0
 11
20.13849149999999
 21
1.0
 31
0.0
  0
LINE
  5
80
330
1E
100
AcDbEntity
  8
0
100
AcDbLine
 10
16.4221915
 20
1.0
 30
0.0
 11
18.2632915
 21
1.0
 31
0.0
  0
LINE
  5
81
330
1E
100
AcDbEntity
  8
0
100
AcDbLine
 10
21.5554915
 20
1.0
 30
0.0
 11
23.4175915
 21
1.0
 31
0.0
  0
LINE
  5
82
330
1E
100
AcDbEntity
  8
0
100
AcDbLine
 10
23.4175915
 20
1.0
 30
0.0
 11
25.2466915
 21
1.0
 31
0.0
  0
LINE
  5
83
330
1E
100
AcDbEntity
  8
0
100
AcDbLine
 10
27.36189149999999
 20
1.0
 30
0.0
 11
29.06599149999999
 21
1.0
 31
0.0
  0
LINE
  5
84
330
1E
100
AcDbEntity
  8
0
100
AcDbLine
 10
25.2466915
 20
1.0
 30
0.0
 11
27.01789149999999
 21
1.0
 31
0.0
  0
LINE
  5
85
330
1E
100
AcDbEntity
  8
0
100
AcDbLine
 10
29.06599149999999
 20
1.0
 30
0.0
 11
30.6680915
 21
1.0
 31
0.0
  0
LINE
  5
86
330
1E
100
AcDbEntity
  8
0
100
AcDbLine
 10
27.01789149999999
 20
1.0
 30
0.0
 11
28.70899149999999
 21
1.0
 31
0.0
  0
LINE
  5
87
330
1E
100
AcDbEntity
  8
0
100
AcDbLine
 10
30.6680915
 20
1.0
 30
0.0
 11
32.1491915
 21
1.0
 31
0.0
  0
LINE
  5
88
330
1E
100
AcDbEntity
  8
0
100
AcDbLine
 10
25.5777915
 20
1.0
 30
0.0
 11
27.36189149999999
 21
1.0
 31
0.0
  0
LINE
  5
89
330
1E
100
AcDbEntity
  8
0
100
AcDbLine
 10
28.70899149999999
 20
1.0
 30
0.0
 11
30.29409149999999
 21
1.0
 31
0.0
  0
LINE
  5
8A
330
1E
100
AcDbEntity
  8
0
100
AcDbLine
 10
23.7366915
 20
1.0
 30
0.0
 11
25.5777915
 21
1.0
 31
0.0
  0
LINE
  5
8B
330
1E
100
AcDbEntity
  8
0
100
AcDbLine
 10
21.86149149999999
 20
1.0
 30
0.0
 11
23.7366915
 21
1.0
 31
0.0
  0
LINE
  5
8C
330
1E
100
AcDbEntity
  8
0
100
AcDbLine
 10
20.99999149999999
 20
1.0
 30
0.0
 11
21.86149149999999
 21
1.0
 31
0.0
  0
LINE
  5
8D
330
1E
100
AcDbEntity
  8
0
100
AcDbLine
 10
20.99999149999999
 20
1.0
 30
0.0
 11
21.5554915
 21
1.0
 31
0.0
  0
LINE
  5
8E
330
1E
100
AcDbEntity
  8
0
100
AcDbLine
 10
31.75519149999999
 20
1.0
 30
0.0
 11
33.06919149999999
 21
1.0
 31
0.0
  0
LINE
  5
8F
330
1E
100
AcDbEntity
  8
0
100
AcDbLine
 10
36.92149149999999
 20
1.0
 30
0.0
 11
37.0744915
 21
1.0
 31
0.0
  0
LINE
  5
90
330
1E
100
AcDbEntity
  8
0
100
AcDbLine
 10
37.57249149999999
 20
1.0
 30
0.0
 11
37.7924915
 21
1.0
 31
0.0
  0
LINE
  5
91
330
1E
100
AcDbEntity
  8
0
100
AcDbLine
 10
37.14349149999999
 20
1.0
 30
0.0
 11
37.57249149999999
 21
1.0
 31
0.0
  0
LINE
  5
92
330
1E
100
AcDbEntity
  8
0
100
AcDbLine
 10
35.19439149999999
 20
1.0
 30
0.0
 11
35.97439149999999
 21
1.0
 31
0.0
  0
LINE
  5
93
330
1E
100
AcDbEntity
  8
0
100
AcDbLine
 10
34.67329149999999
 20
1.0
 30
0.0
 11
35.68439149999999
 21
1.0
 31
0.0
  0
LINE
  5
94
330
1E
100
AcDbEntity
  8
0
100
AcDbLine
 10
35.68439149999999
 20
1.0
 30
0.0
 11
36.51139149999999
 21
1.0
 31
0.0
  0
LINE
  5
95
330
1E
100
AcDbEntity
  8
0
100
AcDbLine
 10
35.97439149999999
 20
1.0
 30
0.0
 11
36.5534915
 21
1.0
 31
0.0
  0
LINE
  5
96
330
1E
100
AcDbEntity
  8
0
100
AcDbLine
 10
36.51139149999999
 20
1.0
 30
0.0
 11
37.14349149999999
 21
1.0
 31
0.0
  0
LINE
  5
97
330
1E
100
AcDbEntity
  8
0
100
AcDbLine
 10
36.5534915
 20
1.0
 30
0.0
 11
36.92149149999999
 21
1.0
 31
0.0
  0
LINE
  5
98
330
1E
100
AcDbEntity
  8
0
100
AcDbLine
 10
34.22129149999999
 20
1.0
 30
0.0
 11
35.19439149999999
 21
1.0
 31
0.0
  0
LINE
  5
99
330
1E
100
AcDbEntity
  8
0
100
AcDbLine
 10
38.1405915
 20
6.299999999999999
 30
0.0
 11
38.3685915
 21
6.299999999999999
 31
0.0
  0
LINE
  5
9A
330
1E
100
AcDbEntity
  8
0
100
AcDbLine
 10
38.37399149999999
 20
2.0
 30
0.0
 11
38.37399149999999
 21
6.299999999999999
 31
0.0
  0
LINE
  5
9B
330
1E
100
AcDbEntity
  8
0
100
AcDbLine
 10
33.4892915
 20
1.0
 30
0.0
 11
34.67329149999999
 21
1.0
 31
0.0
  0
LINE
  5
9C
330
1E
100
AcDbEntity
  8
0
100
AcDbLine
 10
33.06919149999999
 20
1.0
 30
0.0
 11
34.22129149999999
 21
1.0
 31
0.0
  0
LINE
  5
9D
330
1E
100
AcDbEntity
  8
0
100
AcDbLine
 10
10.99989149999999
 20
6.299999999999999
 30
0.0
 11
12.6569915
 21
6.299999999999999
 31
0.0
  0
LINE
  5
9E
330
1E
100
AcDbEntity
  8
0
100
AcDbLine
 10
8.081701499999999
 20
6.299999999999999
 30
0.0
 11
9.4687815
 21
6.299999999999999
 31
0.0
  0
LINE
  5
9F
330
1E
100
AcDbEntity
  8
0
100
AcDbLine
 10
9.4687815
 20
6.299999999999999
 30
0.0
 11
10.99989149999999
 21
6.299999999999999
 31
0.0
  0
LINE
  5
A0
330
1E
100
AcDbEntity
  8
0
100
AcDbLine
 10
18.16929149999999
 20
6.299999999999999
 30
0.0
 11
20.1094915
 21
6.299999999999999
 31
0.0
  0
LINE
  5
A1
330
1E
100
AcDbEntity
  8
0
100
AcDbLine
 10
20.99999149999999
 20
6.299999999999999
 30
0.0
 11
21.8904915
 21
6.299999999999999
 31
0.0
  0
LINE
  5
A2
330
1E
100
AcDbEntity
  8
0
100
AcDbLine
 10
21.8904915
 20
6.299999999999999
 30
0.0
 11
23.8306915
 21
6.299999999999999
 31
0.0
  0
LINE
  5
A3
330
1E
100
AcDbEntity
  8
0
100
AcDbLine
 10
20.1094915
 20
6.299999999999999
 30
0.0
 11
20.99999149999999
 21
6.299999999999999
 31
0.0
  0
LINE
  5
A4
330
1E
100
AcDbEntity
  8
0
100
AcDbLine
 10
14.4190915
 20
6.299999999999999
 30
0.0
 11
16.2641915
 21
6.299999999999999
 31
0.0
  0
LINE
  5
A5
330
1E
100
AcDbEntity
  8
0
100
AcDbLine
 10
12.6569915
 20
6.299999999999999
 30
0.0
 11
14.4190915
 21
6.299999999999999
 31
0.0
  0
LINE
  5
A6
330
1E
100
AcDbEntity
  8
0
100
AcDbLine
 10
16.2641915
 20
6.299999999999999
 30
0.0
 11
18.16929149999999
 21
6.299999999999999
 31
0.0
  0
LINE
  5
A7
330
1E
100
AcDbEntity
  8
0
100
AcDbLine
 10
29.34299149999999
 20
6.299999999999999
 30
0.0
 11
31.00009149999999
 21
6.299999999999999
 31
0.0
  0
LINE
  5
A8
330
1E
100
AcDbEntity
  8
0
100
AcDbLine
 10
32.53119149999999
 20
6.299999999999999
 30
0.0
 11
33.91829149999999
 21
6.299999999999999
 31
0.0
  0
LINE
  5
A9
330
1E
100
AcDbEntity
  8
0
100
AcDbLine
 10
31.00009149999999
 20
6.299999999999999
 30
0.0
 11
32.53119149999999
 21
6.299999999999999
 31
0.0
  0
LINE
  5
AA
330
1E
100
AcDbEntity
  8
0
100
AcDbLine
 10
27.58089149999999
 20
6.299999999999999
 30
0.0
 11
29.34299149999999
 21
6.299999999999999
 31
0.0
  0
LINE
  5
AB
330
1E
100
AcDbEntity
  8
0
100
AcDbLine
 10
23.8306915
 20
6.299999999999999
 30
0.0
 11
25.7357915
 21
6.299999999999999
 31
0.0
  0
LINE
  5
AC
330
1E
100
AcDbEntity
  8
0
100
AcDbLine
 10
25.7357915
 20
6.299999999999999
 30
0.0
 11
27.58089149999999
 21
6.299999999999999
 31
0.0
  0
LINE
  5
AD
330
1E
100
AcDbEntity
  8
0
100
AcDbLine
 10
5.8115515
 20
6.299999999999999
 30
0.0
 11
6.857621499999999
 21
6.299999999999999
 31
0.0
  0
LINE
  5
AE
330
1E
100
AcDbEntity
  8
0
100
AcDbLine
 10
6.857621499999999
 20
6.299999999999999
 30
0.0
 11
8.081701499999999
 21
6.299999999999999
 31
0.0
  0
LINE
  5
AF
330
1E
100
AcDbEntity
  8
0
100
AcDbLine
 10
37.04349149999999
 20
6.299999999999999
 30
0.0
 11
37.69749149999999
 21
6.299999999999999
 31
0.0
  0
LINE
  5
B0
330
1E
100
AcDbEntity
  8
0
100
AcDbLine
 10
36.18839149999999
 20
6.299999999999999
 30
0.0
 11
37.04349149999999
 21
6.299999999999999
 31
0.0
  0
LINE
  5
B1
330
1E
100
AcDbEntity
  8
0
100
AcDbLine
 10
37.69749149999999
 20
6.299999999999999
 30
0.0
 11
38.1405915
 21
6.299999999999999
 31
0.0
  0
LINE
  5
B2
330
1E
100
AcDbEntity
  8
0
100
AcDbLine
 10
35.14239149999999
 20
6.299999999999999
 30
0.0
 11
36.18839149999999
 21
6.299999999999999
 31
0.0
  0
LINE
  5
B3
330
1E
100
AcDbEntity
  8
0
100
AcDbLine
 10
33.91829149999999
 20
6.299999999999999
 30
0.0
 11
35.14239149999999
 21
6.299999999999999
 31
0.0
  0
LINE
  5
B4
330
1E
100
AcDbEntity
  8
0
100
AcDbLine
 10
39.11759149999999
 20
7.4
 30
0.0
 11
39.41659149999999
 21
7.4
 31
0.0
  0
LINE
  5
B5
330
1E
100
AcDbEntity
  8
0
100
AcDbLine
 10
39.41659149999999
 20
7.4
 30
0.0
 11
39.4900915
 21
7.4
 31
0.0
  0
LINE
  5
B6
330
1E
100
AcDbEntity
  8
0
100
AcDbLine
 10
39.4900915
 20
7.4
 30
0.0
 11
39.4900915
 21
13.0
 31
0.0
  0
LINE
  5
B7
330
1E
100
AcDbEntity
  8
0
100
AcDbLine
 10
38.37399149999999
 20
6.299999999999999
 30
0.0
 11
38.37399149999999
 21
2.0
 31
0.0
  0
LINE
  5
B8
330
1E
100
AcDbEntity
  8
0
100
AcDbLine
 10
38.37399149999999
 20
6.299999999999999
 30
0.0
 11
39.4900915
 21
7.4
 31
0.0
  0
LINE
  5
B9
330
1E
100
AcDbEntity
  8
0
100
AcDbLine
 10
37.0744915
 20
1.0
 30
0.0
 11
37.57249149999999
 21
1.0
 31
0.0
  0
LINE
  5
BA
330
1E
100
AcDbEntity
  8
0
100
AcDbLine
 10
37.0744915
 20
1.0
 30
0.0
 11
37.7924915
 21
1.0
 31
0.0
  0
LINE
  5
BB
330
1E
100
AcDbEntity
  8
0
100
AcDbLine
 10
37.0744915
 20
1.0
 30
0.0
 11
37.57249149999999
 21
1.0
 31
0.0
  0
LINE
  5
BC
330
1E
100
AcDbEntity
  8
0
100
AcDbLine
 10
37.0744915
 20
1.0
 30
0.0
 11
37.7924915
 21
1.0
 31
0.0
  0
LINE
  5
BD
330
1E
100
AcDbEntity
  8
0
100
AcDbLine
 10
5.078511499999999
 20
1.0
 30
0.0
 11
5.446531499999999
 21
1.0
 31
0.0
  0
LINE
  5
BE
330
1E
100
AcDbEntity
  8
0
100
AcDbLine
 10
4.92550149999999
 20
1.0
 30
0.0
 11
5.078511499999999
 21
1.0
 31
0.0
  0
LINE
  5
BF
330
1E
100
AcDbEntity
  8
0
100
AcDbLine
 10
4.92550149999999
 20
1.0
 30
0.0
 11
5.078511499999999
 21
1.0
 31
0.0
  0
LINE
  5
C0
330
1E
100
AcDbEntity
  8
0
100
AcDbLine
 10
11.7058915
 20
1.0
 30
0.0
 11
13.2909915
 21
1.0
 31
0.0
  0
LINE
  5
C1
330
1E
100
AcDbEntity
  8
0
100
AcDbLine
 10
2.509931499999999
 20
7.4
 30
0.0
 11
2.509931499999999
 21
13.0
 31
0.0
  0
LINE
  5
C2
330
1E
100
AcDbEntity
  8
0
100
AcDbLine
 10
2.509931499999999
 20
7.4
 30
0.0
 11
3.6259815
 21
6.299999999999999
 31
0.0
  0
LINE
  5
C3
330
1E
100
AcDbEntity
  8
0
100
AcDbLine
 10
2.509931499999999
 20
7.4
 30
0.0
 11
2.5833515
 21
7.4
 31
0.0
  0
LINE
  5
C4
330
1E
100
AcDbEntity
  8
0
100
AcDbLine
 10
4.112451499999999
 20
7.4
 30
0.0
 11
5.02850149999999
 21
7.4
 31
0.0
  0
LINE
  5
C5
330
1E
100
AcDbEntity
  8
0
100
AcDbLine
 10
3.394401499999999
 20
7.4
 30
0.0
 11
4.112451499999999
 21
7.4
 31
0.0
  0
LINE
  5
C6
330
1E
100
AcDbEntity
  8
0
100
AcDbLine
 10
5.02850149999999
 20
7.4
 30
0.0
 11
6.1325815
 21
7.4
 31
0.0
  0
LINE
  5
C7
330
1E
100
AcDbEntity
  8
0
100
AcDbLine
 10
7.409651499999999
 20
7.4
 30
0.0
 11
8.846741499999998
 21
7.4
 31
0.0
  0
LINE
  5
C8
330
1E
100
AcDbEntity
  8
0
100
AcDbLine
 10
10.42689149999999
 20
7.4
 30
0.0
 11
12.12999149999999
 21
7.4
 31
0.0
  0
LINE
  5
C9
330
1E
100
AcDbEntity
  8
0
100
AcDbLine
 10
8.846741499999998
 20
7.4
 30
0.0
 11
10.42689149999999
 21
7.4
 31
0.0
  0
LINE
  5
CA
330
1E
100
AcDbEntity
  8
0
100
AcDbLine
 10
13.9370915
 20
7.4
 30
0.0
 11
15.8271915
 21
7.4
 31
0.0
  0
LINE
  5
CB
330
1E
100
AcDbEntity
  8
0
100
AcDbLine
 10
19.7673915
 20
7.4
 30
0.0
 11
20.99999149999999
 21
7.4
 31
0.0
  0
LINE
  5
CC
330
1E
100
AcDbEntity
  8
0
100
AcDbLine
 10
17.7782915
 20
7.4
 30
0.0
 11
19.7673915
 21
7.4
 31
0.0
  0
LINE
  5
CD
330
1E
100
AcDbEntity
  8
0
100
AcDbLine
 10
22.2325915
 20
7.4
 30
0.0
 11
24.2216915
 21
7.4
 31
0.0
  0
LINE
  5
CE
330
1E
100
AcDbEntity
  8
0
100
AcDbLine
 10
20.99999149999999
 20
7.4
 30
0.0
 11
22.2325915
 21
7.4
 31
0.0
  0
LINE
  5
CF
330
1E
100
AcDbEntity
  8
0
100
AcDbLine
 10
15.8271915
 20
7.4
 30
0.0
 11
17.7782915
 21
7.4
 31
0.0
  0
LINE
  5
D0
330
1E
100
AcDbEntity
  8
0
100
AcDbLine
 10
12.12999149999999
 20
7.4
 30
0.0
 11
13.9370915
 21
7.4
 31
0.0
  0
LINE
  5
D1
330
1E
100
AcDbEntity
  8
0
100
AcDbLine
 10
29.86999149999999
 20
7.4
 30
0.0
 11
31.57309149999999
 21
7.4
 31
0.0
  0
LINE
  5
D2
330
1E
100
AcDbEntity
  8
0
100
AcDbLine
 10
31.57309149999999
 20
7.4
 30
0.0
 11
33.1531915
 21
7.4
 31
0.0
  0
LINE
  5
D3
330
1E
100
AcDbEntity
  8
0
100
AcDbLine
 10
33.1531915
 20
7.4
 30
0.0
 11
34.5902915
 21
7.4
 31
0.0
  0
LINE
  5
D4
330
1E
100
AcDbEntity
  8
0
100
AcDbLine
 10
28.06289149999999
 20
7.4
 30
0.0
 11
29.86999149999999
 21
7.4
 31
0.0
  0
LINE
  5
D5
330
1E
100
AcDbEntity
  8
0
100
AcDbLine
 10
24.2216915
 20
7.4
 30
0.0
 11
26.1727915
 21
7.4
 31
0.0
  0
LINE
  5
D6
330
1E
100
AcDbEntity
  8
0
100
AcDbLine
 10
26.1727915
 20
7.4
 30
0.0
 11
28.06289149999999
 21
7.4
 31
0.0
  0
LINE
  5
D7
330
1E
100
AcDbEntity
  8
0
100
AcDbLine
 10
6.1325815
 20
7.4
 30
0.0
 11
7.409651499999999
 21
7.4
 31
0.0
  0
LINE
  5
D8
330
1E
100
AcDbEntity
  8
0
100
AcDbLine
 10
34.5902915
 20
7.4
 30
0.0
 11
35.86739149999999
 21
7.4
 31
0.0
  0
LINE
  5
D9
330
1E
100
AcDbEntity
  8
0
100
AcDbLine
 10
37.88749149999999
 20
7.4
 30
0.0
 11
38.60559149999999
 21
7.4
 31
0.0
  0
LINE
  5
DA
330
1E
100
AcDbEntity
  8
0
100
AcDbLine
 10
36.97149149999999
 20
7.4
 30
0.0
 11
37.88749149999999
 21
7.4
 31
0.0
  0
LINE
  5
DB
330
1E
100
AcDbEntity
  8
0
100
AcDbLine
 10
38.60559149999999
 20
7.4
 30
0.0
 11
39.11759149999999
 21
7.4
 31
0.0
  0
LINE
  5
DC
330
1E
100
AcDbEntity
  8
0
100
AcDbLine
 10
35.86739149999999
 20
7.4
 30
0.0
 11
36.97149149999999
 21
7.4
 31
0.0
  0
LINE
  5
DD
330
1E
100
AcDbEntity
  8
0
100
AcDbLine
 10
99.97459774708572
 20
8.998987320782289
 30
0.0
 11
99.97969150000001
 21
12.7394
 31
0.0
  0
LINE
  5
DE
330
1E
100
AcDbEntity
  8
0
100
AcDbLine
 10
1.3752815
 20
13.0
 30
0.0
 11
2.0433215
 21
13.0
 31
0.0
  0
LINE
  5
DF
330
1E
100
AcDbEntity
  8
0
100
AcDbLine
 10
1.3752815
 20
13.0
 30
0.0
 11
2.0433215
 21
13.0
 31
0.0
  0
LINE
  5
E0
330
1E
100
AcDbEntity
  8
0
100
AcDbLine
 10
0.8712454999999948
 20
13.5
 30
0.0
 11
1.5522915
 21
13.5
 31
0.0
  0
LINE
  5
E1
330
1E
100
AcDbEntity
  8
0
100
AcDbLine
 10
1.5522915
 20
13.5
 30
0.0
 11
2.4173415
 21
13.5
 31
0.0
  0
LINE
  5
E2
330
1E
100
AcDbEntity
  8
0
100
AcDbLine
 10
0.383215499999995
 20
13.5
 30
0.0
 11
0.383215499999995
 21
18.0
 31
0.0
  0
LINE
  5
E3
330
1E
100
AcDbEntity
  8
0
100
AcDbLine
 10
0.383215499999995
 20
13.5
 30
0.0
 11
0.8922464999999949
 21
13.0
 31
0.0
  0
LINE
  5
E4
330
1E
100
AcDbEntity
  8
0
100
AcDbLine
 10
0.383215499999995
 20
13.5
 30
0.0
 11
0.8712454999999948
 21
13.5
 31
0.0
  0
LINE
  5
E5
330
1E
100
AcDbEntity
  8
0
100
AcDbLine
 10
0.8922464999999949
 20
13.0
 30
0.0
 11
1.3752815
 21
13.0
 31
0.0
  0
LINE
  5
E6
330
1E
100
AcDbEntity
  8
0
100
AcDbLine
 10
0.8922464999999949
 20
13.0
 30
0.0
 11
1.9983215
 21
13.0
 31
0.0
  0
LINE
  5
E7
330
1E
100
AcDbEntity
  8
0
100
AcDbLine
 10
0.8922464999999949
 20
13.0
 30
0.0
 11
1.3752815
 21
13.0
 31
0.0
  0
LINE
  5
E8
330
1E
100
AcDbEntity
  8
0
100
AcDbLine
 10
40.6246915
 20
13.0
 30
0.0
 11
41.1076915
 21
13.0
 31
0.0
  0
LINE
  5
E9
330
1E
100
AcDbEntity
  8
0
100
AcDbLine
 10
39.95669149999999
 20
13.0
 30
0.0
 11
40.6246915
 21
13.0
 31
0.0
  0
LINE
  5
EA
330
1E
100
AcDbEntity
  8
0
100
AcDbLine
 10
39.4900915
 20
13.0
 30
0.0
 11
39.95669149999999
 21
13.0
 31
0.0
  0
LINE
  5
EB
330
1E
100
AcDbEntity
  8
0
100
AcDbLine
 10
2.0433215
 20
13.0
 30
0.0
 11
2.509931499999999
 21
13.0
 31
0.0
  0
LINE
  5
EC
330
1E
100
AcDbEntity
  8
0
100
AcDbLine
 10
2.0433215
 20
13.0
 30
0.0
 11
2.8903715
 21
13.0
 31
0.0
  0
LINE
  5
ED
330
1E
100
AcDbEntity
  8
0
100
AcDbLine
 10
2.5833515
 20
13.0
 30
0.0
 11
2.882371499999999
 21
13.0
 31
0.0
  0
LINE
  5
EE
330
1E
100
AcDbEntity
  8
0
100
AcDbLine
 10
2.882371499999999
 20
13.0
 30
0.0
 11
3.394401499999999
 21
13.0
 31
0.0
  0
LINE
  5
EF
330
1E
100
AcDbEntity
  8
0
100
AcDbLine
 10
2.509931499999999
 20
13.0
 30
0.0
 11
2.5833515
 21
13.0
 31
0.0
  0
LINE
  5
F0
330
1E
100
AcDbEntity
  8
0
100
AcDbLine
 10
2.509931499999999
 20
13.0
 30
0.0
 11
2.509931499999999
 21
7.4
 31
0.0
  0
LINE
  5
F1
330
1E
100
AcDbEntity
  8
0
100
AcDbLine
 10
3.394401499999999
 20
13.0
 30
0.0
 11
4.112451499999999
 21
13.0
 31
0.0
  0
LINE
  5
F2
330
1E
100
AcDbEntity
  8
0
100
AcDbLine
 10
4.112451499999999
 20
13.0
 30
0.0
 11
5.0295015
 21
13.0
 31
0.0
  0
LINE
  5
F3
330
1E
100
AcDbEntity
  8
0
100
AcDbLine
 10
3.9074415
 20
13.0
 30
0.0
 11
5.086511499999999
 21
13.0
 31
0.0
  0
LINE
  5
F4
330
1E
100
AcDbEntity
  8
0
100
AcDbLine
 10
5.0295015
 20
13.0
 30
0.0
 11
6.1325815
 21
13.0
 31
0.0
  0
LINE
  5
F5
330
1E
100
AcDbEntity
  8
0
100
AcDbLine
 10
6.1325815
 20
13.0
 30
0.0
 11
7.409651499999999
 21
13.0
 31
0.0
  0
LINE
  5
F6
330
1E
100
AcDbEntity
  8
0
100
AcDbLine
 10
6.415591499999999
 20
13.0
 30
0.0
 11
7.8816815
 21
13.0
 31
0.0
  0
LINE
  5
F7
330
1E
100
AcDbEntity
  8
0
100
AcDbLine
 10
7.409651499999999
 20
13.0
 30
0.0
 11
8.846741499999998
 21
13.0
 31
0.0
  0
LINE
  5
F8
330
1E
100
AcDbEntity
  8
0
100
AcDbLine
 10
7.8816815
 20
13.0
 30
0.0
 11
9.4717815
 21
13.0
 31
0.0
  0
LINE
  5
F9
330
1E
100
AcDbEntity
  8
0
100
AcDbLine
 10
8.846741499999998
 20
13.0
 30
0.0
 11
10.42689149999999
 21
13.0
 31
0.0
  0
LINE
  5
FA
330
1E
100
AcDbEntity
  8
0
100
AcDbLine
 10
9.4717815
 20
13.0
 30
0.0
 11
11.17089149999999
 21
13.0
 31
0.0
  0
LINE
  5
FB
330
1E
100
AcDbEntity
  8
0
100
AcDbLine
 10
11.17089149999999
 20
13.0
 30
0.0
 11
13.0389915
 21
13.0
 31
0.0
  0
LINE
  5
FC
330
1E
100
AcDbEntity
  8
0
100
AcDbLine
 10
10.42689149999999
 20
13.0
 30
0.0
 11
12.12999149999999
 21
13.0
 31
0.0
  0
LINE
  5
FD
330
1E
100
AcDbEntity
  8
0
100
AcDbLine
 10
13.9370915
 20
13.0
 30
0.0
 11
15.8271915
 21
13.0
 31
0.0
  0
LINE
  5
FE
330
1E
100
AcDbEntity
  8
0
100
AcDbLine
 10
13.0389915
 20
13.0
 30
0.0
 11
14.9880915
 21
13.0
 31
0.0
  0
LINE
  5
FF
330
1E
100
AcDbEntity
  8
0
100
AcDbLine
 10
17.00029149999999
 20
13.0
 30
0.0
 11
20.99999149999999
 21
13.0
 31
0.0
  0
LINE
  5
100
330
1E
100
AcDbEntity
  8
0
100
AcDbLine
 10
15.8271915
 20
13.0
 30
0.0
 11
17.7782915
 21
13.0
 31
0.0
  0
LINE
  5
101
330
1E
100
AcDbEntity
  8
0
100
AcDbLine
 10
19.7673915
 20
13.0
 30
0.0
 11
20.99999149999999
 21
13.0
 31
0.0
  0
LINE
  5
102
330
1E
100
AcDbEntity
  8
0
100
AcDbLine
 10
17.7782915
 20
13.0
 30
0.0
 11
19.7673915
 21
13.0
 31
0.0
  0
LINE
  5
103
330
1E
100
AcDbEntity
  8
0
100
AcDbLine
 10
22.2325915
 20
13.0
 30
0.0
 11
24.2216915
 21
13.0
 31
0.0
  0
LINE
  5
104
330
1E
100
AcDbEntity
  8
0
100
AcDbLine
 10
24.2216915
 20
13.0
 30
0.0
 11
26.1727915
 21
13.0
 31
0.0
  0
LINE
  5
105
330
1E
100
AcDbEntity
  8
0
100
AcDbLine
 10
20.99999149999999
 20
13.0
 30
0.0
 11
22.2325915
 21
13.0
 31
0.0
  0
LINE
  5
106
330
1E
100
AcDbEntity
  8
0
100
AcDbLine
 10
20.99999149999999
 20
13.0
 30
0.0
 11
24.9996915
 21
13.0
 31
0.0
  0
LINE
  5
107
330
1E
100
AcDbEntity
  8
0
100
AcDbLine
 10
14.9880915
 20
13.0
 30
0.0
 11
16.9992915
 21
13.0
 31
0.0
  0
LINE
  5
108
330
1E
100
AcDbEntity
  8
0
100
AcDbLine
 10
16.9992915
 20
13.0
 30
0.0
 11
16.9992915
 21
13.5
 31
0.0
  0
LINE
  5
109
330
1E
100
AcDbEntity
  8
0
100
AcDbLine
 10
26.1727915
 20
13.0
 30
0.0
 11
28.06289149999999
 21
13.0
 31
0.0
  0
LINE
  5
10A
330
1E
100
AcDbEntity
  8
0
100
AcDbLine
 10
27.01189149999999
 20
13.0
 30
0.0
 11
28.96099149999999
 21
13.0
 31
0.0
  0
LINE
  5
10B
330
1E
100
AcDbEntity
  8
0
100
AcDbLine
 10
25.0006915
 20
13.0
 30
0.0
 11
27.01189149999999
 21
13.0
 31
0.0
  0
LINE
  5
10C
330
1E
100
AcDbEntity
  8
0
100
AcDbLine
 10
25.0006915
 20
13.0
 30
0.0
 11
25.0006915
 21
13.5
 31
0.0
  0
LINE
  5
10D
330
1E
100
AcDbEntity
  8
0
100
AcDbLine
 10
24.9996915
 20
13.0
 30
0.0
 11
25.0006915
 21
18.0
 31
0.0
  0
LINE
  5
10E
330
1E
100
AcDbEntity
  8
0
100
AcDbLine
 10
12.12999149999999
 20
13.0
 30
0.0
 11
13.9370915
 21
13.0
 31
0.0
  0
LINE
  5
10F
330
1E
100
AcDbEntity
  8
0
100
AcDbLine
 10
28.06289149999999
 20
13.0
 30
0.0
 11
29.86999149999999
 21
13.0
 31
0.0
  0
LINE
  5
110
330
1E
100
AcDbEntity
  8
0
100
AcDbLine
 10
29.86999149999999
 20
13.0
 30
0.0
 11
31.57309149999999
 21
13.0
 31
0.0
  0
LINE
  5
111
330
1E
100
AcDbEntity
  8
0
100
AcDbLine
 10
28.96099149999999
 20
13.0
 30
0.0
 11
30.82909149999999
 21
13.0
 31
0.0
  0
LINE
  5
112
330
1E
100
AcDbEntity
  8
0
100
AcDbLine
 10
31.57309149999999
 20
13.0
 30
0.0
 11
33.1531915
 21
13.0
 31
0.0
  0
LINE
  5
113
330
1E
100
AcDbEntity
  8
0
100
AcDbLine
 10
34.5902915
 20
13.0
 30
0.0
 11
35.86739149999999
 21
13.0
 31
0.0
  0
LINE
  5
114
330
1E
100
AcDbEntity
  8
0
100
AcDbLine
 10
34.11829149999999
 20
13.0
 30
0.0
 11
35.58439149999999
 21
13.0
 31
0.0
  0
LINE
  5
115
330
1E
100
AcDbEntity
  8
0
100
AcDbLine
 10
33.1531915
 20
13.0
 30
0.0
 11
34.5902915
 21
13.0
 31
0.0
  0
LINE
  5
116
330
1E
100
AcDbEntity
  8
0
100
AcDbLine
 10
32.5281915
 20
13.0
 30
0.0
 11
34.11829149999999
 21
13.0
 31
0.0
  0
LINE
  5
117
330
1E
100
AcDbEntity
  8
0
100
AcDbLine
 10
30.82909149999999
 20
13.0
 30
0.0
 11
32.5281915
 21
13.0
 31
0.0
  0
LINE
  5
118
330
1E
100
AcDbEntity
  8
0
100
AcDbLine
 10
5.086511499999999
 20
13.0
 30
0.0
 11
6.415591499999999
 21
13.0
 31
0.0
  0
LINE
  5
119
330
1E
100
AcDbEntity
  8
0
100
AcDbLine
 10
2.8903715
 20
13.0
 30
0.0
 11
3.9074415
 21
13.0
 31
0.0
  0
LINE
  5
11A
330
1E
100
AcDbEntity
  8
0
100
AcDbLine
 10
35.58439149999999
 20
13.0
 30
0.0
 11
36.9134915
 21
13.0
 31
0.0
  0
LINE
  5
11B
330
1E
100
AcDbEntity
  8
0
100
AcDbLine
 10
35.86739149999999
 20
13.0
 30
0.0
 11
36.9704915
 21
13.0
 31
0.0
  0
LINE
  5
11C
330
1E
100
AcDbEntity
  8
0
100
AcDbLine
 10
36.9704915
 20
13.0
 30
0.0
 11
37.88749149999999
 21
13.0
 31
0.0
  0
LINE
  5
11D
330
1E
100
AcDbEntity
  8
0
100
AcDbLine
 10
36.9134915
 20
13.0
 30
0.0
 11
38.0924915
 21
13.0
 31
0.0
  0
LINE
  5
11E
330
1E
100
AcDbEntity
  8
0
100
AcDbLine
 10
37.88749149999999
 20
13.0
 30
0.0
 11
38.60559149999999
 21
13.0
 31
0.0
  0
LINE
  5
11F
330
1E
100
AcDbEntity
  8
0
100
AcDbLine
 10
38.0924915
 20
13.0
 30
0.0
 11
39.1095915
 21
13.0
 31
0.0
  0
LINE
  5
120
330
1E
100
AcDbEntity
  8
0
100
AcDbLine
 10
39.1095915
 20
13.0
 30
0.0
 11
39.95669149999999
 21
13.0
 31
0.0
  0
LINE
  5
121
330
1E
100
AcDbEntity
  8
0
100
AcDbLine
 10
38.60559149999999
 20
13.0
 30
0.0
 11
39.11759149999999
 21
13.0
 31
0.0
  0
LINE
  5
122
330
1E
100
AcDbEntity
  8
0
100
AcDbLine
 10
39.41659149999999
 20
13.0
 30
0.0
 11
39.4900915
 21
13.0
 31
0.0
  0
LINE
  5
123
330
1E
100
AcDbEntity
  8
0
100
AcDbLine
 10
39.11759149999999
 20
13.0
 30
0.0
 11
39.41659149999999
 21
13.0
 31
0.0
  0
LINE
  5
124
330
1E
100
AcDbEntity
  8
0
100
AcDbLine
 10
39.4900915
 20
13.0
 30
0.0
 11
39.4900915
 21
7.4
 31
0.0
  0
LINE
  5
125
330
1E
100
AcDbEntity
  8
0
100
AcDbLine
 10
3.460411499999999
 20
13.5
 30
0.0
 11
4.6704815
 21
13.5
 31
0.0
  0
LINE
  5
126
330
1E
100
AcDbEntity
  8
0
100
AcDbLine
 10
4.6704815
 20
13.5
 30
0.0
 11
6.036571499999999
 21
13.5
 31
0.0
  0
LINE
  5
127
330
1E
100
AcDbEntity
  8
0
100
AcDbLine
 10
6.036571499999999
 20
13.5
 30
0.0
 11
7.5446615
 21
13.5
 31
0.0
  0
LINE
  5
128
330
1E
100
AcDbEntity
  8
0
100
AcDbLine
 10
14.9050915
 20
13.5
 30
0.0
 11
16.9992915
 21
13.5
 31
0.0
  0
LINE
  5
129
330
1E
100
AcDbEntity
  8
0
100
AcDbLine
 10
12.8759915
 20
13.5
 30
0.0
 11
14.9050915
 21
13.5
 31
0.0
  0
LINE
  5
12A
330
1E
100
AcDbEntity
  8
0
100
AcDbLine
 10
10.93089149999999
 20
13.5
 30
0.0
 11
12.8759915
 21
13.5
 31
0.0
  0
LINE
  5
12B
330
1E
100
AcDbEntity
  8
0
100
AcDbLine
 10
16.9992915
 20
13.5
 30
0.0
 11
16.9992915
 21
18.0
 31
0.0
  0
LINE
  5
12C
330
1E
100
AcDbEntity
  8
0
100
AcDbLine
 10
16.9992915
 20
13.5
 30
0.0
 11
16.9992915
 21
13.0
 31
0.0
  0
LINE
  5
12D
330
1E
100
AcDbEntity
  8
0
100
AcDbLine
 10
29.1239915
 20
13.5
 30
0.0
 11
31.06909149999999
 21
13.5
 31
0.0
  0
LINE
  5
12E
330
1E
100
AcDbEntity
  8
0
100
AcDbLine
 10
27.0948915
 20
13.5
 30
0.0
 11
29.1239915
 21
13.5
 31
0.0
  0
LINE
  5
12F
330
1E
100
AcDbEntity
  8
0
100
AcDbLine
 10
25.0006915
 20
13.5
 30
0.0
 11
27.0948915
 21
13.5
 31
0.0
  0
LINE
  5
130
330
1E
100
AcDbEntity
  8
0
100
AcDbLine
 10
25.0006915
 20
13.5
 30
0.0
 11
25.0006915
 21
18.0
 31
0.0
  0
LINE
  5
131
330
1E
100
AcDbEntity
  8
0
100
AcDbLine
 10
25.0006915
 20
13.5
 30
0.0
 11
25.0006915
 21
13.0
 31
0.0
  0
LINE
  5
132
330
1E
100
AcDbEntity
  8
0
100
AcDbLine
 10
9.181771499999999
 20
13.5
 30
0.0
 11
10.93089149999999
 21
13.5
 31
0.0
  0
LINE
  5
133
330
1E
100
AcDbEntity
  8
0
100
AcDbLine
 10
7.5446615
 20
13.5
 30
0.0
 11
9.181771499999999
 21
13.5
 31
0.0
  0
LINE
  5
134
330
1E
100
AcDbEntity
  8
0
100
AcDbLine
 10
31.06909149999999
 20
13.5
 30
0.0
 11
32.8181915
 21
13.5
 31
0.0
  0
LINE
  5
135
330
1E
100
AcDbEntity
  8
0
100
AcDbLine
 10
34.4552915
 20
13.5
 30
0.0
 11
35.9633915
 21
13.5
 31
0.0
  0
LINE
  5
136
330
1E
100
AcDbEntity
  8
0
100
AcDbLine
 10
35.9633915
 20
13.5
 30
0.0
 11
37.32949149999999
 21
13.5
 31
0.0
  0
LINE
  5
137
330
1E
100
AcDbEntity
  8
0
100
AcDbLine
 10
37.32949149999999
 20
13.5
 30
0.0
 11
38.5395915
 21
13.5
 31
0.0
  0
LINE
  5
138
330
1E
100
AcDbEntity
  8
0
100
AcDbLine
 10
32.8181915
 20
13.5
 30
0.0
 11
34.4552915
 21
13.5
 31
0.0
  0
LINE
  5
139
330
1E
100
AcDbEntity
  8
0
100
AcDbLine
 10
2.4173415
 20
13.5
 30
0.0
 11
3.460411499999999
 21
13.5
 31
0.0
  0
LINE
  5
13A
330
1E
100
AcDbEntity
  8
0
100
AcDbLine
 10
38.5395915
 20
13.5
 30
0.0
 11
39.58269149999999
 21
13.5
 31
0.0
  0
LINE
  5
13B
330
1E
100
AcDbEntity
  8
0
100
AcDbLine
 10
41.1076915
 20
13.0
 30
0.0
 11
41.6167915
 21
13.5
 31
0.0
  0
LINE
  5
13C
330
1E
100
AcDbEntity
  8
0
100
AcDbLine
 10
40.6246915
 20
13.0
 30
0.0
 11
41.1076915
 21
13.0
 31
0.0
  0
LINE
  5
13D
330
1E
100
AcDbEntity
  8
0
100
AcDbLine
 10
39.95669149999999
 20
13.0
 30
0.0
 11
40.6246915
 21
13.0
 31
0.0
  0
LINE
  5
13E
330
1E
100
AcDbEntity
  8
0
100
AcDbLine
 10
39.58269149999999
 20
13.5
 30
0.0
 11
40.44769149999999
 21
13.5
 31
0.0
  0
LINE
  5
13F
330
1E
100
AcDbEntity
  8
0
100
AcDbLine
 10
41.12869149999999
 20
13.5
 30
0.0
 11
41.6167915
 21
13.5
 31
0.0
  0
LINE
  5
140
330
1E
100
AcDbEntity
  8
0
100
AcDbLine
 10
41.6167915
 20
13.5
 30
0.0
 11
41.6167915
 21
18.0
 31
0.0
  0
LINE
  5
141
330
1E
100
AcDbEntity
  8
0
100
AcDbLine
 10
40.44769149999999
 20
13.5
 30
0.0
 11
41.12869149999999
 21
13.5
 31
0.0
  0
LINE
  5
142
330
1E
100
AcDbEntity
  8
0
100
AcDbLine
 10
40.0016915
 20
13.0
 30
0.0
 11
41.1076915
 21
13.0
 31
0.0
  0
LINE
  5
143
330
1E
100
AcDbEntity
  8
0
100
AcDbLine
 10
99.9736915
 20
8.999
 30
0.0
 11
99.97879150000001
 21
16.0
 31
0.0
  0
LINE
  5
144
330
1E
100
AcDbEntity
  8
0
100
AcDbLine
 10
99.9736915
 20
8.999
 30
0.0
 11
99.98579150000001
 21
8.932999999999999
 31
0.0
  0
LINE
  5
145
330
1E
100
AcDbEntity
  8
0
100
AcDbLine
 10
99.97459774708572
 20
8.998987320782289
 30
0.0
 11
99.97969150000001
 21
12.7394
 31
0.0
  0
LINE
  5
146
330
1E
100
AcDbEntity
  8
0
100
AcDbLine
 10
98.99999150000001
 20
16.0
 30
0.0
 11
98.99999150000001
 21
38.0
 31
0.0
  0
LINE
  5
147
330
1E
100
AcDbEntity
  8
0
100
AcDbLine
 10
0.353212499999995
 20
19.10599999999999
 30
0.0
 11
0.378214499999995
 21
18.463
 31
0.0
  0
LINE
  5
148
330
1E
100
AcDbEntity
  8
0
100
AcDbLine
 10
0.311210499999995
 20
19.719
 30
0.0
 11
0.353212499999995
 21
19.10599999999999
 31
0.0
  0
LINE
  5
149
330
1E
100
AcDbEntity
  8
0
100
AcDbLine
 10
16.9992915
 20
18.0
 30
0.0
 11
17.0712915
 21
18.75099999999999
 31
0.0
  0
LINE
  5
14A
330
1E
100
AcDbEntity
  8
0
100
AcDbLine
 10
16.9992915
 20
18.0
 30
0.0
 11
17.0929516346519
 21
18.82532197861619
 31
0.0
  0
LINE
  5
14B
330
1E
100
AcDbEntity
  8
0
100
AcDbLine
 10
16.9992915
 20
18.0
 30
0.0
 11
17.00029149999999
 21
13.0
 31
0.0
  0
LINE
  5
14C
330
1E
100
AcDbEntity
  8
0
100
AcDbLine
 10
16.9992915
 20
18.0
 30
0.0
 11
16.9992915
 21
13.5
 31
0.0
  0
LINE
  5
14D
330
1E
100
AcDbEntity
  8
0
100
AcDbLine
 10
41.6167915
 20
18.0
 30
0.0
 11
41.6217915
 21
18.463
 31
0.0
  0
LINE
  5
14E
330
1E
100
AcDbEntity
  8
0
100
AcDbLine
 10
41.6167915
 20
18.0
 30
0.0
 11
41.6167915
 21
13.5
 31
0.0
  0
LINE
  5
14F
330
1E
100
AcDbEntity
  8
0
100
AcDbLine
 10
25.0006915
 20
18.0
 30
0.0
 11
25.0006915
 21
13.5
 31
0.0
  0
LINE
  5
150
330
1E
100
AcDbEntity
  8
0
100
AcDbLine
 10
17.1699594892305
 20
19.0895574606773
 30
0.0
 11
17.3530764604951
 21
19.61407895463839
 31
0.0
  0
LINE
  5
151
330
1E
100
AcDbEntity
  8
0
100
AcDbLine
 10
17.1699594892305
 20
19.0895574606773
 30
0.0
 11
17.3530764604951
 21
19.61407895463839
 31
0.0
  0
LINE
  5
152
330
1E
100
AcDbEntity
  8
0
100
AcDbLine
 10
17.0712915
 20
18.75099999999999
 30
0.0
 11
17.28229149999999
 21
19.475
 31
0.0
  0
LINE
  5
153
330
1E
100
AcDbEntity
  8
0
100
AcDbLine
 10
24.9070313653481
 20
18.82532197861619
 30
0.0
 11
25.0006915
 21
18.0
 31
0.0
  0
LINE
  5
154
330
1E
100
AcDbEntity
  8
0
100
AcDbLine
 10
17.28229149999999
 20
19.475
 30
0.0
 11
17.6232915
 21
20.14499999999999
 31
0.0
  0
LINE
  5
155
330
1E
100
AcDbEntity
  8
0
100
AcDbLine
 10
17.4969378444735
 20
19.89673915189809
 30
0.0
 11
17.79729920802919
 21
20.3746726423357
 31
0.0
  0
LINE
  5
156
330
1E
100
AcDbEntity
  8
0
100
AcDbLine
 10
17.6232915
 20
20.14499999999999
 30
0.0
 11
18.0202915
 21
20.66899999999999
 31
0.0
  0
LINE
  5
157
330
1E
100
AcDbEntity
  8
0
100
AcDbLine
 10
24.646906539505
 20
19.61407895463839
 30
0.0
 11
24.8300235107694
 21
19.08955746067739
 31
0.0
  0
LINE
  5
158
330
1E
100
AcDbEntity
  8
0
100
AcDbLine
 10
24.3766915
 20
20.14499999999999
 30
0.0
 11
24.7176915
 21
19.475
 31
0.0
  0
LINE
  5
159
330
1E
100
AcDbEntity
  8
0
100
AcDbLine
 10
24.7176915
 20
19.475
 30
0.0
 11
24.9286915
 21
18.75099999999999
 31
0.0
  0
LINE
  5
15A
330
1E
100
AcDbEntity
  8
0
100
AcDbLine
 10
41.6467915
 20
19.10599999999999
 30
0.0
 11
41.6887915
 21
19.719
 31
0.0
  0
LINE
  5
15B
330
1E
100
AcDbEntity
  8
0
100
AcDbLine
 10
41.6217915
 20
18.463
 30
0.0
 11
41.6467915
 21
19.10599999999999
 31
0.0
  0
LINE
  5
15C
330
1E
100
AcDbEntity
  8
0
100
AcDbLine
 10
41.74279149999999
 20
20.284
 30
0.0
 11
41.8047915
 21
20.79
 31
0.0
  0
LINE
  5
15D
330
1E
100
AcDbEntity
  8
0
100
AcDbLine
 10
41.6887915
 20
19.719
 30
0.0
 11
41.74279149999999
 21
20.284
 31
0.0
  0
LINE
  5
15E
330
1E
100
AcDbEntity
  8
0
100
AcDbLine
 10
24.9286915
 20
18.75099999999999
 30
0.0
 11
25.0006915
 21
18.0
 31
0.0
  0
LINE
  5
15F
330
1E
100
AcDbEntity
  8
0
100
AcDbLine
 10
0.383215499999995
 20
18.0
 30
0.0
 11
0.383215499999995
 21
13.5
 31
0.0
  0
LINE
  5
160
330
1E
100
AcDbEntity
  8
0
100
AcDbLine
 10
0.378214499999995
 20
18.463
 30
0.0
 11
0.383215499999995
 21
18.0
 31
0.0
  0
LINE
  5
161
330
1E
100
AcDbEntity
  8
0
100
AcDbLine
 10
0.0000084999999951
 20
21.99419999999999
 30
0.0
 11
0.0252674999999952
 21
37.5
 31
0.0
  0
LINE
  5
162
330
1E
100
AcDbEntity
  8
0
100
AcDbLine
 10
0.0000084999999951
 20
21.99419999999999
 30
0.0
 11
0.0252674999999952
 21
37.5
 31
0.0
  0
LINE
  5
163
330
1E
100
AcDbEntity
  8
0
100
AcDbLine
 10
0.0061914999999952
 20
21.958
 30
0.0
 11
0.0331934999999952
 21
21.813
 31
0.0
  0
LINE
  5
164
330
1E
100
AcDbEntity
  8
0
100
AcDbLine
 10
0.0061914999999952
 20
21.958
 30
0.0
 11
0.0331934999999952
 21
21.813
 31
0.0
  0
LINE
  5
165
330
1E
100
AcDbEntity
  8
0
100
AcDbLine
 10
0.0331934999999952
 20
21.813
 30
0.0
 11
0.0771964999999952
 21
21.566
 31
0.0
  0
LINE
  5
166
330
1E
100
AcDbEntity
  8
0
100
AcDbLine
 10
0.0252674999999952
 20
37.5
 30
0.0
 11
0.524297499999995
 21
38.0
 31
0.0
  0
LINE
  5
167
330
1E
100
AcDbEntity
  8
0
100
AcDbLine
 10
0.0331934999999952
 20
37.5
 30
0.0
 11
0.263208499999995
 21
37.5
 31
0.0
  0
LINE
  5
168
330
1E
100
AcDbEntity
  8
0
100
AcDbLine
 10
0.0331934999999952
 20
37.5
 30
0.0
 11
0.263208499999995
 21
37.5
 31
0.0
  0
LINE
  5
169
330
1E
100
AcDbEntity
  8
0
100
AcDbLine
 10
17.9358585384395
 20
20.5575569978395
 30
0.0
 11
18.5025370069136
 21
21.12414595778909
 31
0.0
  0
LINE
  5
16A
330
1E
100
AcDbEntity
  8
0
100
AcDbLine
 10
18.0202915
 20
20.66899999999999
 30
0.0
 11
18.4963915
 21
21.12
 31
0.0
  0
LINE
  5
16B
330
1E
100
AcDbEntity
  8
0
100
AcDbLine
 10
41.8047915
 20
20.79
 30
0.0
 11
41.86679149999999
 21
21.22199999999999
 31
0.0
  0
LINE
  5
16C
330
1E
100
AcDbEntity
  8
0
100
AcDbLine
 10
24.2026837919708
 20
20.3746726423357
 30
0.0
 11
24.5030451555265
 21
19.89673915189809
 31
0.0
  0
LINE
  5
16D
330
1E
100
AcDbEntity
  8
0
100
AcDbLine
 10
23.9796915
 20
20.66899999999999
 30
0.0
 11
24.3766915
 21
20.14499999999999
 31
0.0
  0
LINE
  5
16E
330
1E
100
AcDbEntity
  8
0
100
AcDbLine
 10
0.7042354999999949
 20
37.5
 30
0.0
 11
1.355271499999999
 21
37.5
 31
0.0
  0
LINE
  5
16F
330
1E
100
AcDbEntity
  8
0
100
AcDbLine
 10
1.355271499999999
 20
37.5
 30
0.0
 11
2.2073315
 21
37.5
 31
0.0
  0
LINE
  5
170
330
1E
100
AcDbEntity
  8
0
100
AcDbLine
 10
0.263208499999995
 20
37.5
 30
0.0
 11
0.7042354999999949
 21
37.5
 31
0.0
  0
LINE
  5
171
330
1E
100
AcDbEntity
  8
0
100
AcDbLine
 10
3.252391499999999
 20
37.5
 30
0.0
 11
4.479471499999999
 21
37.5
 31
0.0
  0
LINE
  5
172
330
1E
100
AcDbEntity
  8
0
100
AcDbLine
 10
4.479471499999999
 20
37.5
 30
0.0
 11
5.875561499999999
 21
37.5
 31
0.0
  0
LINE
  5
173
330
1E
100
AcDbEntity
  8
0
100
AcDbLine
 10
5.875561499999999
 20
37.5
 30
0.0
 11
7.4276615
 21
37.5
 31
0.0
  0
LINE
  5
174
330
1E
100
AcDbEntity
  8
0
100
AcDbLine
 10
18.5254961420143
 20
21.13963493312359
 30
0.0
 11
19.17991047256269
 21
21.55090718038529
 31
0.0
  0
LINE
  5
175
330
1E
100
AcDbEntity
  8
0
100
AcDbLine
 10
18.5254961420143
 20
21.13963493312359
 30
0.0
 11
19.17991047256269
 21
21.55090718038529
 31
0.0
  0
LINE
  5
176
330
1E
100
AcDbEntity
  8
0
100
AcDbLine
 10
23.4974459930864
 20
21.12414595778909
 30
0.0
 11
24.0641244615605
 21
20.5575569978395
 31
0.0
  0
LINE
  5
178
330
1E
100
AcDbEntity
  8
0
100
AcDbLine
 10
19.0403915
 20
21.48699999999999
 30
0.0
 11
19.6363915
 21
21.76
 31
0.0
  0
LINE
  5
179
330
1E
100
AcDbEntity
  8
0
100
AcDbLine
 10
18.4963915
 20
21.12
 30
0.0
 11
19.0403915
 21
21.48699999999999
 31
0.0
  0
LINE
  5
17A
330
1E
100
AcDbEntity
  8
0
100
AcDbLine
 10
23.5035915
 20
21.12
 30
0.0
 11
23.9796915
 21
20.66899999999999
 31
0.0
  0
LINE
  5
17C
330
1E
100
AcDbEntity
  8
0
100
AcDbLine
 10
19.397935737821
 20
21.6507744579281
 30
0.0
 11
19.97024539012819
 21
21.8512284362536
 31
0.0
  0
LINE
  5
17E
330
1E
100
AcDbEntity
  8
0
100
AcDbLine
 10
20.1761256606001
 20
21.9074869843371
 30
0.0
 11
20.9665476147459
 21
21.99629843985909
 31
0.0
  0
LINE
  5
180
330
1E
100
AcDbEntity
  8
0
100
AcDbLine
 10
19.6363915
 20
21.76
 30
0.0
 11
20.2694915
 21
21.933
 31
0.0
  0
LINE
  5
185
330
1E
100
AcDbEntity
  8
0
100
AcDbLine
 10
20.2694915
 20
21.933
 30
0.0
 11
20.92349149999999
 21
21.999
 31
0.0
  0
LINE
  5
187
330
1E
100
AcDbEntity
  8
0
100
AcDbLine
 10
20.92349149999999
 20
21.999
 30
0.0
 11
20.99999149999999
 21
21.99419999999999
 31
0.0
  0
LINE
  5
188
330
1E
100
AcDbEntity
  8
0
100
AcDbLine
 10
20.99999149999999
 20
21.99419999999999
 30
0.0
 11
21.07649149999999
 21
21.999
 31
0.0
  0
LINE
  5
18A
330
1E
100
AcDbEntity
  8
0
100
AcDbLine
 10
20.99999149999999
 20
37.5
 30
0.0
 11
22.9845915
 21
37.5
 31
0.0
  0
LINE
  5
18C
330
1E
100
AcDbEntity
  8
0
100
AcDbLine
 10
19.01539149999999
 20
37.5
 30
0.0
 11
20.99999149999999
 21
37.5
 31
0.0
  0
LINE
  5
18D
330
1E
100
AcDbEntity
  8
0
100
AcDbLine
 10
16.9102915
 20
37.5
 30
0.0
 11
19.01539149999999
 21
37.5
 31
0.0
  0
LINE
  5
18E
330
1E
100
AcDbEntity
  8
0
100
AcDbLine
 10
14.8470915
 20
37.5
 30
0.0
 11
16.9102915
 21
37.5
 31
0.0
  0
LINE
  5
18F
330
1E
100
AcDbEntity
  8
0
100
AcDbLine
 10
12.8479915
 20
37.5
 30
0.0
 11
14.8470915
 21
37.5
 31
0.0
  0
LINE
  5
190
330
1E
100
AcDbEntity
  8
0
100
AcDbLine
 10
10.93089149999999
 20
37.5
 30
0.0
 11
12.8479915
 21
37.5
 31
0.0
  0
LINE
  5
195
330
1E
100
AcDbEntity
  8
0
100
AcDbLine
 10
22.8200725274373
 20
21.55090718038529
 30
0.0
 11
23.4744868579858
 21
21.13963493312359
 31
0.0
  0
LINE
  5
196
330
1E
100
AcDbEntity
  8
0
100
AcDbLine
 10
22.8200725274373
 20
21.55090718038529
 30
0.0
 11
23.4744868579858
 21
21.13963493312359
 31
0.0
  0
LINE
  5
197
330
1E
100
AcDbEntity
  8
0
100
AcDbLine
 10
22.0297376098718
 20
21.8512284362536
 30
0.0
 11
22.60204726217889
 21
21.6507744579281
 31
0.0
  0
LINE
  5
198
330
1E
100
AcDbEntity
  8
0
100
AcDbLine
 10
21.0334353852541
 20
21.99629843985909
 30
0.0
 11
21.8238573393999
 21
21.9074869843371
 31
0.0
  0
LINE
  5
199
330
1E
100
AcDbEntity
  8
0
100
AcDbLine
 10
21.07649149999999
 20
21.999
 30
0.0
 11
21.7304915
 21
21.933
 31
0.0
  0
LINE
  5
19A
330
1E
100
AcDbEntity
  8
0
100
AcDbLine
 10
21.7304915
 20
21.933
 30
0.0
 11
22.3635915
 21
21.76
 31
0.0
  0
LINE
  5
19B
330
1E
100
AcDbEntity
  8
0
100
AcDbLine
 10
29.15199149999999
 20
37.5
 30
0.0
 11
31.06909149999999
 21
37.5
 31
0.0
  0
LINE
  5
19C
330
1E
100
AcDbEntity
  8
0
100
AcDbLine
 10
27.1528915
 20
37.5
 30
0.0
 11
29.15199149999999
 21
37.5
 31
0.0
  0
LINE
  5
19D
330
1E
100
AcDbEntity
  8
0
100
AcDbLine
 10
25.0896915
 20
37.5
 30
0.0
 11
27.1528915
 21
37.5
 31
0.0
  0
LINE
  5
19E
330
1E
100
AcDbEntity
  8
0
100
AcDbLine
 10
22.9845915
 20
37.5
 30
0.0
 11
25.0896915
 21
37.5
 31
0.0
  0
LINE
  5
19F
330
1E
100
AcDbEntity
  8
0
100
AcDbLine
 10
22.3635915
 20
21.76
 30
0.0
 11
22.9595915
 21
21.48699999999999
 31
0.0
  0
LINE
  5
1A5
330
1E
100
AcDbEntity
  8
0
100
AcDbLine
 10
22.9595915
 20
21.48699999999999
 30
0.0
 11
23.5035915
 21
21.12
 31
0.0
  0
LINE
  5
1A6
330
1E
100
AcDbEntity
  8
0
100
AcDbLine
 10
7.4276615
 20
37.5
 30
0.0
 11
9.11876149999999
 21
37.5
 31
0.0
  0
LINE
  5
1A7
330
1E
100
AcDbEntity
  8
0
100
AcDbLine
 10
9.11876149999999
 20
37.5
 30
0.0
 11
10.93089149999999
 21
37.5
 31
0.0
  0
LINE
  5
1A8
330
1E
100
AcDbEntity
  8
0
100
AcDbLine
 10
34.57229149999999
 20
37.5
 30
0.0
 11
36.12439149999999
 21
37.5
 31
0.0
  0
LINE
  5
1A9
330
1E
100
AcDbEntity
  8
0
100
AcDbLine
 10
39.7926915
 20
37.5
 30
0.0
 11
40.64469149999999
 21
37.5
 31
0.0
  0
LINE
  5
1AA
330
1E
100
AcDbEntity
  8
0
100
AcDbLine
 10
41.86679149999999
 20
21.22199999999999
 30
0.0
 11
41.9227915
 21
21.566
 31
0.0
  0
LINE
  5
1AB
330
1E
100
AcDbEntity
  8
0
100
AcDbLine
 10
41.9667915
 20
21.813
 30
0.0
 11
41.9937915
 21
21.958
 31
0.0
  0
LINE
  5
1AC
330
1E
100
AcDbEntity
  8
0
100
AcDbLine
 10
41.73679149999999
 20
37.5
 30
0.0
 11
41.9667915
 21
37.5
 31
0.0
  0
LINE
  5
1AD
330
1E
100
AcDbEntity
  8
0
100
AcDbLine
 10
41.9227915
 20
21.566
 30
0.0
 11
41.9667915
 21
21.813
 31
0.0
  0
LINE
  5
1AE
330
1E
100
AcDbEntity
  8
0
100
AcDbLine
 10
40.64469149999999
 20
37.5
 30
0.0
 11
41.2957915
 21
37.5
 31
0.0
  0
LINE
  5
1AF
330
1E
100
AcDbEntity
  8
0
100
AcDbLine
 10
41.2957915
 20
37.5
 30
0.0
 11
41.73679149999999
 21
37.5
 31
0.0
  0
LINE
  5
1B0
330
1E
100
AcDbEntity
  8
0
100
AcDbLine
 10
36.12439149999999
 20
37.5
 30
0.0
 11
37.52049149999999
 21
37.5
 31
0.0
  0
LINE
  5
1B1
330
1E
100
AcDbEntity
  8
0
100
AcDbLine
 10
37.52049149999999
 20
37.5
 30
0.0
 11
38.7475915
 21
37.5
 31
0.0
  0
LINE
  5
1B2
330
1E
100
AcDbEntity
  8
0
100
AcDbLine
 10
31.06909149999999
 20
37.5
 30
0.0
 11
32.88119149999999
 21
37.5
 31
0.0
  0
LINE
  5
1B3
330
1E
100
AcDbEntity
  8
0
100
AcDbLine
 10
32.88119149999999
 20
37.5
 30
0.0
 11
34.57229149999999
 21
37.5
 31
0.0
  0
LINE
  5
1B4
330
1E
100
AcDbEntity
  8
0
100
AcDbLine
 10
2.2073315
 20
37.5
 30
0.0
 11
3.252391499999999
 21
37.5
 31
0.0
  0
LINE
  5
1B5
330
1E
100
AcDbEntity
  8
0
100
AcDbLine
 10
38.7475915
 20
37.5
 30
0.0
 11
39.7926915
 21
37.5
 31
0.0
  0
LINE
  5
1B6
330
1E
100
AcDbEntity
  8
0
100
AcDbLine
 10
41.97469149999999
 20
37.5
 30
0.0
 11
41.9999915
 21
21.99419999999999
 31
0.0
  0
LINE
  5
1B7
330
1E
100
AcDbEntity
  8
0
100
AcDbLine
 10
0.133200499999995
 20
21.22199999999999
 30
0.0
 11
0.195203499999995
 21
20.79
 31
0.0
  0
LINE
  5
1B8
330
1E
100
AcDbEntity
  8
0
100
AcDbLine
 10
0.195203499999995
 20
20.79
 30
0.0
 11
0.257207499999995
 21
20.284
 31
0.0
  0
LINE
  5
1B9
330
1E
100
AcDbEntity
  8
0
100
AcDbLine
 10
0.0771964999999952
 20
21.566
 30
0.0
 11
0.133200499999995
 21
21.22199999999999
 31
0.0
  0
LINE
  5
1BA
330
1E
100
AcDbEntity
  8
0
100
AcDbLine
 10
0.532224499999995
 20
38.0
 30
0.0
 11
0.756238499999995
 21
38.0
 31
0.0
  0
LINE
  5
1BB
330
1E
100
AcDbEntity
  8
0
100
AcDbLine
 10
1.8233115
 20
38.0
 30
0.0
 11
2.6543615
 21
38.0
 31
0.0
  0
LINE
  5
1BC
330
1E
100
AcDbEntity
  8
0
100
AcDbLine
 10
1.1882615
 20
38.0
 30
0.0
 11
1.8233115
 21
38.0
 31
0.0
  0
LINE
  5
1BD
330
1E
100
AcDbEntity
  8
0
100
AcDbLine
 10
0.756238499999995
 20
38.0
 30
0.0
 11
1.1882615
 21
38.0
 31
0.0
  0
LINE
  5
1BE
330
1E
100
AcDbEntity
  8
0
100
AcDbLine
 10
7.7506815
 20
38.0
 30
0.0
 11
9.4007815
 21
38.0
 31
0.0
  0
LINE
  5
1BF
330
1E
100
AcDbEntity
  8
0
100
AcDbLine
 10
13.04099149999999
 20
38.0
 30
0.0
 11
14.9940915
 21
38.0
 31
0.0
  0
LINE
  5
1C0
330
1E
100
AcDbEntity
  8
0
100
AcDbLine
 10
14.9940915
 20
38.0
 30
0.0
 11
17.0082915
 21
38.0
 31
0.0
  0
LINE
  5
1C1
330
1E
100
AcDbEntity
  8
0
100
AcDbLine
 10
19.0623915
 20
38.0
 30
0.0
 11
20.99999149999999
 21
38.0
 31
0.0
  0
LINE
  5
1C2
330
1E
100
AcDbEntity
  8
0
100
AcDbLine
 10
17.0082915
 20
38.0
 30
0.0
 11
19.0623915
 21
38.0
 31
0.0
  0
LINE
  5
1C3
330
1E
100
AcDbEntity
  8
0
100
AcDbLine
 10
22.9375915
 20
38.0
 30
0.0
 11
24.9916915
 21
38.0
 31
0.0
  0
LINE
  5
1C4
330
1E
100
AcDbEntity
  8
0
100
AcDbLine
 10
27.00589149999999
 20
38.0
 30
0.0
 11
28.95899149999999
 21
38.0
 31
0.0
  0
LINE
  5
1C5
330
1E
100
AcDbEntity
  8
0
100
AcDbLine
 10
24.9916915
 20
38.0
 30
0.0
 11
27.00589149999999
 21
38.0
 31
0.0
  0
LINE
  5
1C6
330
1E
100
AcDbEntity
  8
0
100
AcDbLine
 10
20.99999149999999
 20
38.0
 30
0.0
 11
22.9375915
 21
38.0
 31
0.0
  0
LINE
  5
1C7
330
1E
100
AcDbEntity
  8
0
100
AcDbLine
 10
9.4007815
 20
38.0
 30
0.0
 11
11.17089149999999
 21
38.0
 31
0.0
  0
LINE
  5
1C8
330
1E
100
AcDbEntity
  8
0
100
AcDbLine
 10
11.17089149999999
 20
38.0
 30
0.0
 11
13.04099149999999
 21
38.0
 31
0.0
  0
LINE
  5
1C9
330
1E
100
AcDbEntity
  8
0
100
AcDbLine
 10
28.95899149999999
 20
38.0
 30
0.0
 11
30.82909149999999
 21
38.0
 31
0.0
  0
LINE
  5
1CA
330
1E
100
AcDbEntity
  8
0
100
AcDbLine
 10
30.82909149999999
 20
38.0
 30
0.0
 11
32.59919149999999
 21
38.0
 31
0.0
  0
LINE
  5
1CB
330
1E
100
AcDbEntity
  8
0
100
AcDbLine
 10
32.59919149999999
 20
38.0
 30
0.0
 11
34.2492915
 21
38.0
 31
0.0
  0
LINE
  5
1CC
330
1E
100
AcDbEntity
  8
0
100
AcDbLine
 10
4.87250149999999
 20
38.0
 30
0.0
 11
6.2355815
 21
38.0
 31
0.0
  0
LINE
  5
1CD
330
1E
100
AcDbEntity
  8
0
100
AcDbLine
 10
3.675421499999999
 20
38.0
 30
0.0
 11
4.87250149999999
 21
38.0
 31
0.0
  0
LINE
  5
1CE
330
1E
100
AcDbEntity
  8
0
100
AcDbLine
 10
6.2355815
 20
38.0
 30
0.0
 11
7.7506815
 21
38.0
 31
0.0
  0
LINE
  5
1CF
330
1E
100
AcDbEntity
  8
0
100
AcDbLine
 10
2.6543615
 20
38.0
 30
0.0
 11
3.675421499999999
 21
38.0
 31
0.0
  0
LINE
  5
1D0
330
1E
100
AcDbEntity
  8
0
100
AcDbLine
 10
34.2492915
 20
38.0
 30
0.0
 11
35.76439149999999
 21
38.0
 31
0.0
  0
LINE
  5
1D1
330
1E
100
AcDbEntity
  8
0
100
AcDbLine
 10
40.8116915
 20
38.0
 30
0.0
 11
41.2437915
 21
38.0
 31
0.0
  0
LINE
  5
1D2
330
1E
100
AcDbEntity
  8
0
100
AcDbLine
 10
41.2437915
 20
38.0
 30
0.0
 11
41.46779149999999
 21
38.0
 31
0.0
  0
LINE
  5
1D3
330
1E
100
AcDbEntity
  8
0
100
AcDbLine
 10
40.17669149999999
 20
38.0
 30
0.0
 11
40.8116915
 21
38.0
 31
0.0
  0
LINE
  5
1D4
330
1E
100
AcDbEntity
  8
0
100
AcDbLine
 10
39.3455915
 20
38.0
 30
0.0
 11
40.17669149999999
 21
38.0
 31
0.0
  0
LINE
  5
1D5
330
1E
100
AcDbEntity
  8
0
100
AcDbLine
 10
37.1274915
 20
38.0
 30
0.0
 11
38.3245915
 21
38.0
 31
0.0
  0
LINE
  5
1D6
330
1E
100
AcDbEntity
  8
0
100
AcDbLine
 10
35.76439149999999
 20
38.0
 30
0.0
 11
37.1274915
 21
38.0
 31
0.0
  0
LINE
  5
1D7
330
1E
100
AcDbEntity
  8
0
100
AcDbLine
 10
38.3245915
 20
38.0
 30
0.0
 11
39.3455915
 21
38.0
 31
0.0
  0
LINE
  5
1D8
330
1E
100
AcDbEntity
  8
0
100
AcDbLine
 10
41.47569149999999
 20
38.0
 30
0.0
 11
41.97469149999999
 21
37.5
 31
0.0
  0
LINE
  5
1D9
330
1E
100
AcDbEntity
  8
0
100
AcDbLine
 10
0.0252674999999952
 20
37.5
 30
0.0
 11
0.524297499999995
 21
38.0
 31
0.0
  0
LINE
  5
1DA
330
1E
100
AcDbEntity
  8
0
100
AcDbLine
 10
0.257207499999995
 20
20.284
 30
0.0
 11
0.311210499999995
 21
19.719
 31
0.0
  0
LINE
  5
1DB
330
1E
100
AcDbEntity
  8
0
100
AcDbLine
 10
99.0084915
 20
38.0
 30
0.0
 11
99.24879150000002
 21
38.0
 31
0.0
  0
LINE
  5
1DC
330
1E
100
AcDbEntity
  8
0
100
AcDbLine
 10
99.24879150000002
 20
38.0
 30
0.0
 11
99.71239150000002
 21
38.0
 31
0.0
  0
LINE
  5
1DD
330
1E
100
AcDbEntity
  8
0
100
AcDbLine
 10
98.99999150000001
 20
38.0
 30
0.0
 11
98.99999150000001
 21
16.0
 31
0.0
  0
LINE
  5
1DE
330
1E
100
AcDbEntity
  8
0
100
AcDbLine
 10
99.0084915
 20
16.0
 30
0.0
 11
99.24879150000002
 21
16.0
 31
0.0
  0
LINE
  5
1DF
330
1E
100
AcDbEntity
  8
0
100
AcDbLine
 10
99.97879150000001
 20
16.0
 30
0.0
 11
100.1459915
 21
16.0
 31
0.0
  0
LINE
  5
1E0
330
1E
100
AcDbEntity
  8
0
100
AcDbLine
 10
99.97879150000001
 20
16.0
 30
0.0
 11
99.98579150000001
 21
8.932999999999999
 31
0.0
  0
LINE
  5
1E1
330
1E
100
AcDbEntity
  8
0
100
AcDbLine
 10
99.71239150000002
 20
16.0
 30
0.0
 11
100.3939914999999
 21
16.0
 31
0.0
  0
LINE
  5
1E2
330
1E
100
AcDbEntity
  8
0
100
AcDbLine
 10
99.71239150000002
 20
38.0
 30
0.0
 11
100.3949914999999
 21
38.0
 31
0.0
  0
LINE
  5
1E3
330
1E
100
AcDbEntity
  8
0
100
AcDbLine
 10
99.24879150000002
 20
16.0
 30
0.0
 11
99.71239150000002
 21
16.0
 31
0.0
  0
LINE
  5
1E4
330
1E
100
AcDbEntity
  8
0
100
AcDbLine
 10
99.24879150000002
 20
16.0
 30
0.0
 11
99.71239150000002
 21
16.0
 31
0.0
  0
LINE
  5
1E5
330
1E
100
AcDbEntity
  8
0
100
AcDbLine
 10
99.71239150000002
 20
16.0
 30
0.0
 11
99.97879150000001
 21
16.0
 31
0.0
  0
LINE
  5
1E6
330
1E
100
AcDbEntity
  8
0
100
AcDbLine
 10
100.0179915
 20
8.759999999999999
 30
0.0
 11
100.0649915
 21
8.487
 31
0.0
  0
LINE
  5
1E7
330
1E
100
AcDbEntity
  8
0
100
AcDbLine
 10
100.0649915
 20
8.487
 30
0.0
 11
100.1229914999999
 21
8.119999999999999
 31
0.0
  0
LINE
  5
1E8
330
1E
100
AcDbEntity
  8
0
100
AcDbLine
 10
101.6549915
 20
0.000000000000002
 30
0.0
 11
102.3159915
 21
0.000000000000002
 31
0.0
  0
LINE
  5
1E9
330
1E
100
AcDbEntity
  8
0
100
AcDbLine
 10
101.9749915
 20
0.0000000000000026
 30
0.0
 11
104.5349915
 21
0.0000000000000026
 31
0.0
  0
LINE
  5
1EA
330
1E
100
AcDbEntity
  8
0
100
AcDbLine
 10
101.6549915
 20
0.0000000000000028
 30
0.0
 11
102.3159915
 21
0.0000000000000029
 31
0.0
  0
LINE
  5
1EB
330
1E
100
AcDbEntity
  8
0
100
AcDbLine
 10
101.1739914999999
 20
0.0000000000000026
 30
0.0
 11
101.9749915
 21
0.0000000000000026
 31
0.0
  0
LINE
  5
1EC
330
1E
100
AcDbEntity
  8
0
100
AcDbLine
 10
101.1739914999999
 20
0.0000000000000026
 30
0.0
 11
104.5349915
 21
0.0000000000000026
 31
0.0
  0
LINE
  5
1ED
330
1E
100
AcDbEntity
  8
0
100
AcDbLine
 10
101.1739914999999
 20
0.0000000000000026
 30
0.0
 11
101.6549915
 21
0.0000000000000028
 31
0.0
  0
LINE
  5
1EE
330
1E
100
AcDbEntity
  8
0
100
AcDbLine
 10
101.1739914999999
 20
0.0000000000000021
 30
0.0
 11
101.9749915
 21
0.0000000000000021
 31
0.0
  0
LINE
  5
1EF
330
1E
100
AcDbEntity
  8
0
100
AcDbLine
 10
101.1739914999999
 20
0.0000000000000021
 30
0.0
 11
101.6549915
 21
0.000000000000002
 31
0.0
  0
LINE
  5
1F0
330
1E
100
AcDbEntity
  8
0
100
AcDbLine
 10
101.1739914999999
 20
0.0000000000000021
 30
0.0
 11
104.5349915
 21
0.0000000000000021
 31
0.0
  0
LINE
  5
1F1
330
1E
100
AcDbEntity
  8
0
100
AcDbLine
 10
125.0059915
 20
0.0000000000000012
 30
0.0
 11
126.9679915
 21
0.0000000000000012
 31
0.0
  0
LINE
  5
1F2
330
1E
100
AcDbEntity
  8
0
100
AcDbLine
 10
126.9679915
 20
0.0000000000000012
 30
0.0
 11
128.8719915
 21
0.0000000000000013
 31
0.0
  0
LINE
  5
1F3
330
1E
100
AcDbEntity
  8
0
100
AcDbLine
 10
120.9999915
 20
0.0000000000000012
 30
0.0
 11
125.0059915
 21
0.0000000000000012
 31
0.0
  0
LINE
  5
1F4
330
1E
100
AcDbEntity
  8
0
100
AcDbLine
 10
115.0319915
 20
0.0000000000000012
 30
0.0
 11
116.9939915
 21
0.0000000000000012
 31
0.0
  0
LINE
  5
1F5
330
1E
100
AcDbEntity
  8
0
100
AcDbLine
 10
104.1559915
 20
0.0000000000000017
 30
0.0
 11
105.3179915
 21
0.0000000000000016
 31
0.0
  0
LINE
  5
1F6
330
1E
100
AcDbEntity
  8
0
100
AcDbLine
 10
102.3159915
 20
0.0000000000000029
 30
0.0
 11
103.1529914999999
 21
0.000000000000003
 31
0.0
  0
LINE
  5
1F7
330
1E
100
AcDbEntity
  8
0
100
AcDbLine
 10
103.1529914999999
 20
0.000000000000003
 30
0.0
 11
104.1559915
 21
0.000000000000003
 31
0.0
  0
LINE
  5
1F8
330
1E
100
AcDbEntity
  8
0
100
AcDbLine
 10
102.3159915
 20
0.000000000000002
 30
0.0
 11
103.1529914999999
 21
0.0000000000000018
 31
0.0
  0
LINE
  5
1F9
330
1E
100
AcDbEntity
  8
0
100
AcDbLine
 10
105.1459915
 20
0.000000000000002
 30
0.0
 11
105.9729915
 21
0.000000000000002
 31
0.0
  0
LINE
  5
1FA
330
1E
100
AcDbEntity
  8
0
100
AcDbLine
 10
104.5349915
 20
0.0000000000000021
 30
0.0
 11
105.1459915
 21
0.000000000000002
 31
0.0
  0
LINE
  5
1FB
330
1E
100
AcDbEntity
  8
0
100
AcDbLine
 10
104.1449915
 20
0.0000000000000025
 30
0.0
 11
104.5349915
 21
0.0000000000000026
 31
0.0
  0
LINE
  5
1FC
330
1E
100
AcDbEntity
  8
0
100
AcDbLine
 10
105.1459915
 20
0.0000000000000028
 30
0.0
 11
105.9729915
 21
0.0000000000000029
 31
0.0
  0
LINE
  5
1FD
330
1E
100
AcDbEntity
  8
0
100
AcDbLine
 10
104.5349915
 20
0.0000000000000026
 30
0.0
 11
105.1459915
 21
0.0000000000000028
 31
0.0
  0
LINE
  5
1FE
330
1E
100
AcDbEntity
  8
0
100
AcDbLine
 10
105.3179915
 20
0.0000000000000032
 30
0.0
 11
106.6249914999999
 21
0.0000000000000033
 31
0.0
  0
LINE
  5
1FF
330
1E
100
AcDbEntity
  8
0
100
AcDbLine
 10
105.9729915
 20
0.0000000000000029
 30
0.0
 11
107.0029915
 21
0.000000000000003
 31
0.0
  0
LINE
  5
200
330
1E
100
AcDbEntity
  8
0
100
AcDbLine
 10
104.1559915
 20
0.000000000000003
 30
0.0
 11
105.3179915
 21
0.0000000000000032
 31
0.0
  0
LINE
  5
201
330
1E
100
AcDbEntity
  8
0
100
AcDbLine
 10
104.1449915
 20
0.0000000000000022
 30
0.0
 11
104.5349915
 21
0.0000000000000021
 31
0.0
  0
LINE
  5
202
330
1E
100
AcDbEntity
  8
0
100
AcDbLine
 10
103.9829914999999
 20
0.0000000000000024
 30
0.0
 11
104.1449915
 21
0.0000000000000022
 31
0.0
  0
LINE
  5
203
330
1E
100
AcDbEntity
  8
0
100
AcDbLine
 10
103.9829914999999
 20
0.0000000000000024
 30
0.0
 11
104.1449915
 21
0.0000000000000025
 31
0.0
  0
LINE
  5
204
330
1E
100
AcDbEntity
  8
0
100
AcDbLine
 10
103.1529914999999
 20
0.0000000000000018
 30
0.0
 11
104.1559915
 21
0.0000000000000017
 31
0.0
  0
LINE
  5
205
330
1E
100
AcDbEntity
  8
0
100
AcDbLine
 10
106.6249914999999
 20
0.0000000000000033
 30
0.0
 11
108.0679915
 21
0.0000000000000033
 31
0.0
  0
LINE
  5
206
330
1E
100
AcDbEntity
  8
0
100
AcDbLine
 10
105.9729915
 20
0.000000000000002
 30
0.0
 11
107.0029915
 21
0.0000000000000018
 31
0.0
  0
LINE
  5
207
330
1E
100
AcDbEntity
  8
0
100
AcDbLine
 10
105.3179915
 20
0.0000000000000016
 30
0.0
 11
106.6249914999999
 21
0.0000000000000016
 31
0.0
  0
LINE
  5
208
330
1E
100
AcDbEntity
  8
0
100
AcDbLine
 10
109.6139914999999
 20
0.0000000000000016
 30
0.0
 11
111.1599914999999
 21
0.0000000000000016
 31
0.0
  0
LINE
  5
209
330
1E
100
AcDbEntity
  8
0
100
AcDbLine
 10
108.2219915
 20
0.0000000000000017
 30
0.0
 11
109.6139914999999
 21
0.0000000000000016
 31
0.0
  0
LINE
  5
20A
330
1E
100
AcDbEntity
  8
0
100
AcDbLine
 10
109.6139914999999
 20
0.0000000000000032
 30
0.0
 11
111.1599914999999
 21
0.0000000000000033
 31
0.0
  0
LINE
  5
20B
330
1E
100
AcDbEntity
  8
0
100
AcDbLine
 10
108.0679915
 20
0.0000000000000033
 30
0.0
 11
109.6319915
 21
0.0000000000000034
 31
0.0
  0
LINE
  5
20C
330
1E
100
AcDbEntity
  8
0
100
AcDbLine
 10
109.6319915
 20
0.0000000000000034
 30
0.0
 11
111.3029915
 21
0.0000000000000034
 31
0.0
  0
LINE
  5
20D
330
1E
100
AcDbEntity
  8
0
100
AcDbLine
 10
108.2219915
 20
0.000000000000003
 30
0.0
 11
109.6139914999999
 21
0.0000000000000032
 31
0.0
  0
LINE
  5
20E
330
1E
100
AcDbEntity
  8
0
100
AcDbLine
 10
107.0029915
 20
0.000000000000003
 30
0.0
 11
108.2219915
 21
0.000000000000003
 31
0.0
  0
LINE
  5
20F
330
1E
100
AcDbEntity
  8
0
100
AcDbLine
 10
107.0029915
 20
0.0000000000000018
 30
0.0
 11
108.2219915
 21
0.0000000000000017
 31
0.0
  0
LINE
  5
210
330
1E
100
AcDbEntity
  8
0
100
AcDbLine
 10
106.6249914999999
 20
0.0000000000000016
 30
0.0
 11
108.0679915
 21
0.0000000000000015
 31
0.0
  0
LINE
  5
211
330
1E
100
AcDbEntity
  8
0
100
AcDbLine
 10
108.0679915
 20
0.0000000000000015
 30
0.0
 11
109.6319915
 21
0.0000000000000013
 31
0.0
  0
LINE
  5
212
330
1E
100
AcDbEntity
  8
0
100
AcDbLine
 10
113.1279915
 20
0.0000000000000013
 30
0.0
 11
115.0319915
 21
0.0000000000000012
 31
0.0
  0
LINE
  5
213
330
1E
100
AcDbEntity
  8
0
100
AcDbLine
 10
120.9999915
 20
0.0000000000000013
 30
0.0
 11
121.5879915
 21
0.0000000000000013
 31
0.0
  0
LINE
  5
214
330
1E
100
AcDbEntity
  8
0
100
AcDbLine
 10
128.8719915
 20
0.0000000000000013
 30
0.0
 11
130.6969915
 21
0.0000000000000013
 31
0.0
  0
LINE
  5
215
330
1E
100
AcDbEntity
  8
0
100
AcDbLine
 10
121.5879915
 20
0.0000000000000013
 30
0.0
 11
123.5599915
 21
0.0000000000000013
 31
0.0
  0
LINE
  5
216
330
1E
100
AcDbEntity
  8
0
100
AcDbLine
 10
130.6969915
 20
0.0000000000000013
 30
0.0
 11
132.3679915
 21
0.0000000000000013
 31
0.0
  0
LINE
  5
217
330
1E
100
AcDbEntity
  8
0
100
AcDbLine
 10
123.5599915
 20
0.0000000000000013
 30
0.0
 11
125.4959915
 21
0.0000000000000015
 31
0.0
  0
LINE
  5
218
330
1E
100
AcDbEntity
  8
0
100
AcDbLine
 10
132.3679915
 20
0.0000000000000013
 30
0.0
 11
133.9319915
 21
0.0000000000000015
 31
0.0
  0
LINE
  5
219
330
1E
100
AcDbEntity
  8
0
100
AcDbLine
 10
120.4119914999999
 20
0.0000000000000013
 30
0.0
 11
120.9999915
 21
0.0000000000000013
 31
0.0
  0
LINE
  5
21A
330
1E
100
AcDbEntity
  8
0
100
AcDbLine
 10
118.4399914999999
 20
0.0000000000000013
 30
0.0
 11
120.4119914999999
 21
0.0000000000000013
 31
0.0
  0
LINE
  5
21B
330
1E
100
AcDbEntity
  8
0
100
AcDbLine
 10
111.1599914999999
 20
0.0000000000000033
 30
0.0
 11
112.8389915
 21
0.0000000000000033
 31
0.0
  0
LINE
  5
21C
330
1E
100
AcDbEntity
  8
0
100
AcDbLine
 10
112.8389915
 20
0.0000000000000033
 30
0.0
 11
114.6279915
 21
0.0000000000000034
 31
0.0
  0
LINE
  5
21D
330
1E
100
AcDbEntity
  8
0
100
AcDbLine
 10
111.3029915
 20
0.0000000000000034
 30
0.0
 11
113.1279915
 21
0.0000000000000036
 31
0.0
  0
LINE
  5
21E
330
1E
100
AcDbEntity
  8
0
100
AcDbLine
 10
111.1599914999999
 20
0.0000000000000016
 30
0.0
 11
112.8389915
 21
0.0000000000000015
 31
0.0
  0
LINE
  5
21F
330
1E
100
AcDbEntity
  8
0
100
AcDbLine
 10
125.4959915
 20
0.0000000000000015
 30
0.0
 11
127.3719915
 21
0.0000000000000015
 31
0.0
  0
LINE
  5
220
330
1E
100
AcDbEntity
  8
0
100
AcDbLine
 10
133.9319915
 20
0.0000000000000015
 30
0.0
 11
135.3749914999999
 21
0.0000000000000016
 31
0.0
  0
LINE
  5
221
330
1E
100
AcDbEntity
  8
0
100
AcDbLine
 10
127.3719915
 20
0.0000000000000015
 30
0.0
 11
129.1609914999999
 21
0.0000000000000015
 31
0.0
  0
LINE
  5
222
330
1E
100
AcDbEntity
  8
0
100
AcDbLine
 10
129.1609914999999
 20
0.0000000000000015
 30
0.0
 11
130.8399915
 21
0.0000000000000016
 31
0.0
  0
LINE
  5
223
330
1E
100
AcDbEntity
  8
0
100
AcDbLine
 10
116.5039914999999
 20
0.0000000000000015
 30
0.0
 11
118.4399914999999
 21
0.0000000000000013
 31
0.0
  0
LINE
  5
224
330
1E
100
AcDbEntity
  8
0
100
AcDbLine
 10
116.5039914999999
 20
0.0000000000000034
 30
0.0
 11
118.4399914999999
 21
0.0000000000000034
 31
0.0
  0
LINE
  5
225
330
1E
100
AcDbEntity
  8
0
100
AcDbLine
 10
114.6279915
 20
0.0000000000000034
 30
0.0
 11
116.5039914999999
 21
0.0000000000000034
 31
0.0
  0
LINE
  5
226
330
1E
100
AcDbEntity
  8
0
100
AcDbLine
 10
113.1279915
 20
0.0000000000000036
 30
0.0
 11
115.0319915
 21
0.0000000000000036
 31
0.0
  0
LINE
  5
227
330
1E
100
AcDbEntity
  8
0
100
AcDbLine
 10
115.0319915
 20
0.0000000000000036
 30
0.0
 11
116.9939915
 21
0.0000000000000036
 31
0.0
  0
LINE
  5
228
330
1E
100
AcDbEntity
  8
0
100
AcDbLine
 10
132.3859915
 20
0.0000000000000016
 30
0.0
 11
133.7779915
 21
0.0000000000000017
 31
0.0
  0
LINE
  5
229
330
1E
100
AcDbEntity
  8
0
100
AcDbLine
 10
136.6819915
 20
0.0000000000000016
 30
0.0
 11
137.8439915
 21
0.0000000000000017
 31
0.0
  0
LINE
  5
22A
330
1E
100
AcDbEntity
  8
0
100
AcDbLine
 10
135.3749914999999
 20
0.0000000000000016
 30
0.0
 11
136.6819915
 21
0.0000000000000016
 31
0.0
  0
LINE
  5
22B
330
1E
100
AcDbEntity
  8
0
100
AcDbLine
 10
136.8539915
 20
0.000000000000002
 30
0.0
 11
137.4649915
 21
0.0000000000000021
 31
0.0
  0
LINE
  5
22C
330
1E
100
AcDbEntity
  8
0
100
AcDbLine
 10
134.9969915
 20
0.0000000000000018
 30
0.0
 11
136.0269915
 21
0.000000000000002
 31
0.0
  0
LINE
  5
22D
330
1E
100
AcDbEntity
  8
0
100
AcDbLine
 10
137.8439915
 20
0.0000000000000017
 30
0.0
 11
138.8469914999999
 21
0.0000000000000018
 31
0.0
  0
LINE
  5
22E
330
1E
100
AcDbEntity
  8
0
100
AcDbLine
 10
137.8549915
 20
0.0000000000000022
 30
0.0
 11
138.0169915
 21
0.0000000000000024
 31
0.0
  0
LINE
  5
22F
330
1E
100
AcDbEntity
  8
0
100
AcDbLine
 10
137.4649915
 20
0.0000000000000021
 30
0.0
 11
137.8549915
 21
0.0000000000000022
 31
0.0
  0
LINE
  5
230
330
1E
100
AcDbEntity
  8
0
100
AcDbLine
 10
137.4649915
 20
0.0000000000000021
 30
0.0
 11
140.0249915
 21
0.0000000000000021
 31
0.0
  0
LINE
  5
231
330
1E
100
AcDbEntity
  8
0
100
AcDbLine
 10
137.4649915
 20
0.0000000000000021
 30
0.0
 11
140.8259915
 21
0.0000000000000021
 31
0.0
  0
LINE
  5
232
330
1E
100
AcDbEntity
  8
0
100
AcDbLine
 10
136.0269915
 20
0.000000000000002
 30
0.0
 11
136.8539915
 21
0.000000000000002
 31
0.0
  0
LINE
  5
233
330
1E
100
AcDbEntity
  8
0
100
AcDbLine
 10
133.7779915
 20
0.0000000000000017
 30
0.0
 11
134.9969915
 21
0.0000000000000018
 31
0.0
  0
LINE
  5
234
330
1E
100
AcDbEntity
  8
0
100
AcDbLine
 10
130.8399915
 20
0.0000000000000016
 30
0.0
 11
132.3859915
 21
0.0000000000000016
 31
0.0
  0
LINE
  5
235
330
1E
100
AcDbEntity
  8
0
100
AcDbLine
 10
138.8469914999999
 20
0.0000000000000018
 30
0.0
 11
139.6839914999999
 21
0.000000000000002
 31
0.0
  0
LINE
  5
236
330
1E
100
AcDbEntity
  8
0
100
AcDbLine
 10
140.3449914999999
 20
0.000000000000002
 30
0.0
 11
140.8259915
 21
0.0000000000000021
 31
0.0
  0
LINE
  5
237
330
1E
100
AcDbEntity
  8
0
100
AcDbLine
 10
140.0249915
 20
0.0000000000000021
 30
0.0
 11
140.8259915
 21
0.0000000000000021
 31
0.0
  0
LINE
  5
238
330
1E
100
AcDbEntity
  8
0
100
AcDbLine
 10
139.6839914999999
 20
0.000000000000002
 30
0.0
 11
140.3449914999999
 21
0.000000000000002
 31
0.0
  0
LINE
  5
239
330
1E
100
AcDbEntity
  8
0
100
AcDbLine
 10
120.9999915
 20
0.0000000000000034
 30
0.0
 11
121.5879915
 21
0.0000000000000034
 31
0.0
  0
LINE
  5
23A
330
1E
100
AcDbEntity
  8
0
100
AcDbLine
 10
121.5879915
 20
0.0000000000000034
 30
0.0
 11
123.5599915
 21
0.0000000000000034
 31
0.0
  0
LINE
  5
23B
330
1E
100
AcDbEntity
  8
0
100
AcDbLine
 10
123.5599915
 20
0.0000000000000034
 30
0.0
 11
125.4959915
 21
0.0000000000000034
 31
0.0
  0
LINE
  5
23C
330
1E
100
AcDbEntity
  8
0
100
AcDbLine
 10
127.3719915
 20
0.0000000000000034
 30
0.0
 11
129.1609914999999
 21
0.0000000000000033
 31
0.0
  0
LINE
  5
23D
330
1E
100
AcDbEntity
  8
0
100
AcDbLine
 10
125.4959915
 20
0.0000000000000034
 30
0.0
 11
127.3719915
 21
0.0000000000000034
 31
0.0
  0
LINE
  5
23E
330
1E
100
AcDbEntity
  8
0
100
AcDbLine
 10
134.9969915
 20
0.000000000000003
 30
0.0
 11
136.0269915
 21
0.0000000000000029
 31
0.0
  0
LINE
  5
23F
330
1E
100
AcDbEntity
  8
0
100
AcDbLine
 10
133.7779915
 20
0.000000000000003
 30
0.0
 11
134.9969915
 21
0.000000000000003
 31
0.0
  0
LINE
  5
240
330
1E
100
AcDbEntity
  8
0
100
AcDbLine
 10
133.9319915
 20
0.0000000000000033
 30
0.0
 11
135.3749914999999
 21
0.0000000000000033
 31
0.0
  0
LINE
  5
241
330
1E
100
AcDbEntity
  8
0
100
AcDbLine
 10
132.3859915
 20
0.0000000000000032
 30
0.0
 11
133.7779915
 21
0.000000000000003
 31
0.0
  0
LINE
  5
242
330
1E
100
AcDbEntity
  8
0
100
AcDbLine
 10
136.8539915
 20
0.0000000000000028
 30
0.0
 11
137.4649915
 21
0.0000000000000026
 31
0.0
  0
LINE
  5
243
330
1E
100
AcDbEntity
  8
0
100
AcDbLine
 10
137.8439915
 20
0.000000000000003
 30
0.0
 11
138.8469914999999
 21
0.000000000000003
 31
0.0
  0
LINE
  5
244
330
1E
100
AcDbEntity
  8
0
100
AcDbLine
 10
136.6819915
 20
0.0000000000000032
 30
0.0
 11
137.8439915
 21
0.000000000000003
 31
0.0
  0
LINE
  5
245
330
1E
100
AcDbEntity
  8
0
100
AcDbLine
 10
136.0269915
 20
0.0000000000000029
 30
0.0
 11
136.8539915
 21
0.0000000000000028
 31
0.0
  0
LINE
  5
246
330
1E
100
AcDbEntity
  8
0
100
AcDbLine
 10
135.3749914999999
 20
0.0000000000000033
 30
0.0
 11
136.6819915
 21
0.0000000000000032
 31
0.0
  0
LINE
  5
247
330
1E
100
AcDbEntity
  8
0
100
AcDbLine
 10
130.6969915
 20
0.0000000000000034
 30
0.0
 11
132.3679915
 21
0.0000000000000034
 31
0.0
  0
LINE
  5
248
330
1E
100
AcDbEntity
  8
0
100
AcDbLine
 10
132.3679915
 20
0.0000000000000034
 30
0.0
 11
133.9319915
 21
0.0000000000000033
 31
0.0
  0
LINE
  5
249
330
1E
100
AcDbEntity
  8
0
100
AcDbLine
 10
130.8399915
 20
0.0000000000000033
 30
0.0
 11
132.3859915
 21
0.0000000000000032
 31
0.0
  0
LINE
  5
24A
330
1E
100
AcDbEntity
  8
0
100
AcDbLine
 10
129.1609914999999
 20
0.0000000000000033
 30
0.0
 11
130.8399915
 21
0.0000000000000033
 31
0.0
  0
LINE
  5
24B
330
1E
100
AcDbEntity
  8
0
100
AcDbLine
 10
137.4649915
 20
0.0000000000000026
 30
0.0
 11
140.0249915
 21
0.0000000000000026
 31
0.0
  0
LINE
  5
24C
330
1E
100
AcDbEntity
  8
0
100
AcDbLine
 10
137.4649915
 20
0.0000000000000026
 30
0.0
 11
137.8549915
 21
0.0000000000000025
 31
0.0
  0
LINE
  5
24D
330
1E
100
AcDbEntity
  8
0
100
AcDbLine
 10
137.4649915
 20
0.0000000000000026
 30
0.0
 11
140.8259915
 21
0.0000000000000026
 31
0.0
  0
LINE
  5
24E
330
1E
100
AcDbEntity
  8
0
100
AcDbLine
 10
140.8259915
 20
0.0000000000000026
 30
0.0
 11
141.6419915
 21
0.8000000000000028
 31
0.0
  0
LINE
  5
24F
330
1E
100
AcDbEntity
  8
0
100
AcDbLine
 10
138.8469914999999
 20
0.000000000000003
 30
0.0
 11
139.6839914999999
 21
0.0000000000000029
 31
0.0
  0
LINE
  5
250
330
1E
100
AcDbEntity
  8
0
100
AcDbLine
 10
140.3449914999999
 20
0.0000000000000028
 30
0.0
 11
140.8259915
 21
0.0000000000000026
 31
0.0
  0
LINE
  5
251
330
1E
100
AcDbEntity
  8
0
100
AcDbLine
 10
139.6839914999999
 20
0.0000000000000029
 30
0.0
 11
140.3449914999999
 21
0.0000000000000028
 31
0.0
  0
LINE
  5
252
330
1E
100
AcDbEntity
  8
0
100
AcDbLine
 10
140.0249915
 20
0.0000000000000026
 30
0.0
 11
140.8259915
 21
0.0000000000000026
 31
0.0
  0
LINE
  5
253
330
1E
100
AcDbEntity
  8
0
100
AcDbLine
 10
137.8549915
 20
0.0000000000000025
 30
0.0
 11
138.0169915
 21
0.0000000000000024
 31
0.0
  0
LINE
  5
254
330
1E
100
AcDbEntity
  8
0
100
AcDbLine
 10
118.4399914999999
 20
0.0000000000000034
 30
0.0
 11
120.4119914999999
 21
0.0000000000000034
 31
0.0
  0
LINE
  5
255
330
1E
100
AcDbEntity
  8
0
100
AcDbLine
 10
126.9679915
 20
0.0000000000000036
 30
0.0
 11
128.8719915
 21
0.0000000000000036
 31
0.0
  0
LINE
  5
256
330
1E
100
AcDbEntity
  8
0
100
AcDbLine
 10
125.0059915
 20
0.0000000000000036
 30
0.0
 11
125.0059915
 21
5.0
 31
0.0
  0
LINE
  5
257
330
1E
100
AcDbEntity
  8
0
100
AcDbLine
 10
125.0059915
 20
0.0000000000000036
 30
0.0
 11
126.9679915
 21
0.0000000000000036
 31
0.0
  0
LINE
  5
258
330
1E
100
AcDbEntity
  8
0
100
AcDbLine
 10
125.0059915
 20
0.0000000000000036
 30
0.0
 11
125.0059915
 21
0.800000000000004
 31
0.0
  0
LINE
  5
259
330
1E
100
AcDbEntity
  8
0
100
AcDbLine
 10
128.8719915
 20
0.0000000000000036
 30
0.0
 11
130.6969915
 21
0.0000000000000034
 31
0.0
  0
LINE
  5
25A
330
1E
100
AcDbEntity
  8
0
100
AcDbLine
 10
120.9999915
 20
0.0000000000000036
 30
0.0
 11
125.0059915
 21
0.0000000000000036
 31
0.0
  0
LINE
  5
25B
330
1E
100
AcDbEntity
  8
0
100
AcDbLine
 10
120.4119914999999
 20
0.0000000000000034
 30
0.0
 11
120.9999915
 21
0.0000000000000034
 31
0.0
  0
LINE
  5
25C
330
1E
100
AcDbEntity
  8
0
100
AcDbLine
 10
116.9939915
 20
0.0000000000000036
 30
0.0
 11
120.9999915
 21
0.0000000000000036
 31
0.0
  0
LINE
  5
25D
330
1E
100
AcDbEntity
  8
0
100
AcDbLine
 10
116.9939915
 20
0.0000000000000036
 30
0.0
 11
116.9939915
 21
0.800000000000004
 31
0.0
  0
LINE
  5
25E
330
1E
100
AcDbEntity
  8
0
100
AcDbLine
 10
114.6279915
 20
0.0000000000000015
 30
0.0
 11
116.5039914999999
 21
0.0000000000000015
 31
0.0
  0
LINE
  5
25F
330
1E
100
AcDbEntity
  8
0
100
AcDbLine
 10
112.8389915
 20
0.0000000000000015
 30
0.0
 11
114.6279915
 21
0.0000000000000015
 31
0.0
  0
LINE
  5
260
330
1E
100
AcDbEntity
  8
0
100
AcDbLine
 10
111.3029915
 20
0.0000000000000013
 30
0.0
 11
113.1279915
 21
0.0000000000000013
 31
0.0
  0
LINE
  5
261
330
1E
100
AcDbEntity
  8
0
100
AcDbLine
 10
109.6319915
 20
0.0000000000000013
 30
0.0
 11
111.3029915
 21
0.0000000000000013
 31
0.0
  0
LINE
  5
262
330
1E
100
AcDbEntity
  8
0
100
AcDbLine
 10
116.9939915
 20
0.0000000000000012
 30
0.0
 11
120.9999915
 21
0.0000000000000012
 31
0.0
  0
LINE
  5
263
330
1E
100
AcDbEntity
  8
0
100
AcDbLine
 10
101.9749915
 20
0.0000000000000021
 30
0.0
 11
104.5349915
 21
0.0000000000000021
 31
0.0
  0
LINE
  5
264
330
1E
100
AcDbEntity
  8
0
100
AcDbLine
 10
100.3439914999999
 20
5.751
 30
0.0
 11
100.3579914999999
 21
5.0
 31
0.0
  0
LINE
  5
265
330
1E
100
AcDbEntity
  8
0
100
AcDbLine
 10
100.3049915
 20
6.474999999999999
 30
0.0
 11
100.3439914999999
 21
5.751
 31
0.0
  0
LINE
  5
266
330
1E
100
AcDbEntity
  8
0
100
AcDbLine
 10
100.3049915
 20
6.474999999999999
 30
0.0
 11
100.3439914999999
 21
5.751
 31
0.0
  0
LINE
  5
267
330
1E
100
AcDbEntity
  8
0
100
AcDbLine
 10
100.2469915
 20
7.144999999999999
 30
0.0
 11
100.3049915
 21
6.474999999999999
 31
0.0
  0
LINE
  5
268
330
1E
100
AcDbEntity
  8
0
100
AcDbLine
 10
100.1859915
 20
7.667999999999999
 30
0.0
 11
100.2469915
 21
7.144999999999999
 31
0.0
  0
LINE
  5
269
330
1E
100
AcDbEntity
  8
0
100
AcDbLine
 10
100.3579914999999
 20
5.0
 30
0.0
 11
100.3579914999999
 21
0.8000000000000021
 31
0.0
  0
LINE
  5
26A
330
1E
100
AcDbEntity
  8
0
100
AcDbLine
 10
100.3579914999999
 20
0.8000000000000028
 30
0.0
 11
101.1739914999999
 21
0.0000000000000026
 31
0.0
  0
LINE
  5
26B
330
1E
100
AcDbEntity
  8
0
100
AcDbLine
 10
100.3579914999999
 20
0.8000000000000028
 30
0.0
 11
100.8469915
 21
0.8000000000000028
 31
0.0
  0
LINE
  5
26C
330
1E
100
AcDbEntity
  8
0
100
AcDbLine
 10
100.3579914999999
 20
0.8000000000000028
 30
0.0
 11
100.3579914999999
 21
5.0
 31
0.0
  0
LINE
  5
26D
330
1E
100
AcDbEntity
  8
0
100
AcDbLine
 10
101.5289915
 20
0.8000000000000028
 30
0.0
 11
102.3949914999999
 21
0.8000000000000028
 31
0.0
  0
LINE
  5
26E
330
1E
100
AcDbEntity
  8
0
100
AcDbLine
 10
100.8469915
 20
0.8000000000000028
 30
0.0
 11
101.5289915
 21
0.8000000000000028
 31
0.0
  0
LINE
  5
26F
330
1E
100
AcDbEntity
  8
0
100
AcDbLine
 10
141.6419915
 20
0.8000000000000028
 30
0.0
 11
141.6419915
 21
5.0
 31
0.0
  0
LINE
  5
270
330
1E
100
AcDbEntity
  8
0
100
AcDbLine
 10
141.1529915
 20
0.8000000000000028
 30
0.0
 11
141.6419915
 21
0.8000000000000028
 31
0.0
  0
LINE
  5
271
330
1E
100
AcDbEntity
  8
0
100
AcDbLine
 10
139.6049915
 20
0.8000000000000028
 30
0.0
 11
140.4709914999999
 21
0.8000000000000028
 31
0.0
  0
LINE
  5
272
330
1E
100
AcDbEntity
  8
0
100
AcDbLine
 10
138.5609915
 20
0.8000000000000028
 30
0.0
 11
139.6049915
 21
0.8000000000000028
 31
0.0
  0
LINE
  5
273
330
1E
100
AcDbEntity
  8
0
100
AcDbLine
 10
140.4709914999999
 20
0.8000000000000028
 30
0.0
 11
141.1529915
 21
0.8000000000000028
 31
0.0
  0
LINE
  5
274
330
1E
100
AcDbEntity
  8
0
100
AcDbLine
 10
102.3949914999999
 20
0.8000000000000028
 30
0.0
 11
103.4389914999999
 21
0.8000000000000028
 31
0.0
  0
LINE
  5
275
330
1E
100
AcDbEntity
  8
0
100
AcDbLine
 10
104.6509915
 20
0.8000000000000028
 30
0.0
 11
106.0179915
 21
0.8000000000000028
 31
0.0
  0
LINE
  5
276
330
1E
100
AcDbEntity
  8
0
100
AcDbLine
 10
106.0179915
 20
0.8000000000000028
 30
0.0
 11
107.5279915
 21
0.8000000000000028
 31
0.0
  0
LINE
  5
277
330
1E
100
AcDbEntity
  8
0
100
AcDbLine
 10
107.5279915
 20
0.8000000000000028
 30
0.0
 11
109.1679915
 21
0.8000000000000028
 31
0.0
  0
LINE
  5
278
330
1E
100
AcDbEntity
  8
0
100
AcDbLine
 10
109.1679915
 20
0.8000000000000028
 30
0.0
 11
110.9199915
 21
0.800000000000004
 31
0.0
  0
LINE
  5
279
330
1E
100
AcDbEntity
  8
0
100
AcDbLine
 10
134.4719914999999
 20
0.8000000000000028
 30
0.0
 11
135.9819914999999
 21
0.8000000000000028
 31
0.0
  0
LINE
  5
27A
330
1E
100
AcDbEntity
  8
0
100
AcDbLine
 10
127.1019914999999
 20
0.800000000000004
 30
0.0
 11
129.1339915
 21
0.800000000000004
 31
0.0
  0
LINE
  5
27B
330
1E
100
AcDbEntity
  8
0
100
AcDbLine
 10
129.1339915
 20
0.800000000000004
 30
0.0
 11
131.0799915
 21
0.800000000000004
 31
0.0
  0
LINE
  5
27C
330
1E
100
AcDbEntity
  8
0
100
AcDbLine
 10
125.0059915
 20
0.800000000000004
 30
0.0
 11
127.1019914999999
 21
0.800000000000004
 31
0.0
  0
LINE
  5
27D
330
1E
100
AcDbEntity
  8
0
100
AcDbLine
 10
125.0059915
 20
0.800000000000004
 30
0.0
 11
125.0059915
 21
5.0
 31
0.0
  0
LINE
  5
27E
330
1E
100
AcDbEntity
  8
0
100
AcDbLine
 10
125.0059915
 20
0.800000000000004
 30
0.0
 11
125.0059915
 21
0.0000000000000036
 31
0.0
  0
LINE
  5
27F
330
1E
100
AcDbEntity
  8
0
100
AcDbLine
 10
131.0799915
 20
0.800000000000004
 30
0.0
 11
132.8329914999999
 21
0.8000000000000028
 31
0.0
  0
LINE
  5
280
330
1E
100
AcDbEntity
  8
0
100
AcDbLine
 10
132.8329914999999
 20
0.8000000000000028
 30
0.0
 11
134.4719914999999
 21
0.8000000000000028
 31
0.0
  0
LINE
  5
281
330
1E
100
AcDbEntity
  8
0
100
AcDbLine
 10
137.3489915
 20
0.8000000000000028
 30
0.0
 11
138.5609915
 21
0.8000000000000028
 31
0.0
  0
LINE
  5
282
330
1E
100
AcDbEntity
  8
0
100
AcDbLine
 10
135.9819914999999
 20
0.8000000000000028
 30
0.0
 11
137.3489915
 21
0.8000000000000028
 31
0.0
  0
LINE
  5
283
330
1E
100
AcDbEntity
  8
0
100
AcDbLine
 10
116.9939915
 20
0.800000000000004
 30
0.0
 11
116.9939915
 21
0.0000000000000036
 31
0.0
  0
LINE
  5
284
330
1E
100
AcDbEntity
  8
0
100
AcDbLine
 10
116.9939915
 20
0.800000000000004
 30
0.0
 11
116.9939915
 21
5.0
 31
0.0
  0
LINE
  5
285
330
1E
100
AcDbEntity
  8
0
100
AcDbLine
 10
112.8659915
 20
0.800000000000004
 30
0.0
 11
114.8979914999999
 21
0.800000000000004
 31
0.0
  0
LINE
  5
286
330
1E
100
AcDbEntity
  8
0
100
AcDbLine
 10
125.0059915
 20
5.0
 30
0.0
 11
125.0059915
 21
0.800000000000004
 31
0.0
  0
LINE
  5
287
330
1E
100
AcDbEntity
  8
0
100
AcDbLine
 10
125.0059915
 20
5.0
 30
0.0
 11
125.0059915
 21
0.0000000000000032
 31
0.0
  0
LINE
  5
288
330
1E
100
AcDbEntity
  8
0
100
AcDbLine
 10
124.9339914999999
 20
5.751
 30
0.0
 11
125.0059915
 21
5.0
 31
0.0
  0
LINE
  5
289
330
1E
100
AcDbEntity
  8
0
100
AcDbLine
 10
141.6419915
 20
5.0
 30
0.0
 11
141.6559915
 21
5.751
 31
0.0
  0
LINE
  5
28A
330
1E
100
AcDbEntity
  8
0
100
AcDbLine
 10
141.6419915
 20
5.0
 30
0.0
 11
141.6419915
 21
0.8000000000000021
 31
0.0
  0
LINE
  5
28B
330
1E
100
AcDbEntity
  8
0
100
AcDbLine
 10
141.6559915
 20
5.751
 30
0.0
 11
141.6949915
 21
6.474999999999999
 31
0.0
  0
LINE
  5
28C
330
1E
100
AcDbEntity
  8
0
100
AcDbLine
 10
117.172659097668
 20
6.117006354083049
 30
0.0
 11
117.3990863275859
 21
6.714191621294629
 31
0.0
  0
LINE
  5
28D
330
1E
100
AcDbEntity
  8
0
100
AcDbLine
 10
124.7229915
 20
6.474999999999999
 30
0.0
 11
124.9339914999999
 21
5.751
 31
0.0
  0
LINE
  5
28E
330
1E
100
AcDbEntity
  8
0
100
AcDbLine
 10
124.898284782973
 20
5.873519730460679
 30
0.0
 11
125.0059915
 21
5.0
 31
0.0
  0
LINE
  5
28F
330
1E
100
AcDbEntity
  8
0
100
AcDbLine
 10
141.6949915
 20
6.474999999999999
 30
0.0
 11
141.7529915
 21
7.144999999999999
 31
0.0
  0
LINE
  5
290
330
1E
100
AcDbEntity
  8
0
100
AcDbLine
 10
124.600896672414
 20
6.714191621294549
 30
0.0
 11
124.8273239023319
 21
6.117006354082839
 31
0.0
  0
LINE
  5
291
330
1E
100
AcDbEntity
  8
0
100
AcDbLine
 10
124.3809915
 20
7.144999999999999
 30
0.0
 11
124.7229915
 21
6.474999999999999
 31
0.0
  0
LINE
  5
292
330
1E
100
AcDbEntity
  8
0
100
AcDbLine
 10
141.7529915
 20
7.144999999999999
 30
0.0
 11
141.8139915
 21
7.667999999999999
 31
0.0
  0
LINE
  5
293
330
1E
100
AcDbEntity
  8
0
100
AcDbLine
 10
118.0106446047169
 20
7.65965973308272
 30
0.0
 11
118.650524899633
 21
8.226082124156731
 31
0.0
  0
LINE
  5
294
330
1E
100
AcDbEntity
  8
0
100
AcDbLine
 10
118.0169915
 20
7.667999999999999
 30
0.0
 11
118.4929915
 21
8.119999999999999
 31
0.0
  0
LINE
  5
295
330
1E
100
AcDbEntity
  8
0
100
AcDbLine
 10
118.0106446047169
 20
7.65965973308272
 30
0.0
 11
118.650524899633
 21
8.226082124156731
 31
0.0
  0
LINE
  5
296
330
1E
100
AcDbEntity
  8
0
100
AcDbLine
 10
124.025892086005
 20
7.61162561185799
 30
0.0
 11
124.4732438917709
 21
6.9642716301562
 31
0.0
  0
LINE
  5
297
330
1E
100
AcDbEntity
  8
0
100
AcDbLine
 10
123.9829915
 20
7.667999999999999
 30
0.0
 11
124.3809915
 21
7.144999999999999
 31
0.0
  0
LINE
  5
298
330
1E
100
AcDbEntity
  8
0
100
AcDbLine
 10
124.025892086005
 20
7.61162561185799
 30
0.0
 11
124.4732438917709
 21
6.9642716301562
 31
0.0
  0
LINE
  5
299
330
1E
100
AcDbEntity
  8
0
100
AcDbLine
 10
123.5069914999999
 20
8.119999999999999
 30
0.0
 11
123.9829915
 21
7.667999999999999
 31
0.0
  0
LINE
  5
29A
330
1E
100
AcDbEntity
  8
0
100
AcDbLine
 10
123.3494581003669
 20
8.226082124156809
 30
0.0
 11
123.989338395283
 21
7.659659733082669
 31
0.0
  0
LINE
  5
29B
330
1E
100
AcDbEntity
  8
0
100
AcDbLine
 10
141.8769915
 20
8.119999999999999
 30
0.0
 11
141.9349914999999
 21
8.487
 31
0.0
  0
LINE
  5
29C
330
1E
100
AcDbEntity
  8
0
100
AcDbLine
 10
141.8139915
 20
7.667999999999999
 30
0.0
 11
141.8769915
 21
8.119999999999999
 31
0.0
  0
LINE
  5
29D
330
1E
100
AcDbEntity
  8
0
100
AcDbLine
 10
122.9619915
 20
8.487
 30
0.0
 11
123.5069914999999
 21
8.119999999999999
 31
0.0
  0
LINE
  5
29E
330
1E
100
AcDbEntity
  8
0
100
AcDbLine
 10
122.3649914999999
 20
8.759999999999999
 30
0.0
 11
122.9619915
 21
8.487
 31
0.0
  0
LINE
  5
29F
330
1E
100
AcDbEntity
  8
0
100
AcDbLine
 10
122.49722557068
 20
8.69953115360888
 30
0.0
 11
123.169432002693
 21
8.34731070736084
 31
0.0
  0
LINE
  5
2A0
330
1E
100
AcDbEntity
  8
0
100
AcDbLine
 10
141.9819914999999
 20
8.759999999999999
 30
0.0
 11
142.0139915
 21
8.932999999999999
 31
0.0
  0
LINE
  5
2A1
330
1E
100
AcDbEntity
  8
0
100
AcDbLine
 10
141.9349914999999
 20
8.487
 30
0.0
 11
141.9819914999999
 21
8.759999999999999
 31
0.0
  0
LINE
  5
2A2
330
1E
100
AcDbEntity
  8
0
100
AcDbLine
 10
119.604431038908
 20
8.74602511578197
 30
0.0
 11
120.427377405776
 21
8.94890730441231
 31
0.0
  0
LINE
  5
2A3
330
1E
100
AcDbEntity
  8
0
100
AcDbLine
 10
142.0139915
 20
8.932999999999999
 30
0.0
 11
142.0209915
 21
16.0
 31
0.0
  0
LINE
  5
2A4
330
1E
100
AcDbEntity
  8
0
100
AcDbLine
 10
142.0139915
 20
8.932999999999999
 30
0.0
 11
142.0259915
 21
8.999
 31
0.0
  0
LINE
  5
2A5
330
1E
100
AcDbEntity
  8
0
100
AcDbLine
 10
119.6349915
 20
8.759999999999999
 30
0.0
 11
120.2699914999999
 21
8.932999999999999
 31
0.0
  0
LINE
  5
2A6
330
1E
100
AcDbEntity
  8
0
100
AcDbLine
 10
119.0379915
 20
8.487
 30
0.0
 11
119.6349915
 21
8.759999999999999
 31
0.0
  0
LINE
  5
2A7
330
1E
100
AcDbEntity
  8
0
100
AcDbLine
 10
118.8305509973069
 20
8.347310707360881
 30
0.0
 11
119.502757429321
 21
8.699531153608909
 31
0.0
  0
LINE
  5
2A8
330
1E
100
AcDbEntity
  8
0
100
AcDbLine
 10
118.4929915
 20
8.119999999999999
 30
0.0
 11
119.0379915
 21
8.487
 31
0.0
  0
LINE
  5
2A9
330
1E
100
AcDbEntity
  8
0
100
AcDbLine
 10
117.6189915
 20
7.144999999999999
 30
0.0
 11
118.0169915
 21
7.667999999999999
 31
0.0
  0
LINE
  5
2AA
330
1E
100
AcDbEntity
  8
0
100
AcDbLine
 10
117.526739108229
 20
6.964271630156129
 30
0.0
 11
117.974090913995
 21
7.611625611857799
 31
0.0
  0
LINE
  5
2AB
330
1E
100
AcDbEntity
  8
0
100
AcDbLine
 10
117.526739108229
 20
6.964271630156129
 30
0.0
 11
117.974090913995
 21
7.611625611857799
 31
0.0
  0
LINE
  5
2AC
330
1E
100
AcDbEntity
  8
0
100
AcDbLine
 10
117.2769915
 20
6.474999999999999
 30
0.0
 11
117.6189915
 21
7.144999999999999
 31
0.0
  0
LINE
  5
2AD
330
1E
100
AcDbEntity
  8
0
100
AcDbLine
 10
117.172659097668
 20
6.117006354083049
 30
0.0
 11
117.3990863275859
 21
6.714191621294629
 31
0.0
  0
LINE
  5
2AE
330
1E
100
AcDbEntity
  8
0
100
AcDbLine
 10
117.0659915
 20
5.751
 30
0.0
 11
117.2769915
 21
6.474999999999999
 31
0.0
  0
LINE
  5
2AF
330
1E
100
AcDbEntity
  8
0
100
AcDbLine
 10
116.9939915
 20
5.0
 30
0.0
 11
116.9939915
 21
0.800000000000004
 31
0.0
  0
LINE
  5
2B0
330
1E
100
AcDbEntity
  8
0
100
AcDbLine
 10
116.9939915
 20
5.0
 30
0.0
 11
117.101698217026
 21
5.873519730460519
 31
0.0
  0
LINE
  5
2B1
330
1E
100
AcDbEntity
  8
0
100
AcDbLine
 10
116.9939915
 20
5.0
 30
0.0
 11
117.0659915
 21
5.751
 31
0.0
  0
LINE
  5
2B2
330
1E
100
AcDbEntity
  8
0
100
AcDbLine
 10
114.8979914999999
 20
0.800000000000004
 30
0.0
 11
116.9939915
 21
0.800000000000004
 31
0.0
  0
LINE
  5
2B3
330
1E
100
AcDbEntity
  8
0
100
AcDbLine
 10
110.9199915
 20
0.800000000000004
 30
0.0
 11
112.8659915
 21
0.800000000000004
 31
0.0
  0
LINE
  5
2B4
330
1E
100
AcDbEntity
  8
0
100
AcDbLine
 10
103.4389914999999
 20
0.8000000000000028
 30
0.0
 11
104.6509915
 21
0.8000000000000028
 31
0.0
  0
LINE
  5
2B5
330
1E
100
AcDbEntity
  8
0
100
AcDbLine
 10
100.3579914999999
 20
5.0
 30
0.0
 11
100.3579914999999
 21
0.8000000000000021
 31
0.0
  0
LINE
  5
2B6
330
1E
100
AcDbEntity
  8
0
100
AcDbLine
 10
100.3579914999999
 20
0.8000000000000021
 30
0.0
 11
100.3579914999999
 21
5.0
 31
0.0
  0
LINE
  5
2B7
330
1E
100
AcDbEntity
  8
0
100
AcDbLine
 10
100.3579914999999
 20
0.8000000000000021
 30
0.0
 11
101.1739914999999
 21
0.0000000000000021
 31
0.0
  0
LINE
  5
2B8
330
1E
100
AcDbEntity
  8
0
100
AcDbLine
 10
100.3439914999999
 20
5.751
 30
0.0
 11
100.3579914999999
 21
5.0
 31
0.0
  0
LINE
  5
2B9
330
1E
100
AcDbEntity
  8
0
100
AcDbLine
 10
100.1229914999999
 20
8.119999999999999
 30
0.0
 11
100.1859915
 21
7.667999999999999
 31
0.0
  0
LINE
  5
2BA
330
1E
100
AcDbEntity
  8
0
100
AcDbLine
 10
100.3939914999999
 20
16.0
 30
0.0
 11
101.2879915
 21
16.0
 31
0.0
  0
LINE
  5
2BB
330
1E
100
AcDbEntity
  8
0
100
AcDbLine
 10
100.1459915
 20
16.0
 30
0.0
 11
100.5409914999999
 21
16.0
 31
0.0
  0
LINE
  5
2BC
330
1E
100
AcDbEntity
  8
0
100
AcDbLine
 10
100.5409914999999
 20
16.0
 30
0.0
 11
101.1609915
 21
16.0
 31
0.0
  0
LINE
  5
2BD
330
1E
100
AcDbEntity
  8
0
100
AcDbLine
 10
101.1609915
 20
16.0
 30
0.0
 11
101.9979914999999
 21
16.0
 31
0.0
  0
LINE
  5
2BE
330
1E
100
AcDbEntity
  8
0
100
AcDbLine
 10
101.2879915
 20
16.0
 30
0.0
 11
102.3849914999999
 21
16.0
 31
0.0
  0
LINE
  5
2BF
330
1E
100
AcDbEntity
  8
0
100
AcDbLine
 10
101.9979914999999
 20
16.0
 30
0.0
 11
103.0439915
 21
16.0
 31
0.0
  0
LINE
  5
2C0
330
1E
100
AcDbEntity
  8
0
100
AcDbLine
 10
100.3949914999999
 20
38.0
 30
0.0
 11
101.2879915
 21
38.0
 31
0.0
  0
LINE
  5
2C1
330
1E
100
AcDbEntity
  8
0
100
AcDbLine
 10
102.3849914999999
 20
38.0
 30
0.0
 11
103.6709915
 21
38.0
 31
0.0
  0
LINE
  5
2C2
330
1E
100
AcDbEntity
  8
0
100
AcDbLine
 10
101.2879915
 20
38.0
 30
0.0
 11
102.3849914999999
 21
38.0
 31
0.0
  0
LINE
  5
2C3
330
1E
100
AcDbEntity
  8
0
100
AcDbLine
 10
102.3849914999999
 20
16.0
 30
0.0
 11
103.6709915
 21
16.0
 31
0.0
  0
LINE
  5
2C4
330
1E
100
AcDbEntity
  8
0
100
AcDbLine
 10
104.2849915
 20
16.0
 30
0.0
 11
105.7099915
 21
16.0
 31
0.0
  0
LINE
  5
2C5
330
1E
100
AcDbEntity
  8
0
100
AcDbLine
 10
105.7099915
 20
16.0
 30
0.0
 11
107.3029915
 21
16.0
 31
0.0
  0
LINE
  5
2C6
330
1E
100
AcDbEntity
  8
0
100
AcDbLine
 10
103.6709915
 20
16.0
 30
0.0
 11
105.1359915
 21
16.0
 31
0.0
  0
LINE
  5
2C7
330
1E
100
AcDbEntity
  8
0
100
AcDbLine
 10
105.1359915
 20
16.0
 30
0.0
 11
106.7629914999999
 21
16.0
 31
0.0
  0
LINE
  5
2C8
330
1E
100
AcDbEntity
  8
0
100
AcDbLine
 10
107.3029915
 20
16.0
 30
0.0
 11
109.0449915
 21
16.0
 31
0.0
  0
LINE
  5
2C9
330
1E
100
AcDbEntity
  8
0
100
AcDbLine
 10
106.7629914999999
 20
16.0
 30
0.0
 11
108.5379915
 21
16.0
 31
0.0
  0
LINE
  5
2CA
330
1E
100
AcDbEntity
  8
0
100
AcDbLine
 10
110.9189914999999
 20
16.0
 30
0.0
 11
112.9029915
 21
16.0
 31
0.0
  0
LINE
  5
2CB
330
1E
100
AcDbEntity
  8
0
100
AcDbLine
 10
112.9029915
 20
16.0
 30
0.0
 11
114.9759915
 21
16.0
 31
0.0
  0
LINE
  5
2CC
330
1E
100
AcDbEntity
  8
0
100
AcDbLine
 10
114.9759915
 20
16.0
 30
0.0
 11
117.1149914999999
 21
16.0
 31
0.0
  0
LINE
  5
2CD
330
1E
100
AcDbEntity
  8
0
100
AcDbLine
 10
117.1149914999999
 20
16.0
 30
0.0
 11
119.2959915
 21
16.0
 31
0.0
  0
LINE
  5
2CE
330
1E
100
AcDbEntity
  8
0
100
AcDbLine
 10
120.9999915
 20
8.971
 30
0.0
 11
121.35402180303
 21
8.971
 31
0.0
  0
LINE
  5
2CF
330
1E
100
AcDbEntity
  8
0
100
AcDbLine
 10
121.572605594224
 20
8.94890730441231
 30
0.0
 11
122.3955519610919
 21
8.74602511578198
 31
0.0
  0
LINE
  5
2D0
330
1E
100
AcDbEntity
  8
0
100
AcDbLine
 10
121.7299914999999
 20
8.932999999999999
 30
0.0
 11
122.3649914999999
 21
8.759999999999999
 31
0.0
  0
LINE
  5
2D1
330
1E
100
AcDbEntity
  8
0
100
AcDbLine
 10
120.2699914999999
 20
8.932999999999999
 30
0.0
 11
120.9229915
 21
8.999
 31
0.0
  0
LINE
  5
2D3
330
1E
100
AcDbEntity
  8
0
100
AcDbLine
 10
120.9999915
 20
8.994199999999999
 30
0.0
 11
121.0769914999999
 21
8.999
 31
0.0
  0
LINE
  5
2D4
330
1E
100
AcDbEntity
  8
0
100
AcDbLine
 10
120.9999915
 20
16.0
 30
0.0
 11
123.0819915
 21
16.0
 31
0.0
  0
LINE
  5
2D5
330
1E
100
AcDbEntity
  8
0
100
AcDbLine
 10
120.9999915
 20
16.0
 30
0.0
 11
122.7039914999999
 21
16.0
 31
0.0
  0
LINE
  5
2D7
330
1E
100
AcDbEntity
  8
0
100
AcDbLine
 10
120.9229915
 20
8.999
 30
0.0
 11
120.9999915
 21
8.994199999999999
 31
0.0
  0
LINE
  5
2D9
330
1E
100
AcDbEntity
  8
0
100
AcDbLine
 10
121.0769914999999
 20
8.999
 30
0.0
 11
121.7299914999999
 21
8.932999999999999
 31
0.0
  0
LINE
  5
2DA
330
1E
100
AcDbEntity
  8
0
100
AcDbLine
 10
142.0199914999999
 20
12.7394
 30
0.0
 11
142.024985377275
 21
8.998985921321189
 31
0.0
  0
LINE
  5
2DB
330
1E
100
AcDbEntity
  8
0
100
AcDbLine
 10
122.7039914999999
 20
16.0
 30
0.0
 11
124.8849915
 21
16.0
 31
0.0
  0
LINE
  5
2DC
330
1E
100
AcDbEntity
  8
0
100
AcDbLine
 10
124.8849915
 20
16.0
 30
0.0
 11
127.0239915
 21
16.0
 31
0.0
  0
LINE
  5
2DD
330
1E
100
AcDbEntity
  8
0
100
AcDbLine
 10
129.0969915
 20
16.0
 30
0.0
 11
131.0809915
 21
16.0
 31
0.0
  0
LINE
  5
2DE
330
1E
100
AcDbEntity
  8
0
100
AcDbLine
 10
127.0239915
 20
16.0
 30
0.0
 11
129.0969915
 21
16.0
 31
0.0
  0
LINE
  5
2DF
330
1E
100
AcDbEntity
  8
0
100
AcDbLine
 10
131.0809915
 20
16.0
 30
0.0
 11
132.9549915
 21
16.0
 31
0.0
  0
LINE
  5
2E0
330
1E
100
AcDbEntity
  8
0
100
AcDbLine
 10
132.9549915
 20
16.0
 30
0.0
 11
134.6969915
 21
16.0
 31
0.0
  0
LINE
  5
2E1
330
1E
100
AcDbEntity
  8
0
100
AcDbLine
 10
134.6969915
 20
16.0
 30
0.0
 11
136.2899915
 21
16.0
 31
0.0
  0
LINE
  5
2E2
330
1E
100
AcDbEntity
  8
0
100
AcDbLine
 10
135.2369915
 20
16.0
 30
0.0
 11
136.8639914999999
 21
16.0
 31
0.0
  0
LINE
  5
2E3
330
1E
100
AcDbEntity
  8
0
100
AcDbLine
 10
133.4619915
 20
16.0
 30
0.0
 11
135.2369915
 21
16.0
 31
0.0
  0
LINE
  5
2E4
330
1E
100
AcDbEntity
  8
0
100
AcDbLine
 10
131.5609915
 20
16.0
 30
0.0
 11
133.4619915
 21
16.0
 31
0.0
  0
LINE
  5
2E5
330
1E
100
AcDbEntity
  8
0
100
AcDbLine
 10
129.5509915
 20
16.0
 30
0.0
 11
131.5609915
 21
16.0
 31
0.0
  0
LINE
  5
2E6
330
1E
100
AcDbEntity
  8
0
100
AcDbLine
 10
127.4529915
 20
16.0
 30
0.0
 11
129.5509915
 21
16.0
 31
0.0
  0
LINE
  5
2E7
330
1E
100
AcDbEntity
  8
0
100
AcDbLine
 10
125.2889915
 20
16.0
 30
0.0
 11
127.4529915
 21
16.0
 31
0.0
  0
LINE
  5
2E8
330
1E
100
AcDbEntity
  8
0
100
AcDbLine
 10
123.0819915
 20
16.0
 30
0.0
 11
125.2889915
 21
16.0
 31
0.0
  0
LINE
  5
2E9
330
1E
100
AcDbEntity
  8
0
100
AcDbLine
 10
137.7149914999999
 20
16.0
 30
0.0
 11
138.9559915
 21
16.0
 31
0.0
  0
LINE
  5
2EA
330
1E
100
AcDbEntity
  8
0
100
AcDbLine
 10
138.9559915
 20
16.0
 30
0.0
 11
140.0019915
 21
16.0
 31
0.0
  0
LINE
  5
2EB
330
1E
100
AcDbEntity
  8
0
100
AcDbLine
 10
141.4579915
 20
16.0
 30
0.0
 11
141.8539915
 21
16.0
 31
0.0
  0
LINE
  5
2EC
330
1E
100
AcDbEntity
  8
0
100
AcDbLine
 10
140.8389914999999
 20
16.0
 30
0.0
 11
141.4579915
 21
16.0
 31
0.0
  0
LINE
  5
2ED
330
1E
100
AcDbEntity
  8
0
100
AcDbLine
 10
140.0019915
 20
16.0
 30
0.0
 11
140.8389914999999
 21
16.0
 31
0.0
  0
LINE
  5
2EE
330
1E
100
AcDbEntity
  8
0
100
AcDbLine
 10
140.7119915
 20
16.0
 30
0.0
 11
141.6059915
 21
16.0
 31
0.0
  0
LINE
  5
2EF
330
1E
100
AcDbEntity
  8
0
100
AcDbLine
 10
141.8539915
 20
16.0
 30
0.0
 11
142.0209915
 21
16.0
 31
0.0
  0
LINE
  5
2F0
330
1E
100
AcDbEntity
  8
0
100
AcDbLine
 10
141.6059915
 20
16.0
 30
0.0
 11
142.2879915
 21
16.0
 31
0.0
  0
LINE
  5
2F1
330
1E
100
AcDbEntity
  8
0
100
AcDbLine
 10
139.6149915
 20
16.0
 30
0.0
 11
140.7119915
 21
16.0
 31
0.0
  0
LINE
  5
2F2
330
1E
100
AcDbEntity
  8
0
100
AcDbLine
 10
138.3289914999999
 20
16.0
 30
0.0
 11
139.6149915
 21
16.0
 31
0.0
  0
LINE
  5
2F3
330
1E
100
AcDbEntity
  8
0
100
AcDbLine
 10
136.8639914999999
 20
16.0
 30
0.0
 11
138.3289914999999
 21
16.0
 31
0.0
  0
LINE
  5
2F4
330
1E
100
AcDbEntity
  8
0
100
AcDbLine
 10
136.2899915
 20
16.0
 30
0.0
 11
137.7149914999999
 21
16.0
 31
0.0
  0
LINE
  5
2F5
330
1E
100
AcDbEntity
  8
0
100
AcDbLine
 10
142.0209915
 20
16.0
 30
0.0
 11
142.2879915
 21
16.0
 31
0.0
  0
LINE
  5
2F6
330
1E
100
AcDbEntity
  8
0
100
AcDbLine
 10
142.2879915
 20
16.0
 30
0.0
 11
142.7509914999999
 21
16.0
 31
0.0
  0
LINE
  5
2F7
330
1E
100
AcDbEntity
  8
0
100
AcDbLine
 10
142.2879915
 20
16.0
 30
0.0
 11
142.7509914999999
 21
16.0
 31
0.0
  0
LINE
  5
2F8
330
1E
100
AcDbEntity
  8
0
100
AcDbLine
 10
142.7509914999999
 20
16.0
 30
0.0
 11
142.9919915
 21
16.0
 31
0.0
  0
LINE
  5
2F9
330
1E
100
AcDbEntity
  8
0
100
AcDbLine
 10
142.9999914999999
 20
16.0
 30
0.0
 11
142.9999914999999
 21
38.0
 31
0.0
  0
LINE
  5
2FA
330
1E
100
AcDbEntity
  8
0
100
AcDbLine
 10
142.0209915
 20
16.0
 30
0.0
 11
142.0259915
 21
8.999
 31
0.0
  0
LINE
  5
2FB
330
1E
100
AcDbEntity
  8
0
100
AcDbLine
 10
142.018205517675
 20
13.1873518438457
 30
0.0
 11
142.0199914999999
 21
12.7394
 31
0.0
  0
LINE
  5
2FF
330
1E
100
AcDbEntity
  8
0
100
AcDbLine
 10
120.6459611969699
 20
8.971
 30
0.0
 11
120.9999915
 21
8.971
 31
0.0
  0
LINE
  5
300
330
1E
100
AcDbEntity
  8
0
100
AcDbLine
 10
119.2959915
 20
16.0
 30
0.0
 11
120.9999915
 21
16.0
 31
0.0
  0
LINE
  5
301
330
1E
100
AcDbEntity
  8
0
100
AcDbLine
 10
118.9179914999999
 20
16.0
 30
0.0
 11
120.9999915
 21
16.0
 31
0.0
  0
LINE
  5
302
330
1E
100
AcDbEntity
  8
0
100
AcDbLine
 10
116.7109915
 20
16.0
 30
0.0
 11
118.9179914999999
 21
16.0
 31
0.0
  0
LINE
  5
303
330
1E
100
AcDbEntity
  8
0
100
AcDbLine
 10
114.5469915
 20
16.0
 30
0.0
 11
116.7109915
 21
16.0
 31
0.0
  0
LINE
  5
304
330
1E
100
AcDbEntity
  8
0
100
AcDbLine
 10
112.4489915
 20
16.0
 30
0.0
 11
114.5469915
 21
16.0
 31
0.0
  0
LINE
  5
305
330
1E
100
AcDbEntity
  8
0
100
AcDbLine
 10
110.4389915
 20
16.0
 30
0.0
 11
112.4489915
 21
16.0
 31
0.0
  0
LINE
  5
306
330
1E
100
AcDbEntity
  8
0
100
AcDbLine
 10
108.5379915
 20
16.0
 30
0.0
 11
110.4389915
 21
16.0
 31
0.0
  0
LINE
  5
307
330
1E
100
AcDbEntity
  8
0
100
AcDbLine
 10
103.6709915
 20
38.0
 30
0.0
 11
105.1359915
 21
38.0
 31
0.0
  0
LINE
  5
308
330
1E
100
AcDbEntity
  8
0
100
AcDbLine
 10
105.1359915
 20
38.0
 30
0.0
 11
106.7639914999999
 21
38.0
 31
0.0
  0
LINE
  5
309
330
1E
100
AcDbEntity
  8
0
100
AcDbLine
 10
106.7639914999999
 20
38.0
 30
0.0
 11
108.5379915
 21
38.0
 31
0.0
  0
LINE
  5
30A
330
1E
100
AcDbEntity
  8
0
100
AcDbLine
 10
135.2359915
 20
38.0
 30
0.0
 11
136.8639914999999
 21
38.0
 31
0.0
  0
LINE
  5
30B
330
1E
100
AcDbEntity
  8
0
100
AcDbLine
 10
133.4619915
 20
38.0
 30
0.0
 11
135.2359915
 21
38.0
 31
0.0
  0
LINE
  5
30C
330
1E
100
AcDbEntity
  8
0
100
AcDbLine
 10
131.5609915
 20
38.0
 30
0.0
 11
133.4619915
 21
38.0
 31
0.0
  0
LINE
  5
30D
330
1E
100
AcDbEntity
  8
0
100
AcDbLine
 10
129.5509915
 20
38.0
 30
0.0
 11
131.5609915
 21
38.0
 31
0.0
  0
LINE
  5
30E
330
1E
100
AcDbEntity
  8
0
100
AcDbLine
 10
127.4539915
 20
38.0
 30
0.0
 11
129.5509915
 21
38.0
 31
0.0
  0
LINE
  5
30F
330
1E
100
AcDbEntity
  8
0
100
AcDbLine
 10
125.2889915
 20
38.0
 30
0.0
 11
127.4539915
 21
38.0
 31
0.0
  0
LINE
  5
310
330
1E
100
AcDbEntity
  8
0
100
AcDbLine
 10
123.0819915
 20
38.0
 30
0.0
 11
125.2889915
 21
38.0
 31
0.0
  0
LINE
  5
311
330
1E
100
AcDbEntity
  8
0
100
AcDbLine
 10
120.9999915
 20
38.0
 30
0.0
 11
123.0819915
 21
38.0
 31
0.0
  0
LINE
  5
312
330
1E
100
AcDbEntity
  8
0
100
AcDbLine
 10
140.7119915
 20
38.0
 30
0.0
 11
141.6049915
 21
38.0
 31
0.0
  0
LINE
  5
313
330
1E
100
AcDbEntity
  8
0
100
AcDbLine
 10
142.7509914999999
 20
38.0
 30
0.0
 11
142.9919915
 21
38.0
 31
0.0
  0
LINE
  5
314
330
1E
100
AcDbEntity
  8
0
100
AcDbLine
 10
142.2879915
 20
38.0
 30
0.0
 11
142.7509914999999
 21
38.0
 31
0.0
  0
LINE
  5
315
330
1E
100
AcDbEntity
  8
0
100
AcDbLine
 10
141.6049915
 20
38.0
 30
0.0
 11
142.2879915
 21
38.0
 31
0.0
  0
LINE
  5
316
330
1E
100
AcDbEntity
  8
0
100
AcDbLine
 10
139.6149915
 20
38.0
 30
0.0
 11
140.7119915
 21
38.0
 31
0.0
  0
LINE
  5
317
330
1E
100
AcDbEntity
  8
0
100
AcDbLine
 10
138.3289914999999
 20
38.0
 30
0.0
 11
139.6149915
 21
38.0
 31
0.0
  0
LINE
  5
318
330
1E
100
AcDbEntity
  8
0
100
AcDbLine
 10
136.8639914999999
 20
38.0
 30
0.0
 11
138.3289914999999
 21
38.0
 31
0.0
  0
LINE
  5
319
330
1E
100
AcDbEntity
  8
0
100
AcDbLine
 10
142.9999914999999
 20
38.0
 30
0.0
 11
142.9999914999999
 21
16.0
 31
0.0
  0
LINE
  5
31A
330
1E
100
AcDbEntity
  8
0
100
AcDbLine
 10
118.9179914999999
 20
38.0
 30
0.0
 11
120.9999915
 21
38.0
 31
0.0
  0
LINE
  5
31B
330
1E
100
AcDbEntity
  8
0
100
AcDbLine
 10
116.7109915
 20
38.0
 30
0.0
 11
118.9179914999999
 21
38.0
 31
0.0
  0
LINE
  5
31C
330
1E
100
AcDbEntity
  8
0
100
AcDbLine
 10
114.5459914999999
 20
38.0
 30
0.0
 11
116.7109915
 21
38.0
 31
0.0
  0
LINE
  5
31D
330
1E
100
AcDbEntity
  8
0
100
AcDbLine
 10
112.4489915
 20
38.0
 30
0.0
 11
114.5459914999999
 21
38.0
 31
0.0
  0
LINE
  5
31E
330
1E
100
AcDbEntity
  8
0
100
AcDbLine
 10
110.4389915
 20
38.0
 30
0.0
 11
112.4489915
 21
38.0
 31
0.0
  0
LINE
  5
31F
330
1E
100
AcDbEntity
  8
0
100
AcDbLine
 10
108.5379915
 20
38.0
 30
0.0
 11
110.4389915
 21
38.0
 31
0.0
  0
LINE
  5
320
330
1E
100
AcDbEntity
  8
0
100
AcDbLine
 10
109.0449915
 20
16.0
 30
0.0
 11
110.9189914999999
 21
16.0
 31
0.0
  0
LINE
  5
321
330
1E
100
AcDbEntity
  8
0
100
AcDbLine
 10
103.0439915
 20
16.0
 30
0.0
 11
104.2849915
 21
16.0
 31
0.0
  0
LINE
  5
322
330
1E
100
AcDbEntity
  8
0
100
AcDbLine
 10
99.98579150000001
 20
8.932999999999999
 30
0.0
 11
100.0179915
 21
8.759999999999999
 31
0.0
  0
LINE
  5
323
330
1E
100
AcDbEntity
  8
0
100
AcDbLine
 10
99.97969150000001
 20
12.7394
 30
0.0
 11
99.98156599649151
 21
13.198947613538
 31
0.0
  0
ENDSEC
  0
SECTION
  2
OBJECTS
  0
DICTIONARY
  5
C
330
0
100
AcDbDictionary
281
     1
  3
ACAD_GROUP
350
D
  3
ACAD_LAYOUT
350
19
  3
ACAD_MLINESTYLE
350
16
  3
ACAD_PLOTSETTINGS
350
18
  3
ACAD_PLOTSTYLENAME
350
E
  3
AcDbVariableDictionary
350
329
  0
DICTIONARY
  5
D
102
{ACAD_REACTORS
330
C
102
}
330
C
100
AcDbDictionary
281
     1
  0
DICTIONARY
  5
19
102
{ACAD_REACTORS
330
C
102
}
330
C
100
AcDbDictionary
281
     1
  3
Layout1
350
1D
  3
Model
350
21
  0
DICTIONARY
  5
16
102
{ACAD_REACTORS
330
C
102
}
330
C
100
AcDbDictionary
281
     1
  3
Standard
350
17
  0
DICTIONARY
  5
18
102
{ACAD_REACTORS
330
C
102
}
330
C
100
AcDbDictionary
281
     1
  0
ACDBDICTIONARYWDFLT
  5
E
102
{ACAD_REACTORS
330
C
102
}
330
C
100
AcDbDictionary
281
     1
  3
Normal
350
F
100
AcDbDictionaryWithDefault
340
F
  0
DICTIONARY
  5
329
102
{ACAD_REACTORS
330
C
102
}
330
C
100
AcDbDictionary
281
     1
  3
DIMASSOC
350
32A
  0
LAYOUT
  5
1D
102
{ACAD_REACTORS
330
19
102
}
330
19
100
AcDbPlotSettings
  1

  2
C:\Programme\AutoCAD LT 2002 Deu\plotters\DWF ePlot (optimized for plotting).pc3
  4

  6

 40
0.0
 41
0.0
 42
0.0
 43
0.0
 44
0.0
 45
0.0
 46
0.0
 47
0.0
 48
0.0
 49
0.0
140
0.0
141
0.0
142
1.0
143
1.0
 70
   688
 72
     0
 73
     0
 74
     5
  7

 75
    16
147
1.0
148
0.0
149
0.0
100
AcDbLayout
  1
Layout1
 70
     1
 71
     1
 10
0.0
 20
0.0
 11
12.0
 21
9.0
 12
0.0
 22
0.0
 32
0.0
 14
1.000000000000000E+20
 24
1.000000000000000E+20
 34
1.000000000000000E+20
 15
-1.000000000000000E+20
 25
-1.000000000000000E+20
 35
-1.000000000000000E+20
146
0.0
 13
0.0
 23
0.0
 33
0.0
 16
1.0
 26
0.0
 36
0.0
 17
0.0
 27
1.0
 37
0.0
 76
     0
330
1A
  0
LAYOUT
  5
21
102
{ACAD_REACTORS
330
19
102
}
330
19
100
AcDbPlotSettings
  1

  2
C:\Programme\AutoCAD LT 2002 Deu\plotters\DWF ePlot (optimized for plotting).pc3
  4

  6

 40
0.0
 41
0.0
 42
0.0
 43
0.0
 44
0.0
 45
0.0
 46
0.0
 47
0.0
 48
0.0
 49
0.0
140
0.0
141
0.0
142
1.0
143
1.0
 70
  1712
 72
     0
 73
     0
 74
     0
  7

 75
     0
147
1.0
148
0.0
149
0.0
100
AcDbLayout
  1
Model
 70
     1
 71
     0
 10
0.0
 20
0.0
 11
12.0
 21
9.0
 12
0.0
 22
0.0
 32
0.0
 14
0.0
 24
0.0
 34
0.0
 15
0.0
 25
0.0
 35
0.0
146
0.0
 13
0.0
 23
0.0
 33
0.0
 16
1.0
 26
0.0
 36
0.0
 17
0.0
 27
1.0
 37
0.0
 76
     0
330
1E
  0
MLINESTYLE
  5
17
102
{ACAD_REACTORS
330
16
102
}
330
16
100
AcDbMlineStyle
  2
STANDARD
 70
     0
  3

 62
   256
 51
90.0
 52
90.0
 71
     2
 49
0.5
 62
   256
  6
BYLAYER
 49
-0.5
 62
   256
  6
BYLAYER
  0
ACDBPLACEHOLDER
  5
F
102
{ACAD_REACTORS
330
E
102
}
330
E
  0
DICTIONARYVAR
  5
32A
102
{ACAD_REACTORS
330
329
102
}
330
329
100
DictionaryVariables
280
     0
  1
1
  0
ENDSEC
  0
EOF
