  0
SECTION
  2
HEADER
  9
$ACADVER
  1
AC1015
  9
$ACADMAINTVER
 70
    13
  9
$DWGCODEPAGE
  3
ANSI_1252
  9
$INSBASE
 10
0.0
 20
0.0
 30
0.0
  9
$EXTMIN
 10
0.0000000000000001
 20
0.0000000000000016
 30
0.0
  9
$EXTMAX
 10
151.0
 20
187.0
 30
0.0
  9
$LIMMIN
 10
0.0
 20
0.0
  9
$LIMMAX
 10
12.0
 20
9.0
  9
$ORTHOMODE
 70
     0
  9
$REGENMODE
 70
     1
  9
$FILLMODE
 70
     1
  9
$QTEXTMODE
 70
     0
  9
$MIRRTEXT
 70
     1
  9
$LTSCALE
 40
1.0
  9
$ATTMODE
 70
     1
  9
$TEXTSIZE
 40
0.2
  9
$TRACEWID
 40
0.05
  9
$TEXTSTYLE
  7
Standard
  9
$CLAYER
  8
0
  9
$CELTYPE
  6
Continuous
  9
$CECOLOR
 62
   256
  9
$CELTSCALE
 40
1.0
  9
$DISPSILH
 70
     0
  9
$DIMSCALE
 40
1.0
  9
$DIMASZ
 40
0.18
  9
$DIMEXO
 40
0.0625
  9
$DIMDLI
 40
0.38
  9
$DIMRND
 40
0.0
  9
$DIMDLE
 40
0.0
  9
$DIMEXE
 40
0.18
  9
$DIMTP
 40
0.0
  9
$DIMTM
 40
0.0
  9
$DIMTXT
 40
0.18
  9
$DIMCEN
 40
0.09
  9
$DIMTSZ
 40
0.0
  9
$DIMTOL
 70
     0
  9
$DIMLIM
 70
     0
  9
$DIMTIH
 70
     1
  9
$DIMTOH
 70
     1
  9
$DIMSE1
 70
     0
  9
$DIMSE2
 70
     0
  9
$DIMTAD
 70
     0
  9
$DIMZIN
 70
     0
  9
$DIMBLK
  1

  9
$DIMASO
 70
     1
  9
$DIMSHO
 70
     1
  9
$DIMPOST
  1

  9
$DIMAPOST
  1

  9
$DIMALT
 70
     0
  9
$DIMALTD
 70
     2
  9
$DIMALTF
 40
25.4
  9
$DIMLFAC
 40
1.0
  9
$DIMTOFL
 70
     0
  9
$DIMTVP
 40
0.0
  9
$DIMTIX
 70
     0
  9
$DIMSOXD
 70
     0
  9
$DIMSAH
 70
     0
  9
$DIMBLK1
  1

  9
$DIMBLK2
  1

  9
$DIMSTYLE
  2
Standard
  9
$DIMCLRD
 70
     0
  9
$DIMCLRE
 70
     0
  9
$DIMCLRT
 70
     0
  9
$DIMTFAC
 40
1.0
  9
$DIMGAP
 40
0.09
  9
$DIMJUST
 70
     0
  9
$DIMSD1
 70
     0
  9
$DIMSD2
 70
     0
  9
$DIMTOLJ
 70
     1
  9
$DIMTZIN
 70
     0
  9
$DIMALTZ
 70
     0
  9
$DIMALTTZ
 70
     0
  9
$DIMUPT
 70
     0
  9
$DIMDEC
 70
     4
  9
$DIMTDEC
 70
     4
  9
$DIMALTU
 70
     2
  9
$DIMALTTD
 70
     2
  9
$DIMTXSTY
  7
Standard
  9
$DIMAUNIT
 70
     0
  9
$DIMADEC
 70
     0
  9
$DIMALTRND
 40
0.0
  9
$DIMAZIN
 70
     0
  9
$DIMDSEP
 70
    46
  9
$DIMATFIT
 70
     3
  9
$DIMFRAC
 70
     0
  9
$DIMLDRBLK
  1

  9
$DIMLUNIT
 70
     2
  9
$DIMLWD
 70
    -2
  9
$DIMLWE
 70
    -2
  9
$DIMTMOVE
 70
     0
  9
$LUNITS
 70
     2
  9
$LUPREC
 70
     4
  9
$SKETCHINC
 40
0.1
  9
$FILLETRAD
 40
0.0
  9
$AUNITS
 70
     0
  9
$AUPREC
 70
     0
  9
$MENU
  1
.
  9
$ELEVATION
 40
0.0
  9
$PELEVATION
 40
0.0
  9
$THICKNESS
 40
0.0
  9
$LIMCHECK
 70
     0
  9
$CHAMFERA
 40
0.0
  9
$CHAMFERB
 40
0.0
  9
$CHAMFERC
 40
0.0
  9
$CHAMFERD
 40
0.0
  9
$SKPOLY
 70
     0
  9
$TDCREATE
 40
2455653.007828773
  9
$TDUCREATE
 40
2455652.924495440
  9
$TDUPDATE
 40
2455653.011879514
  9
$TDUUPDATE
 40
2455652.928546180
  9
$TDINDWG
 40
0.0040509259
  9
$TDUSRTIMER
 40
0.0040509259
  9
$USRTIMER
 70
     1
  9
$ANGBASE
 50
0.0
  9
$ANGDIR
 70
     0
  9
$PDMODE
 70
     0
  9
$PDSIZE
 40
0.0
  9
$PLINEWID
 40
0.0
  9
$SPLFRAME
 70
     0
  9
$SPLINETYPE
 70
     6
  9
$SPLINESEGS
 70
     8
  9
$HANDSEED
  5
2A3
  9
$SURFTAB1
 70
     6
  9
$SURFTAB2
 70
     6
  9
$SURFTYPE
 70
     6
  9
$SURFU
 70
     6
  9
$SURFV
 70
     6
  9
$UCSBASE
  2

  9
$UCSNAME
  2

  9
$UCSORG
 10
0.0
 20
0.0
 30
0.0
  9
$UCSXDIR
 10
1.0
 20
0.0
 30
0.0
  9
$UCSYDIR
 10
0.0
 20
1.0
 30
0.0
  9
$UCSORTHOREF
  2

  9
$UCSORTHOVIEW
 70
     1
  9
$UCSORGTOP
 10
0.0
 20
0.0
 30
0.0
  9
$UCSORGBOTTOM
 10
0.0
 20
0.0
 30
0.0
  9
$UCSORGLEFT
 10
0.0
 20
0.0
 30
0.0
  9
$UCSORGRIGHT
 10
0.0
 20
0.0
 30
0.0
  9
$UCSORGFRONT
 10
0.0
 20
0.0
 30
0.0
  9
$UCSORGBACK
 10
0.0
 20
0.0
 30
0.0
  9
$PUCSBASE
  2

  9
$PUCSNAME
  2

  9
$PUCSORG
 10
0.0
 20
0.0
 30
0.0
  9
$PUCSXDIR
 10
1.0
 20
0.0
 30
0.0
  9
$PUCSYDIR
 10
0.0
 20
1.0
 30
0.0
  9
$PUCSORTHOREF
  2

  9
$PUCSORTHOVIEW
 70
     0
  9
$PUCSORGTOP
 10
0.0
 20
0.0
 30
0.0
  9
$PUCSORGBOTTOM
 10
0.0
 20
0.0
 30
0.0
  9
$PUCSORGLEFT
 10
0.0
 20
0.0
 30
0.0
  9
$PUCSORGRIGHT
 10
0.0
 20
0.0
 30
0.0
  9
$PUCSORGFRONT
 10
0.0
 20
0.0
 30
0.0
  9
$PUCSORGBACK
 10
0.0
 20
0.0
 30
0.0
  9
$USERI1
 70
     0
  9
$USERI2
 70
     0
  9
$USERI3
 70
     0
  9
$USERI4
 70
     0
  9
$USERI5
 70
     0
  9
$USERR1
 40
0.0
  9
$USERR2
 40
0.0
  9
$USERR3
 40
0.0
  9
$USERR4
 40
0.0
  9
$USERR5
 40
0.0
  9
$WORLDVIEW
 70
     1
  9
$SHADEDGE
 70
     3
  9
$SHADEDIF
 70
    70
  9
$TILEMODE
 70
     1
  9
$MAXACTVP
 70
    64
  9
$PINSBASE
 10
0.0
 20
0.0
 30
0.0
  9
$PLIMCHECK
 70
     0
  9
$PEXTMIN
 10
1.000000000000000E+20
 20
1.000000000000000E+20
 30
1.000000000000000E+20
  9
$PEXTMAX
 10
-1.000000000000000E+20
 20
-1.000000000000000E+20
 30
-1.000000000000000E+20
  9
$PLIMMIN
 10
0.0
 20
0.0
  9
$PLIMMAX
 10
12.0
 20
9.0
  9
$UNITMODE
 70
     0
  9
$VISRETAIN
 70
     1
  9
$PLINEGEN
 70
     0
  9
$PSLTSCALE
 70
     1
  9
$TREEDEPTH
 70
  3020
  9
$CMLSTYLE
  2
Standard
  9
$CMLJUST
 70
     0
  9
$CMLSCALE
 40
1.0
  9
$PROXYGRAPHICS
 70
     1
  9
$MEASUREMENT
 70
     0
  9
$CELWEIGHT
370
    -1
  9
$ENDCAPS
280
     0
  9
$JOINSTYLE
280
     0
  9
$LWDISPLAY
290
     0
  9
$INSUNITS
 70
     0
  9
$HYPERLINKBASE
  1

  9
$STYLESHEET
  1

  9
$XEDIT
290
     1
  9
$CEPSNTYPE
380
     0
  9
$PSTYLEMODE
290
     1
  9
$FINGERPRINTGUID
  2
{F76D82E2-F916-4E8F-B89F-28ED52B25EEB}
  9
$VERSIONGUID
  2
{9E05F254-256B-4D48-864F-F9225293650D}
  9
$EXTNAMES
290
     1
  9
$PSVPSCALE
 40
0.0
  9
$OLESTARTUP
290
     0
  0
ENDSEC
  0
SECTION
  2
CLASSES
  0
CLASS
  1
ACDBDICTIONARYWDFLT
  2
AcDbDictionaryWithDefault
  3
AutoCAD 2000
 90
        0
280
     0
281
     0
  0
CLASS
  1
ACDBPLACEHOLDER
  2
AcDbPlaceHolder
  3
AutoCAD 2000
 90
        0
280
     0
281
     0
  0
CLASS
  1
LAYOUT
  2
AcDbLayout
  3
AutoCAD 2000
 90
        0
280
     0
281
     0
  0
CLASS
  1
DICTIONARYVAR
  2
AcDbDictionaryVar
  3
AutoCAD 2000
 90
        0
280
     0
281
     0
  0
ENDSEC
  0
SECTION
  2
TABLES
  0
TABLE
  2
VPORT
  5
8
330
0
100
AcDbSymbolTable
 70
     3
  0
VPORT
  5
2A2
330
8
100
AcDbSymbolTableRecord
100
AcDbViewportTableRecord
  2
*Active
 70
     0
 10
0.0
 20
0.0
 11
1.0
 21
1.0
 12
75.5
 22
93.49999999999999
 13
0.0
 23
0.0
 14
1.0
 24
1.0
 15
0.0
 25
0.0
 16
0.0
 26
0.0
 36
1.0
 17
0.0
 27
0.0
 37
0.0
 40
188.2649379932356
 41
2.073363431151241
 42
50.0
 43
0.0
 44
0.0
 50
0.0
 51
0.0
 71
     0
 72
   100
 73
     1
 74
     3
 75
     0
 76
     0
 77
     0
 78
     0
281
     0
 65
     1
110
0.0
120
0.0
130
0.0
111
1.0
121
0.0
131
0.0
112
0.0
122
1.0
132
0.0
 79
     1
146
0.0
  0
ENDTAB
  0
TABLE
  2
LTYPE
  5
5
330
0
100
AcDbSymbolTable
 70
     1
  0
LTYPE
  5
13
330
5
100
AcDbSymbolTableRecord
100
AcDbLinetypeTableRecord
  2
ByBlock
 70
     0
  3

 72
    65
 73
     0
 40
0.0
  0
LTYPE
  5
14
330
5
100
AcDbSymbolTableRecord
100
AcDbLinetypeTableRecord
  2
ByLayer
 70
     0
  3

 72
    65
 73
     0
 40
0.0
  0
LTYPE
  5
15
330
5
100
AcDbSymbolTableRecord
100
AcDbLinetypeTableRecord
  2
Continuous
 70
     0
  3
Solid line
 72
    65
 73
     0
 40
0.0
  0
ENDTAB
  0
TABLE
  2
LAYER
  5
2
330
0
100
AcDbSymbolTable
 70
     1
  0
LAYER
  5
10
330
2
100
AcDbSymbolTableRecord
100
AcDbLayerTableRecord
  2
0
 70
     0
 62
     7
  6
Continuous
370
    -3
390
F
  0
ENDTAB
  0
TABLE
  2
STYLE
  5
3
330
0
100
AcDbSymbolTable
 70
     1
  0
STYLE
  5
11
330
3
100
AcDbSymbolTableRecord
100
AcDbTextStyleTableRecord
  2
Standard
 70
     0
 40
0.0
 41
1.0
 50
0.0
 71
     0
 42
0.2
  3
txt
  4

  0
ENDTAB
  0
TABLE
  2
VIEW
  5
6
330
0
100
AcDbSymbolTable
 70
     0
  0
ENDTAB
  0
TABLE
  2
UCS
  5
7
330
0
100
AcDbSymbolTable
 70
     0
  0
ENDTAB
  0
TABLE
  2
APPID
  5
9
330
0
100
AcDbSymbolTable
 70
     1
  0
APPID
  5
12
330
9
100
AcDbSymbolTableRecord
100
AcDbRegAppTableRecord
  2
ACAD
 70
     0
  0
ENDTAB
  0
TABLE
  2
DIMSTYLE
  5
A
330
0
100
AcDbSymbolTable
 70
     1
100
AcDbDimStyleTable
 71
     0
  0
DIMSTYLE
105
29B
330
A
100
AcDbSymbolTableRecord
100
AcDbDimStyleTableRecord
  2
Standard
 70
     0
340
11
  0
ENDTAB
  0
TABLE
  2
BLOCK_RECORD
  5
1
330
0
100
AcDbSymbolTable
 70
     0
  0
BLOCK_RECORD
  5
1E
330
1
100
AcDbSymbolTableRecord
100
AcDbBlockTableRecord
  2
*Model_Space
340
21
  0
BLOCK_RECORD
  5
1A
330
1
100
AcDbSymbolTableRecord
100
AcDbBlockTableRecord
  2
*Paper_Space
340
1D
  0
ENDTAB
  0
ENDSEC
  0
SECTION
  2
BLOCKS
  0
BLOCK
  5
1F
330
1E
100
AcDbEntity
  8
0
100
AcDbBlockBegin
  2
*Model_Space
 70
     0
 10
0.0
 20
0.0
 30
0.0
  3
*Model_Space
  1

  0
ENDBLK
  5
20
330
1E
100
AcDbEntity
  8
0
100
AcDbBlockEnd
  0
BLOCK
  5
1B
330
1A
100
AcDbEntity
 67
     1
  8
0
100
AcDbBlockBegin
  2
*Paper_Space
 70
     0
 10
0.0
 20
0.0
 30
0.0
  3
*Paper_Space
  1

  0
ENDBLK
  5
1C
330
1A
100
AcDbEntity
 67
     1
  8
0
100
AcDbBlockEnd
  0
ENDSEC
  0
SECTION
  2
ENTITIES
  0
LINE
  5
22
330
1E
100
AcDbEntity
  8
0
100
AcDbLine
 10
0.0000000000000001
 20
2.16667000000001
 30
0.0
 11
1.0
 21
1.50000000000001
 31
0.0
  0
LINE
  5
23
330
1E
100
AcDbEntity
  8
0
100
AcDbLine
 10
0.0000000000000001
 20
2.16667000000001
 30
0.0
 11
0.18
 21
2.16667000000001
 31
0.0
  0
LINE
  5
24
330
1E
100
AcDbEntity
  8
0
100
AcDbLine
 10
3.56533
 20
1.50000000000001
 30
0.0
 11
4.94667
 21
1.50000000000001
 31
0.0
  0
LINE
  5
25
330
1E
100
AcDbEntity
  8
0
100
AcDbLine
 10
4.94667
 20
1.50000000000001
 30
0.0
 11
6.387199999999999
 21
1.50000000000001
 31
0.0
  0
LINE
  5
26
330
1E
100
AcDbEntity
  8
0
100
AcDbLine
 10
68.25
 20
0.0000000000000062
 30
0.0
 11
69.29999999999999
 21
0.0000000000000061
 31
0.0
  0
LINE
  5
27
330
1E
100
AcDbEntity
  8
0
100
AcDbLine
 10
68.25
 20
0.0000000000000062
 30
0.0
 11
68.25
 21
1.50000000000001
 31
0.0
  0
LINE
  5
28
330
1E
100
AcDbEntity
  8
0
100
AcDbLine
 10
69.29999999999999
 20
0.0000000000000061
 30
0.0
 11
69.75
 21
0.0000000000000061
 31
0.0
  0
LINE
  5
29
330
1E
100
AcDbEntity
  8
0
100
AcDbLine
 10
69.29999999999999
 20
0.0000000000000061
 30
0.0
 11
69.29999999999999
 21
1.50000000000001
 31
0.0
  0
LINE
  5
2A
330
1E
100
AcDbEntity
  8
0
100
AcDbLine
 10
67.2
 20
0.0000000000000063
 30
0.0
 11
68.25
 21
0.0000000000000062
 31
0.0
  0
LINE
  5
2B
330
1E
100
AcDbEntity
  8
0
100
AcDbLine
 10
67.2
 20
0.0000000000000063
 30
0.0
 11
67.2
 21
1.50000000000001
 31
0.0
  0
LINE
  5
2C
330
1E
100
AcDbEntity
  8
0
100
AcDbLine
 10
55.25
 20
0.000000000000007
 30
0.0
 11
55.25
 21
1.50000000000001
 31
0.0
  0
LINE
  5
2D
330
1E
100
AcDbEntity
  8
0
100
AcDbLine
 10
54.8
 20
0.000000000000007
 30
0.0
 11
55.25
 21
0.000000000000007
 31
0.0
  0
LINE
  5
2E
330
1E
100
AcDbEntity
  8
0
100
AcDbLine
 10
54.8
 20
0.000000000000007
 30
0.0
 11
54.8
 21
1.50000000000001
 31
0.0
  0
LINE
  5
2F
330
1E
100
AcDbEntity
  8
0
100
AcDbLine
 10
53.75
 20
0.0000000000000071
 30
0.0
 11
54.8
 21
0.000000000000007
 31
0.0
  0
LINE
  5
30
330
1E
100
AcDbEntity
  8
0
100
AcDbLine
 10
53.75
 20
0.0000000000000071
 30
0.0
 11
53.75
 21
1.50000000000001
 31
0.0
  0
LINE
  5
31
330
1E
100
AcDbEntity
  8
0
100
AcDbLine
 10
8.75
 20
0.0000000000000098
 30
0.0
 11
8.75
 21
1.50000000000001
 31
0.0
  0
LINE
  5
32
330
1E
100
AcDbEntity
  8
0
100
AcDbLine
 10
8.75
 20
0.0000000000000098
 30
0.0
 11
9.199999999999999
 21
0.0000000000000098
 31
0.0
  0
LINE
  5
33
330
1E
100
AcDbEntity
  8
0
100
AcDbLine
 10
11.75
 20
0.0000000000000097
 30
0.0
 11
11.75
 21
1.50000000000001
 31
0.0
  0
LINE
  5
34
330
1E
100
AcDbEntity
  8
0
100
AcDbLine
 10
10.25
 20
0.0000000000000098
 30
0.0
 11
11.3
 21
0.0000000000000097
 31
0.0
  0
LINE
  5
35
330
1E
100
AcDbEntity
  8
0
100
AcDbLine
 10
10.25
 20
0.0000000000000098
 30
0.0
 11
10.25
 21
1.50000000000001
 31
0.0
  0
LINE
  5
36
330
1E
100
AcDbEntity
  8
0
100
AcDbLine
 10
11.3
 20
0.0000000000000097
 30
0.0
 11
11.75
 21
0.0000000000000097
 31
0.0
  0
LINE
  5
37
330
1E
100
AcDbEntity
  8
0
100
AcDbLine
 10
11.3
 20
0.0000000000000097
 30
0.0
 11
11.3
 21
1.50000000000001
 31
0.0
  0
LINE
  5
38
330
1E
100
AcDbEntity
  8
0
100
AcDbLine
 10
9.199999999999999
 20
0.0000000000000098
 30
0.0
 11
10.25
 21
0.0000000000000098
 31
0.0
  0
LINE
  5
39
330
1E
100
AcDbEntity
  8
0
100
AcDbLine
 10
9.199999999999999
 20
0.0000000000000098
 30
0.0
 11
9.199999999999999
 21
1.50000000000001
 31
0.0
  0
LINE
  5
3A
330
1E
100
AcDbEntity
  8
0
100
AcDbLine
 10
23.25
 20
0.000000000000009
 30
0.0
 11
23.7
 21
0.0000000000000089
 31
0.0
  0
LINE
  5
3B
330
1E
100
AcDbEntity
  8
0
100
AcDbLine
 10
23.25
 20
0.000000000000009
 30
0.0
 11
23.25
 21
1.50000000000001
 31
0.0
  0
LINE
  5
3C
330
1E
100
AcDbEntity
  8
0
100
AcDbLine
 10
38.2
 20
0.000000000000008
 30
0.0
 11
39.25
 21
0.000000000000008
 31
0.0
  0
LINE
  5
3D
330
1E
100
AcDbEntity
  8
0
100
AcDbLine
 10
38.2
 20
0.000000000000008
 30
0.0
 11
38.2
 21
1.50000000000001
 31
0.0
  0
LINE
  5
3E
330
1E
100
AcDbEntity
  8
0
100
AcDbLine
 10
40.75
 20
0.0000000000000079
 30
0.0
 11
40.75
 21
1.50000000000001
 31
0.0
  0
LINE
  5
3F
330
1E
100
AcDbEntity
  8
0
100
AcDbLine
 10
40.3
 20
0.0000000000000079
 30
0.0
 11
40.75
 21
0.0000000000000079
 31
0.0
  0
LINE
  5
40
330
1E
100
AcDbEntity
  8
0
100
AcDbLine
 10
40.3
 20
0.0000000000000079
 30
0.0
 11
40.3
 21
1.50000000000001
 31
0.0
  0
LINE
  5
41
330
1E
100
AcDbEntity
  8
0
100
AcDbLine
 10
39.25
 20
0.000000000000008
 30
0.0
 11
40.3
 21
0.0000000000000079
 31
0.0
  0
LINE
  5
42
330
1E
100
AcDbEntity
  8
0
100
AcDbLine
 10
39.25
 20
0.000000000000008
 30
0.0
 11
39.25
 21
1.50000000000001
 31
0.0
  0
LINE
  5
43
330
1E
100
AcDbEntity
  8
0
100
AcDbLine
 10
26.25
 20
0.0000000000000088
 30
0.0
 11
26.25
 21
1.50000000000001
 31
0.0
  0
LINE
  5
44
330
1E
100
AcDbEntity
  8
0
100
AcDbLine
 10
37.75
 20
0.0000000000000081
 30
0.0
 11
38.2
 21
0.000000000000008
 31
0.0
  0
LINE
  5
45
330
1E
100
AcDbEntity
  8
0
100
AcDbLine
 10
37.75
 20
0.0000000000000081
 30
0.0
 11
37.75
 21
1.50000000000001
 31
0.0
  0
LINE
  5
46
330
1E
100
AcDbEntity
  8
0
100
AcDbLine
 10
25.8
 20
0.0000000000000088
 30
0.0
 11
26.25
 21
0.0000000000000088
 31
0.0
  0
LINE
  5
47
330
1E
100
AcDbEntity
  8
0
100
AcDbLine
 10
25.8
 20
0.0000000000000088
 30
0.0
 11
25.8
 21
1.50000000000001
 31
0.0
  0
LINE
  5
48
330
1E
100
AcDbEntity
  8
0
100
AcDbLine
 10
24.75
 20
0.0000000000000089
 30
0.0
 11
25.8
 21
0.0000000000000088
 31
0.0
  0
LINE
  5
49
330
1E
100
AcDbEntity
  8
0
100
AcDbLine
 10
24.75
 20
0.0000000000000089
 30
0.0
 11
24.75
 21
1.50000000000001
 31
0.0
  0
LINE
  5
4A
330
1E
100
AcDbEntity
  8
0
100
AcDbLine
 10
23.7
 20
0.0000000000000089
 30
0.0
 11
24.75
 21
0.0000000000000089
 31
0.0
  0
LINE
  5
4B
330
1E
100
AcDbEntity
  8
0
100
AcDbLine
 10
23.7
 20
0.0000000000000089
 30
0.0
 11
23.7
 21
1.50000000000001
 31
0.0
  0
LINE
  5
4C
330
1E
100
AcDbEntity
  8
0
100
AcDbLine
 10
10.25
 20
1.50000000000001
 30
0.0
 11
10.25
 21
0.0000000000000097
 31
0.0
  0
LINE
  5
4D
330
1E
100
AcDbEntity
  8
0
100
AcDbLine
 10
11.3
 20
1.50000000000001
 30
0.0
 11
11.3
 21
0.0000000000000097
 31
0.0
  0
LINE
  5
4E
330
1E
100
AcDbEntity
  8
0
100
AcDbLine
 10
11.75
 20
1.50000000000001
 30
0.0
 11
11.75
 21
0.0000000000000097
 31
0.0
  0
LINE
  5
4F
330
1E
100
AcDbEntity
  8
0
100
AcDbLine
 10
9.199999999999999
 20
1.50000000000001
 30
0.0
 11
9.199999999999999
 21
0.0000000000000097
 31
0.0
  0
LINE
  5
50
330
1E
100
AcDbEntity
  8
0
100
AcDbLine
 10
8.75
 20
1.50000000000001
 30
0.0
 11
8.75
 21
0.0000000000000097
 31
0.0
  0
LINE
  5
51
330
1E
100
AcDbEntity
  8
0
100
AcDbLine
 10
39.25
 20
1.50000000000001
 30
0.0
 11
39.25
 21
0.0000000000000081
 31
0.0
  0
LINE
  5
52
330
1E
100
AcDbEntity
  8
0
100
AcDbLine
 10
40.3
 20
1.50000000000001
 30
0.0
 11
40.3
 21
0.0000000000000078
 31
0.0
  0
LINE
  5
53
330
1E
100
AcDbEntity
  8
0
100
AcDbLine
 10
40.75
 20
1.50000000000001
 30
0.0
 11
40.75
 21
0.0000000000000078
 31
0.0
  0
LINE
  5
54
330
1E
100
AcDbEntity
  8
0
100
AcDbLine
 10
38.2
 20
1.50000000000001
 30
0.0
 11
38.2
 21
0.0000000000000081
 31
0.0
  0
LINE
  5
55
330
1E
100
AcDbEntity
  8
0
100
AcDbLine
 10
24.75
 20
1.50000000000001
 30
0.0
 11
24.75
 21
0.0000000000000088
 31
0.0
  0
LINE
  5
56
330
1E
100
AcDbEntity
  8
0
100
AcDbLine
 10
25.8
 20
1.50000000000001
 30
0.0
 11
25.8
 21
0.0000000000000088
 31
0.0
  0
LINE
  5
57
330
1E
100
AcDbEntity
  8
0
100
AcDbLine
 10
26.25
 20
1.50000000000001
 30
0.0
 11
26.25
 21
0.0000000000000088
 31
0.0
  0
LINE
  5
58
330
1E
100
AcDbEntity
  8
0
100
AcDbLine
 10
23.7
 20
1.50000000000001
 30
0.0
 11
23.7
 21
0.0000000000000091
 31
0.0
  0
LINE
  5
59
330
1E
100
AcDbEntity
  8
0
100
AcDbLine
 10
37.75
 20
1.50000000000001
 30
0.0
 11
37.75
 21
0.0000000000000081
 31
0.0
  0
LINE
  5
5A
330
1E
100
AcDbEntity
  8
0
100
AcDbLine
 10
23.25
 20
1.50000000000001
 30
0.0
 11
23.25
 21
0.0000000000000091
 31
0.0
  0
LINE
  5
5B
330
1E
100
AcDbEntity
  8
0
100
AcDbLine
 10
52.25
 20
1.50000000000001
 30
0.0
 11
52.25
 21
0.0000000000000071
 31
0.0
  0
LINE
  5
5C
330
1E
100
AcDbEntity
  8
0
100
AcDbLine
 10
53.75
 20
1.50000000000001
 30
0.0
 11
53.75
 21
0.0000000000000071
 31
0.0
  0
LINE
  5
5D
330
1E
100
AcDbEntity
  8
0
100
AcDbLine
 10
54.8
 20
1.50000000000001
 30
0.0
 11
54.8
 21
0.0000000000000071
 31
0.0
  0
LINE
  5
5E
330
1E
100
AcDbEntity
  8
0
100
AcDbLine
 10
55.25
 20
1.50000000000001
 30
0.0
 11
55.25
 21
0.0000000000000071
 31
0.0
  0
LINE
  5
5F
330
1E
100
AcDbEntity
  8
0
100
AcDbLine
 10
52.7
 20
1.50000000000001
 30
0.0
 11
52.7
 21
0.0000000000000071
 31
0.0
  0
LINE
  5
60
330
1E
100
AcDbEntity
  8
0
100
AcDbLine
 10
52.25
 20
0.0000000000000072
 30
0.0
 11
52.7
 21
0.0000000000000072
 31
0.0
  0
LINE
  5
61
330
1E
100
AcDbEntity
  8
0
100
AcDbLine
 10
52.25
 20
0.0000000000000072
 30
0.0
 11
52.25
 21
1.50000000000001
 31
0.0
  0
LINE
  5
62
330
1E
100
AcDbEntity
  8
0
100
AcDbLine
 10
52.7
 20
0.0000000000000072
 30
0.0
 11
53.75
 21
0.0000000000000071
 31
0.0
  0
LINE
  5
63
330
1E
100
AcDbEntity
  8
0
100
AcDbLine
 10
52.7
 20
0.0000000000000072
 30
0.0
 11
52.7
 21
1.50000000000001
 31
0.0
  0
LINE
  5
64
330
1E
100
AcDbEntity
  8
0
100
AcDbLine
 10
65.5
 20
1.50000000000001
 30
0.0
 11
65.5
 21
0.0000000000000065
 31
0.0
  0
LINE
  5
65
330
1E
100
AcDbEntity
  8
0
100
AcDbLine
 10
65.5
 20
0.0000000000000064
 30
0.0
 11
65.86
 21
0.0000000000000063
 31
0.0
  0
LINE
  5
66
330
1E
100
AcDbEntity
  8
0
100
AcDbLine
 10
68.25
 20
1.50000000000001
 30
0.0
 11
68.25
 21
0.0000000000000062
 31
0.0
  0
LINE
  5
67
330
1E
100
AcDbEntity
  8
0
100
AcDbLine
 10
69.29999999999999
 20
1.50000000000001
 30
0.0
 11
69.29999999999999
 21
0.0000000000000062
 31
0.0
  0
LINE
  5
68
330
1E
100
AcDbEntity
  8
0
100
AcDbLine
 10
69.75
 20
1.50000000000001
 30
0.0
 11
69.75
 21
0.0000000000000062
 31
0.0
  0
LINE
  5
69
330
1E
100
AcDbEntity
  8
0
100
AcDbLine
 10
67.2
 20
1.50000000000001
 30
0.0
 11
67.2
 21
0.0000000000000062
 31
0.0
  0
LINE
  5
6A
330
1E
100
AcDbEntity
  8
0
100
AcDbLine
 10
66.75
 20
0.0000000000000063
 30
0.0
 11
66.75
 21
1.50000000000001
 31
0.0
  0
LINE
  5
6B
330
1E
100
AcDbEntity
  8
0
100
AcDbLine
 10
66.75
 20
0.0000000000000063
 30
0.0
 11
67.2
 21
0.0000000000000063
 31
0.0
  0
LINE
  5
6C
330
1E
100
AcDbEntity
  8
0
100
AcDbLine
 10
66.75
 20
1.50000000000001
 30
0.0
 11
66.75
 21
0.0000000000000062
 31
0.0
  0
LINE
  5
6D
330
1E
100
AcDbEntity
  8
0
100
AcDbLine
 10
65.86
 20
0.0000000000000063
 30
0.0
 11
66.81999999999999
 21
0.0000000000000063
 31
0.0
  0
LINE
  5
6E
330
1E
100
AcDbEntity
  8
0
100
AcDbLine
 10
65.86
 20
0.0000000000000063
 30
0.0
 11
66.75
 21
0.0000000000000063
 31
0.0
  0
LINE
  5
6F
330
1E
100
AcDbEntity
  8
0
100
AcDbLine
 10
66.81999999999999
 20
0.0000000000000063
 30
0.0
 11
67.2
 21
0.0000000000000063
 31
0.0
  0
LINE
  5
70
330
1E
100
AcDbEntity
  8
0
100
AcDbLine
 10
69.75
 20
0.0000000000000061
 30
0.0
 11
70.54000000000001
 21
0.0000000000000061
 31
0.0
  0
LINE
  5
71
330
1E
100
AcDbEntity
  8
0
100
AcDbLine
 10
69.75
 20
0.0000000000000061
 30
0.0
 11
69.75
 21
1.50000000000001
 31
0.0
  0
LINE
  5
72
330
1E
100
AcDbEntity
  8
0
100
AcDbLine
 10
70.54000000000001
 20
0.0000000000000061
 30
0.0
 11
72.94
 21
0.0000000000000059
 31
0.0
  0
LINE
  5
73
330
1E
100
AcDbEntity
  8
0
100
AcDbLine
 10
75.5
 20
0.0000000000000058
 30
0.0
 11
75.5
 21
1.50000000000001
 31
0.0
  0
LINE
  5
74
330
1E
100
AcDbEntity
  8
0
100
AcDbLine
 10
75.5
 20
0.0000000000000058
 30
0.0
 11
78.06
 21
0.0000000000000056
 31
0.0
  0
LINE
  5
75
330
1E
100
AcDbEntity
  8
0
100
AcDbLine
 10
72.94
 20
0.0000000000000059
 30
0.0
 11
75.5
 21
0.0000000000000058
 31
0.0
  0
LINE
  5
76
330
1E
100
AcDbEntity
  8
0
100
AcDbLine
 10
7.90667
 20
1.50000000000001
 30
0.0
 11
75.5
 21
1.50000000000001
 31
0.0
  0
LINE
  5
77
330
1E
100
AcDbEntity
  8
0
100
AcDbLine
 10
6.387199999999999
 20
1.50000000000001
 30
0.0
 11
7.90667
 21
1.50000000000001
 31
0.0
  0
LINE
  5
78
330
1E
100
AcDbEntity
  8
0
100
AcDbLine
 10
1.69067
 20
1.50000000000001
 30
0.0
 11
2.479999999999999
 21
1.50000000000001
 31
0.0
  0
LINE
  5
79
330
1E
100
AcDbEntity
  8
0
100
AcDbLine
 10
1.177599999999999
 20
1.50000000000001
 30
0.0
 11
1.69067
 21
1.50000000000001
 31
0.0
  0
LINE
  5
7A
330
1E
100
AcDbEntity
  8
0
100
AcDbLine
 10
1.0
 20
1.50000000000001
 30
0.0
 11
1.177599999999999
 21
1.50000000000001
 31
0.0
  0
LINE
  5
7B
330
1E
100
AcDbEntity
  8
0
100
AcDbLine
 10
2.479999999999999
 20
1.50000000000001
 30
0.0
 11
3.56533
 21
1.50000000000001
 31
0.0
  0
LINE
  5
7C
330
1E
100
AcDbEntity
  8
0
100
AcDbLine
 10
7.90667
 20
1.50000000000001
 30
0.0
 11
75.5
 21
1.50000000000001
 31
0.0
  0
LINE
  5
7D
330
1E
100
AcDbEntity
  8
0
100
AcDbLine
 10
75.5
 20
1.50000000000001
 30
0.0
 11
143.0929999999999
 21
1.5
 31
0.0
  0
LINE
  5
7E
330
1E
100
AcDbEntity
  8
0
100
AcDbLine
 10
7.0
 20
2.16667000000001
 30
0.0
 11
75.5
 21
2.16667000000001
 31
0.0
  0
LINE
  5
7F
330
1E
100
AcDbEntity
  8
0
100
AcDbLine
 10
4.0
 20
2.16667000000001
 30
0.0
 11
5.459999999999999
 21
2.16667000000001
 31
0.0
  0
LINE
  5
80
330
1E
100
AcDbEntity
  8
0
100
AcDbLine
 10
0.18
 20
2.16667000000001
 30
0.0
 11
0.7
 21
2.16667000000001
 31
0.0
  0
LINE
  5
81
330
1E
100
AcDbEntity
  8
0
100
AcDbLine
 10
0.7
 20
2.16667000000001
 30
0.0
 11
1.5
 21
2.16667000000001
 31
0.0
  0
LINE
  5
82
330
1E
100
AcDbEntity
  8
0
100
AcDbLine
 10
0.18
 20
2.16667000000001
 30
0.0
 11
0.7
 21
2.16667000000001
 31
0.0
  0
LINE
  5
83
330
1E
100
AcDbEntity
  8
0
100
AcDbLine
 10
0.0000000000000009
 20
13.5
 30
0.0
 11
0.500000000000001
 21
14.1667
 31
0.0
  0
LINE
  5
84
330
1E
100
AcDbEntity
  8
0
100
AcDbLine
 10
0.7000000000000011
 20
13.5
 30
0.0
 11
1.5
 21
13.5
 31
0.0
  0
LINE
  5
85
330
1E
100
AcDbEntity
  8
0
100
AcDbLine
 10
0.180000000000001
 20
13.5
 30
0.0
 11
0.7000000000000011
 21
13.5
 31
0.0
  0
LINE
  5
86
330
1E
100
AcDbEntity
  8
0
100
AcDbLine
 10
0.0000000000000008
 20
13.5
 30
0.0
 11
0.180000000000001
 21
13.5
 31
0.0
  0
LINE
  5
87
330
1E
100
AcDbEntity
  8
0
100
AcDbLine
 10
1.5
 20
13.5
 30
0.0
 11
2.6
 21
13.5
 31
0.0
  0
LINE
  5
88
330
1E
100
AcDbEntity
  8
0
100
AcDbLine
 10
1.5
 20
2.16667000000001
 30
0.0
 11
2.6
 21
2.16667000000001
 31
0.0
  0
LINE
  5
89
330
1E
100
AcDbEntity
  8
0
100
AcDbLine
 10
2.6
 20
13.5
 30
0.0
 11
4.0
 21
13.5
 31
0.0
  0
LINE
  5
8A
330
1E
100
AcDbEntity
  8
0
100
AcDbLine
 10
4.0
 20
13.5
 30
0.0
 11
5.459999999999999
 21
13.5
 31
0.0
  0
LINE
  5
8B
330
1E
100
AcDbEntity
  8
0
100
AcDbLine
 10
7.0
 20
13.5
 30
0.0
 11
75.5
 21
13.5
 31
0.0
  0
LINE
  5
8C
330
1E
100
AcDbEntity
  8
0
100
AcDbLine
 10
5.459999999999999
 20
13.5
 30
0.0
 11
7.0
 21
13.5
 31
0.0
  0
LINE
  5
8D
330
1E
100
AcDbEntity
  8
0
100
AcDbLine
 10
7.0
 20
13.5
 30
0.0
 11
75.5
 21
13.5
 31
0.0
  0
LINE
  5
8E
330
1E
100
AcDbEntity
  8
0
100
AcDbLine
 10
2.6
 20
2.16667000000001
 30
0.0
 11
4.0
 21
2.16667000000001
 31
0.0
  0
LINE
  5
8F
330
1E
100
AcDbEntity
  8
0
100
AcDbLine
 10
5.459999999999999
 20
2.16667000000001
 30
0.0
 11
7.0
 21
2.16667000000001
 31
0.0
  0
LINE
  5
90
330
1E
100
AcDbEntity
  8
0
100
AcDbLine
 10
7.0
 20
2.16667000000001
 30
0.0
 11
75.5
 21
2.16667000000001
 31
0.0
  0
LINE
  5
91
330
1E
100
AcDbEntity
  8
0
100
AcDbLine
 10
75.5
 20
2.16667000000001
 30
0.0
 11
144.0
 21
2.166669999999999
 31
0.0
  0
LINE
  5
92
330
1E
100
AcDbEntity
  8
0
100
AcDbLine
 10
84.25
 20
0.0000000000000052
 30
0.0
 11
84.25
 21
1.50000000000001
 31
0.0
  0
LINE
  5
93
330
1E
100
AcDbEntity
  8
0
100
AcDbLine
 10
83.8
 20
0.0000000000000052
 30
0.0
 11
84.25
 21
0.0000000000000052
 31
0.0
  0
LINE
  5
94
330
1E
100
AcDbEntity
  8
0
100
AcDbLine
 10
83.8
 20
0.0000000000000052
 30
0.0
 11
83.8
 21
1.50000000000001
 31
0.0
  0
LINE
  5
95
330
1E
100
AcDbEntity
  8
0
100
AcDbLine
 10
82.75
 20
0.0000000000000053
 30
0.0
 11
83.8
 21
0.0000000000000052
 31
0.0
  0
LINE
  5
96
330
1E
100
AcDbEntity
  8
0
100
AcDbLine
 10
82.75
 20
0.0000000000000053
 30
0.0
 11
82.75
 21
1.50000000000001
 31
0.0
  0
LINE
  5
97
330
1E
100
AcDbEntity
  8
0
100
AcDbLine
 10
95.75000000000001
 20
0.0000000000000045
 30
0.0
 11
96.2
 21
0.0000000000000045
 31
0.0
  0
LINE
  5
98
330
1E
100
AcDbEntity
  8
0
100
AcDbLine
 10
95.75000000000001
 20
0.0000000000000045
 30
0.0
 11
95.75000000000001
 21
1.5
 31
0.0
  0
LINE
  5
99
330
1E
100
AcDbEntity
  8
0
100
AcDbLine
 10
96.2
 20
0.0000000000000045
 30
0.0
 11
97.25000000000001
 21
0.0000000000000044
 31
0.0
  0
LINE
  5
9A
330
1E
100
AcDbEntity
  8
0
100
AcDbLine
 10
96.2
 20
0.0000000000000045
 30
0.0
 11
96.2
 21
1.5
 31
0.0
  0
LINE
  5
9B
330
1E
100
AcDbEntity
  8
0
100
AcDbLine
 10
98.75
 20
0.0000000000000043
 30
0.0
 11
98.75
 21
1.5
 31
0.0
  0
LINE
  5
9C
330
1E
100
AcDbEntity
  8
0
100
AcDbLine
 10
110.25
 20
0.0000000000000036
 30
0.0
 11
110.6999999999999
 21
0.0000000000000036
 31
0.0
  0
LINE
  5
9D
330
1E
100
AcDbEntity
  8
0
100
AcDbLine
 10
110.25
 20
0.0000000000000036
 30
0.0
 11
110.25
 21
1.5
 31
0.0
  0
LINE
  5
9E
330
1E
100
AcDbEntity
  8
0
100
AcDbLine
 10
110.6999999999999
 20
0.0000000000000036
 30
0.0
 11
111.7499999999999
 21
0.0000000000000035
 31
0.0
  0
LINE
  5
9F
330
1E
100
AcDbEntity
  8
0
100
AcDbLine
 10
110.6999999999999
 20
0.0000000000000036
 30
0.0
 11
110.6999999999999
 21
1.5
 31
0.0
  0
LINE
  5
A0
330
1E
100
AcDbEntity
  8
0
100
AcDbLine
 10
113.25
 20
0.0000000000000034
 30
0.0
 11
113.25
 21
1.5
 31
0.0
  0
LINE
  5
A1
330
1E
100
AcDbEntity
  8
0
100
AcDbLine
 10
124.75
 20
0.0000000000000027
 30
0.0
 11
125.2
 21
0.0000000000000027
 31
0.0
  0
LINE
  5
A2
330
1E
100
AcDbEntity
  8
0
100
AcDbLine
 10
124.75
 20
0.0000000000000027
 30
0.0
 11
124.75
 21
1.5
 31
0.0
  0
LINE
  5
A3
330
1E
100
AcDbEntity
  8
0
100
AcDbLine
 10
125.2
 20
0.0000000000000027
 30
0.0
 11
126.2499999999999
 21
0.0000000000000027
 31
0.0
  0
LINE
  5
A4
330
1E
100
AcDbEntity
  8
0
100
AcDbLine
 10
125.2
 20
0.0000000000000027
 30
0.0
 11
125.2
 21
1.5
 31
0.0
  0
LINE
  5
A5
330
1E
100
AcDbEntity
  8
0
100
AcDbLine
 10
127.75
 20
0.0000000000000026
 30
0.0
 11
127.75
 21
1.5
 31
0.0
  0
LINE
  5
A6
330
1E
100
AcDbEntity
  8
0
100
AcDbLine
 10
139.25
 20
0.0000000000000019
 30
0.0
 11
139.7
 21
0.0000000000000018
 31
0.0
  0
LINE
  5
A7
330
1E
100
AcDbEntity
  8
0
100
AcDbLine
 10
139.25
 20
0.0000000000000019
 30
0.0
 11
139.25
 21
1.5
 31
0.0
  0
LINE
  5
A8
330
1E
100
AcDbEntity
  8
0
100
AcDbLine
 10
139.7
 20
0.0000000000000018
 30
0.0
 11
140.7499999999999
 21
0.0000000000000018
 31
0.0
  0
LINE
  5
A9
330
1E
100
AcDbEntity
  8
0
100
AcDbLine
 10
139.7
 20
0.0000000000000018
 30
0.0
 11
139.7
 21
1.5
 31
0.0
  0
LINE
  5
AA
330
1E
100
AcDbEntity
  8
0
100
AcDbLine
 10
142.25
 20
0.0000000000000017
 30
0.0
 11
142.25
 21
1.5
 31
0.0
  0
LINE
  5
AB
330
1E
100
AcDbEntity
  8
0
100
AcDbLine
 10
141.8
 20
0.0000000000000017
 30
0.0
 11
142.25
 21
0.0000000000000017
 31
0.0
  0
LINE
  5
AC
330
1E
100
AcDbEntity
  8
0
100
AcDbLine
 10
141.8
 20
0.0000000000000017
 30
0.0
 11
141.8
 21
1.5
 31
0.0
  0
LINE
  5
AD
330
1E
100
AcDbEntity
  8
0
100
AcDbLine
 10
140.7499999999999
 20
0.0000000000000018
 30
0.0
 11
141.8
 21
0.0000000000000017
 31
0.0
  0
LINE
  5
AE
330
1E
100
AcDbEntity
  8
0
100
AcDbLine
 10
140.7499999999999
 20
0.0000000000000018
 30
0.0
 11
140.7499999999999
 21
1.5
 31
0.0
  0
LINE
  5
AF
330
1E
100
AcDbEntity
  8
0
100
AcDbLine
 10
127.2999999999999
 20
0.0000000000000026
 30
0.0
 11
127.75
 21
0.0000000000000026
 31
0.0
  0
LINE
  5
B0
330
1E
100
AcDbEntity
  8
0
100
AcDbLine
 10
127.2999999999999
 20
0.0000000000000026
 30
0.0
 11
127.2999999999999
 21
1.5
 31
0.0
  0
LINE
  5
B1
330
1E
100
AcDbEntity
  8
0
100
AcDbLine
 10
126.2499999999999
 20
0.0000000000000027
 30
0.0
 11
127.2999999999999
 21
0.0000000000000026
 31
0.0
  0
LINE
  5
B2
330
1E
100
AcDbEntity
  8
0
100
AcDbLine
 10
126.2499999999999
 20
0.0000000000000027
 30
0.0
 11
126.2499999999999
 21
1.5
 31
0.0
  0
LINE
  5
B3
330
1E
100
AcDbEntity
  8
0
100
AcDbLine
 10
112.7999999999999
 20
0.0000000000000035
 30
0.0
 11
113.25
 21
0.0000000000000034
 31
0.0
  0
LINE
  5
B4
330
1E
100
AcDbEntity
  8
0
100
AcDbLine
 10
112.7999999999999
 20
0.0000000000000035
 30
0.0
 11
112.7999999999999
 21
1.5
 31
0.0
  0
LINE
  5
B5
330
1E
100
AcDbEntity
  8
0
100
AcDbLine
 10
111.7499999999999
 20
0.0000000000000035
 30
0.0
 11
112.7999999999999
 21
0.0000000000000035
 31
0.0
  0
LINE
  5
B6
330
1E
100
AcDbEntity
  8
0
100
AcDbLine
 10
111.7499999999999
 20
0.0000000000000035
 30
0.0
 11
111.7499999999999
 21
1.5
 31
0.0
  0
LINE
  5
B7
330
1E
100
AcDbEntity
  8
0
100
AcDbLine
 10
98.3
 20
0.0000000000000044
 30
0.0
 11
98.75
 21
0.0000000000000043
 31
0.0
  0
LINE
  5
B8
330
1E
100
AcDbEntity
  8
0
100
AcDbLine
 10
98.3
 20
0.0000000000000044
 30
0.0
 11
98.3
 21
1.5
 31
0.0
  0
LINE
  5
B9
330
1E
100
AcDbEntity
  8
0
100
AcDbLine
 10
97.25000000000001
 20
0.0000000000000044
 30
0.0
 11
98.3
 21
0.0000000000000044
 31
0.0
  0
LINE
  5
BA
330
1E
100
AcDbEntity
  8
0
100
AcDbLine
 10
97.25000000000001
 20
0.0000000000000044
 30
0.0
 11
97.25000000000001
 21
1.5
 31
0.0
  0
LINE
  5
BB
330
1E
100
AcDbEntity
  8
0
100
AcDbLine
 10
85.14000000000001
 20
0.0000000000000052
 30
0.0
 11
85.5
 21
0.0000000000000051
 31
0.0
  0
LINE
  5
BC
330
1E
100
AcDbEntity
  8
0
100
AcDbLine
 10
84.25
 20
0.0000000000000052
 30
0.0
 11
85.14000000000001
 21
0.0000000000000052
 31
0.0
  0
LINE
  5
BD
330
1E
100
AcDbEntity
  8
0
100
AcDbLine
 10
81.25
 20
0.0000000000000054
 30
0.0
 11
81.69999999999999
 21
0.0000000000000054
 31
0.0
  0
LINE
  5
BE
330
1E
100
AcDbEntity
  8
0
100
AcDbLine
 10
81.25
 20
0.0000000000000054
 30
0.0
 11
81.25
 21
1.50000000000001
 31
0.0
  0
LINE
  5
BF
330
1E
100
AcDbEntity
  8
0
100
AcDbLine
 10
81.69999999999999
 20
0.0000000000000054
 30
0.0
 11
82.75
 21
0.0000000000000053
 31
0.0
  0
LINE
  5
C0
330
1E
100
AcDbEntity
  8
0
100
AcDbLine
 10
81.69999999999999
 20
0.0000000000000054
 30
0.0
 11
81.69999999999999
 21
1.50000000000001
 31
0.0
  0
LINE
  5
C1
330
1E
100
AcDbEntity
  8
0
100
AcDbLine
 10
82.75
 20
0.0000000000000053
 30
0.0
 11
83.8
 21
0.0000000000000052
 31
0.0
  0
LINE
  5
C2
330
1E
100
AcDbEntity
  8
0
100
AcDbLine
 10
80.45999999999999
 20
0.0000000000000055
 30
0.0
 11
82.58
 21
0.0000000000000053
 31
0.0
  0
LINE
  5
C3
330
1E
100
AcDbEntity
  8
0
100
AcDbLine
 10
140.7499999999999
 20
1.5
 30
0.0
 11
140.7499999999999
 21
0.0000000000000016
 31
0.0
  0
LINE
  5
C4
330
1E
100
AcDbEntity
  8
0
100
AcDbLine
 10
142.25
 20
1.5
 30
0.0
 11
142.25
 21
0.0000000000000016
 31
0.0
  0
LINE
  5
C5
330
1E
100
AcDbEntity
  8
0
100
AcDbLine
 10
141.8
 20
1.5
 30
0.0
 11
141.8
 21
0.0000000000000016
 31
0.0
  0
LINE
  5
C6
330
1E
100
AcDbEntity
  8
0
100
AcDbLine
 10
78.06
 20
0.0000000000000056
 30
0.0
 11
80.45999999999999
 21
0.0000000000000055
 31
0.0
  0
LINE
  5
C7
330
1E
100
AcDbEntity
  8
0
100
AcDbLine
 10
144.6129999999999
 20
1.5
 30
0.0
 11
146.053
 21
1.5
 31
0.0
  0
LINE
  5
C8
330
1E
100
AcDbEntity
  8
0
100
AcDbLine
 10
82.75
 20
1.50000000000001
 30
0.0
 11
82.75
 21
0.0000000000000052
 31
0.0
  0
LINE
  5
C9
330
1E
100
AcDbEntity
  8
0
100
AcDbLine
 10
81.69999999999999
 20
1.50000000000001
 30
0.0
 11
81.69999999999999
 21
0.0000000000000055
 31
0.0
  0
LINE
  5
CA
330
1E
100
AcDbEntity
  8
0
100
AcDbLine
 10
84.25
 20
1.50000000000001
 30
0.0
 11
84.25
 21
0.0000000000000052
 31
0.0
  0
LINE
  5
CB
330
1E
100
AcDbEntity
  8
0
100
AcDbLine
 10
83.8
 20
1.50000000000001
 30
0.0
 11
83.8
 21
0.0000000000000052
 31
0.0
  0
LINE
  5
CC
330
1E
100
AcDbEntity
  8
0
100
AcDbLine
 10
81.25
 20
1.50000000000001
 30
0.0
 11
81.25
 21
0.0000000000000055
 31
0.0
  0
LINE
  5
CD
330
1E
100
AcDbEntity
  8
0
100
AcDbLine
 10
97.25000000000001
 20
1.5
 30
0.0
 11
97.25000000000001
 21
0.0000000000000045
 31
0.0
  0
LINE
  5
CE
330
1E
100
AcDbEntity
  8
0
100
AcDbLine
 10
96.2
 20
1.5
 30
0.0
 11
96.2
 21
0.0000000000000045
 31
0.0
  0
LINE
  5
CF
330
1E
100
AcDbEntity
  8
0
100
AcDbLine
 10
98.75
 20
1.5
 30
0.0
 11
98.75
 21
0.0000000000000042
 31
0.0
  0
LINE
  5
D0
330
1E
100
AcDbEntity
  8
0
100
AcDbLine
 10
98.3
 20
1.5
 30
0.0
 11
98.3
 21
0.0000000000000042
 31
0.0
  0
LINE
  5
D1
330
1E
100
AcDbEntity
  8
0
100
AcDbLine
 10
126.2499999999999
 20
1.5
 30
0.0
 11
126.2499999999999
 21
0.0000000000000026
 31
0.0
  0
LINE
  5
D2
330
1E
100
AcDbEntity
  8
0
100
AcDbLine
 10
125.2
 20
1.5
 30
0.0
 11
125.2
 21
0.0000000000000026
 31
0.0
  0
LINE
  5
D3
330
1E
100
AcDbEntity
  8
0
100
AcDbLine
 10
127.75
 20
1.5
 30
0.0
 11
127.75
 21
0.0000000000000026
 31
0.0
  0
LINE
  5
D4
330
1E
100
AcDbEntity
  8
0
100
AcDbLine
 10
127.2999999999999
 20
1.5
 30
0.0
 11
127.2999999999999
 21
0.0000000000000026
 31
0.0
  0
LINE
  5
D5
330
1E
100
AcDbEntity
  8
0
100
AcDbLine
 10
139.7
 20
1.5
 30
0.0
 11
139.7
 21
0.0000000000000019
 31
0.0
  0
LINE
  5
D6
330
1E
100
AcDbEntity
  8
0
100
AcDbLine
 10
139.25
 20
1.5
 30
0.0
 11
139.25
 21
0.0000000000000019
 31
0.0
  0
LINE
  5
D7
330
1E
100
AcDbEntity
  8
0
100
AcDbLine
 10
111.7499999999999
 20
1.5
 30
0.0
 11
111.7499999999999
 21
0.0000000000000036
 31
0.0
  0
LINE
  5
D8
330
1E
100
AcDbEntity
  8
0
100
AcDbLine
 10
110.6999999999999
 20
1.5
 30
0.0
 11
110.6999999999999
 21
0.0000000000000036
 31
0.0
  0
LINE
  5
D9
330
1E
100
AcDbEntity
  8
0
100
AcDbLine
 10
113.25
 20
1.5
 30
0.0
 11
113.25
 21
0.0000000000000036
 31
0.0
  0
LINE
  5
DA
330
1E
100
AcDbEntity
  8
0
100
AcDbLine
 10
112.7999999999999
 20
1.5
 30
0.0
 11
112.7999999999999
 21
0.0000000000000036
 31
0.0
  0
LINE
  5
DB
330
1E
100
AcDbEntity
  8
0
100
AcDbLine
 10
124.75
 20
1.5
 30
0.0
 11
124.75
 21
0.0000000000000026
 31
0.0
  0
LINE
  5
DC
330
1E
100
AcDbEntity
  8
0
100
AcDbLine
 10
110.25
 20
1.5
 30
0.0
 11
110.25
 21
0.0000000000000036
 31
0.0
  0
LINE
  5
DD
330
1E
100
AcDbEntity
  8
0
100
AcDbLine
 10
95.75000000000001
 20
1.5
 30
0.0
 11
95.75000000000001
 21
0.0000000000000045
 31
0.0
  0
LINE
  5
DE
330
1E
100
AcDbEntity
  8
0
100
AcDbLine
 10
85.5
 20
1.50000000000001
 30
0.0
 11
85.5
 21
0.0000000000000052
 31
0.0
  0
LINE
  5
DF
330
1E
100
AcDbEntity
  8
0
100
AcDbLine
 10
143.0929999999999
 20
1.5
 30
0.0
 11
144.6129999999999
 21
1.5
 31
0.0
  0
LINE
  5
E0
330
1E
100
AcDbEntity
  8
0
100
AcDbLine
 10
145.54
 20
2.166669999999999
 30
0.0
 11
147.0
 21
2.166669999999999
 31
0.0
  0
LINE
  5
E1
330
1E
100
AcDbEntity
  8
0
100
AcDbLine
 10
144.0
 20
2.166669999999999
 30
0.0
 11
145.54
 21
2.166669999999999
 31
0.0
  0
LINE
  5
E2
330
1E
100
AcDbEntity
  8
0
100
AcDbLine
 10
147.435
 20
1.5
 30
0.0
 11
148.52
 21
1.5
 31
0.0
  0
LINE
  5
E3
330
1E
100
AcDbEntity
  8
0
100
AcDbLine
 10
146.053
 20
1.5
 30
0.0
 11
147.435
 21
1.5
 31
0.0
  0
LINE
  5
E4
330
1E
100
AcDbEntity
  8
0
100
AcDbLine
 10
148.3999999999999
 20
2.166669999999999
 30
0.0
 11
149.5
 21
2.166669999999999
 31
0.0
  0
LINE
  5
E5
330
1E
100
AcDbEntity
  8
0
100
AcDbLine
 10
147.0
 20
2.166669999999999
 30
0.0
 11
148.3999999999999
 21
2.166669999999999
 31
0.0
  0
LINE
  5
E6
330
1E
100
AcDbEntity
  8
0
100
AcDbLine
 10
148.52
 20
1.5
 30
0.0
 11
149.309
 21
1.5
 31
0.0
  0
LINE
  5
E7
330
1E
100
AcDbEntity
  8
0
100
AcDbLine
 10
149.309
 20
1.5
 30
0.0
 11
149.822
 21
1.5
 31
0.0
  0
LINE
  5
E8
330
1E
100
AcDbEntity
  8
0
100
AcDbLine
 10
149.822
 20
1.5
 30
0.0
 11
150.0
 21
1.5
 31
0.0
  0
LINE
  5
E9
330
1E
100
AcDbEntity
  8
0
100
AcDbLine
 10
150.0
 20
1.5
 30
0.0
 11
151.0
 21
2.166669999999999
 31
0.0
  0
LINE
  5
EA
330
1E
100
AcDbEntity
  8
0
100
AcDbLine
 10
149.5
 20
2.166669999999999
 30
0.0
 11
150.3
 21
2.166669999999999
 31
0.0
  0
LINE
  5
EB
330
1E
100
AcDbEntity
  8
0
100
AcDbLine
 10
150.3
 20
2.166669999999999
 30
0.0
 11
150.8199999999999
 21
2.166669999999999
 31
0.0
  0
LINE
  5
EC
330
1E
100
AcDbEntity
  8
0
100
AcDbLine
 10
149.5
 20
13.5
 30
0.0
 11
150.3
 21
13.5
 31
0.0
  0
LINE
  5
ED
330
1E
100
AcDbEntity
  8
0
100
AcDbLine
 10
150.8199999999999
 20
2.166669999999999
 30
0.0
 11
151.0
 21
2.166669999999999
 31
0.0
  0
LINE
  5
EE
330
1E
100
AcDbEntity
  8
0
100
AcDbLine
 10
151.0
 20
2.166669999999999
 30
0.0
 11
151.0
 21
13.5
 31
0.0
  0
LINE
  5
EF
330
1E
100
AcDbEntity
  8
0
100
AcDbLine
 10
151.0
 20
13.5
 30
0.0
 11
151.0
 21
2.166669999999999
 31
0.0
  0
LINE
  5
F0
330
1E
100
AcDbEntity
  8
0
100
AcDbLine
 10
150.3
 20
13.5
 30
0.0
 11
150.8199999999999
 21
13.5
 31
0.0
  0
LINE
  5
F1
330
1E
100
AcDbEntity
  8
0
100
AcDbLine
 10
150.8199999999999
 20
13.5
 30
0.0
 11
151.0
 21
13.5
 31
0.0
  0
LINE
  5
F2
330
1E
100
AcDbEntity
  8
0
100
AcDbLine
 10
148.3999999999999
 20
13.5
 30
0.0
 11
149.5
 21
13.5
 31
0.0
  0
LINE
  5
F3
330
1E
100
AcDbEntity
  8
0
100
AcDbLine
 10
147.0
 20
13.5
 30
0.0
 11
148.3999999999999
 21
13.5
 31
0.0
  0
LINE
  5
F4
330
1E
100
AcDbEntity
  8
0
100
AcDbLine
 10
145.54
 20
13.5
 30
0.0
 11
147.0
 21
13.5
 31
0.0
  0
LINE
  5
F5
330
1E
100
AcDbEntity
  8
0
100
AcDbLine
 10
144.0
 20
13.5
 30
0.0
 11
145.54
 21
13.5
 31
0.0
  0
LINE
  5
F6
330
1E
100
AcDbEntity
  8
0
100
AcDbLine
 10
75.5
 20
13.5
 30
0.0
 11
144.0
 21
13.5
 31
0.0
  0
LINE
  5
F7
330
1E
100
AcDbEntity
  8
0
100
AcDbLine
 10
0.500000000000001
 20
14.1667
 30
0.0
 11
4.0
 21
15.5
 31
0.0
  0
LINE
  5
F8
330
1E
100
AcDbEntity
  8
0
100
AcDbLine
 10
0.500000000000001
 20
14.1667
 30
0.0
 11
4.0
 21
15.5
 31
0.0
  0
LINE
  5
F9
330
1E
100
AcDbEntity
  8
0
100
AcDbLine
 10
29.0
 20
19.5
 30
0.0
 11
36.0
 21
20.16669999999999
 31
0.0
  0
LINE
  5
FA
330
1E
100
AcDbEntity
  8
0
100
AcDbLine
 10
18.0
 20
18.1667
 30
0.0
 11
29.0
 21
19.5
 31
0.0
  0
LINE
  5
FB
330
1E
100
AcDbEntity
  8
0
100
AcDbLine
 10
10.0
 20
16.8333
 30
0.0
 11
18.0
 21
18.1667
 31
0.0
  0
LINE
  5
FC
330
1E
100
AcDbEntity
  8
0
100
AcDbLine
 10
4.0
 20
15.5
 30
0.0
 11
10.0
 21
16.8333
 31
0.0
  0
LINE
  5
FD
330
1E
100
AcDbEntity
  8
0
100
AcDbLine
 10
4.0
 20
15.5
 30
0.0
 11
10.0
 21
16.8333
 31
0.0
  0
LINE
  5
FE
330
1E
100
AcDbEntity
  8
0
100
AcDbLine
 10
45.0
 20
20.8333
 30
0.0
 11
60.0
 21
21.49999999999999
 31
0.0
  0
LINE
  5
FF
330
1E
100
AcDbEntity
  8
0
100
AcDbLine
 10
36.0
 20
20.16669999999999
 30
0.0
 11
45.0
 21
20.8333
 31
0.0
  0
LINE
  5
100
330
1E
100
AcDbEntity
  8
0
100
AcDbLine
 10
90.5
 20
21.49999999999999
 30
0.0
 11
90.5
 21
31.0727
 31
0.0
  0
LINE
  5
101
330
1E
100
AcDbEntity
  8
0
100
AcDbLine
 10
90.7
 20
21.49999999999999
 30
0.0
 11
90.86
 21
21.49999999999999
 31
0.0
  0
LINE
  5
102
330
1E
100
AcDbEntity
  8
0
100
AcDbLine
 10
90.86
 20
21.49999999999999
 30
0.0
 11
90.964
 21
21.49999999999999
 31
0.0
  0
LINE
  5
103
330
1E
100
AcDbEntity
  8
0
100
AcDbLine
 10
91.0
 20
21.49999999999999
 30
0.0
 11
106.0
 21
20.8333
 31
0.0
  0
LINE
  5
104
330
1E
100
AcDbEntity
  8
0
100
AcDbLine
 10
90.48
 20
21.49999999999999
 30
0.0
 11
90.7
 21
21.49999999999999
 31
0.0
  0
LINE
  5
105
330
1E
100
AcDbEntity
  8
0
100
AcDbLine
 10
90.20000000000001
 20
21.49999999999999
 30
0.0
 11
90.48
 21
21.49999999999999
 31
0.0
  0
LINE
  5
106
330
1E
100
AcDbEntity
  8
0
100
AcDbLine
 10
89.90799999999998
 20
21.49999999999999
 30
0.0
 11
90.20000000000001
 21
21.49999999999999
 31
0.0
  0
LINE
  5
107
330
1E
100
AcDbEntity
  8
0
100
AcDbLine
 10
89.59999999999999
 20
21.49999999999999
 30
0.0
 11
89.90799999999998
 21
21.49999999999999
 31
0.0
  0
LINE
  5
108
330
1E
100
AcDbEntity
  8
0
100
AcDbLine
 10
60.14
 20
21.49999999999999
 30
0.0
 11
60.3
 21
21.49999999999999
 31
0.0
  0
LINE
  5
109
330
1E
100
AcDbEntity
  8
0
100
AcDbLine
 10
60.036
 20
21.49999999999999
 30
0.0
 11
60.14
 21
21.49999999999999
 31
0.0
  0
LINE
  5
10A
330
1E
100
AcDbEntity
  8
0
100
AcDbLine
 10
60.5
 20
21.49999999999999
 30
0.0
 11
60.5
 21
31.0727
 31
0.0
  0
LINE
  5
10B
330
1E
100
AcDbEntity
  8
0
100
AcDbLine
 10
60.3
 20
21.49999999999999
 30
0.0
 11
60.52
 21
21.49999999999999
 31
0.0
  0
LINE
  5
10C
330
1E
100
AcDbEntity
  8
0
100
AcDbLine
 10
60.52
 20
21.49999999999999
 30
0.0
 11
60.8
 21
21.49999999999999
 31
0.0
  0
LINE
  5
10D
330
1E
100
AcDbEntity
  8
0
100
AcDbLine
 10
60.8
 20
21.49999999999999
 30
0.0
 11
61.092
 21
21.49999999999999
 31
0.0
  0
LINE
  5
116
330
1E
100
AcDbEntity
  8
0
100
AcDbLine
 10
38.46779999999999
 20
171.299
 30
0.0
 11
47.72529999999999
 21
170.9159999999999
 31
0.0
  0
LINE
  5
119
330
1E
100
AcDbEntity
  8
0
100
AcDbLine
 10
37.17249999999999
 20
171.513
 30
0.0
 11
37.5477
 21
171.394
 31
0.0
  0
LINE
  5
11A
330
1E
100
AcDbEntity
  8
0
100
AcDbLine
 10
36.42009999999999
 20
172.2649999999999
 30
0.0
 11
36.6969
 21
171.8529999999999
 31
0.0
  0
LINE
  5
11C
330
1E
100
AcDbEntity
  8
0
100
AcDbLine
 10
36.78869999999999
 20
171.7709999999999
 30
0.0
 11
37.17249999999999
 21
171.513
 31
0.0
  0
LINE
  5
11F
330
1E
100
AcDbEntity
  8
0
100
AcDbLine
 10
36.6969
 20
171.8529999999999
 30
0.0
 11
36.78869999999999
 21
171.7709999999999
 31
0.0
  0
LINE
  5
125
330
1E
100
AcDbEntity
  8
0
100
AcDbLine
 10
37.5718
 20
171.3919999999999
 30
0.0
 11
38.46779999999999
 21
171.299
 31
0.0
  0
LINE
  5
126
330
1E
100
AcDbEntity
  8
0
100
AcDbLine
 10
47.72529999999999
 20
170.9159999999999
 30
0.0
 11
50.1482
 21
170.8179999999999
 31
0.0
  0
LINE
  5
127
330
1E
100
AcDbEntity
  8
0
100
AcDbLine
 10
50.1482
 20
170.8179999999999
 30
0.0
 11
54.65399999999999
 21
170.7019999999999
 31
0.0
  0
LINE
  5
128
330
1E
100
AcDbEntity
  8
0
100
AcDbLine
 10
50.1482
 20
170.8179999999999
 30
0.0
 11
56.98389999999999
 21
170.654
 31
0.0
  0
LINE
  5
12A
330
1E
100
AcDbEntity
  8
0
100
AcDbLine
 10
54.65399999999999
 20
170.7019999999999
 30
0.0
 11
56.98389999999999
 21
170.654
 31
0.0
  0
LINE
  5
12B
330
1E
100
AcDbEntity
  8
0
100
AcDbLine
 10
54.65399999999999
 20
170.7019999999999
 30
0.0
 11
61.8287
 21
170.518
 31
0.0
  0
LINE
  5
12D
330
1E
100
AcDbEntity
  8
0
100
AcDbLine
 10
36.3003
 20
172.641
 30
0.0
 11
36.42009999999999
 21
172.2649999999999
 31
0.0
  0
LINE
  5
12E
330
1E
100
AcDbEntity
  8
0
100
AcDbLine
 10
35.86119999999999
 20
187.0
 30
0.0
 11
36.00789999999999
 21
187.0
 31
0.0
  0
LINE
  5
12F
330
1E
100
AcDbEntity
  8
0
100
AcDbLine
 10
36.00789999999999
 20
187.0
 30
0.0
 11
36.1696
 21
187.0
 31
0.0
  0
LINE
  5
130
330
1E
100
AcDbEntity
  8
0
100
AcDbLine
 10
36.1696
 20
187.0
 30
0.0
 11
36.28929999999999
 21
187.0
 31
0.0
  0
LINE
  5
131
330
1E
100
AcDbEntity
  8
0
100
AcDbLine
 10
36.28929999999999
 20
187.0
 30
0.0
 11
36.453
 21
187.0
 31
0.0
  0
LINE
  5
132
330
1E
100
AcDbEntity
  8
0
100
AcDbLine
 10
37.412
 20
187.0
 30
0.0
 11
37.68639999999999
 21
187.0
 31
0.0
  0
LINE
  5
133
330
1E
100
AcDbEntity
  8
0
100
AcDbLine
 10
36.96889999999999
 20
187.0
 30
0.0
 11
37.412
 21
187.0
 31
0.0
  0
LINE
  5
134
330
1E
100
AcDbEntity
  8
0
100
AcDbLine
 10
36.453
 20
187.0
 30
0.0
 11
36.6725
 21
187.0
 31
0.0
  0
LINE
  5
135
330
1E
100
AcDbEntity
  8
0
100
AcDbLine
 10
36.6725
 20
187.0
 30
0.0
 11
36.96889999999999
 21
187.0
 31
0.0
  0
LINE
  5
136
330
1E
100
AcDbEntity
  8
0
100
AcDbLine
 10
35.56389999999999
 20
187.0
 30
0.0
 11
35.6976
 21
187.0
 31
0.0
  0
LINE
  5
137
330
1E
100
AcDbEntity
  8
0
100
AcDbLine
 10
35.6976
 20
187.0
 30
0.0
 11
35.86119999999999
 21
187.0
 31
0.0
  0
LINE
  5
138
330
1E
100
AcDbEntity
  8
0
100
AcDbLine
 10
35.5
 20
187.0
 30
0.0
 11
36.2025
 21
173.564
 31
0.0
  0
LINE
  5
139
330
1E
100
AcDbEntity
  8
0
100
AcDbLine
 10
36.2025
 20
173.564
 30
0.0
 11
36.3003
 21
172.641
 31
0.0
  0
LINE
  5
13A
330
1E
100
AcDbEntity
  8
0
100
AcDbLine
 10
38.3241
 20
187.0
 30
0.0
 11
38.6773
 21
187.0
 31
0.0
  0
LINE
  5
13B
330
1E
100
AcDbEntity
  8
0
100
AcDbLine
 10
40.5354
 20
187.0
 30
0.0
 11
41.12319999999999
 21
187.0
 31
0.0
  0
LINE
  5
13C
330
1E
100
AcDbEntity
  8
0
100
AcDbLine
 10
39.9896
 20
187.0
 30
0.0
 11
40.5354
 21
187.0
 31
0.0
  0
LINE
  5
13D
330
1E
100
AcDbEntity
  8
0
100
AcDbLine
 10
39.4677
 20
187.0
 30
0.0
 11
39.9896
 21
187.0
 31
0.0
  0
LINE
  5
13E
330
1E
100
AcDbEntity
  8
0
100
AcDbLine
 10
38.6773
 20
187.0
 30
0.0
 11
39.4677
 21
187.0
 31
0.0
  0
LINE
  5
13F
330
1E
100
AcDbEntity
  8
0
100
AcDbLine
 10
37.9997
 20
187.0
 30
0.0
 11
38.3241
 21
187.0
 31
0.0
  0
LINE
  5
140
330
1E
100
AcDbEntity
  8
0
100
AcDbLine
 10
37.68639999999999
 20
187.0
 30
0.0
 11
37.9997
 21
187.0
 31
0.0
  0
LINE
  5
141
330
1E
100
AcDbEntity
  8
0
100
AcDbLine
 10
41.7229
 20
187.0
 30
0.0
 11
42.9474
 21
187.0
 31
0.0
  0
LINE
  5
142
330
1E
100
AcDbEntity
  8
0
100
AcDbLine
 10
41.12319999999999
 20
187.0
 30
0.0
 11
41.7229
 21
187.0
 31
0.0
  0
LINE
  5
143
330
1E
100
AcDbEntity
  8
0
100
AcDbLine
 10
56.43699999999999
 20
187.0
 30
0.0
 11
63.4673
 21
187.0
 31
0.0
  0
LINE
  5
144
330
1E
100
AcDbEntity
  8
0
100
AcDbLine
 10
47.7153
 20
187.0
 30
0.0
 11
49.40979999999999
 21
187.0
 31
0.0
  0
LINE
  5
145
330
1E
100
AcDbEntity
  8
0
100
AcDbLine
 10
49.40979999999999
 20
187.0
 30
0.0
 11
56.43699999999999
 21
187.0
 31
0.0
  0
LINE
  5
146
330
1E
100
AcDbEntity
  8
0
100
AcDbLine
 10
43.97219999999999
 20
187.0
 30
0.0
 11
45.003
 21
187.0
 31
0.0
  0
LINE
  5
147
330
1E
100
AcDbEntity
  8
0
100
AcDbLine
 10
45.003
 20
187.0
 30
0.0
 11
47.7153
 21
187.0
 31
0.0
  0
LINE
  5
148
330
1E
100
AcDbEntity
  8
0
100
AcDbLine
 10
42.9474
 20
187.0
 30
0.0
 11
43.97219999999999
 21
187.0
 31
0.0
  0
LINE
  5
14A
330
1E
100
AcDbEntity
  8
0
100
AcDbLine
 10
61.0
 20
31.5
 30
0.0
 11
61.0
 21
53.07269999999999
 31
0.0
  0
LINE
  5
14B
330
1E
100
AcDbEntity
  8
0
100
AcDbLine
 10
61.348
 20
53.5
 30
0.0
 11
61.87
 21
53.5
 31
0.0
  0
LINE
  5
14C
330
1E
100
AcDbEntity
  8
0
100
AcDbLine
 10
61.0
 20
53.07269999999999
 30
0.0
 11
61.0
 21
31.5
 31
0.0
  0
LINE
  5
14D
330
1E
100
AcDbEntity
  8
0
100
AcDbLine
 10
61.0
 20
53.07269999999999
 30
0.0
 11
61.522
 21
53.07269999999999
 31
0.0
  0
LINE
  5
14E
330
1E
100
AcDbEntity
  8
0
100
AcDbLine
 10
61.0
 20
53.07269999999999
 30
0.0
 11
61.348
 21
53.5
 31
0.0
  0
LINE
  5
14F
330
1E
100
AcDbEntity
  8
0
100
AcDbLine
 10
61.4
 20
31.5
 30
0.0
 11
62.84
 21
31.5
 31
0.0
  0
LINE
  5
150
330
1E
100
AcDbEntity
  8
0
100
AcDbLine
 10
60.86
 20
31.5
 30
0.0
 11
61.4
 21
31.5
 31
0.0
  0
LINE
  5
151
330
1E
100
AcDbEntity
  8
0
100
AcDbLine
 10
61.04
 20
31.0727
 30
0.0
 11
62.48
 21
31.0727
 31
0.0
  0
LINE
  5
152
330
1E
100
AcDbEntity
  8
0
100
AcDbLine
 10
60.5
 20
31.0727
 30
0.0
 11
60.5
 21
21.49999999999999
 31
0.0
  0
LINE
  5
153
330
1E
100
AcDbEntity
  8
0
100
AcDbLine
 10
60.5
 20
31.0727
 30
0.0
 11
61.04
 21
31.0727
 31
0.0
  0
LINE
  5
154
330
1E
100
AcDbEntity
  8
0
100
AcDbLine
 10
60.5
 20
31.0727
 30
0.0
 11
60.86
 21
31.5
 31
0.0
  0
LINE
  5
155
330
1E
100
AcDbEntity
  8
0
100
AcDbLine
 10
61.092
 20
21.49999999999999
 30
0.0
 11
61.4
 21
21.49999999999999
 31
0.0
  0
LINE
  5
156
330
1E
100
AcDbEntity
  8
0
100
AcDbLine
 10
71.66
 20
31.0727
 30
0.0
 11
75.5
 21
31.0727
 31
0.0
  0
LINE
  5
157
330
1E
100
AcDbEntity
  8
0
100
AcDbLine
 10
68.06
 20
31.0727
 30
0.0
 11
71.66
 21
31.0727
 31
0.0
  0
LINE
  5
158
330
1E
100
AcDbEntity
  8
0
100
AcDbLine
 10
64.87999999999999
 20
31.0727
 30
0.0
 11
68.06
 21
31.0727
 31
0.0
  0
LINE
  5
159
330
1E
100
AcDbEntity
  8
0
100
AcDbLine
 10
62.48
 20
31.0727
 30
0.0
 11
64.87999999999999
 21
31.0727
 31
0.0
  0
LINE
  5
15A
330
1E
100
AcDbEntity
  8
0
100
AcDbLine
 10
75.5
 20
31.0727
 30
0.0
 11
79.34000000000001
 21
31.0727
 31
0.0
  0
LINE
  5
15B
330
1E
100
AcDbEntity
  8
0
100
AcDbLine
 10
79.34000000000001
 20
31.0727
 30
0.0
 11
82.94
 21
31.0727
 31
0.0
  0
LINE
  5
15C
330
1E
100
AcDbEntity
  8
0
100
AcDbLine
 10
82.94
 20
31.0727
 30
0.0
 11
86.12
 21
31.0727
 31
0.0
  0
LINE
  5
15D
330
1E
100
AcDbEntity
  8
0
100
AcDbLine
 10
86.12
 20
31.0727
 30
0.0
 11
88.52
 21
31.0727
 31
0.0
  0
LINE
  5
15E
330
1E
100
AcDbEntity
  8
0
100
AcDbLine
 10
90.5
 20
31.0727
 30
0.0
 11
90.5
 21
21.49999999999999
 31
0.0
  0
LINE
  5
15F
330
1E
100
AcDbEntity
  8
0
100
AcDbLine
 10
88.52
 20
31.0727
 30
0.0
 11
89.96
 21
31.0727
 31
0.0
  0
LINE
  5
160
330
1E
100
AcDbEntity
  8
0
100
AcDbLine
 10
71.72
 20
31.5
 30
0.0
 11
75.5
 21
31.5
 31
0.0
  0
LINE
  5
161
330
1E
100
AcDbEntity
  8
0
100
AcDbLine
 10
68.23999999999999
 20
31.5
 30
0.0
 11
71.72
 21
31.5
 31
0.0
  0
LINE
  5
162
330
1E
100
AcDbEntity
  8
0
100
AcDbLine
 10
65.18
 20
31.5
 30
0.0
 11
68.23999999999999
 21
31.5
 31
0.0
  0
LINE
  5
163
330
1E
100
AcDbEntity
  8
0
100
AcDbLine
 10
62.84
 20
31.5
 30
0.0
 11
65.18
 21
31.5
 31
0.0
  0
LINE
  5
164
330
1E
100
AcDbEntity
  8
0
100
AcDbLine
 10
75.5
 20
31.5
 30
0.0
 11
79.28
 21
31.5
 31
0.0
  0
LINE
  5
165
330
1E
100
AcDbEntity
  8
0
100
AcDbLine
 10
79.28
 20
31.5
 30
0.0
 11
82.76000000000001
 21
31.5
 31
0.0
  0
LINE
  5
166
330
1E
100
AcDbEntity
  8
0
100
AcDbLine
 10
82.76000000000001
 20
31.5
 30
0.0
 11
85.81999999999998
 21
31.5
 31
0.0
  0
LINE
  5
167
330
1E
100
AcDbEntity
  8
0
100
AcDbLine
 10
85.81999999999998
 20
31.5
 30
0.0
 11
88.16
 21
31.5
 31
0.0
  0
LINE
  5
168
330
1E
100
AcDbEntity
  8
0
100
AcDbLine
 10
71.78799999999999
 20
53.07269999999999
 30
0.0
 11
75.5
 21
53.07269999999999
 31
0.0
  0
LINE
  5
169
330
1E
100
AcDbEntity
  8
0
100
AcDbLine
 10
68.308
 20
53.07269999999999
 30
0.0
 11
71.78799999999999
 21
53.07269999999999
 31
0.0
  0
LINE
  5
16A
330
1E
100
AcDbEntity
  8
0
100
AcDbLine
 10
65.23399999999999
 20
53.07269999999999
 30
0.0
 11
68.308
 21
53.07269999999999
 31
0.0
  0
LINE
  5
16B
330
1E
100
AcDbEntity
  8
0
100
AcDbLine
 10
62.91399999999999
 20
53.07269999999999
 30
0.0
 11
65.23399999999999
 21
53.07269999999999
 31
0.0
  0
LINE
  5
16C
330
1E
100
AcDbEntity
  8
0
100
AcDbLine
 10
61.522
 20
53.07269999999999
 30
0.0
 11
62.91399999999999
 21
53.07269999999999
 31
0.0
  0
LINE
  5
16D
330
1E
100
AcDbEntity
  8
0
100
AcDbLine
 10
75.5
 20
53.07269999999999
 30
0.0
 11
79.212
 21
53.07269999999999
 31
0.0
  0
LINE
  5
16E
330
1E
100
AcDbEntity
  8
0
100
AcDbLine
 10
79.212
 20
53.07269999999999
 30
0.0
 11
82.69200000000001
 21
53.07269999999999
 31
0.0
  0
LINE
  5
16F
330
1E
100
AcDbEntity
  8
0
100
AcDbLine
 10
82.69200000000001
 20
53.07269999999999
 30
0.0
 11
85.766
 21
53.07269999999999
 31
0.0
  0
LINE
  5
170
330
1E
100
AcDbEntity
  8
0
100
AcDbLine
 10
85.476
 20
53.5
 30
0.0
 11
87.73799999999999
 21
53.5
 31
0.0
  0
LINE
  5
171
330
1E
100
AcDbEntity
  8
0
100
AcDbLine
 10
85.766
 20
53.07269999999999
 30
0.0
 11
88.086
 21
53.07269999999999
 31
0.0
  0
LINE
  5
172
330
1E
100
AcDbEntity
  8
0
100
AcDbLine
 10
87.73799999999999
 20
53.5
 30
0.0
 11
89.13
 21
53.5
 31
0.0
  0
LINE
  5
173
330
1E
100
AcDbEntity
  8
0
100
AcDbLine
 10
88.086
 20
53.07269999999999
 30
0.0
 11
89.47799999999999
 21
53.07269999999999
 31
0.0
  0
LINE
  5
176
330
1E
100
AcDbEntity
  8
0
100
AcDbLine
 10
62.5
 20
53.5
 30
0.0
 11
62.75739999999999
 21
54.12749999999999
 31
0.0
  0
LINE
  5
17A
330
1E
100
AcDbEntity
  8
0
100
AcDbLine
 10
71.846
 20
53.5
 30
0.0
 11
75.5
 21
53.5
 31
0.0
  0
LINE
  5
17B
330
1E
100
AcDbEntity
  8
0
100
AcDbLine
 10
68.482
 20
53.5
 30
0.0
 11
71.846
 21
53.5
 31
0.0
  0
LINE
  5
17C
330
1E
100
AcDbEntity
  8
0
100
AcDbLine
 10
65.524
 20
53.5
 30
0.0
 11
68.482
 21
53.5
 31
0.0
  0
LINE
  5
17D
330
1E
100
AcDbEntity
  8
0
100
AcDbLine
 10
63.262
 20
53.5
 30
0.0
 11
65.524
 21
53.5
 31
0.0
  0
LINE
  5
17E
330
1E
100
AcDbEntity
  8
0
100
AcDbLine
 10
61.87
 20
53.5
 30
0.0
 11
63.262
 21
53.5
 31
0.0
  0
LINE
  5
180
330
1E
100
AcDbEntity
  8
0
100
AcDbLine
 10
75.5
 20
53.5
 30
0.0
 11
79.15399999999999
 21
53.5
 31
0.0
  0
LINE
  5
181
330
1E
100
AcDbEntity
  8
0
100
AcDbLine
 10
62.1959
 20
71.5
 30
0.0
 11
62.7268
 21
71.5
 31
0.0
  0
LINE
  5
182
330
1E
100
AcDbEntity
  8
0
100
AcDbLine
 10
61.8287
 20
170.518
 30
0.0
 11
61.8896
 21
170.517
 31
0.0
  0
LINE
  5
183
330
1E
100
AcDbEntity
  8
0
100
AcDbLine
 10
61.8896
 20
170.517
 30
0.0
 11
62.2428
 21
170.516
 31
0.0
  0
LINE
  5
184
330
1E
100
AcDbEntity
  8
0
100
AcDbLine
 10
61.8896
 20
170.517
 30
0.0
 11
62.0358
 21
170.516586070215
 31
0.0
  0
LINE
  5
185
330
1E
100
AcDbEntity
  8
0
100
AcDbLine
 10
62.2428
 20
170.516
 30
0.0
 11
62.9005
 21
170.514
 31
0.0
  0
LINE
  5
186
330
1E
100
AcDbEntity
  8
0
100
AcDbLine
 10
62.0358
 20
170.521431934435
 30
0.0
 11
62.0358
 21
71.5
 31
0.0
  0
LINE
  5
187
330
1E
100
AcDbEntity
  8
0
100
AcDbLine
 10
62.0358
 20
71.5
 30
0.0
 11
62.1959
 21
71.5
 31
0.0
  0
LINE
  5
188
330
1E
100
AcDbEntity
  8
0
100
AcDbLine
 10
62.0358
 20
71.5
 30
0.0
 11
62.0358
 21
170.521431934435
 31
0.0
  0
LINE
  5
189
330
1E
100
AcDbEntity
  8
0
100
AcDbLine
 10
62.0358
 20
71.5
 30
0.0
 11
62.5344
 21
71.0
 31
0.0
  0
LINE
  5
18A
330
1E
100
AcDbEntity
  8
0
100
AcDbLine
 10
62.5344
 20
71.0
 30
0.0
 11
62.68889999999999
 21
71.0
 31
0.0
  0
LINE
  5
18B
330
1E
100
AcDbEntity
  8
0
100
AcDbLine
 10
62.68889999999999
 20
71.0
 30
0.0
 11
63.19980000000001
 21
71.0
 31
0.0
  0
LINE
  5
18C
330
1E
100
AcDbEntity
  8
0
100
AcDbLine
 10
62.68889999999999
 20
71.0
 30
0.0
 11
63.0
 21
71.0
 31
0.0
  0
LINE
  5
194
330
1E
100
AcDbEntity
  8
0
100
AcDbLine
 10
62.9005
 20
170.514
 30
0.0
 11
63.84949999999999
 21
170.513
 31
0.0
  0
LINE
  5
195
330
1E
100
AcDbEntity
  8
0
100
AcDbLine
 10
62.7268
 20
71.5
 30
0.0
 11
63.605
 21
71.5
 31
0.0
  0
LINE
  5
19D
330
1E
100
AcDbEntity
  8
0
100
AcDbLine
 10
63.75
 20
58.5
 30
0.0
 11
64.95
 21
58.5
 31
0.0
  0
LINE
  5
19E
330
1E
100
AcDbEntity
  8
0
100
AcDbLine
 10
63.4673
 20
187.0
 30
0.0
 11
68.79609999999999
 21
187.0
 31
0.0
  0
LINE
  5
19F
330
1E
100
AcDbEntity
  8
0
100
AcDbLine
 10
63.19980000000001
 20
71.0
 30
0.0
 11
64.04609999999999
 21
71.0
 31
0.0
  0
LINE
  5
1A0
330
1E
100
AcDbEntity
  8
0
100
AcDbLine
 10
63.84949999999999
 20
170.513
 30
0.0
 11
65.0669
 21
170.5109999999999
 31
0.0
  0
LINE
  5
1A1
330
1E
100
AcDbEntity
  8
0
100
AcDbLine
 10
64.04609999999999
 20
71.0
 30
0.0
 11
65.20459999999999
 21
71.0
 31
0.0
  0
LINE
  5
1A2
330
1E
100
AcDbEntity
  8
0
100
AcDbLine
 10
63.605
 20
71.5
 30
0.0
 11
64.8085
 21
71.5
 31
0.0
  0
LINE
  5
1A3
330
1E
100
AcDbEntity
  8
0
100
AcDbLine
 10
63.3
 20
58.5
 30
0.0
 11
63.75
 21
58.5
 31
0.0
  0
LINE
  5
1A4
330
1E
100
AcDbEntity
  8
0
100
AcDbLine
 10
63.0
 20
59.1154
 30
0.0
 11
63.0
 21
71.0
 31
0.0
  0
LINE
  5
1A5
330
1E
100
AcDbEntity
  8
0
100
AcDbLine
 10
63.0
 20
59.1154
 30
0.0
 11
63.3
 21
58.5
 31
0.0
  0
LINE
  5
1A6
330
1E
100
AcDbEntity
  8
0
100
AcDbLine
 10
64.74330000000001
 20
56.63730000000001
 30
0.0
 11
66.9892
 21
58.5
 31
0.0
  0
LINE
  5
1AC
330
1E
100
AcDbEntity
  8
0
100
AcDbLine
 10
62.75739999999999
 20
54.12749999999999
 30
0.0
 11
64.74330000000001
 21
56.63730000000001
 31
0.0
  0
LINE
  5
1C1
330
1E
100
AcDbEntity
  8
0
100
AcDbLine
 10
66.90000000000001
 20
58.5
 30
0.0
 11
69.45
 21
58.5
 31
0.0
  0
LINE
  5
1C2
330
1E
100
AcDbEntity
  8
0
100
AcDbLine
 10
66.90000000000001
 20
58.5
 30
0.0
 11
66.9892
 21
58.5
 31
0.0
  0
LINE
  5
1C3
330
1E
100
AcDbEntity
  8
0
100
AcDbLine
 10
65.20459999999999
 20
71.0
 30
0.0
 11
66.6446
 21
71.0
 31
0.0
  0
LINE
  5
1C4
330
1E
100
AcDbEntity
  8
0
100
AcDbLine
 10
65.0669
 20
170.5109999999999
 30
0.0
 11
66.5767
 21
170.5109999999999
 31
0.0
  0
LINE
  5
1C5
330
1E
100
AcDbEntity
  8
0
100
AcDbLine
 10
64.8085
 20
71.5
 30
0.0
 11
66.30329999999999
 21
71.5
 31
0.0
  0
LINE
  5
1C6
330
1E
100
AcDbEntity
  8
0
100
AcDbLine
 10
66.5767
 20
170.5109999999999
 30
0.0
 11
68.3071
 21
170.513
 31
0.0
  0
LINE
  5
1C7
330
1E
100
AcDbEntity
  8
0
100
AcDbLine
 10
66.6446
 20
71.0
 30
0.0
 11
68.3251
 21
71.0
 31
0.0
  0
LINE
  5
1C8
330
1E
100
AcDbEntity
  8
0
100
AcDbLine
 10
66.30329999999999
 20
71.5
 30
0.0
 11
68.0496
 21
71.5
 31
0.0
  0
LINE
  5
1C9
330
1E
100
AcDbEntity
  8
0
100
AcDbLine
 10
64.95
 20
58.5
 30
0.0
 11
66.90000000000001
 21
58.5
 31
0.0
  0
LINE
  5
1CB
330
1E
100
AcDbEntity
  8
0
100
AcDbLine
 10
69.45
 20
58.5
 30
0.0
 11
72.34999999999999
 21
58.5
 31
0.0
  0
LINE
  5
1CC
330
1E
100
AcDbEntity
  8
0
100
AcDbLine
 10
67.3911
 20
58.5
 30
0.0
 11
67.4859
 21
58.5
 31
0.0
  0
LINE
  5
1CD
330
1E
100
AcDbEntity
  8
0
100
AcDbLine
 10
68.3251
 20
71.0
 30
0.0
 11
70.2021
 21
71.0
 31
0.0
  0
LINE
  5
1CE
330
1E
100
AcDbEntity
  8
0
100
AcDbLine
 10
68.79609999999999
 20
187.0
 30
0.0
 11
75.49939999999999
 21
187.0
 31
0.0
  0
LINE
  5
1CF
330
1E
100
AcDbEntity
  8
0
100
AcDbLine
 10
68.3071
 20
170.513
 30
0.0
 11
69.9816
 21
170.514
 31
0.0
  0
LINE
  5
1D0
330
1E
100
AcDbEntity
  8
0
100
AcDbLine
 10
69.9816
 20
170.514
 30
0.0
 11
71.76090000000001
 21
170.516
 31
0.0
  0
LINE
  5
1D1
330
1E
100
AcDbEntity
  8
0
100
AcDbLine
 10
69.99859999999999
 20
71.5
 30
0.0
 11
72.0971
 21
71.5
 31
0.0
  0
LINE
  5
1D2
330
1E
100
AcDbEntity
  8
0
100
AcDbLine
 10
68.0496
 20
71.5
 30
0.0
 11
69.99859999999999
 21
71.5
 31
0.0
  0
LINE
  5
1D3
330
1E
100
AcDbEntity
  8
0
100
AcDbLine
 10
67.4859
 20
58.5
 30
0.0
 11
70.05209999999999
 21
58.5
 31
0.0
  0
LINE
  5
1D4
330
1E
100
AcDbEntity
  8
0
100
AcDbLine
 10
72.34999999999999
 20
58.5
 30
0.0
 11
75.5
 21
58.5
 31
0.0
  0
LINE
  5
1D5
330
1E
100
AcDbEntity
  8
0
100
AcDbLine
 10
76.9894
 20
58.5
 30
0.0
 11
80.29909999999999
 21
58.5
 31
0.0
  0
LINE
  5
1D6
330
1E
100
AcDbEntity
  8
0
100
AcDbLine
 10
75.5
 20
58.5
 30
0.0
 11
78.65000000000001
 21
58.5
 31
0.0
  0
LINE
  5
1D7
330
1E
100
AcDbEntity
  8
0
100
AcDbLine
 10
75.5
 20
58.5
 30
0.0
 11
76.9894
 21
58.5
 31
0.0
  0
LINE
  5
1D8
330
1E
100
AcDbEntity
  8
0
100
AcDbLine
 10
80.94790000000001
 20
58.5
 30
0.0
 11
83.51409999999999
 21
58.5
 31
0.0
  0
LINE
  5
1D9
330
1E
100
AcDbEntity
  8
0
100
AcDbLine
 10
80.29909999999999
 20
58.5
 30
0.0
 11
80.94790000000001
 21
58.5
 31
0.0
  0
LINE
  5
1DC
330
1E
100
AcDbEntity
  8
0
100
AcDbLine
 10
78.65000000000001
 20
58.5
 30
0.0
 11
81.54999999999999
 21
58.5
 31
0.0
  0
LINE
  5
1DD
330
1E
100
AcDbEntity
  8
0
100
AcDbLine
 10
81.54999999999999
 20
58.5
 30
0.0
 11
84.1
 21
58.5
 31
0.0
  0
LINE
  5
1DE
330
1E
100
AcDbEntity
  8
0
100
AcDbLine
 10
74.0106
 20
58.5
 30
0.0
 11
75.5
 21
58.5
 31
0.0
  0
LINE
  5
1DF
330
1E
100
AcDbEntity
  8
0
100
AcDbLine
 10
70.2021
 20
71.0
 30
0.0
 11
72.2239
 21
71.0
 31
0.0
  0
LINE
  5
1E0
330
1E
100
AcDbEntity
  8
0
100
AcDbLine
 10
72.2239
 20
71.0
 30
0.0
 11
74.3344
 21
71.0
 31
0.0
  0
LINE
  5
1E1
330
1E
100
AcDbEntity
  8
0
100
AcDbLine
 10
72.2239
 20
71.0
 30
0.0
 11
72.6586211018633
 21
71.0
 31
0.0
  0
LINE
  5
1E2
330
1E
100
AcDbEntity
  8
0
100
AcDbLine
 10
74.3344
 20
71.0
 30
0.0
 11
75.5
 21
71.0
 31
0.0
  0
LINE
  5
1E3
330
1E
100
AcDbEntity
  8
0
100
AcDbLine
 10
74.2895
 20
71.5
 30
0.0
 11
75.5
 21
71.5
 31
0.0
  0
LINE
  5
1E4
330
1E
100
AcDbEntity
  8
0
100
AcDbLine
 10
72.0971
 20
71.5
 30
0.0
 11
74.2895
 21
71.5
 31
0.0
  0
LINE
  5
1E5
330
1E
100
AcDbEntity
  8
0
100
AcDbLine
 10
75.5
 20
71.0
 30
0.0
 11
76.6656
 21
71.0
 31
0.0
  0
LINE
  5
1E6
330
1E
100
AcDbEntity
  8
0
100
AcDbLine
 10
71.76090000000001
 20
170.516
 30
0.0
 11
73.61299999999999
 21
170.517
 31
0.0
  0
LINE
  5
1E7
330
1E
100
AcDbEntity
  8
0
100
AcDbLine
 10
73.61299999999999
 20
170.517
 30
0.0
 11
75.5
 21
170.518
 31
0.0
  0
LINE
  5
1E8
330
1E
100
AcDbEntity
  8
0
100
AcDbLine
 10
75.5
 20
170.518
 30
0.0
 11
77.387
 21
170.517
 31
0.0
  0
LINE
  5
1F0
330
1E
100
AcDbEntity
  8
0
100
AcDbLine
 10
75.5
 20
71.5
 30
0.0
 11
76.7105
 21
71.5
 31
0.0
  0
LINE
  5
1F4
330
1E
100
AcDbEntity
  8
0
100
AcDbLine
 10
75.50060000000001
 20
187.0
 30
0.0
 11
82.2039
 21
187.0
 31
0.0
  0
LINE
  5
1FB
330
1E
100
AcDbEntity
  8
0
100
AcDbLine
 10
76.6656
 20
71.0
 30
0.0
 11
78.7761
 21
71.0
 31
0.0
  0
LINE
  5
1FC
330
1E
100
AcDbEntity
  8
0
100
AcDbLine
 10
78.7
 20
71.0
 30
0.0
 11
78.7761
 21
71.0
 31
0.0
  0
LINE
  5
1FD
330
1E
100
AcDbEntity
  8
0
100
AcDbLine
 10
78.7761
 20
71.0
 30
0.0
 11
80.7979
 21
71.0
 31
0.0
  0
LINE
  5
1FE
330
1E
100
AcDbEntity
  8
0
100
AcDbLine
 10
80.7979
 20
71.0
 30
0.0
 11
82.6749
 21
71.0
 31
0.0
  0
LINE
  5
1FF
330
1E
100
AcDbEntity
  8
0
100
AcDbLine
 10
81.00140000000001
 20
71.5
 30
0.0
 11
82.9504
 21
71.5
 31
0.0
  0
LINE
  5
200
330
1E
100
AcDbEntity
  8
0
100
AcDbLine
 10
78.9029
 20
71.5
 30
0.0
 11
81.00140000000001
 21
71.5
 31
0.0
  0
LINE
  5
201
330
1E
100
AcDbEntity
  8
0
100
AcDbLine
 10
79.23909999999999
 20
170.516
 30
0.0
 11
81.01840000000001
 21
170.514
 31
0.0
  0
LINE
  5
202
330
1E
100
AcDbEntity
  8
0
100
AcDbLine
 10
81.01840000000001
 20
170.514
 30
0.0
 11
82.69289999999999
 21
170.513
 31
0.0
  0
LINE
  5
203
330
1E
100
AcDbEntity
  8
0
100
AcDbLine
 10
77.387
 20
170.517
 30
0.0
 11
79.23909999999999
 21
170.516
 31
0.0
  0
LINE
  5
204
330
1E
100
AcDbEntity
  8
0
100
AcDbLine
 10
82.2039
 20
187.0
 30
0.0
 11
87.5327
 21
187.0
 31
0.0
  0
LINE
  5
205
330
1E
100
AcDbEntity
  8
0
100
AcDbLine
 10
76.7105
 20
71.5
 30
0.0
 11
78.9029
 21
71.5
 31
0.0
  0
LINE
  5
207
330
1E
100
AcDbEntity
  8
0
100
AcDbLine
 10
70.7009
 20
58.5
 30
0.0
 11
74.0106
 21
58.5
 31
0.0
  0
LINE
  5
208
330
1E
100
AcDbEntity
  8
0
100
AcDbLine
 10
70.05209999999999
 20
58.5
 30
0.0
 11
70.7009
 21
58.5
 31
0.0
  0
LINE
  5
20B
330
1E
100
AcDbEntity
  8
0
100
AcDbLine
 10
66.9892
 20
58.5
 30
0.0
 11
67.3911
 21
58.5
 31
0.0
  0
LINE
  5
20E
330
1E
100
AcDbEntity
  8
0
100
AcDbLine
 10
79.15399999999999
 20
53.5
 30
0.0
 11
82.51799999999999
 21
53.5
 31
0.0
  0
LINE
  5
20F
330
1E
100
AcDbEntity
  8
0
100
AcDbLine
 10
83.47649999999999
 20
53.5
 30
0.0
 11
83.60890000000001
 21
53.5
 31
0.0
  0
LINE
  5
216
330
1E
100
AcDbEntity
  8
0
100
AcDbLine
 10
86.25669999999999
 20
56.63730000000001
 30
0.0
 11
88.2426
 21
54.12749999999999
 31
0.0
  0
LINE
  5
21E
330
1E
100
AcDbEntity
  8
0
100
AcDbLine
 10
86.05
 20
58.5
 30
0.0
 11
87.24999999999999
 21
58.5
 31
0.0
  0
LINE
  5
220
330
1E
100
AcDbEntity
  8
0
100
AcDbLine
 10
83.51409999999999
 20
58.5
 30
0.0
 11
83.60890000000001
 21
58.5
 31
0.0
  0
LINE
  5
221
330
1E
100
AcDbEntity
  8
0
100
AcDbLine
 10
83.60890000000001
 20
58.5
 30
0.0
 11
84.0108
 21
58.5
 31
0.0
  0
LINE
  5
223
330
1E
100
AcDbEntity
  8
0
100
AcDbLine
 10
84.0108
 20
58.5
 30
0.0
 11
84.1
 21
58.5
 31
0.0
  0
LINE
  5
224
330
1E
100
AcDbEntity
  8
0
100
AcDbLine
 10
84.0108
 20
58.5
 30
0.0
 11
86.25669999999999
 21
56.63730000000001
 31
0.0
  0
LINE
  5
225
330
1E
100
AcDbEntity
  8
0
100
AcDbLine
 10
84.1
 20
58.5
 30
0.0
 11
86.05
 21
58.5
 31
0.0
  0
LINE
  5
226
330
1E
100
AcDbEntity
  8
0
100
AcDbLine
 10
87.24999999999999
 20
58.5
 30
0.0
 11
87.70000000000001
 21
58.5
 31
0.0
  0
LINE
  5
227
330
1E
100
AcDbEntity
  8
0
100
AcDbLine
 10
88.2426
 20
54.12749999999999
 30
0.0
 11
88.49999999999999
 21
53.5
 31
0.0
  0
LINE
  5
228
330
1E
100
AcDbEntity
  8
0
100
AcDbLine
 10
87.70000000000001
 20
58.5
 30
0.0
 11
88.0
 21
59.1154
 31
0.0
  0
LINE
  5
229
330
1E
100
AcDbEntity
  8
0
100
AcDbLine
 10
85.79539999999999
 20
71.0
 30
0.0
 11
86.95390000000001
 21
71.0
 31
0.0
  0
LINE
  5
22A
330
1E
100
AcDbEntity
  8
0
100
AcDbLine
 10
84.35540000000001
 20
71.0
 30
0.0
 11
85.79539999999999
 21
71.0
 31
0.0
  0
LINE
  5
22B
330
1E
100
AcDbEntity
  8
0
100
AcDbLine
 10
82.6749
 20
71.0
 30
0.0
 11
84.35540000000001
 21
71.0
 31
0.0
  0
LINE
  5
22C
330
1E
100
AcDbEntity
  8
0
100
AcDbLine
 10
82.9504
 20
71.5
 30
0.0
 11
84.6967
 21
71.5
 31
0.0
  0
LINE
  5
22D
330
1E
100
AcDbEntity
  8
0
100
AcDbLine
 10
86.95390000000001
 20
71.0
 30
0.0
 11
87.8002
 21
71.0
 31
0.0
  0
LINE
  5
22E
330
1E
100
AcDbEntity
  8
0
100
AcDbLine
 10
87.8002
 20
71.0
 30
0.0
 11
88.3111
 21
71.0
 31
0.0
  0
LINE
  5
22F
330
1E
100
AcDbEntity
  8
0
100
AcDbLine
 10
87.39499999999999
 20
71.5
 30
0.0
 11
88.2732
 21
71.5
 31
0.0
  0
LINE
  5
230
330
1E
100
AcDbEntity
  8
0
100
AcDbLine
 10
86.19150000000001
 20
71.5
 30
0.0
 11
87.39499999999999
 21
71.5
 31
0.0
  0
LINE
  5
231
330
1E
100
AcDbEntity
  8
0
100
AcDbLine
 10
82.69289999999999
 20
170.513
 30
0.0
 11
84.4233
 21
170.5109999999999
 31
0.0
  0
LINE
  5
232
330
1E
100
AcDbEntity
  8
0
100
AcDbLine
 10
84.4233
 20
170.5109999999999
 30
0.0
 11
85.9331
 21
170.5109999999999
 31
0.0
  0
LINE
  5
233
330
1E
100
AcDbEntity
  8
0
100
AcDbLine
 10
85.9331
 20
170.5109999999999
 30
0.0
 11
87.15049999999999
 21
170.513
 31
0.0
  0
LINE
  5
234
330
1E
100
AcDbEntity
  8
0
100
AcDbLine
 10
87.15049999999999
 20
170.513
 30
0.0
 11
88.0995
 21
170.514
 31
0.0
  0
LINE
  5
235
330
1E
100
AcDbEntity
  8
0
100
AcDbLine
 10
87.5327
 20
187.0
 30
0.0
 11
94.56299999999998
 21
187.0
 31
0.0
  0
LINE
  5
236
330
1E
100
AcDbEntity
  8
0
100
AcDbLine
 10
84.6967
 20
71.5
 30
0.0
 11
86.19150000000001
 21
71.5
 31
0.0
  0
LINE
  5
237
330
1E
100
AcDbEntity
  8
0
100
AcDbLine
 10
88.4656
 20
71.0
 30
0.0
 11
88.9642
 21
71.5
 31
0.0
  0
LINE
  5
238
330
1E
100
AcDbEntity
  8
0
100
AcDbLine
 10
88.3111
 20
71.0
 30
0.0
 11
88.4656
 21
71.0
 31
0.0
  0
LINE
  5
239
330
1E
100
AcDbEntity
  8
0
100
AcDbLine
 10
88.80410000000001
 20
71.5
 30
0.0
 11
88.9642
 21
71.5
 31
0.0
  0
LINE
  5
23A
330
1E
100
AcDbEntity
  8
0
100
AcDbLine
 10
88.9642
 20
71.5
 30
0.0
 11
88.9642
 21
170.521431934435
 31
0.0
  0
LINE
  5
23B
330
1E
100
AcDbEntity
  8
0
100
AcDbLine
 10
88.0995
 20
170.514
 30
0.0
 11
88.75719999999999
 21
170.516
 31
0.0
  0
LINE
  5
23C
330
1E
100
AcDbEntity
  8
0
100
AcDbLine
 10
88.75719999999999
 20
170.516
 30
0.0
 11
89.11039999999999
 21
170.517
 31
0.0
  0
LINE
  5
244
330
1E
100
AcDbEntity
  8
0
100
AcDbLine
 10
88.2732
 20
71.5
 30
0.0
 11
88.80410000000001
 21
71.5
 31
0.0
  0
LINE
  5
245
330
1E
100
AcDbEntity
  8
0
100
AcDbLine
 10
89.1713
 20
170.518
 30
0.0
 11
96.346
 21
170.7019999999999
 31
0.0
  0
LINE
  5
246
330
1E
100
AcDbEntity
  8
0
100
AcDbLine
 10
89.11039999999999
 20
170.517
 30
0.0
 11
89.1713
 21
170.518
 31
0.0
  0
LINE
  5
247
330
1E
100
AcDbEntity
  8
0
100
AcDbLine
 10
88.9642
 20
170.516586070215
 30
0.0
 11
89.11039999999999
 21
170.517
 31
0.0
  0
LINE
  5
248
330
1E
100
AcDbEntity
  8
0
100
AcDbLine
 10
88.9642
 20
71.5
 30
0.0
 11
88.9642
 21
170.521431934435
 31
0.0
  0
LINE
  5
249
330
1E
100
AcDbEntity
  8
0
100
AcDbLine
 10
88.0
 20
71.0
 30
0.0
 11
88.0
 21
59.1154
 31
0.0
  0
LINE
  5
24A
330
1E
100
AcDbEntity
  8
0
100
AcDbLine
 10
88.0
 20
71.0
 30
0.0
 11
88.3111
 21
71.0
 31
0.0
  0
LINE
  5
24B
330
1E
100
AcDbEntity
  8
0
100
AcDbLine
 10
88.0
 20
59.1154
 30
0.0
 11
88.0
 21
71.0
 31
0.0
  0
LINE
  5
24C
330
1E
100
AcDbEntity
  8
0
100
AcDbLine
 10
82.51799999999999
 20
53.5
 30
0.0
 11
85.476
 21
53.5
 31
0.0
  0
LINE
  5
24D
330
1E
100
AcDbEntity
  8
0
100
AcDbLine
 10
82.51799999999999
 20
53.5
 30
0.0
 11
83.47649999999999
 21
53.5
 31
0.0
  0
LINE
  5
24E
330
1E
100
AcDbEntity
  8
0
100
AcDbLine
 10
89.13
 20
53.5
 30
0.0
 11
89.65200000000001
 21
53.5
 31
0.0
  0
LINE
  5
24F
330
1E
100
AcDbEntity
  8
0
100
AcDbLine
 10
89.47799999999999
 20
53.07269999999999
 30
0.0
 11
90.0
 21
53.07269999999999
 31
0.0
  0
LINE
  5
250
330
1E
100
AcDbEntity
  8
0
100
AcDbLine
 10
88.16
 20
31.5
 30
0.0
 11
89.59999999999999
 21
31.5
 31
0.0
  0
LINE
  5
251
330
1E
100
AcDbEntity
  8
0
100
AcDbLine
 10
90.0
 20
31.5
 30
0.0
 11
90.0
 21
53.07269999999999
 31
0.0
  0
LINE
  5
252
330
1E
100
AcDbEntity
  8
0
100
AcDbLine
 10
101.59
 20
187.0
 30
0.0
 11
103.285
 21
187.0
 31
0.0
  0
LINE
  5
253
330
1E
100
AcDbEntity
  8
0
100
AcDbLine
 10
94.56299999999998
 20
187.0
 30
0.0
 11
101.59
 21
187.0
 31
0.0
  0
LINE
  5
254
330
1E
100
AcDbEntity
  8
0
100
AcDbLine
 10
100.852
 20
170.8179999999999
 30
0.0
 11
103.275
 21
170.9159999999999
 31
0.0
  0
LINE
  5
255
330
1E
100
AcDbEntity
  8
0
100
AcDbLine
 10
103.285
 20
187.0
 30
0.0
 11
105.997
 21
187.0
 31
0.0
  0
LINE
  5
256
330
1E
100
AcDbEntity
  8
0
100
AcDbLine
 10
105.997
 20
187.0
 30
0.0
 11
107.0279999999999
 21
187.0
 31
0.0
  0
LINE
  5
257
330
1E
100
AcDbEntity
  8
0
100
AcDbLine
 10
103.275
 20
170.9159999999999
 30
0.0
 11
112.532
 21
171.299
 31
0.0
  0
LINE
  5
25A
330
1E
100
AcDbEntity
  8
0
100
AcDbLine
 10
96.346
 20
170.7019999999999
 30
0.0
 11
100.852
 21
170.8179999999999
 31
0.0
  0
LINE
  5
25B
330
1E
100
AcDbEntity
  8
0
100
AcDbLine
 10
94.01609999999999
 20
170.654
 30
0.0
 11
96.346
 21
170.7019999999999
 31
0.0
  0
LINE
  5
25C
330
1E
100
AcDbEntity
  8
0
100
AcDbLine
 10
94.01609999999999
 20
170.654
 30
0.0
 11
100.852
 21
170.8179999999999
 31
0.0
  0
LINE
  5
25D
330
1E
100
AcDbEntity
  8
0
100
AcDbLine
 10
90.0
 20
53.07269999999999
 30
0.0
 11
90.0
 21
31.5
 31
0.0
  0
LINE
  5
25E
330
1E
100
AcDbEntity
  8
0
100
AcDbLine
 10
89.65200000000001
 20
53.5
 30
0.0
 11
90.0
 21
53.07269999999999
 31
0.0
  0
LINE
  5
25F
330
1E
100
AcDbEntity
  8
0
100
AcDbLine
 10
90.14000000000001
 20
31.5
 30
0.0
 11
90.5
 21
31.0727
 31
0.0
  0
LINE
  5
260
330
1E
100
AcDbEntity
  8
0
100
AcDbLine
 10
89.59999999999999
 20
31.5
 30
0.0
 11
90.14000000000001
 21
31.5
 31
0.0
  0
LINE
  5
261
330
1E
100
AcDbEntity
  8
0
100
AcDbLine
 10
89.96
 20
31.0727
 30
0.0
 11
90.5
 21
31.0727
 31
0.0
  0
LINE
  5
262
330
1E
100
AcDbEntity
  8
0
100
AcDbLine
 10
61.4
 20
21.49999999999999
 30
0.0
 11
75.5
 21
21.49999999999999
 31
0.0
  0
LINE
  5
263
330
1E
100
AcDbEntity
  8
0
100
AcDbLine
 10
61.4
 20
21.49999999999999
 30
0.0
 11
62.48
 21
21.49999999999999
 31
0.0
  0
LINE
  5
264
330
1E
100
AcDbEntity
  8
0
100
AcDbLine
 10
75.5
 20
21.49999999999999
 30
0.0
 11
89.59999999999999
 21
21.49999999999999
 31
0.0
  0
LINE
  5
265
330
1E
100
AcDbEntity
  8
0
100
AcDbLine
 10
141.0
 20
16.8333
 30
0.0
 11
147.0
 21
15.5
 31
0.0
  0
LINE
  5
266
330
1E
100
AcDbEntity
  8
0
100
AcDbLine
 10
133.0
 20
18.1667
 30
0.0
 11
141.0
 21
16.8333
 31
0.0
  0
LINE
  5
267
330
1E
100
AcDbEntity
  8
0
100
AcDbLine
 10
122.0
 20
19.5
 30
0.0
 11
133.0
 21
18.1667
 31
0.0
  0
LINE
  5
26B
330
1E
100
AcDbEntity
  8
0
100
AcDbLine
 10
112.532
 20
171.299
 30
0.0
 11
113.4279999999999
 21
171.3919999999999
 31
0.0
  0
LINE
  5
274
330
1E
100
AcDbEntity
  8
0
100
AcDbLine
 10
113.452
 20
171.394
 30
0.0
 11
113.827
 21
171.513
 31
0.0
  0
LINE
  5
275
330
1E
100
AcDbEntity
  8
0
100
AcDbLine
 10
113.827
 20
171.513
 30
0.0
 11
114.2109999999999
 21
171.7709999999999
 31
0.0
  0
LINE
  5
279
330
1E
100
AcDbEntity
  8
0
100
AcDbLine
 10
114.2109999999999
 20
171.7709999999999
 30
0.0
 11
114.3029999999999
 21
171.8529999999999
 31
0.0
  0
LINE
  5
27A
330
1E
100
AcDbEntity
  8
0
100
AcDbLine
 10
107.0279999999999
 20
187.0
 30
0.0
 11
108.0529999999999
 21
187.0
 31
0.0
  0
LINE
  5
27B
330
1E
100
AcDbEntity
  8
0
100
AcDbLine
 10
111.532
 20
187.0
 30
0.0
 11
112.3229999999999
 21
187.0
 31
0.0
  0
LINE
  5
27C
330
1E
100
AcDbEntity
  8
0
100
AcDbLine
 10
111.01
 20
187.0
 30
0.0
 11
111.532
 21
187.0
 31
0.0
  0
LINE
  5
27D
330
1E
100
AcDbEntity
  8
0
100
AcDbLine
 10
112.3229999999999
 20
187.0
 30
0.0
 11
112.6759999999999
 21
187.0
 31
0.0
  0
LINE
  5
27E
330
1E
100
AcDbEntity
  8
0
100
AcDbLine
 10
110.465
 20
187.0
 30
0.0
 11
111.01
 21
187.0
 31
0.0
  0
LINE
  5
27F
330
1E
100
AcDbEntity
  8
0
100
AcDbLine
 10
109.277
 20
187.0
 30
0.0
 11
109.877
 21
187.0
 31
0.0
  0
LINE
  5
280
330
1E
100
AcDbEntity
  8
0
100
AcDbLine
 10
108.0529999999999
 20
187.0
 30
0.0
 11
109.277
 21
187.0
 31
0.0
  0
LINE
  5
281
330
1E
100
AcDbEntity
  8
0
100
AcDbLine
 10
109.877
 20
187.0
 30
0.0
 11
110.465
 21
187.0
 31
0.0
  0
LINE
  5
282
330
1E
100
AcDbEntity
  8
0
100
AcDbLine
 10
114.031
 20
187.0
 30
0.0
 11
114.327
 21
187.0
 31
0.0
  0
LINE
  5
283
330
1E
100
AcDbEntity
  8
0
100
AcDbLine
 10
114.327
 20
187.0
 30
0.0
 11
114.547
 21
187.0
 31
0.0
  0
LINE
  5
284
330
1E
100
AcDbEntity
  8
0
100
AcDbLine
 10
114.547
 20
187.0
 30
0.0
 11
114.711
 21
187.0
 31
0.0
  0
LINE
  5
285
330
1E
100
AcDbEntity
  8
0
100
AcDbLine
 10
113.588
 20
187.0
 30
0.0
 11
114.031
 21
187.0
 31
0.0
  0
LINE
  5
286
330
1E
100
AcDbEntity
  8
0
100
AcDbLine
 10
113.314
 20
187.0
 30
0.0
 11
113.588
 21
187.0
 31
0.0
  0
LINE
  5
287
330
1E
100
AcDbEntity
  8
0
100
AcDbLine
 10
113.0
 20
187.0
 30
0.0
 11
113.314
 21
187.0
 31
0.0
  0
LINE
  5
288
330
1E
100
AcDbEntity
  8
0
100
AcDbLine
 10
112.6759999999999
 20
187.0
 30
0.0
 11
113.0
 21
187.0
 31
0.0
  0
LINE
  5
289
330
1E
100
AcDbEntity
  8
0
100
AcDbLine
 10
114.3029999999999
 20
171.8529999999999
 30
0.0
 11
114.5799999999999
 21
172.2649999999999
 31
0.0
  0
LINE
  5
28A
330
1E
100
AcDbEntity
  8
0
100
AcDbLine
 10
114.711
 20
187.0
 30
0.0
 11
114.83
 21
187.0
 31
0.0
  0
LINE
  5
28B
330
1E
100
AcDbEntity
  8
0
100
AcDbLine
 10
115.1389999999999
 20
187.0
 30
0.0
 11
115.302
 21
187.0
 31
0.0
  0
LINE
  5
28C
330
1E
100
AcDbEntity
  8
0
100
AcDbLine
 10
115.302
 20
187.0
 30
0.0
 11
115.436
 21
187.0
 31
0.0
  0
LINE
  5
28D
330
1E
100
AcDbEntity
  8
0
100
AcDbLine
 10
114.83
 20
187.0
 30
0.0
 11
114.992
 21
187.0
 31
0.0
  0
LINE
  5
28E
330
1E
100
AcDbEntity
  8
0
100
AcDbLine
 10
114.992
 20
187.0
 30
0.0
 11
115.1389999999999
 21
187.0
 31
0.0
  0
LINE
  5
28F
330
1E
100
AcDbEntity
  8
0
100
AcDbLine
 10
114.798
 20
173.564
 30
0.0
 11
115.5
 21
187.0
 31
0.0
  0
LINE
  5
290
330
1E
100
AcDbEntity
  8
0
100
AcDbLine
 10
114.7
 20
172.641
 30
0.0
 11
114.798
 21
173.564
 31
0.0
  0
LINE
  5
291
330
1E
100
AcDbEntity
  8
0
100
AcDbLine
 10
114.5799999999999
 20
172.2649999999999
 30
0.0
 11
114.7
 21
172.641
 31
0.0
  0
LINE
  5
292
330
1E
100
AcDbEntity
  8
0
100
AcDbLine
 10
115.0
 20
20.16669999999999
 30
0.0
 11
122.0
 21
19.5
 31
0.0
  0
LINE
  5
293
330
1E
100
AcDbEntity
  8
0
100
AcDbLine
 10
106.0
 20
20.8333
 30
0.0
 11
115.0
 21
20.16669999999999
 31
0.0
  0
LINE
  5
294
330
1E
100
AcDbEntity
  8
0
100
AcDbLine
 10
147.0
 20
15.5
 30
0.0
 11
150.5
 21
14.1667
 31
0.0
  0
LINE
  5
295
330
1E
100
AcDbEntity
  8
0
100
AcDbLine
 10
150.5
 20
14.1667
 30
0.0
 11
151.0
 21
13.5
 31
0.0
  0
LINE
  5
296
330
1E
100
AcDbEntity
  8
0
100
AcDbLine
 10
0.0000000000000008
 20
13.5
 30
0.0
 11
0.500000000000001
 21
14.1667
 31
0.0
  0
LINE
  5
297
330
1E
100
AcDbEntity
  8
0
100
AcDbLine
 10
0.0000000000000008
 20
13.5
 30
0.0
 11
0.180000000000001
 21
13.5
 31
0.0
  0
LINE
  5
298
330
1E
100
AcDbEntity
  8
0
100
AcDbLine
 10
0.0000000000000001
 20
2.16667000000001
 30
0.0
 11
1.0
 21
1.50000000000001
 31
0.0
  0
LINE
  5
299
330
1E
100
AcDbEntity
  8
0
100
AcDbLine
 10
0.0000000000000001
 20
2.16667000000001
 30
0.0
 11
0.0000000000000008
 21
13.5
 31
0.0
  0
LINE
  5
29A
330
1E
100
AcDbEntity
  8
0
100
AcDbLine
 10
0.0000000000000001
 20
2.16667000000001
 30
0.0
 11
0.18
 21
2.16667000000001
 31
0.0
  0
ENDSEC
  0
SECTION
  2
OBJECTS
  0
DICTIONARY
  5
C
330
0
100
AcDbDictionary
281
     1
  3
ACAD_GROUP
350
D
  3
ACAD_LAYOUT
350
19
  3
ACAD_MLINESTYLE
350
16
  3
ACAD_PLOTSETTINGS
350
18
  3
ACAD_PLOTSTYLENAME
350
E
  3
AcDbVariableDictionary
350
2A0
  0
DICTIONARY
  5
D
102
{ACAD_REACTORS
330
C
102
}
330
C
100
AcDbDictionary
281
     1
  0
DICTIONARY
  5
19
102
{ACAD_REACTORS
330
C
102
}
330
C
100
AcDbDictionary
281
     1
  3
Layout1
350
1D
  3
Model
350
21
  0
DICTIONARY
  5
16
102
{ACAD_REACTORS
330
C
102
}
330
C
100
AcDbDictionary
281
     1
  3
Standard
350
17
  0
DICTIONARY
  5
18
102
{ACAD_REACTORS
330
C
102
}
330
C
100
AcDbDictionary
281
     1
  0
ACDBDICTIONARYWDFLT
  5
E
102
{ACAD_REACTORS
330
C
102
}
330
C
100
AcDbDictionary
281
     1
  3
Normal
350
F
100
AcDbDictionaryWithDefault
340
F
  0
DICTIONARY
  5
2A0
102
{ACAD_REACTORS
330
C
102
}
330
C
100
AcDbDictionary
281
     1
  3
DIMASSOC
350
2A1
  0
LAYOUT
  5
1D
102
{ACAD_REACTORS
330
19
102
}
330
19
100
AcDbPlotSettings
  1

  2
C:\Programme\AutoCAD LT 2002 Deu\plotters\DWF ePlot (optimized for plotting).pc3
  4

  6

 40
0.0
 41
0.0
 42
0.0
 43
0.0
 44
0.0
 45
0.0
 46
0.0
 47
0.0
 48
0.0
 49
0.0
140
0.0
141
0.0
142
1.0
143
1.0
 70
   688
 72
     0
 73
     0
 74
     5
  7

 75
    16
147
1.0
148
0.0
149
0.0
100
AcDbLayout
  1
Layout1
 70
     1
 71
     1
 10
0.0
 20
0.0
 11
12.0
 21
9.0
 12
0.0
 22
0.0
 32
0.0
 14
1.000000000000000E+20
 24
1.000000000000000E+20
 34
1.000000000000000E+20
 15
-1.000000000000000E+20
 25
-1.000000000000000E+20
 35
-1.000000000000000E+20
146
0.0
 13
0.0
 23
0.0
 33
0.0
 16
1.0
 26
0.0
 36
0.0
 17
0.0
 27
1.0
 37
0.0
 76
     0
330
1A
  0
LAYOUT
  5
21
102
{ACAD_REACTORS
330
19
102
}
330
19
100
AcDbPlotSettings
  1

  2
C:\Programme\AutoCAD LT 2002 Deu\plotters\DWF ePlot (optimized for plotting).pc3
  4

  6

 40
0.0
 41
0.0
 42
0.0
 43
0.0
 44
0.0
 45
0.0
 46
0.0
 47
0.0
 48
0.0
 49
0.0
140
0.0
141
0.0
142
1.0
143
1.0
 70
  1712
 72
     0
 73
     0
 74
     0
  7

 75
     0
147
1.0
148
0.0
149
0.0
100
AcDbLayout
  1
Model
 70
     1
 71
     0
 10
0.0
 20
0.0
 11
12.0
 21
9.0
 12
0.0
 22
0.0
 32
0.0
 14
0.0
 24
0.0
 34
0.0
 15
0.0
 25
0.0
 35
0.0
146
0.0
 13
0.0
 23
0.0
 33
0.0
 16
1.0
 26
0.0
 36
0.0
 17
0.0
 27
1.0
 37
0.0
 76
     0
330
1E
  0
MLINESTYLE
  5
17
102
{ACAD_REACTORS
330
16
102
}
330
16
100
AcDbMlineStyle
  2
STANDARD
 70
     0
  3

 62
   256
 51
90.0
 52
90.0
 71
     2
 49
0.5
 62
   256
  6
BYLAYER
 49
-0.5
 62
   256
  6
BYLAYER
  0
ACDBPLACEHOLDER
  5
F
102
{ACAD_REACTORS
330
E
102
}
330
E
  0
DICTIONARYVAR
  5
2A1
102
{ACAD_REACTORS
330
2A0
102
}
330
2A0
100
DictionaryVariables
280
     0
  1
1
  0
ENDSEC
  0
EOF
