  0
SECTION
  2
HEADER
  9
$ACADVER
  1
AC1014
  9
$ACADMAINTVER
 70
     9
  9
$DWGCODEPAGE
  3
ANSI_1252
  9
$INSBASE
 10
0.0
 20
0.0
 30
0.0
  9
$EXTMIN
 10
-0.0000000000000061
 20
-0.121379499999994
 30
0.0
  9
$EXTMAX
 10
218.0
 20
175.1213794999999
 30
0.0
  9
$LIMMIN
 10
0.0
 20
0.0
  9
$LIMMAX
 10
12.0
 20
9.0
  9
$ORTHOMODE
 70
     0
  9
$REGENMODE
 70
     1
  9
$FILLMODE
 70
     1
  9
$QTEXTMODE
 70
     0
  9
$MIRRTEXT
 70
     1
  9
$DRAGMODE
 70
     2
  9
$LTSCALE
 40
1.0
  9
$OSMODE
 70
    37
  9
$ATTMODE
 70
     1
  9
$TEXTSIZE
 40
0.2
  9
$TRACEWID
 40
0.05
  9
$TEXTSTYLE
  7
STANDARD
  9
$CLAYER
  8
0
  9
$CELTYPE
  6
CONTINUOUS
  9
$CECOLOR
 62
   256
  9
$CELTSCALE
 40
1.0
  9
$DELOBJ
 70
     1
  9
$DISPSILH
 70
     0
  9
$DIMSCALE
 40
1.0
  9
$DIMASZ
 40
0.18
  9
$DIMEXO
 40
0.0625
  9
$DIMDLI
 40
0.38
  9
$DIMRND
 40
0.0
  9
$DIMDLE
 40
0.0
  9
$DIMEXE
 40
0.18
  9
$DIMTP
 40
0.0
  9
$DIMTM
 40
0.0
  9
$DIMTXT
 40
0.18
  9
$DIMCEN
 40
0.09
  9
$DIMTSZ
 40
0.0
  9
$DIMTOL
 70
     0
  9
$DIMLIM
 70
     0
  9
$DIMTIH
 70
     1
  9
$DIMTOH
 70
     1
  9
$DIMSE1
 70
     0
  9
$DIMSE2
 70
     0
  9
$DIMTAD
 70
     0
  9
$DIMZIN
 70
     0
  9
$DIMBLK
  1

  9
$DIMASO
 70
     1
  9
$DIMSHO
 70
     1
  9
$DIMPOST
  1

  9
$DIMAPOST
  1

  9
$DIMALT
 70
     0
  9
$DIMALTD
 70
     2
  9
$DIMALTF
 40
25.4
  9
$DIMLFAC
 40
1.0
  9
$DIMTOFL
 70
     0
  9
$DIMTVP
 40
0.0
  9
$DIMTIX
 70
     0
  9
$DIMSOXD
 70
     0
  9
$DIMSAH
 70
     0
  9
$DIMBLK1
  1

  9
$DIMBLK2
  1

  9
$DIMSTYLE
  2
STANDARD
  9
$DIMCLRD
 70
     0
  9
$DIMCLRE
 70
     0
  9
$DIMCLRT
 70
     0
  9
$DIMTFAC
 40
1.0
  9
$DIMGAP
 40
0.09
  9
$DIMJUST
 70
     0
  9
$DIMSD1
 70
     0
  9
$DIMSD2
 70
     0
  9
$DIMTOLJ
 70
     1
  9
$DIMTZIN
 70
     0
  9
$DIMALTZ
 70
     0
  9
$DIMALTTZ
 70
     0
  9
$DIMFIT
 70
     3
  9
$DIMUPT
 70
     0
  9
$DIMUNIT
 70
     2
  9
$DIMDEC
 70
     4
  9
$DIMTDEC
 70
     4
  9
$DIMALTU
 70
     2
  9
$DIMALTTD
 70
     2
  9
$DIMTXSTY
  7
STANDARD
  9
$DIMAUNIT
 70
     0
  9
$LUNITS
 70
     2
  9
$LUPREC
 70
     4
  9
$SKETCHINC
 40
0.1
  9
$FILLETRAD
 40
0.0
  9
$AUNITS
 70
     0
  9
$AUPREC
 70
     0
  9
$MENU
  1
.
  9
$ELEVATION
 40
0.0
  9
$PELEVATION
 40
0.0
  9
$THICKNESS
 40
0.0
  9
$LIMCHECK
 70
     0
  9
$BLIPMODE
 70
     0
  9
$CHAMFERA
 40
0.0
  9
$CHAMFERB
 40
0.0
  9
$CHAMFERC
 40
0.0
  9
$CHAMFERD
 40
0.0
  9
$SKPOLY
 70
     0
  9
$TDCREATE
 40
2454700.549577546
  9
$TDUPDATE
 40
2454700.550064560
  9
$TDINDWG
 40
0.0004871991
  9
$TDUSRTIMER
 40
0.0004871991
  9
$USRTIMER
 70
     1
  9
$ANGBASE
 50
0.0
  9
$ANGDIR
 70
     0
  9
$PDMODE
 70
     0
  9
$PDSIZE
 40
0.0
  9
$PLINEWID
 40
0.0
  9
$COORDS
 70
     1
  9
$SPLFRAME
 70
     0
  9
$SPLINETYPE
 70
     6
  9
$SPLINESEGS
 70
     8
  9
$ATTDIA
 70
     0
  9
$ATTREQ
 70
     1
  9
$HANDLING
 70
 22529
  9
$HANDSEED
  5
206
  9
$SURFTAB1
 70
     6
  9
$SURFTAB2
 70
     6
  9
$SURFTYPE
 70
     6
  9
$SURFU
 70
     6
  9
$SURFV
 70
     6
  9
$UCSNAME
  2

  9
$UCSORG
 10
0.0
 20
0.0
 30
0.0
  9
$UCSXDIR
 10
1.0
 20
0.0
 30
0.0
  9
$UCSYDIR
 10
0.0
 20
1.0
 30
0.0
  9
$PUCSNAME
  2

  9
$PUCSORG
 10
0.0
 20
0.0
 30
0.0
  9
$PUCSXDIR
 10
1.0
 20
0.0
 30
0.0
  9
$PUCSYDIR
 10
0.0
 20
1.0
 30
0.0
  9
$USERI1
 70
     0
  9
$USERI2
 70
     0
  9
$USERI3
 70
     0
  9
$USERI4
 70
     0
  9
$USERI5
 70
     0
  9
$USERR1
 40
0.0
  9
$USERR2
 40
0.0
  9
$USERR3
 40
0.0
  9
$USERR4
 40
0.0
  9
$USERR5
 40
0.0
  9
$WORLDVIEW
 70
     1
  9
$SHADEDGE
 70
     3
  9
$SHADEDIF
 70
    70
  9
$TILEMODE
 70
     1
  9
$MAXACTVP
 70
    64
  9
$PINSBASE
 10
0.0
 20
0.0
 30
0.0
  9
$PLIMCHECK
 70
     0
  9
$PEXTMIN
 10
1.000000000000000E+20
 20
1.000000000000000E+20
 30
1.000000000000000E+20
  9
$PEXTMAX
 10
-1.000000000000000E+20
 20
-1.000000000000000E+20
 30
-1.000000000000000E+20
  9
$PLIMMIN
 10
0.0
 20
0.0
  9
$PLIMMAX
 10
12.0
 20
9.0
  9
$UNITMODE
 70
     0
  9
$VISRETAIN
 70
     1
  9
$PLINEGEN
 70
     0
  9
$PSLTSCALE
 70
     1
  9
$TREEDEPTH
 70
  3020
  9
$PICKSTYLE
 70
     1
  9
$CMLSTYLE
  2
STANDARD
  9
$CMLJUST
 70
     0
  9
$CMLSCALE
 40
1.0
  9
$PROXYGRAPHICS
 70
     1
  9
$MEASUREMENT
 70
     0
  0
ENDSEC
  0
SECTION
  2
CLASSES
  0
CLASS
  1
ACDBDICTIONARYWDFLT
  2
AcDbDictionaryWithDefault
  3
AutoCAD 2000
 90
        0
280
     0
281
     0
  0
CLASS
  1
ACDBPLACEHOLDER
  2
AcDbPlaceHolder
  3
AutoCAD 2000
 90
        0
280
     0
281
     0
  0
CLASS
  1
LAYOUT
  2
AcDbLayout
  3
AutoCAD 2000
 90
        0
280
     0
281
     0
  0
CLASS
  1
DICTIONARYVAR
  2
AcDbDictionaryVar
  3
AutoCAD 2000
 90
        0
280
     0
281
     0
  0
CLASS
  1
LONG_TRANSACTION
  2
AcDbLongTransaction
  3
AutoCAD 2000
 90
        0
280
     0
281
     0
  0
CLASS
  1
LWPOLYLINE
  2
AcDbPolyline
  3
AutoCAD 2000
 90
        0
280
     0
281
     1
  0
CLASS
  1
HATCH
  2
AcDbHatch
  3
AutoCAD 2000
 90
        0
280
     0
281
     1
  0
CLASS
  1
XRECORD
  2
AcDbXrecord
  3
AutoCAD 2000
 90
        0
280
     0
281
     0
  0
ENDSEC
  0
SECTION
  2
TABLES
  0
TABLE
  2
VPORT
  5
8
330
0
100
AcDbSymbolTable
 70
     2
  0
VPORT
  5
1E1
330
8
100
AcDbSymbolTableRecord
100
AcDbViewportTableRecord
  2
*ACTIVE
 70
     0
 10
0.0
 20
0.0
 11
1.0
 21
1.0
 12
109.0
 22
87.5
 13
0.0
 23
0.0
 14
1.0
 24
1.0
 15
0.0
 25
0.0
 16
0.0
 26
0.0
 36
1.0
 17
0.0
 27
0.0
 37
0.0
 40
176.5873325984654
 41
2.078104993597951
 42
50.0
 43
0.0
 44
0.0
 50
0.0
 51
0.0
 71
     0
 72
   100
 73
     1
 74
     3
 75
     0
 76
     0
 77
     0
 78
     0
  0
ENDTAB
  0
TABLE
  2
LTYPE
  5
5
330
0
100
AcDbSymbolTable
 70
     1
  0
LTYPE
  5
13
330
5
100
AcDbSymbolTableRecord
100
AcDbLinetypeTableRecord
  2
BYBLOCK
 70
     0
  3

 72
    65
 73
     0
 40
0.0
  0
LTYPE
  5
14
330
5
100
AcDbSymbolTableRecord
100
AcDbLinetypeTableRecord
  2
BYLAYER
 70
     0
  3

 72
    65
 73
     0
 40
0.0
  0
LTYPE
  5
15
330
5
100
AcDbSymbolTableRecord
100
AcDbLinetypeTableRecord
  2
CONTINUOUS
 70
     0
  3
Solid line
 72
    65
 73
     0
 40
0.0
  0
ENDTAB
  0
TABLE
  2
LAYER
  5
2
330
0
100
AcDbSymbolTable
 70
     1
  0
LAYER
  5
10
330
2
100
AcDbSymbolTableRecord
100
AcDbLayerTableRecord
  2
0
 70
     0
 62
     7
  6
CONTINUOUS
  0
ENDTAB
  0
TABLE
  2
STYLE
  5
3
330
0
100
AcDbSymbolTable
 70
     1
  0
STYLE
  5
11
330
3
100
AcDbSymbolTableRecord
100
AcDbTextStyleTableRecord
  2
STANDARD
 70
     0
 40
0.0
 41
1.0
 50
0.0
 71
     0
 42
0.2
  3
txt
  4

  0
ENDTAB
  0
TABLE
  2
VIEW
  5
6
330
0
100
AcDbSymbolTable
 70
     0
  0
ENDTAB
  0
TABLE
  2
UCS
  5
7
330
0
100
AcDbSymbolTable
 70
     0
  0
ENDTAB
  0
TABLE
  2
APPID
  5
9
330
0
100
AcDbSymbolTable
 70
     1
  0
APPID
  5
12
330
9
100
AcDbSymbolTableRecord
100
AcDbRegAppTableRecord
  2
ACAD
 70
     0
  0
ENDTAB
  0
TABLE
  2
DIMSTYLE
  5
A
330
0
100
AcDbSymbolTable
 70
     1
  0
DIMSTYLE
105
1DB
330
A
100
AcDbSymbolTableRecord
100
AcDbDimStyleTableRecord
  2
STANDARD
 70
     0
  3

  4

  5

  6

  7

 40
1.0
 41
0.18
 42
0.0625
 43
0.38
 44
0.18
 45
0.0
 46
0.0
 47
0.0
 48
0.0
140
0.18
141
0.09
142
0.0
143
25.4
144
1.0
145
0.0
146
1.0
147
0.09
 71
     0
 72
     0
 73
     1
 74
     1
 75
     0
 76
     0
 77
     0
 78
     0
170
     0
171
     2
172
     0
173
     0
174
     0
175
     0
176
     0
177
     0
178
     0
270
     2
271
     4
272
     4
273
     2
274
     2
340
11
275
     0
280
     0
281
     0
282
     0
283
     1
284
     0
285
     0
286
     0
287
     3
288
     0
  0
ENDTAB
  0
TABLE
  2
BLOCK_RECORD
  5
1
330
0
100
AcDbSymbolTable
 70
     0
  0
BLOCK_RECORD
  5
1E
102
{ACAD_XDICTIONARY
360
204
102
}
330
1
100
AcDbSymbolTableRecord
100
AcDbBlockTableRecord
  2
*MODEL_SPACE
  0
BLOCK_RECORD
  5
1A
102
{ACAD_XDICTIONARY
360
202
102
}
330
1
100
AcDbSymbolTableRecord
100
AcDbBlockTableRecord
  2
*PAPER_SPACE
  0
ENDTAB
  0
ENDSEC
  0
SECTION
  2
BLOCKS
  0
BLOCK
  5
1F
330
1E
100
AcDbEntity
  8
0
100
AcDbBlockBegin
  2
*MODEL_SPACE
 70
     0
 10
0.0
 20
0.0
 30
0.0
  3
*MODEL_SPACE
  1

  0
ENDBLK
  5
20
330
1E
100
AcDbEntity
  8
0
100
AcDbBlockEnd
  0
BLOCK
  5
1B
330
1A
100
AcDbEntity
 67
     1
  8
0
100
AcDbBlockBegin
  2
*PAPER_SPACE
 70
     0
 10
0.0
 20
0.0
 30
0.0
  3
*PAPER_SPACE
  1

  0
ENDBLK
  5
1C
330
1A
100
AcDbEntity
 67
     1
  8
0
100
AcDbBlockEnd
  0
ENDSEC
  0
SECTION
  2
ENTITIES
  0
LINE
  5
22
330
1E
100
AcDbEntity
  8
0
100
AcDbLine
 10
-0.0000000000000061
 20
132.1213795
 30
0.0
 11
-0.0000000000000061
 21
129.6213794999999
 31
0.0
  0
LINE
  5
23
330
1E
100
AcDbEntity
  8
0
100
AcDbLine
 10
-0.0000000000000061
 20
132.1213795
 30
0.0
 11
0.499999999999994
 21
133.6213794999999
 31
0.0
  0
LINE
  5
24
330
1E
100
AcDbEntity
  8
0
100
AcDbLine
 10
-0.0000000000000061
 20
129.6213794999999
 30
0.0
 11
-0.0000000000000061
 21
132.1213795
 31
0.0
  0
LINE
  5
25
330
1E
100
AcDbEntity
  8
0
100
AcDbLine
 10
-0.0000000000000061
 20
129.6213794999999
 30
0.0
 11
-0.0000000000000061
 21
124.3213794999999
 31
0.0
  0
LINE
  5
26
330
1E
100
AcDbEntity
  8
0
100
AcDbLine
 10
-0.0000000000000061
 20
124.3213794999999
 30
0.0
 11
-0.0000000000000061
 21
129.6213794999999
 31
0.0
  0
LINE
  5
27
330
1E
100
AcDbEntity
  8
0
100
AcDbLine
 10
-0.0000000000000061
 20
124.3213794999999
 30
0.0
 11
-0.0000000000000061
 21
118.1213794999999
 31
0.0
  0
LINE
  5
28
330
1E
100
AcDbEntity
  8
0
100
AcDbLine
 10
-0.0000000000000061
 20
118.1213794999999
 30
0.0
 11
-0.0000000000000061
 21
124.3213794999999
 31
0.0
  0
LINE
  5
29
330
1E
100
AcDbEntity
  8
0
100
AcDbLine
 10
-0.0000000000000061
 20
118.1213794999999
 30
0.0
 11
-0.0000000000000061
 21
111.6213794999999
 31
0.0
  0
LINE
  5
2A
330
1E
100
AcDbEntity
  8
0
100
AcDbLine
 10
-0.0000000000000061
 20
111.6213794999999
 30
0.0
 11
-0.0000000000000061
 21
118.1213794999999
 31
0.0
  0
LINE
  5
2B
330
1E
100
AcDbEntity
  8
0
100
AcDbLine
 10
-0.0000000000000061
 20
111.6213794999999
 30
0.0
 11
-0.0000000000000061
 21
106.3213795
 31
0.0
  0
LINE
  5
2C
330
1E
100
AcDbEntity
  8
0
100
AcDbLine
 10
-0.0000000000000061
 20
106.3213795
 30
0.0
 11
-0.0000000000000061
 21
111.6213794999999
 31
0.0
  0
LINE
  5
2D
330
1E
100
AcDbEntity
  8
0
100
AcDbLine
 10
-0.0000000000000061
 20
106.3213795
 30
0.0
 11
-0.0000000000000061
 21
101.4213795
 31
0.0
  0
LINE
  5
2E
330
1E
100
AcDbEntity
  8
0
100
AcDbLine
 10
-0.0000000000000061
 20
101.4213795
 30
0.0
 11
-0.0000000000000061
 21
106.3213795
 31
0.0
  0
LINE
  5
2F
330
1E
100
AcDbEntity
  8
0
100
AcDbLine
 10
-0.0000000000000061
 20
101.4213795
 30
0.0
 11
-0.0000000000000061
 21
97.1213795
 31
0.0
  0
LINE
  5
30
330
1E
100
AcDbEntity
  8
0
100
AcDbLine
 10
-0.0000000000000061
 20
97.1213795
 30
0.0
 11
-0.0000000000000061
 21
101.4213795
 31
0.0
  0
LINE
  5
31
330
1E
100
AcDbEntity
  8
0
100
AcDbLine
 10
-0.0000000000000061
 20
97.1213795
 30
0.0
 11
-0.0000000000000061
 21
93.9213795
 31
0.0
  0
LINE
  5
32
330
1E
100
AcDbEntity
  8
0
100
AcDbLine
 10
-0.0000000000000061
 20
93.9213795
 30
0.0
 11
-0.0000000000000061
 21
97.1213795
 31
0.0
  0
LINE
  5
33
330
1E
100
AcDbEntity
  8
0
100
AcDbLine
 10
-0.0000000000000061
 20
93.9213795
 30
0.0
 11
-0.0000000000000061
 21
91.82137950000001
 31
0.0
  0
LINE
  5
34
330
1E
100
AcDbEntity
  8
0
100
AcDbLine
 10
-0.0000000000000061
 20
91.82137950000001
 30
0.0
 11
-0.0000000000000061
 21
93.9213795
 31
0.0
  0
LINE
  5
35
330
1E
100
AcDbEntity
  8
0
100
AcDbLine
 10
-0.0000000000000061
 20
91.82137950000001
 30
0.0
 11
-0.0000000000000061
 21
91.12137950000001
 31
0.0
  0
LINE
  5
36
330
1E
100
AcDbEntity
  8
0
100
AcDbLine
 10
1.999999999999989
 20
89.12137949999999
 30
0.0
 11
85.589674890837
 21
89.12137949999999
 31
0.0
  0
LINE
  5
37
330
1E
100
AcDbEntity
  8
0
100
AcDbLine
 10
1.999999999999989
 20
89.12137949999999
 30
0.0
 11
85.589674890837
 21
89.12137949999999
 31
0.0
  0
LINE
  5
38
330
1E
100
AcDbEntity
  8
0
100
AcDbLine
 10
0.499999999999994
 20
133.6213794999999
 30
0.0
 11
0.499999999999994
 21
130.9213795
 31
0.0
  0
LINE
  5
39
330
1E
100
AcDbEntity
  8
0
100
AcDbLine
 10
0.499999999999994
 20
133.6213794999999
 30
0.0
 11
1.999999999999989
 21
134.1213794999999
 31
0.0
  0
LINE
  5
3A
330
1E
100
AcDbEntity
  8
0
100
AcDbLine
 10
0.499999999999994
 20
130.9213795
 30
0.0
 11
0.499999999999994
 21
133.6213794999999
 31
0.0
  0
LINE
  5
3B
330
1E
100
AcDbEntity
  8
0
100
AcDbLine
 10
0.499999999999994
 20
130.9213795
 30
0.0
 11
0.499999999999994
 21
125.2213795
 31
0.0
  0
LINE
  5
3C
330
1E
100
AcDbEntity
  8
0
100
AcDbLine
 10
0.499999999999994
 20
125.2213795
 30
0.0
 11
0.499999999999994
 21
130.9213795
 31
0.0
  0
LINE
  5
3D
330
1E
100
AcDbEntity
  8
0
100
AcDbLine
 10
0.499999999999994
 20
125.2213795
 30
0.0
 11
0.499999999999994
 21
118.6213795
 31
0.0
  0
LINE
  5
3E
330
1E
100
AcDbEntity
  8
0
100
AcDbLine
 10
0.499999999999994
 20
118.6213795
 30
0.0
 11
0.499999999999994
 21
125.2213795
 31
0.0
  0
LINE
  5
3F
330
1E
100
AcDbEntity
  8
0
100
AcDbLine
 10
0.499999999999994
 20
118.6213795
 30
0.0
 11
0.499999999999994
 21
111.6213794999999
 31
0.0
  0
LINE
  5
40
330
1E
100
AcDbEntity
  8
0
100
AcDbLine
 10
0.499999999999994
 20
111.6213794999999
 30
0.0
 11
0.499999999999994
 21
118.6213795
 31
0.0
  0
LINE
  5
41
330
1E
100
AcDbEntity
  8
0
100
AcDbLine
 10
0.499999999999994
 20
111.6213794999999
 30
0.0
 11
0.499999999999994
 21
105.9213794999999
 31
0.0
  0
LINE
  5
42
330
1E
100
AcDbEntity
  8
0
100
AcDbLine
 10
0.499999999999994
 20
105.9213794999999
 30
0.0
 11
0.499999999999994
 21
111.6213794999999
 31
0.0
  0
LINE
  5
43
330
1E
100
AcDbEntity
  8
0
100
AcDbLine
 10
0.499999999999994
 20
105.9213794999999
 30
0.0
 11
0.499999999999994
 21
100.7213794999999
 31
0.0
  0
LINE
  5
44
330
1E
100
AcDbEntity
  8
0
100
AcDbLine
 10
0.499999999999994
 20
100.7213794999999
 30
0.0
 11
0.499999999999994
 21
105.9213794999999
 31
0.0
  0
LINE
  5
45
330
1E
100
AcDbEntity
  8
0
100
AcDbLine
 10
0.499999999999994
 20
100.7213794999999
 30
0.0
 11
0.499999999999994
 21
96.12137950000001
 31
0.0
  0
LINE
  5
46
330
1E
100
AcDbEntity
  8
0
100
AcDbLine
 10
0.499999999999994
 20
96.12137950000001
 30
0.0
 11
0.499999999999994
 21
100.7213794999999
 31
0.0
  0
LINE
  5
47
330
1E
100
AcDbEntity
  8
0
100
AcDbLine
 10
0.499999999999994
 20
96.12137950000001
 30
0.0
 11
0.499999999999994
 21
92.62137950000001
 31
0.0
  0
LINE
  5
48
330
1E
100
AcDbEntity
  8
0
100
AcDbLine
 10
0.499999999999994
 20
92.62137950000001
 30
0.0
 11
0.499999999999994
 21
96.12137950000001
 31
0.0
  0
LINE
  5
49
330
1E
100
AcDbEntity
  8
0
100
AcDbLine
 10
0.499999999999994
 20
92.62137950000001
 30
0.0
 11
0.499999999999994
 21
90.4213795
 31
0.0
  0
LINE
  5
4A
330
1E
100
AcDbEntity
  8
0
100
AcDbLine
 10
1.999999999999989
 20
134.1213794999999
 30
0.0
 11
109.0
 21
134.1213794999999
 31
0.0
  0
LINE
  5
4B
330
1E
100
AcDbEntity
  8
0
100
AcDbLine
 10
1.999999999999989
 20
134.1213794999999
 30
0.0
 11
109.0
 21
134.1213794999999
 31
0.0
  0
LINE
  5
4C
330
1E
100
AcDbEntity
  8
0
100
AcDbLine
 10
0.499999999999994
 20
90.4213795
 30
0.0
 11
0.499999999999994
 21
92.62137950000001
 31
0.0
  0
LINE
  5
4D
330
1E
100
AcDbEntity
  8
0
100
AcDbLine
 10
0.499999999999994
 20
90.4213795
 30
0.0
 11
0.499999999999994
 21
89.6213795
 31
0.0
  0
LINE
  5
4E
330
1E
100
AcDbEntity
  8
0
100
AcDbLine
 10
0.499999999999994
 20
89.6213795
 30
0.0
 11
0.499999999999994
 21
90.4213795
 31
0.0
  0
LINE
  5
4F
330
1E
100
AcDbEntity
  8
0
100
AcDbLine
 10
0.499999999999994
 20
89.6213795
 30
0.0
 11
1.999999999999989
 21
89.12137949999999
 31
0.0
  0
LINE
  5
50
330
1E
100
AcDbEntity
  8
0
100
AcDbLine
 10
-0.0000000000000061
 20
91.12137950000001
 30
0.0
 11
-0.0000000000000061
 21
91.82137950000001
 31
0.0
  0
LINE
  5
51
330
1E
100
AcDbEntity
  8
0
100
AcDbLine
 10
-0.0000000000000061
 20
91.12137950000001
 30
0.0
 11
0.499999999999994
 21
89.6213795
 31
0.0
  0
LINE
  5
52
330
1E
100
AcDbEntity
  8
0
100
AcDbLine
 10
2.66666999999999
 20
152.1213794999999
 30
0.0
 11
23.0
 21
152.1213794999999
 31
0.0
  0
LINE
  5
53
330
1E
100
AcDbEntity
  8
0
100
AcDbLine
 10
2.66666999999999
 20
152.1213794999999
 30
0.0
 11
3.86666999999999
 21
152.1213794999999
 31
0.0
  0
LINE
  5
54
330
1E
100
AcDbEntity
  8
0
100
AcDbLine
 10
2.66666999999999
 20
152.1213794999999
 30
0.0
 11
23.0
 21
152.1213794999999
 31
0.0
  0
LINE
  5
55
330
1E
100
AcDbEntity
  8
0
100
AcDbLine
 10
3.86666999999999
 20
152.1213794999999
 30
0.0
 11
6.79999999999999
 21
152.1213794999999
 31
0.0
  0
LINE
  5
56
330
1E
100
AcDbEntity
  8
0
100
AcDbLine
 10
6.79999999999999
 20
152.1213794999999
 30
0.0
 11
11.8667
 21
152.1213794999999
 31
0.0
  0
LINE
  5
57
330
1E
100
AcDbEntity
  8
0
100
AcDbLine
 10
0.6666669999999941
 20
152.6213794999999
 30
0.0
 11
2.66666999999999
 21
152.1213794999999
 31
0.0
  0
LINE
  5
58
330
1E
100
AcDbEntity
  8
0
100
AcDbLine
 10
0.6666669999999941
 20
152.6213794999999
 30
0.0
 11
1.866669999999989
 21
152.6213794999999
 31
0.0
  0
LINE
  5
59
330
1E
100
AcDbEntity
  8
0
100
AcDbLine
 10
-0.0000000000000061
 20
175.1213794999999
 30
0.0
 11
1.199999999999989
 21
175.1213794999999
 31
0.0
  0
LINE
  5
5A
330
1E
100
AcDbEntity
  8
0
100
AcDbLine
 10
-0.0000000000000061
 20
175.1213794999999
 30
0.0
 11
-0.0000000000000061
 21
154.1213794999999
 31
0.0
  0
LINE
  5
5B
330
1E
100
AcDbEntity
  8
0
100
AcDbLine
 10
-0.0000000000000061
 20
154.1213794999999
 30
0.0
 11
0.6666669999999941
 21
152.6213794999999
 31
0.0
  0
LINE
  5
5C
330
1E
100
AcDbEntity
  8
0
100
AcDbLine
 10
-0.0000000000000061
 20
154.1213794999999
 30
0.0
 11
-0.0000000000000061
 21
175.1213794999999
 31
0.0
  0
LINE
  5
5D
330
1E
100
AcDbEntity
  8
0
100
AcDbLine
 10
1.866669999999989
 20
152.6213794999999
 30
0.0
 11
5.19999999999999
 21
152.6213794999999
 31
0.0
  0
LINE
  5
5E
330
1E
100
AcDbEntity
  8
0
100
AcDbLine
 10
5.19999999999999
 20
152.6213794999999
 30
0.0
 11
10.4
 21
152.6213794999999
 31
0.0
  0
LINE
  5
5F
330
1E
100
AcDbEntity
  8
0
100
AcDbLine
 10
4.53329999999999
 20
175.1213794999999
 30
0.0
 11
9.999999999999991
 21
175.1213794999999
 31
0.0
  0
LINE
  5
60
330
1E
100
AcDbEntity
  8
0
100
AcDbLine
 10
1.199999999999989
 20
175.1213794999999
 30
0.0
 11
4.53329999999999
 21
175.1213794999999
 31
0.0
  0
LINE
  5
61
330
1E
100
AcDbEntity
  8
0
100
AcDbLine
 10
10.4
 20
152.6213794999999
 30
0.0
 11
17.46669999999999
 21
152.6213794999999
 31
0.0
  0
LINE
  5
62
330
1E
100
AcDbEntity
  8
0
100
AcDbLine
 10
17.46669999999999
 20
152.6213794999999
 30
0.0
 11
25.4667
 21
152.6213794999999
 31
0.0
  0
LINE
  5
63
330
1E
100
AcDbEntity
  8
0
100
AcDbLine
 10
9.999999999999991
 20
175.1213794999999
 30
0.0
 11
17.0667
 21
175.1213794999999
 31
0.0
  0
LINE
  5
64
330
1E
100
AcDbEntity
  8
0
100
AcDbLine
 10
17.0667
 20
175.1213794999999
 30
0.0
 11
25.2
 21
175.1213794999999
 31
0.0
  0
LINE
  5
65
330
1E
100
AcDbEntity
  8
0
100
AcDbLine
 10
0.6666669999999941
 20
152.6213794999999
 30
0.0
 11
2.66666999999999
 21
152.1213794999999
 31
0.0
  0
LINE
  5
66
330
1E
100
AcDbEntity
  8
0
100
AcDbLine
 10
0.6666669999999941
 20
152.6213794999999
 30
0.0
 11
1.866669999999989
 21
152.6213794999999
 31
0.0
  0
LINE
  5
67
330
1E
100
AcDbEntity
  8
0
100
AcDbLine
 10
11.8667
 20
152.1213794999999
 30
0.0
 11
18.39999999999999
 21
152.1213794999999
 31
0.0
  0
LINE
  5
68
330
1E
100
AcDbEntity
  8
0
100
AcDbLine
 10
24.8
 20
136.1213794999999
 30
0.0
 11
27.5
 21
136.1213794999999
 31
0.0
  0
LINE
  5
69
330
1E
100
AcDbEntity
  8
0
100
AcDbLine
 10
27.5
 20
136.1213794999999
 30
0.0
 11
30.6
 21
136.1213794999999
 31
0.0
  0
LINE
  5
6A
330
1E
100
AcDbEntity
  8
0
100
AcDbLine
 10
40.49999999999999
 20
136.1213794999999
 30
0.0
 11
43.2
 21
136.1213794999999
 31
0.0
  0
LINE
  5
6B
330
1E
100
AcDbEntity
  8
0
100
AcDbLine
 10
37.4
 20
136.1213794999999
 30
0.0
 11
40.49999999999999
 21
136.1213794999999
 31
0.0
  0
LINE
  5
6C
330
1E
100
AcDbEntity
  8
0
100
AcDbLine
 10
85.0
 20
93.2981795
 30
0.0
 11
85.84709999999999
 21
87.29797950000001
 31
0.0
  0
LINE
  5
6D
330
1E
100
AcDbEntity
  8
0
100
AcDbLine
 10
85.0
 20
93.2981795
 30
0.0
 11
85.0
 21
101.3643794999999
 31
0.0
  0
LINE
  5
6E
330
1E
100
AcDbEntity
  8
0
100
AcDbLine
 10
85.84709999999999
 20
87.29797950000001
 30
0.0
 11
88.2
 21
81.75247950000001
 31
0.0
  0
LINE
  5
6F
330
1E
100
AcDbEntity
  8
0
100
AcDbLine
 10
88.2
 20
81.75247950000001
 30
0.0
 11
92.0588
 21
76.9342795
 31
0.0
  0
LINE
  5
70
330
1E
100
AcDbEntity
  8
0
100
AcDbLine
 10
86.31759999999999
 20
87.11317949999999
 30
0.0
 11
88.6706
 21
81.65857950000001
 31
0.0
  0
LINE
  5
71
330
1E
100
AcDbEntity
  8
0
100
AcDbLine
 10
88.6706
 20
81.65857950000001
 30
0.0
 11
92.3412
 21
76.8402795
 31
0.0
  0
LINE
  5
72
330
1E
100
AcDbEntity
  8
0
100
AcDbLine
 10
85.4706
 20
92.9313795
 30
0.0
 11
86.31759999999999
 21
98.74977950000001
 31
0.0
  0
LINE
  5
73
330
1E
100
AcDbEntity
  8
0
100
AcDbLine
 10
85.4706
 20
92.9313795
 30
0.0
 11
86.31759999999999
 21
87.11317949999999
 31
0.0
  0
LINE
  5
74
330
1E
100
AcDbEntity
  8
0
100
AcDbLine
 10
85.0
 20
105.8213794999999
 30
0.0
 11
85.0
 21
101.9753794999999
 31
0.0
  0
LINE
  5
75
330
1E
100
AcDbEntity
  8
0
100
AcDbLine
 10
85.0
 20
101.9753794999999
 30
0.0
 11
85.04503890600251
 21
101.6599955044549
 31
0.0
  0
LINE
  5
76
330
1E
100
AcDbEntity
  8
0
100
AcDbLine
 10
85.0
 20
101.9753794999999
 30
0.0
 11
85.0
 21
105.8213794999999
 31
0.0
  0
LINE
  5
77
330
1E
100
AcDbEntity
  8
0
100
AcDbLine
 10
85.0
 20
101.3643794999999
 30
0.0
 11
85.0
 21
93.2981795
 31
0.0
  0
LINE
  5
78
330
1E
100
AcDbEntity
  8
0
100
AcDbLine
 10
85.0
 20
101.3643794999999
 30
0.0
 11
85.84709999999999
 21
106.9243794999999
 31
0.0
  0
LINE
  5
79
330
1E
100
AcDbEntity
  8
0
100
AcDbLine
 10
86.27054726793309
 20
107.84761656256
 30
0.0
 11
88.5294
 21
113.2023795
 31
0.0
  0
LINE
  5
7A
330
1E
100
AcDbEntity
  8
0
100
AcDbLine
 10
85.84709999999999
 20
106.9243794999999
 30
0.0
 11
88.2
 21
112.0543794999999
 31
0.0
  0
LINE
  5
7B
330
1E
100
AcDbEntity
  8
0
100
AcDbLine
 10
86.31759999999999
 20
98.74977950000001
 30
0.0
 11
88.6706
 21
104.2043795
 31
0.0
  0
LINE
  5
7C
330
1E
100
AcDbEntity
  8
0
100
AcDbLine
 10
96.45290000000001
 20
2.806829500000009
 30
0.0
 11
100.1589999999999
 21
1.22320950000001
 31
0.0
  0
LINE
  5
7D
330
1E
100
AcDbEntity
  8
0
100
AcDbLine
 10
93.6471
 20
4.898399500000009
 30
0.0
 11
96.45290000000001
 21
2.806829500000009
 31
0.0
  0
LINE
  5
7E
330
1E
100
AcDbEntity
  8
0
100
AcDbLine
 10
91.90000000000001
 20
7.3186795
 30
0.0
 11
93.6471
 21
4.898399500000009
 31
0.0
  0
LINE
  5
7F
330
1E
100
AcDbEntity
  8
0
100
AcDbLine
 10
91.63529999999999
 20
7.765019500000001
 30
0.0
 11
91.90000000000001
 21
7.3186795
 31
0.0
  0
LINE
  5
80
330
1E
100
AcDbEntity
  8
0
100
AcDbLine
 10
91.0
 20
10.36457949999999
 30
0.0
 11
91.0
 21
78.25632525515709
 31
0.0
  0
LINE
  5
81
330
1E
100
AcDbEntity
  8
0
100
AcDbLine
 10
91.0
 20
10.36457949999999
 30
0.0
 11
91.63529999999999
 21
7.765019500000001
 31
0.0
  0
LINE
  5
82
330
1E
100
AcDbEntity
  8
0
100
AcDbLine
 10
97.0471
 20
73.20687949999999
 30
0.0
 11
102.7879999999999
 21
70.9341795
 31
0.0
  0
LINE
  5
83
330
1E
100
AcDbEntity
  8
0
100
AcDbLine
 10
91.0
 20
78.25632525515709
 30
0.0
 11
91.0
 21
10.36457949999999
 31
0.0
  0
LINE
  5
84
330
1E
100
AcDbEntity
  8
0
100
AcDbLine
 10
92.0588
 20
76.9342795
 30
0.0
 11
97.0471
 21
73.20687949999999
 31
0.0
  0
LINE
  5
85
330
1E
100
AcDbEntity
  8
0
100
AcDbLine
 10
92.3412
 20
76.8402795
 30
0.0
 11
97.32940000000001
 21
73.29477950000001
 31
0.0
  0
LINE
  5
86
330
1E
100
AcDbEntity
  8
0
100
AcDbLine
 10
97.32940000000001
 20
73.29477950000001
 30
0.0
 11
102.976
 21
71.0220795
 31
0.0
  0
LINE
  5
87
330
1E
100
AcDbEntity
  8
0
100
AcDbLine
 10
88.6706
 20
104.2043795
 30
0.0
 11
92.3412
 21
109.0223794999999
 31
0.0
  0
LINE
  5
88
330
1E
100
AcDbEntity
  8
0
100
AcDbLine
 10
88.5294
 20
113.2023795
 30
0.0
 11
92.27059999999999
 21
117.9753794999999
 31
0.0
  0
LINE
  5
89
330
1E
100
AcDbEntity
  8
0
100
AcDbLine
 10
88.2
 20
112.0543794999999
 30
0.0
 11
92.0588
 21
116.5063795
 31
0.0
  0
LINE
  5
8A
330
1E
100
AcDbEntity
  8
0
100
AcDbLine
 10
92.3412
 20
109.0223794999999
 30
0.0
 11
97.32940000000001
 21
112.5683795
 31
0.0
  0
LINE
  5
8B
330
1E
100
AcDbEntity
  8
0
100
AcDbLine
 10
100.1589999999999
 20
1.22320950000001
 30
0.0
 11
104.447
 21
0.237176500000006
 31
0.0
  0
LINE
  5
8C
330
1E
100
AcDbEntity
  8
0
100
AcDbLine
 10
100.1589999999999
 20
1.22320950000001
 30
0.0
 11
104.447
 21
0.237176500000006
 31
0.0
  0
LINE
  5
8D
330
1E
100
AcDbEntity
  8
0
100
AcDbLine
 10
100.0
 20
34.6214795
 30
0.0
 11
100.0
 21
30.2149795
 31
0.0
  0
LINE
  5
8E
330
1E
100
AcDbEntity
  8
0
100
AcDbLine
 10
100.0
 20
34.6214795
 30
0.0
 11
100.2999999999999
 21
36.88167949999999
 31
0.0
  0
LINE
  5
8F
330
1E
100
AcDbEntity
  8
0
100
AcDbLine
 10
100.2999999999999
 20
36.88167949999999
 30
0.0
 11
101.2
 21
38.9680795
 31
0.0
  0
LINE
  5
90
330
1E
100
AcDbEntity
  8
0
100
AcDbLine
 10
100.2999999999999
 20
32.4752795
 30
0.0
 11
101.2
 21
34.56167949999999
 31
0.0
  0
LINE
  5
91
330
1E
100
AcDbEntity
  8
0
100
AcDbLine
 10
100.0
 20
30.2149795
 30
0.0
 11
100.2999999999999
 21
27.95477949999999
 31
0.0
  0
LINE
  5
92
330
1E
100
AcDbEntity
  8
0
100
AcDbLine
 10
100.0
 20
30.2149795
 30
0.0
 11
100.0
 21
34.6214795
 31
0.0
  0
LINE
  5
93
330
1E
100
AcDbEntity
  8
0
100
AcDbLine
 10
100.0
 20
30.2149795
 30
0.0
 11
100.2999999999999
 21
32.4752795
 31
0.0
  0
LINE
  5
94
330
1E
100
AcDbEntity
  8
0
100
AcDbLine
 10
101.2
 20
34.56167949999999
 30
0.0
 11
102.6399999999999
 21
36.35817949999999
 31
0.0
  0
LINE
  5
95
330
1E
100
AcDbEntity
  8
0
100
AcDbLine
 10
101.2
 20
38.9680795
 30
0.0
 11
102.6399999999999
 21
40.7646795
 31
0.0
  0
LINE
  5
96
330
1E
100
AcDbEntity
  8
0
100
AcDbLine
 10
102.6399999999999
 20
40.7646795
 30
0.0
 11
104.4999999999999
 21
42.15557949999999
 31
0.0
  0
LINE
  5
97
330
1E
100
AcDbEntity
  8
0
100
AcDbLine
 10
102.6399999999999
 20
36.35817949999999
 30
0.0
 11
104.4999999999999
 21
37.7490795
 31
0.0
  0
LINE
  5
98
330
1E
100
AcDbEntity
  8
0
100
AcDbLine
 10
100.2999999999999
 20
27.95477949999999
 30
0.0
 11
101.2
 21
25.8683795
 31
0.0
  0
LINE
  5
99
330
1E
100
AcDbEntity
  8
0
100
AcDbLine
 10
101.2
 20
25.8683795
 30
0.0
 11
102.6399999999999
 21
24.0716795
 31
0.0
  0
LINE
  5
9A
330
1E
100
AcDbEntity
  8
0
100
AcDbLine
 10
102.6399999999999
 20
24.0716795
 30
0.0
 11
104.4999999999999
 21
22.68077949999999
 31
0.0
  0
LINE
  5
9B
330
1E
100
AcDbEntity
  8
0
100
AcDbLine
 10
100.0529999999999
 20
1.579939500000009
 30
0.0
 11
104.3939999999999
 21
0.564031500000006
 31
0.0
  0
LINE
  5
9C
330
1E
100
AcDbEntity
  8
0
100
AcDbLine
 10
109.0
 20
-0.121379499999994
 30
0.0
 11
113.5529999999999
 21
0.237176500000006
 31
0.0
  0
LINE
  5
9D
330
1E
100
AcDbEntity
  8
0
100
AcDbLine
 10
109.0
 20
-0.121379499999994
 30
0.0
 11
113.5529999999999
 21
0.237176500000006
 31
0.0
  0
LINE
  5
9E
330
1E
100
AcDbEntity
  8
0
100
AcDbLine
 10
109.0
 20
0.205475500000006
 30
0.0
 11
113.606
 21
0.564031500000006
 31
0.0
  0
LINE
  5
9F
330
1E
100
AcDbEntity
  8
0
100
AcDbLine
 10
113.5529999999999
 20
0.237176500000006
 30
0.0
 11
117.841
 21
1.22320950000001
 31
0.0
  0
LINE
  5
A0
330
1E
100
AcDbEntity
  8
0
100
AcDbLine
 10
113.5529999999999
 20
0.237176500000006
 30
0.0
 11
117.841
 21
1.22320950000001
 31
0.0
  0
LINE
  5
A1
330
1E
100
AcDbEntity
  8
0
100
AcDbLine
 10
109.0
 20
0.205475500000006
 30
0.0
 11
113.606
 21
0.564031500000006
 31
0.0
  0
LINE
  5
A2
330
1E
100
AcDbEntity
  8
0
100
AcDbLine
 10
104.447
 20
0.237176500000006
 30
0.0
 11
109.0
 21
-0.121379499999994
 31
0.0
  0
LINE
  5
A3
330
1E
100
AcDbEntity
  8
0
100
AcDbLine
 10
104.4999999999999
 20
22.68077949999999
 30
0.0
 11
106.6599999999999
 21
21.8113795
 31
0.0
  0
LINE
  5
A4
330
1E
100
AcDbEntity
  8
0
100
AcDbLine
 10
117.841
 20
1.22320950000001
 30
0.0
 11
121.547
 21
2.806829500000009
 31
0.0
  0
LINE
  5
A5
330
1E
100
AcDbEntity
  8
0
100
AcDbLine
 10
113.606
 20
0.564031500000006
 30
0.0
 11
117.947
 21
1.579939500000009
 31
0.0
  0
LINE
  5
A6
330
1E
100
AcDbEntity
  8
0
100
AcDbLine
 10
121.547
 20
2.806829500000009
 30
0.0
 11
124.353
 21
4.898399500000009
 31
0.0
  0
LINE
  5
A7
330
1E
100
AcDbEntity
  8
0
100
AcDbLine
 10
124.353
 20
4.898399500000009
 30
0.0
 11
126.0999999999999
 21
7.3186795
 31
0.0
  0
LINE
  5
A8
330
1E
100
AcDbEntity
  8
0
100
AcDbLine
 10
126.0999999999999
 20
7.3186795
 30
0.0
 11
126.3649999999999
 21
7.765019500000001
 31
0.0
  0
LINE
  5
A9
330
1E
100
AcDbEntity
  8
0
100
AcDbLine
 10
127.0
 20
10.36457949999999
 30
0.0
 11
127.0
 21
78.256506449987
 31
0.0
  0
LINE
  5
AA
330
1E
100
AcDbEntity
  8
0
100
AcDbLine
 10
126.3649999999999
 20
7.765019500000001
 30
0.0
 11
127.0
 21
10.36457949999999
 31
0.0
  0
LINE
  5
AB
330
1E
100
AcDbEntity
  8
0
100
AcDbLine
 10
110.0
 20
29.61007949999999
 30
0.0
 11
111.0
 21
29.6250795
 31
0.0
  0
LINE
  5
AC
330
1E
100
AcDbEntity
  8
0
100
AcDbLine
 10
109.0
 20
29.60617949999999
 30
0.0
 11
110.0
 21
29.61007949999999
 31
0.0
  0
LINE
  5
AD
330
1E
100
AcDbEntity
  8
0
100
AcDbLine
 10
117.7
 20
27.95477949999999
 30
0.0
 11
118.0
 21
30.2149795
 31
0.0
  0
LINE
  5
AE
330
1E
100
AcDbEntity
  8
0
100
AcDbLine
 10
116.7999999999999
 20
25.8683795
 30
0.0
 11
117.7
 21
27.95477949999999
 31
0.0
  0
LINE
  5
AF
330
1E
100
AcDbEntity
  8
0
100
AcDbLine
 10
115.3599999999999
 20
24.0716795
 30
0.0
 11
116.7999999999999
 21
25.8683795
 31
0.0
  0
LINE
  5
B0
330
1E
100
AcDbEntity
  8
0
100
AcDbLine
 10
113.5
 20
22.68077949999999
 30
0.0
 11
115.3599999999999
 21
24.0716795
 31
0.0
  0
LINE
  5
B1
330
1E
100
AcDbEntity
  8
0
100
AcDbLine
 10
111.34
 20
21.8113795
 30
0.0
 11
113.5
 21
22.68077949999999
 31
0.0
  0
LINE
  5
B2
330
1E
100
AcDbEntity
  8
0
100
AcDbLine
 10
109.0
 20
21.5216795
 30
0.0
 11
111.34
 21
21.8113795
 31
0.0
  0
LINE
  5
B3
330
1E
100
AcDbEntity
  8
0
100
AcDbLine
 10
106.6599999999999
 20
21.8113795
 30
0.0
 11
109.0
 21
21.5216795
 31
0.0
  0
LINE
  5
B4
330
1E
100
AcDbEntity
  8
0
100
AcDbLine
 10
104.447
 20
0.237176500000006
 30
0.0
 11
109.0
 21
-0.121379499999994
 31
0.0
  0
LINE
  5
B5
330
1E
100
AcDbEntity
  8
0
100
AcDbLine
 10
104.3939999999999
 20
0.564031500000006
 30
0.0
 11
109.0
 21
0.205475500000006
 31
0.0
  0
LINE
  5
B6
330
1E
100
AcDbEntity
  8
0
100
AcDbLine
 10
104.3939999999999
 20
0.564031500000006
 30
0.0
 11
109.0
 21
0.205475500000006
 31
0.0
  0
LINE
  5
B7
330
1E
100
AcDbEntity
  8
0
100
AcDbLine
 10
104.4999999999999
 20
70.7086596030264
 30
0.0
 11
104.4999999999999
 21
30.25667949999999
 31
0.0
  0
LINE
  5
B8
330
1E
100
AcDbEntity
  8
0
100
AcDbLine
 10
104.7
 20
30.3018795
 30
0.0
 11
105.0999999999999
 21
30.3395795
 31
0.0
  0
LINE
  5
B9
330
1E
100
AcDbEntity
  8
0
100
AcDbLine
 10
104.4999999999999
 20
30.25667949999999
 30
0.0
 11
105.0
 21
29.7570795
 31
0.0
  0
LINE
  5
BA
330
1E
100
AcDbEntity
  8
0
100
AcDbLine
 10
104.4999999999999
 20
30.25667949999999
 30
0.0
 11
104.4999999999999
 21
70.7086596030264
 31
0.0
  0
LINE
  5
BB
330
1E
100
AcDbEntity
  8
0
100
AcDbLine
 10
104.4999999999999
 20
30.25667949999999
 30
0.0
 11
104.7
 21
30.3018795
 31
0.0
  0
LINE
  5
BC
330
1E
100
AcDbEntity
  8
0
100
AcDbLine
 10
105.0999999999999
 20
29.7946795
 30
0.0
 11
105.4999999999999
 21
29.83247949999999
 31
0.0
  0
LINE
  5
BD
330
1E
100
AcDbEntity
  8
0
100
AcDbLine
 10
105.0999999999999
 20
30.3395795
 30
0.0
 11
105.8
 21
30.37717949999999
 31
0.0
  0
LINE
  5
BE
330
1E
100
AcDbEntity
  8
0
100
AcDbLine
 10
105.4999999999999
 20
29.83247949999999
 30
0.0
 11
106.0999999999999
 21
29.86617949999999
 31
0.0
  0
LINE
  5
BF
330
1E
100
AcDbEntity
  8
0
100
AcDbLine
 10
105.0
 20
29.7570795
 30
0.0
 11
105.0999999999999
 21
29.71917949999999
 31
0.0
  0
LINE
  5
C0
330
1E
100
AcDbEntity
  8
0
100
AcDbLine
 10
105.0
 20
29.7570795
 30
0.0
 11
105.0999999999999
 21
29.7946795
 31
0.0
  0
LINE
  5
C1
330
1E
100
AcDbEntity
  8
0
100
AcDbLine
 10
105.0999999999999
 20
29.71917949999999
 30
0.0
 11
105.4999999999999
 21
29.6814795
 31
0.0
  0
LINE
  5
C2
330
1E
100
AcDbEntity
  8
0
100
AcDbLine
 10
106.0999999999999
 20
29.86617949999999
 30
0.0
 11
107.0
 21
29.8889795
 31
0.0
  0
LINE
  5
C3
330
1E
100
AcDbEntity
  8
0
100
AcDbLine
 10
105.8
 20
30.37717949999999
 30
0.0
 11
106.8
 21
30.4036795
 31
0.0
  0
LINE
  5
C4
330
1E
100
AcDbEntity
  8
0
100
AcDbLine
 10
106.8
 20
30.4036795
 30
0.0
 11
107.8
 21
30.4185795
 31
0.0
  0
LINE
  5
C5
330
1E
100
AcDbEntity
  8
0
100
AcDbLine
 10
107.0
 20
29.8889795
 30
0.0
 11
108.0
 21
29.9038795
 31
0.0
  0
LINE
  5
C6
330
1E
100
AcDbEntity
  8
0
100
AcDbLine
 10
105.4999999999999
 20
29.6814795
 30
0.0
 11
106.0999999999999
 21
29.6477795
 31
0.0
  0
LINE
  5
C7
330
1E
100
AcDbEntity
  8
0
100
AcDbLine
 10
106.0999999999999
 20
29.6477795
 30
0.0
 11
107.0
 21
29.6250795
 31
0.0
  0
LINE
  5
C8
330
1E
100
AcDbEntity
  8
0
100
AcDbLine
 10
111.0
 20
29.8889795
 30
0.0
 11
111.8999999999999
 21
29.86617949999999
 31
0.0
  0
LINE
  5
C9
330
1E
100
AcDbEntity
  8
0
100
AcDbLine
 10
110.0
 20
29.9038795
 30
0.0
 11
111.0
 21
29.8889795
 31
0.0
  0
LINE
  5
CA
330
1E
100
AcDbEntity
  8
0
100
AcDbLine
 10
112.5
 20
29.83247949999999
 30
0.0
 11
112.9
 21
29.7946795
 31
0.0
  0
LINE
  5
CB
330
1E
100
AcDbEntity
  8
0
100
AcDbLine
 10
111.8999999999999
 20
29.86617949999999
 30
0.0
 11
112.5
 21
29.83247949999999
 31
0.0
  0
LINE
  5
CC
330
1E
100
AcDbEntity
  8
0
100
AcDbLine
 10
112.9
 20
29.7946795
 30
0.0
 11
113.0
 21
29.7570795
 31
0.0
  0
LINE
  5
CD
330
1E
100
AcDbEntity
  8
0
100
AcDbLine
 10
113.0
 20
29.7570795
 30
0.0
 11
113.5
 21
30.25667949999999
 31
0.0
  0
LINE
  5
CE
330
1E
100
AcDbEntity
  8
0
100
AcDbLine
 10
112.9
 20
29.71917949999999
 30
0.0
 11
113.0
 21
29.7570795
 31
0.0
  0
LINE
  5
CF
330
1E
100
AcDbEntity
  8
0
100
AcDbLine
 10
112.5
 20
29.6814795
 30
0.0
 11
112.9
 21
29.71917949999999
 31
0.0
  0
LINE
  5
D0
330
1E
100
AcDbEntity
  8
0
100
AcDbLine
 10
111.8999999999999
 20
29.6477795
 30
0.0
 11
112.5
 21
29.6814795
 31
0.0
  0
LINE
  5
D1
330
1E
100
AcDbEntity
  8
0
100
AcDbLine
 10
111.0
 20
29.6250795
 30
0.0
 11
111.8999999999999
 21
29.6477795
 31
0.0
  0
LINE
  5
D2
330
1E
100
AcDbEntity
  8
0
100
AcDbLine
 10
113.5
 20
30.25667949999999
 30
0.0
 11
113.5
 21
70.7086596030264
 31
0.0
  0
LINE
  5
D3
330
1E
100
AcDbEntity
  8
0
100
AcDbLine
 10
113.3
 20
30.3018795
 30
0.0
 11
113.5
 21
30.25667949999999
 31
0.0
  0
LINE
  5
D4
330
1E
100
AcDbEntity
  8
0
100
AcDbLine
 10
112.9
 20
30.3395795
 30
0.0
 11
113.3
 21
30.3018795
 31
0.0
  0
LINE
  5
D5
330
1E
100
AcDbEntity
  8
0
100
AcDbLine
 10
112.2
 20
30.37717949999999
 30
0.0
 11
112.9
 21
30.3395795
 31
0.0
  0
LINE
  5
D6
330
1E
100
AcDbEntity
  8
0
100
AcDbLine
 10
111.2
 20
30.4036795
 30
0.0
 11
112.2
 21
30.37717949999999
 31
0.0
  0
LINE
  5
D7
330
1E
100
AcDbEntity
  8
0
100
AcDbLine
 10
110.2
 20
30.4185795
 30
0.0
 11
111.2
 21
30.4036795
 31
0.0
  0
LINE
  5
D8
330
1E
100
AcDbEntity
  8
0
100
AcDbLine
 10
109.0
 20
30.4261795
 30
0.0
 11
110.2
 21
30.4185795
 31
0.0
  0
LINE
  5
D9
330
1E
100
AcDbEntity
  8
0
100
AcDbLine
 10
109.0
 20
29.9077795
 30
0.0
 11
110.0
 21
29.9038795
 31
0.0
  0
LINE
  5
DA
330
1E
100
AcDbEntity
  8
0
100
AcDbLine
 10
118.0
 20
30.2149795
 30
0.0
 11
118.0
 21
34.6214795
 31
0.0
  0
LINE
  5
DB
330
1E
100
AcDbEntity
  8
0
100
AcDbLine
 10
117.7
 20
32.4752795
 30
0.0
 11
118.0
 21
30.2149795
 31
0.0
  0
LINE
  5
DC
330
1E
100
AcDbEntity
  8
0
100
AcDbLine
 10
116.7999999999999
 20
34.56167949999999
 30
0.0
 11
117.7
 21
32.4752795
 31
0.0
  0
LINE
  5
DD
330
1E
100
AcDbEntity
  8
0
100
AcDbLine
 10
113.5
 20
70.7086596030264
 30
0.0
 11
113.5
 21
30.25667949999999
 31
0.0
  0
LINE
  5
DE
330
1E
100
AcDbEntity
  8
0
100
AcDbLine
 10
113.3
 20
70.6823138206697
 30
0.0
 11
115.212
 21
70.9341795
 31
0.0
  0
LINE
  5
DF
330
1E
100
AcDbEntity
  8
0
100
AcDbLine
 10
112.7599482055779
 20
70.71456834824108
 30
0.0
 11
115.0239999999999
 21
71.0220795
 31
0.0
  0
LINE
  5
E0
330
1E
100
AcDbEntity
  8
0
100
AcDbLine
 10
113.5
 20
42.15557949999999
 30
0.0
 11
115.3599999999999
 21
40.7646795
 31
0.0
  0
LINE
  5
E1
330
1E
100
AcDbEntity
  8
0
100
AcDbLine
 10
115.212
 20
70.9341795
 30
0.0
 11
120.9529999999999
 21
73.20687949999999
 31
0.0
  0
LINE
  5
E2
330
1E
100
AcDbEntity
  8
0
100
AcDbLine
 10
115.0239999999999
 20
71.0220795
 30
0.0
 11
120.671
 21
73.29477950000001
 31
0.0
  0
LINE
  5
E3
330
1E
100
AcDbEntity
  8
0
100
AcDbLine
 10
117.7
 20
36.88167949999999
 30
0.0
 11
118.0
 21
34.6214795
 31
0.0
  0
LINE
  5
E4
330
1E
100
AcDbEntity
  8
0
100
AcDbLine
 10
116.7999999999999
 20
38.9680795
 30
0.0
 11
117.7
 21
36.88167949999999
 31
0.0
  0
LINE
  5
E5
330
1E
100
AcDbEntity
  8
0
100
AcDbLine
 10
115.3599999999999
 20
40.7646795
 30
0.0
 11
116.7999999999999
 21
38.9680795
 31
0.0
  0
LINE
  5
E6
330
1E
100
AcDbEntity
  8
0
100
AcDbLine
 10
115.3599999999999
 20
36.35817949999999
 30
0.0
 11
116.7999999999999
 21
34.56167949999999
 31
0.0
  0
LINE
  5
E7
330
1E
100
AcDbEntity
  8
0
100
AcDbLine
 10
113.5
 20
37.7490795
 30
0.0
 11
115.3599999999999
 21
36.35817949999999
 31
0.0
  0
LINE
  5
E8
330
1E
100
AcDbEntity
  8
0
100
AcDbLine
 10
118.0
 20
34.6214795
 30
0.0
 11
118.0
 21
30.2149795
 31
0.0
  0
LINE
  5
E9
330
1E
100
AcDbEntity
  8
0
100
AcDbLine
 10
107.8
 20
30.4185795
 30
0.0
 11
109.0
 21
30.4261795
 31
0.0
  0
LINE
  5
EA
330
1E
100
AcDbEntity
  8
0
100
AcDbLine
 10
108.0
 20
29.9038795
 30
0.0
 11
109.0
 21
29.9077795
 31
0.0
  0
LINE
  5
EB
330
1E
100
AcDbEntity
  8
0
100
AcDbLine
 10
107.0
 20
29.6250795
 30
0.0
 11
108.0
 21
29.61007949999999
 31
0.0
  0
LINE
  5
EC
330
1E
100
AcDbEntity
  8
0
100
AcDbLine
 10
108.0
 20
29.61007949999999
 30
0.0
 11
109.0
 21
29.60617949999999
 31
0.0
  0
LINE
  5
ED
330
1E
100
AcDbEntity
  8
0
100
AcDbLine
 10
102.7879999999999
 20
70.9341795
 30
0.0
 11
104.7
 21
70.6823138206697
 31
0.0
  0
LINE
  5
EE
330
1E
100
AcDbEntity
  8
0
100
AcDbLine
 10
120.671
 20
73.29477950000001
 30
0.0
 11
125.6589999999999
 21
76.8402795
 31
0.0
  0
LINE
  5
EF
330
1E
100
AcDbEntity
  8
0
100
AcDbLine
 10
120.9529999999999
 20
73.20687949999999
 30
0.0
 11
125.941
 21
76.9342795
 31
0.0
  0
LINE
  5
F0
330
1E
100
AcDbEntity
  8
0
100
AcDbLine
 10
125.941
 20
76.9342795
 30
0.0
 11
129.8
 21
81.75247950000001
 31
0.0
  0
LINE
  5
F1
330
1E
100
AcDbEntity
  8
0
100
AcDbLine
 10
125.6589999999999
 20
76.8402795
 30
0.0
 11
129.329
 21
81.65857950000001
 31
0.0
  0
LINE
  5
F2
330
1E
100
AcDbEntity
  8
0
100
AcDbLine
 10
125.6589999999999
 20
109.0223794999999
 30
0.0
 11
129.329
 21
104.2043795
 31
0.0
  0
LINE
  5
F3
330
1E
100
AcDbEntity
  8
0
100
AcDbLine
 10
120.671
 20
112.5683795
 30
0.0
 11
125.6589999999999
 21
109.0223794999999
 31
0.0
  0
LINE
  5
F4
330
1E
100
AcDbEntity
  8
0
100
AcDbLine
 10
115.0239999999999
 20
114.8403794999999
 30
0.0
 11
120.671
 21
112.5683795
 31
0.0
  0
LINE
  5
F5
330
1E
100
AcDbEntity
  8
0
100
AcDbLine
 10
129.8
 20
81.75247950000001
 30
0.0
 11
132.1529999999999
 21
87.29797950000001
 31
0.0
  0
LINE
  5
F6
330
1E
100
AcDbEntity
  8
0
100
AcDbLine
 10
131.682
 20
87.11317949999999
 30
0.0
 11
132.529
 21
92.9313795
 31
0.0
  0
LINE
  5
F7
330
1E
100
AcDbEntity
  8
0
100
AcDbLine
 10
129.329
 20
81.65857950000001
 30
0.0
 11
131.682
 21
87.11317949999999
 31
0.0
  0
LINE
  5
F8
330
1E
100
AcDbEntity
  8
0
100
AcDbLine
 10
216.0
 20
89.12137949999999
 30
0.0
 11
217.5
 21
89.6213795
 31
0.0
  0
LINE
  5
F9
330
1E
100
AcDbEntity
  8
0
100
AcDbLine
 10
217.5
 20
90.4213795
 30
0.0
 11
217.5
 21
92.62137950000001
 31
0.0
  0
LINE
  5
FA
330
1E
100
AcDbEntity
  8
0
100
AcDbLine
 10
217.5
 20
90.4213795
 30
0.0
 11
217.5
 21
89.6213795
 31
0.0
  0
LINE
  5
FB
330
1E
100
AcDbEntity
  8
0
100
AcDbLine
 10
217.5
 20
92.62137950000001
 30
0.0
 11
217.5
 21
96.12137950000001
 31
0.0
  0
LINE
  5
FC
330
1E
100
AcDbEntity
  8
0
100
AcDbLine
 10
217.5
 20
92.62137950000001
 30
0.0
 11
217.5
 21
90.4213795
 31
0.0
  0
LINE
  5
FD
330
1E
100
AcDbEntity
  8
0
100
AcDbLine
 10
218.0
 20
91.12137950000001
 30
0.0
 11
218.0
 21
132.1213795
 31
0.0
  0
LINE
  5
FE
330
1E
100
AcDbEntity
  8
0
100
AcDbLine
 10
218.0
 20
132.1213795
 30
0.0
 11
218.0
 21
91.12137950000001
 31
0.0
  0
LINE
  5
FF
330
1E
100
AcDbEntity
  8
0
100
AcDbLine
 10
217.5
 20
89.6213795
 30
0.0
 11
218.0
 21
91.12137950000001
 31
0.0
  0
LINE
  5
100
330
1E
100
AcDbEntity
  8
0
100
AcDbLine
 10
217.5
 20
89.6213795
 30
0.0
 11
217.5
 21
90.4213795
 31
0.0
  0
LINE
  5
101
330
1E
100
AcDbEntity
  8
0
100
AcDbLine
 10
132.4103947201759
 20
89.12137949999999
 30
0.0
 11
216.0
 21
89.12137949999999
 31
0.0
  0
LINE
  5
102
330
1E
100
AcDbEntity
  8
0
100
AcDbLine
 10
132.1529999999999
 20
87.29797950000001
 30
0.0
 11
133.0
 21
93.2981795
 31
0.0
  0
LINE
  5
103
330
1E
100
AcDbEntity
  8
0
100
AcDbLine
 10
132.954966410832
 20
101.6599955044549
 30
0.0
 11
133.0
 21
101.9753794999999
 31
0.0
  0
LINE
  5
104
330
1E
100
AcDbEntity
  8
0
100
AcDbLine
 10
133.0
 20
101.9753794999999
 30
0.0
 11
133.0
 21
104.610164546729
 31
0.0
  0
LINE
  5
106
330
1E
100
AcDbEntity
  8
0
100
AcDbLine
 10
217.5
 20
96.12137950000001
 30
0.0
 11
217.5
 21
92.62137950000001
 31
0.0
  0
LINE
  5
107
330
1E
100
AcDbEntity
  8
0
100
AcDbLine
 10
217.5
 20
96.12137950000001
 30
0.0
 11
217.5
 21
100.7213794999999
 31
0.0
  0
LINE
  5
10B
330
1E
100
AcDbEntity
  8
0
100
AcDbLine
 10
217.5
 20
100.7213794999999
 30
0.0
 11
217.5
 21
96.12137950000001
 31
0.0
  0
LINE
  5
10C
330
1E
100
AcDbEntity
  8
0
100
AcDbLine
 10
217.5
 20
100.7213794999999
 30
0.0
 11
217.5
 21
105.9213794999999
 31
0.0
  0
LINE
  5
10D
330
1E
100
AcDbEntity
  8
0
100
AcDbLine
 10
133.0
 20
101.3643794999999
 30
0.0
 11
133.0
 21
93.2981795
 31
0.0
  0
LINE
  5
10E
330
1E
100
AcDbEntity
  8
0
100
AcDbLine
 10
133.0
 20
93.2981795
 30
0.0
 11
133.0
 21
101.3643794999999
 31
0.0
  0
LINE
  5
10F
330
1E
100
AcDbEntity
  8
0
100
AcDbLine
 10
131.682
 20
98.74977950000001
 30
0.0
 11
132.529
 21
92.9313795
 31
0.0
  0
LINE
  5
110
330
1E
100
AcDbEntity
  8
0
100
AcDbLine
 10
129.471
 20
113.2023795
 30
0.0
 11
131.728666166107
 21
107.849510213077
 31
0.0
  0
LINE
  5
112
330
1E
100
AcDbEntity
  8
0
100
AcDbLine
 10
217.5
 20
105.9213794999999
 30
0.0
 11
217.5
 21
100.7213794999999
 31
0.0
  0
LINE
  5
113
330
1E
100
AcDbEntity
  8
0
100
AcDbLine
 10
217.5
 20
105.9213794999999
 30
0.0
 11
217.5
 21
111.6213794999999
 31
0.0
  0
LINE
  5
114
330
1E
100
AcDbEntity
  8
0
100
AcDbLine
 10
133.0
 20
104.610164546729
 30
0.0
 11
133.0
 21
101.9753794999999
 31
0.0
  0
LINE
  5
117
330
1E
100
AcDbEntity
  8
0
100
AcDbLine
 10
217.5
 20
111.6213794999999
 30
0.0
 11
217.5
 21
118.6213795
 31
0.0
  0
LINE
  5
118
330
1E
100
AcDbEntity
  8
0
100
AcDbLine
 10
217.5
 20
111.6213794999999
 30
0.0
 11
217.5
 21
105.9213794999999
 31
0.0
  0
LINE
  5
119
330
1E
100
AcDbEntity
  8
0
100
AcDbLine
 10
132.1529999999999
 20
106.9243794999999
 30
0.0
 11
133.0
 21
101.3643794999999
 31
0.0
  0
LINE
  5
11A
330
1E
100
AcDbEntity
  8
0
100
AcDbLine
 10
129.8
 20
112.0543794999999
 30
0.0
 11
132.1529999999999
 21
106.9243794999999
 31
0.0
  0
LINE
  5
11B
330
1E
100
AcDbEntity
  8
0
100
AcDbLine
 10
129.329
 20
104.2043795
 30
0.0
 11
131.682
 21
98.74977950000001
 31
0.0
  0
LINE
  5
11C
330
1E
100
AcDbEntity
  8
0
100
AcDbLine
 10
127.0
 20
78.256506449987
 30
0.0
 11
127.0
 21
10.36457949999999
 31
0.0
  0
LINE
  5
11D
330
1E
100
AcDbEntity
  8
0
100
AcDbLine
 10
102.976
 20
71.0220795
 30
0.0
 11
105.2400517944219
 21
70.71456834824108
 31
0.0
  0
LINE
  5
11E
330
1E
100
AcDbEntity
  8
0
100
AcDbLine
 10
97.32940000000001
 20
112.5683795
 30
0.0
 11
102.976
 21
114.8403794999999
 31
0.0
  0
LINE
  5
11F
330
1E
100
AcDbEntity
  8
0
100
AcDbLine
 10
92.27059999999999
 20
117.9753794999999
 30
0.0
 11
97.2118
 21
121.5893794999999
 31
0.0
  0
LINE
  5
120
330
1E
100
AcDbEntity
  8
0
100
AcDbLine
 10
92.0588
 20
116.5063795
 30
0.0
 11
97.0471
 21
119.9643794999999
 31
0.0
  0
LINE
  5
121
330
1E
100
AcDbEntity
  8
0
100
AcDbLine
 10
47.0
 20
136.1213794999999
 30
0.0
 11
47.0
 21
138.1213794999999
 31
0.0
  0
LINE
  5
122
330
1E
100
AcDbEntity
  8
0
100
AcDbLine
 10
21.49999999999999
 20
136.1213794999999
 30
0.0
 11
47.0
 21
136.1213794999999
 31
0.0
  0
LINE
  5
123
330
1E
100
AcDbEntity
  8
0
100
AcDbLine
 10
97.2118
 20
121.5893794999999
 30
0.0
 11
102.929
 21
123.8393794999999
 31
0.0
  0
LINE
  5
124
330
1E
100
AcDbEntity
  8
0
100
AcDbLine
 10
97.0471
 20
119.9643794999999
 30
0.0
 11
102.7879999999999
 21
122.0903794999999
 31
0.0
  0
LINE
  5
125
330
1E
100
AcDbEntity
  8
0
100
AcDbLine
 10
109.0
 20
122.8353794999999
 30
0.0
 11
115.212
 21
122.0903794999999
 31
0.0
  0
LINE
  5
126
330
1E
100
AcDbEntity
  8
0
100
AcDbLine
 10
120.788
 20
121.5893794999999
 30
0.0
 11
125.729
 21
117.9753794999999
 31
0.0
  0
LINE
  5
128
330
1E
100
AcDbEntity
  8
0
100
AcDbLine
 10
217.5
 20
118.6213795
 30
0.0
 11
217.5
 21
111.6213794999999
 31
0.0
  0
LINE
  5
129
330
1E
100
AcDbEntity
  8
0
100
AcDbLine
 10
217.5
 20
118.6213795
 30
0.0
 11
217.5
 21
125.2213795
 31
0.0
  0
LINE
  5
12A
330
1E
100
AcDbEntity
  8
0
100
AcDbLine
 10
125.729
 20
117.9753794999999
 30
0.0
 11
129.471
 21
113.2023795
 31
0.0
  0
LINE
  5
12B
330
1E
100
AcDbEntity
  8
0
100
AcDbLine
 10
125.941
 20
116.5063795
 30
0.0
 11
129.8
 21
112.0543794999999
 31
0.0
  0
LINE
  5
12C
330
1E
100
AcDbEntity
  8
0
100
AcDbLine
 10
120.9529999999999
 20
119.9643794999999
 30
0.0
 11
125.941
 21
116.5063795
 31
0.0
  0
LINE
  5
12D
330
1E
100
AcDbEntity
  8
0
100
AcDbLine
 10
115.0709999999999
 20
123.8393794999999
 30
0.0
 11
120.788
 21
121.5893794999999
 31
0.0
  0
LINE
  5
12E
330
1E
100
AcDbEntity
  8
0
100
AcDbLine
 10
115.212
 20
122.0903794999999
 30
0.0
 11
120.9529999999999
 21
119.9643794999999
 31
0.0
  0
LINE
  5
12F
330
1E
100
AcDbEntity
  8
0
100
AcDbLine
 10
109.0
 20
115.6593794999999
 30
0.0
 11
115.0239999999999
 21
114.8403794999999
 31
0.0
  0
LINE
  5
130
330
1E
100
AcDbEntity
  8
0
100
AcDbLine
 10
109.0
 20
124.6573794999999
 30
0.0
 11
115.0709999999999
 21
123.8393794999999
 31
0.0
  0
LINE
  5
131
330
1E
100
AcDbEntity
  8
0
100
AcDbLine
 10
217.5
 20
125.2213795
 30
0.0
 11
217.5
 21
130.9213795
 31
0.0
  0
LINE
  5
132
330
1E
100
AcDbEntity
  8
0
100
AcDbLine
 10
217.5
 20
125.2213795
 30
0.0
 11
217.5
 21
118.6213795
 31
0.0
  0
LINE
  5
134
330
1E
100
AcDbEntity
  8
0
100
AcDbLine
 10
217.5
 20
133.6213794999999
 30
0.0
 11
217.5
 21
130.9213795
 31
0.0
  0
LINE
  5
135
330
1E
100
AcDbEntity
  8
0
100
AcDbLine
 10
217.5
 20
133.6213794999999
 30
0.0
 11
218.0
 21
132.1213795
 31
0.0
  0
LINE
  5
136
330
1E
100
AcDbEntity
  8
0
100
AcDbLine
 10
216.0
 20
134.1213794999999
 30
0.0
 11
217.5
 21
133.6213794999999
 31
0.0
  0
LINE
  5
137
330
1E
100
AcDbEntity
  8
0
100
AcDbLine
 10
217.5
 20
130.9213795
 30
0.0
 11
217.5
 21
125.2213795
 31
0.0
  0
LINE
  5
138
330
1E
100
AcDbEntity
  8
0
100
AcDbLine
 10
217.5
 20
130.9213795
 30
0.0
 11
217.5
 21
133.6213794999999
 31
0.0
  0
LINE
  5
13C
330
1E
100
AcDbEntity
  8
0
100
AcDbLine
 10
190.5
 20
136.1213794999999
 30
0.0
 11
193.2
 21
136.1213794999999
 31
0.0
  0
LINE
  5
13D
330
1E
100
AcDbEntity
  8
0
100
AcDbLine
 10
187.4
 20
136.1213794999999
 30
0.0
 11
190.5
 21
136.1213794999999
 31
0.0
  0
LINE
  5
13E
330
1E
100
AcDbEntity
  8
0
100
AcDbLine
 10
177.5
 20
136.1213794999999
 30
0.0
 11
180.6
 21
136.1213794999999
 31
0.0
  0
LINE
  5
13F
330
1E
100
AcDbEntity
  8
0
100
AcDbLine
 10
174.8
 20
136.1213794999999
 30
0.0
 11
177.5
 21
136.1213794999999
 31
0.0
  0
LINE
  5
140
330
1E
100
AcDbEntity
  8
0
100
AcDbLine
 10
171.0
 20
136.1213794999999
 30
0.0
 11
171.0
 21
138.1213794999999
 31
0.0
  0
LINE
  5
141
330
1E
100
AcDbEntity
  8
0
100
AcDbLine
 10
171.0
 20
136.1213794999999
 30
0.0
 11
173.0
 21
134.1213794999999
 31
0.0
  0
LINE
  5
142
330
1E
100
AcDbEntity
  8
0
100
AcDbLine
 10
171.0
 20
136.1213794999999
 30
0.0
 11
171.5
 21
136.1213794999999
 31
0.0
  0
LINE
  5
143
330
1E
100
AcDbEntity
  8
0
100
AcDbLine
 10
197.0
 20
136.1213794999999
 30
0.0
 11
197.0
 21
138.1213794999999
 31
0.0
  0
LINE
  5
144
330
1E
100
AcDbEntity
  8
0
100
AcDbLine
 10
171.5
 20
136.1213794999999
 30
0.0
 11
197.0
 21
136.1213794999999
 31
0.0
  0
LINE
  5
145
330
1E
100
AcDbEntity
  8
0
100
AcDbLine
 10
195.0
 20
134.1213794999999
 30
0.0
 11
197.0
 21
136.1213794999999
 31
0.0
  0
LINE
  5
146
330
1E
100
AcDbEntity
  8
0
100
AcDbLine
 10
109.0
 20
134.1213794999999
 30
0.0
 11
216.0
 21
134.1213794999999
 31
0.0
  0
LINE
  5
147
330
1E
100
AcDbEntity
  8
0
100
AcDbLine
 10
102.929
 20
123.8393794999999
 30
0.0
 11
109.0
 21
124.6573794999999
 31
0.0
  0
LINE
  5
148
330
1E
100
AcDbEntity
  8
0
100
AcDbLine
 10
102.7879999999999
 20
122.0903794999999
 30
0.0
 11
109.0
 21
122.8353794999999
 31
0.0
  0
LINE
  5
149
330
1E
100
AcDbEntity
  8
0
100
AcDbLine
 10
102.976
 20
114.8403794999999
 30
0.0
 11
109.0
 21
115.6593794999999
 31
0.0
  0
LINE
  5
14A
330
1E
100
AcDbEntity
  8
0
100
AcDbLine
 10
45.0
 20
134.1213794999999
 30
0.0
 11
47.0
 21
136.1213794999999
 31
0.0
  0
LINE
  5
14B
330
1E
100
AcDbEntity
  8
0
100
AcDbLine
 10
21.0
 20
138.1213794999999
 30
0.0
 11
21.0
 21
141.1213794999999
 31
0.0
  0
LINE
  5
14C
330
1E
100
AcDbEntity
  8
0
100
AcDbLine
 10
21.0
 20
138.1213794999999
 30
0.0
 11
21.0
 21
136.1213794999999
 31
0.0
  0
LINE
  5
14D
330
1E
100
AcDbEntity
  8
0
100
AcDbLine
 10
21.0
 20
141.1213794999999
 30
0.0
 11
21.0
 21
138.1213794999999
 31
0.0
  0
LINE
  5
14E
330
1E
100
AcDbEntity
  8
0
100
AcDbLine
 10
21.0
 20
141.1213794999999
 30
0.0
 11
21.0
 21
144.1213794999999
 31
0.0
  0
LINE
  5
14F
330
1E
100
AcDbEntity
  8
0
100
AcDbLine
 10
21.0
 20
144.1213794999999
 30
0.0
 11
21.0
 21
146.1213794999999
 31
0.0
  0
LINE
  5
150
330
1E
100
AcDbEntity
  8
0
100
AcDbLine
 10
21.0
 20
144.1213794999999
 30
0.0
 11
21.0
 21
141.1213794999999
 31
0.0
  0
LINE
  5
151
330
1E
100
AcDbEntity
  8
0
100
AcDbLine
 10
24.8
 20
146.1213794999999
 30
0.0
 11
27.5
 21
146.1213794999999
 31
0.0
  0
LINE
  5
152
330
1E
100
AcDbEntity
  8
0
100
AcDbLine
 10
27.5
 20
146.1213794999999
 30
0.0
 11
30.6
 21
146.1213794999999
 31
0.0
  0
LINE
  5
153
330
1E
100
AcDbEntity
  8
0
100
AcDbLine
 10
26.2
 20
148.1213794999999
 30
0.0
 11
28.5
 21
148.1213794999999
 31
0.0
  0
LINE
  5
154
330
1E
100
AcDbEntity
  8
0
100
AcDbLine
 10
28.5
 20
148.1213794999999
 30
0.0
 11
31.2
 21
148.1213794999999
 31
0.0
  0
LINE
  5
155
330
1E
100
AcDbEntity
  8
0
100
AcDbLine
 10
31.2
 20
148.1213794999999
 30
0.0
 11
34.0
 21
148.1213794999999
 31
0.0
  0
LINE
  5
156
330
1E
100
AcDbEntity
  8
0
100
AcDbLine
 10
40.49999999999999
 20
146.1213794999999
 30
0.0
 11
43.2
 21
146.1213794999999
 31
0.0
  0
LINE
  5
157
330
1E
100
AcDbEntity
  8
0
100
AcDbLine
 10
37.4
 20
146.1213794999999
 30
0.0
 11
40.49999999999999
 21
146.1213794999999
 31
0.0
  0
LINE
  5
158
330
1E
100
AcDbEntity
  8
0
100
AcDbLine
 10
41.79999999999999
 20
148.1213794999999
 30
0.0
 11
43.5
 21
148.1213794999999
 31
0.0
  0
LINE
  5
159
330
1E
100
AcDbEntity
  8
0
100
AcDbLine
 10
47.0
 20
146.1213794999999
 30
0.0
 11
47.0
 21
141.1213794999999
 31
0.0
  0
LINE
  5
15A
330
1E
100
AcDbEntity
  8
0
100
AcDbLine
 10
21.49999999999999
 20
146.1213794999999
 30
0.0
 11
47.0
 21
146.1213794999999
 31
0.0
  0
LINE
  5
15B
330
1E
100
AcDbEntity
  8
0
100
AcDbLine
 10
47.0
 20
141.1213794999999
 30
0.0
 11
47.0
 21
138.1213794999999
 31
0.0
  0
LINE
  5
15C
330
1E
100
AcDbEntity
  8
0
100
AcDbLine
 10
47.0
 20
141.1213794999999
 30
0.0
 11
47.0
 21
146.1213794999999
 31
0.0
  0
LINE
  5
15D
330
1E
100
AcDbEntity
  8
0
100
AcDbLine
 10
44.59999999999999
 20
148.1213794999999
 30
0.0
 11
45.0
 21
148.1213794999999
 31
0.0
  0
LINE
  5
15E
330
1E
100
AcDbEntity
  8
0
100
AcDbLine
 10
43.5
 20
148.1213794999999
 30
0.0
 11
44.59999999999999
 21
148.1213794999999
 31
0.0
  0
LINE
  5
15F
330
1E
100
AcDbEntity
  8
0
100
AcDbLine
 10
36.79999999999999
 20
148.1213794999999
 30
0.0
 11
39.5
 21
148.1213794999999
 31
0.0
  0
LINE
  5
160
330
1E
100
AcDbEntity
  8
0
100
AcDbLine
 10
39.5
 20
148.1213794999999
 30
0.0
 11
41.79999999999999
 21
148.1213794999999
 31
0.0
  0
LINE
  5
161
330
1E
100
AcDbEntity
  8
0
100
AcDbLine
 10
34.0
 20
148.1213794999999
 30
0.0
 11
36.79999999999999
 21
148.1213794999999
 31
0.0
  0
LINE
  5
162
330
1E
100
AcDbEntity
  8
0
100
AcDbLine
 10
24.5
 20
148.1213794999999
 30
0.0
 11
26.2
 21
148.1213794999999
 31
0.0
  0
LINE
  5
163
330
1E
100
AcDbEntity
  8
0
100
AcDbLine
 10
23.39999999999999
 20
148.1213794999999
 30
0.0
 11
24.5
 21
148.1213794999999
 31
0.0
  0
LINE
  5
164
330
1E
100
AcDbEntity
  8
0
100
AcDbLine
 10
45.0
 20
148.1213794999999
 30
0.0
 11
47.0
 21
146.1213794999999
 31
0.0
  0
LINE
  5
165
330
1E
100
AcDbEntity
  8
0
100
AcDbLine
 10
45.0
 20
148.1213794999999
 30
0.0
 11
45.0
 21
152.1213794999999
 31
0.0
  0
LINE
  5
166
330
1E
100
AcDbEntity
  8
0
100
AcDbLine
 10
197.0
 20
138.1213794999999
 30
0.0
 11
197.0
 21
136.1213794999999
 31
0.0
  0
LINE
  5
167
330
1E
100
AcDbEntity
  8
0
100
AcDbLine
 10
197.0
 20
138.1213794999999
 30
0.0
 11
197.0
 21
141.1213794999999
 31
0.0
  0
LINE
  5
168
330
1E
100
AcDbEntity
  8
0
100
AcDbLine
 10
171.0
 20
138.1213794999999
 30
0.0
 11
171.0
 21
136.1213794999999
 31
0.0
  0
LINE
  5
169
330
1E
100
AcDbEntity
  8
0
100
AcDbLine
 10
171.0
 20
138.1213794999999
 30
0.0
 11
171.0
 21
141.1213794999999
 31
0.0
  0
LINE
  5
16A
330
1E
100
AcDbEntity
  8
0
100
AcDbLine
 10
171.0
 20
144.1213794999999
 30
0.0
 11
171.0
 21
141.1213794999999
 31
0.0
  0
LINE
  5
16B
330
1E
100
AcDbEntity
  8
0
100
AcDbLine
 10
171.0
 20
144.1213794999999
 30
0.0
 11
171.0
 21
146.1213794999999
 31
0.0
  0
LINE
  5
16C
330
1E
100
AcDbEntity
  8
0
100
AcDbLine
 10
171.0
 20
141.1213794999999
 30
0.0
 11
171.0
 21
144.1213794999999
 31
0.0
  0
LINE
  5
16D
330
1E
100
AcDbEntity
  8
0
100
AcDbLine
 10
171.0
 20
141.1213794999999
 30
0.0
 11
171.0
 21
138.1213794999999
 31
0.0
  0
LINE
  5
16E
330
1E
100
AcDbEntity
  8
0
100
AcDbLine
 10
197.0
 20
141.1213794999999
 30
0.0
 11
197.0
 21
146.1213794999999
 31
0.0
  0
LINE
  5
16F
330
1E
100
AcDbEntity
  8
0
100
AcDbLine
 10
197.0
 20
141.1213794999999
 30
0.0
 11
197.0
 21
138.1213794999999
 31
0.0
  0
LINE
  5
170
330
1E
100
AcDbEntity
  8
0
100
AcDbLine
 10
187.4
 20
146.1213794999999
 30
0.0
 11
190.5
 21
146.1213794999999
 31
0.0
  0
LINE
  5
171
330
1E
100
AcDbEntity
  8
0
100
AcDbLine
 10
190.5
 20
146.1213794999999
 30
0.0
 11
193.2
 21
146.1213794999999
 31
0.0
  0
LINE
  5
172
330
1E
100
AcDbEntity
  8
0
100
AcDbLine
 10
177.5
 20
146.1213794999999
 30
0.0
 11
180.6
 21
146.1213794999999
 31
0.0
  0
LINE
  5
173
330
1E
100
AcDbEntity
  8
0
100
AcDbLine
 10
174.8
 20
146.1213794999999
 30
0.0
 11
177.5
 21
146.1213794999999
 31
0.0
  0
LINE
  5
174
330
1E
100
AcDbEntity
  8
0
100
AcDbLine
 10
173.3999999999999
 20
148.1213794999999
 30
0.0
 11
174.5
 21
148.1213794999999
 31
0.0
  0
LINE
  5
175
330
1E
100
AcDbEntity
  8
0
100
AcDbLine
 10
189.4999999999999
 20
148.1213794999999
 30
0.0
 11
191.8
 21
148.1213794999999
 31
0.0
  0
LINE
  5
176
330
1E
100
AcDbEntity
  8
0
100
AcDbLine
 10
186.8
 20
148.1213794999999
 30
0.0
 11
189.4999999999999
 21
148.1213794999999
 31
0.0
  0
LINE
  5
177
330
1E
100
AcDbEntity
  8
0
100
AcDbLine
 10
191.8
 20
148.1213794999999
 30
0.0
 11
193.5
 21
148.1213794999999
 31
0.0
  0
LINE
  5
178
330
1E
100
AcDbEntity
  8
0
100
AcDbLine
 10
181.1999999999999
 20
148.1213794999999
 30
0.0
 11
184.0
 21
148.1213794999999
 31
0.0
  0
LINE
  5
179
330
1E
100
AcDbEntity
  8
0
100
AcDbLine
 10
178.5
 20
148.1213794999999
 30
0.0
 11
181.1999999999999
 21
148.1213794999999
 31
0.0
  0
LINE
  5
17A
330
1E
100
AcDbEntity
  8
0
100
AcDbLine
 10
184.0
 20
148.1213794999999
 30
0.0
 11
186.8
 21
148.1213794999999
 31
0.0
  0
LINE
  5
17B
330
1E
100
AcDbEntity
  8
0
100
AcDbLine
 10
174.5
 20
148.1213794999999
 30
0.0
 11
176.2
 21
148.1213794999999
 31
0.0
  0
LINE
  5
17C
330
1E
100
AcDbEntity
  8
0
100
AcDbLine
 10
176.2
 20
148.1213794999999
 30
0.0
 11
178.5
 21
148.1213794999999
 31
0.0
  0
LINE
  5
17D
330
1E
100
AcDbEntity
  8
0
100
AcDbLine
 10
173.0
 20
148.1213794999999
 30
0.0
 11
173.0
 21
152.1213794999999
 31
0.0
  0
LINE
  5
17E
330
1E
100
AcDbEntity
  8
0
100
AcDbLine
 10
173.0
 20
148.1213794999999
 30
0.0
 11
173.3999999999999
 21
148.1213794999999
 31
0.0
  0
LINE
  5
17F
330
1E
100
AcDbEntity
  8
0
100
AcDbLine
 10
171.0
 20
146.1213794999999
 30
0.0
 11
173.0
 21
148.1213794999999
 31
0.0
  0
LINE
  5
180
330
1E
100
AcDbEntity
  8
0
100
AcDbLine
 10
171.0
 20
146.1213794999999
 30
0.0
 11
171.5
 21
146.1213794999999
 31
0.0
  0
LINE
  5
181
330
1E
100
AcDbEntity
  8
0
100
AcDbLine
 10
171.0
 20
146.1213794999999
 30
0.0
 11
171.0
 21
144.1213794999999
 31
0.0
  0
LINE
  5
182
330
1E
100
AcDbEntity
  8
0
100
AcDbLine
 10
193.5
 20
148.1213794999999
 30
0.0
 11
194.5999999999999
 21
148.1213794999999
 31
0.0
  0
LINE
  5
183
330
1E
100
AcDbEntity
  8
0
100
AcDbLine
 10
194.5999999999999
 20
148.1213794999999
 30
0.0
 11
195.0
 21
148.1213794999999
 31
0.0
  0
LINE
  5
184
330
1E
100
AcDbEntity
  8
0
100
AcDbLine
 10
171.5
 20
146.1213794999999
 30
0.0
 11
197.0
 21
146.1213794999999
 31
0.0
  0
LINE
  5
185
330
1E
100
AcDbEntity
  8
0
100
AcDbLine
 10
195.0
 20
148.1213794999999
 30
0.0
 11
197.0
 21
146.1213794999999
 31
0.0
  0
LINE
  5
186
330
1E
100
AcDbEntity
  8
0
100
AcDbLine
 10
195.0
 20
148.1213794999999
 30
0.0
 11
195.0
 21
152.1213794999999
 31
0.0
  0
LINE
  5
187
330
1E
100
AcDbEntity
  8
0
100
AcDbLine
 10
197.0
 20
146.1213794999999
 30
0.0
 11
197.0
 21
141.1213794999999
 31
0.0
  0
LINE
  5
188
330
1E
100
AcDbEntity
  8
0
100
AcDbLine
 10
47.0
 20
138.1213794999999
 30
0.0
 11
47.0
 21
136.1213794999999
 31
0.0
  0
LINE
  5
189
330
1E
100
AcDbEntity
  8
0
100
AcDbLine
 10
47.0
 20
138.1213794999999
 30
0.0
 11
47.0
 21
141.1213794999999
 31
0.0
  0
LINE
  5
18A
330
1E
100
AcDbEntity
  8
0
100
AcDbLine
 10
25.4667
 20
152.6213794999999
 30
0.0
 11
34.0
 21
152.6213794999999
 31
0.0
  0
LINE
  5
18B
330
1E
100
AcDbEntity
  8
0
100
AcDbLine
 10
34.0
 20
152.6213794999999
 30
0.0
 11
42.5333
 21
152.6213794999999
 31
0.0
  0
LINE
  5
18C
330
1E
100
AcDbEntity
  8
0
100
AcDbLine
 10
25.2
 20
175.1213794999999
 30
0.0
 11
34.0
 21
175.1213794999999
 31
0.0
  0
LINE
  5
18D
330
1E
100
AcDbEntity
  8
0
100
AcDbLine
 10
42.5333
 20
152.6213794999999
 30
0.0
 11
50.53329999999999
 21
152.6213794999999
 31
0.0
  0
LINE
  5
18E
330
1E
100
AcDbEntity
  8
0
100
AcDbLine
 10
42.8
 20
175.1213794999999
 30
0.0
 11
50.9333
 21
175.1213794999999
 31
0.0
  0
LINE
  5
18F
330
1E
100
AcDbEntity
  8
0
100
AcDbLine
 10
34.0
 20
175.1213794999999
 30
0.0
 11
42.8
 21
175.1213794999999
 31
0.0
  0
LINE
  5
190
330
1E
100
AcDbEntity
  8
0
100
AcDbLine
 10
23.0
 20
152.1213794999999
 30
0.0
 11
23.0
 21
148.1213794999999
 31
0.0
  0
LINE
  5
191
330
1E
100
AcDbEntity
  8
0
100
AcDbLine
 10
161.867
 20
152.1213794999999
 30
0.0
 11
168.4
 21
152.1213794999999
 31
0.0
  0
LINE
  5
192
330
1E
100
AcDbEntity
  8
0
100
AcDbLine
 10
173.0
 20
152.1213794999999
 30
0.0
 11
173.0
 21
148.1213794999999
 31
0.0
  0
LINE
  5
193
330
1E
100
AcDbEntity
  8
0
100
AcDbLine
 10
168.4
 20
152.1213794999999
 30
0.0
 11
173.0
 21
152.1213794999999
 31
0.0
  0
LINE
  5
194
330
1E
100
AcDbEntity
  8
0
100
AcDbLine
 10
199.6
 20
152.1213794999999
 30
0.0
 11
206.1329999999999
 21
152.1213794999999
 31
0.0
  0
LINE
  5
195
330
1E
100
AcDbEntity
  8
0
100
AcDbLine
 10
206.1329999999999
 20
152.1213794999999
 30
0.0
 11
211.2
 21
152.1213794999999
 31
0.0
  0
LINE
  5
196
330
1E
100
AcDbEntity
  8
0
100
AcDbLine
 10
211.2
 20
152.1213794999999
 30
0.0
 11
214.1329999999999
 21
152.1213794999999
 31
0.0
  0
LINE
  5
197
330
1E
100
AcDbEntity
  8
0
100
AcDbLine
 10
215.3329999999999
 20
152.1213794999999
 30
0.0
 11
217.3329999999999
 21
152.6213794999999
 31
0.0
  0
LINE
  5
198
330
1E
100
AcDbEntity
  8
0
100
AcDbLine
 10
214.1329999999999
 20
152.1213794999999
 30
0.0
 11
215.3329999999999
 21
152.1213794999999
 31
0.0
  0
LINE
  5
199
330
1E
100
AcDbEntity
  8
0
100
AcDbLine
 10
195.0
 20
152.1213794999999
 30
0.0
 11
215.3329999999999
 21
152.1213794999999
 31
0.0
  0
LINE
  5
19A
330
1E
100
AcDbEntity
  8
0
100
AcDbLine
 10
195.0
 20
152.1213794999999
 30
0.0
 11
199.6
 21
152.1213794999999
 31
0.0
  0
LINE
  5
19B
330
1E
100
AcDbEntity
  8
0
100
AcDbLine
 10
195.0
 20
152.1213794999999
 30
0.0
 11
195.0
 21
148.1213794999999
 31
0.0
  0
LINE
  5
19C
330
1E
100
AcDbEntity
  8
0
100
AcDbLine
 10
153.867
 20
152.1213794999999
 30
0.0
 11
156.8
 21
152.1213794999999
 31
0.0
  0
LINE
  5
19D
330
1E
100
AcDbEntity
  8
0
100
AcDbLine
 10
156.8
 20
152.1213794999999
 30
0.0
 11
161.867
 21
152.1213794999999
 31
0.0
  0
LINE
  5
19E
330
1E
100
AcDbEntity
  8
0
100
AcDbLine
 10
152.667
 20
152.1213794999999
 30
0.0
 11
173.0
 21
152.1213794999999
 31
0.0
  0
LINE
  5
19F
330
1E
100
AcDbEntity
  8
0
100
AcDbLine
 10
152.667
 20
152.1213794999999
 30
0.0
 11
153.867
 21
152.1213794999999
 31
0.0
  0
LINE
  5
1A0
330
1E
100
AcDbEntity
  8
0
100
AcDbLine
 10
65.33329999999999
 20
152.1213794999999
 30
0.0
 11
67.33329999999999
 21
152.6213794999999
 31
0.0
  0
LINE
  5
1A1
330
1E
100
AcDbEntity
  8
0
100
AcDbLine
 10
61.2
 20
152.1213794999999
 30
0.0
 11
64.13330000000001
 21
152.1213794999999
 31
0.0
  0
LINE
  5
1A2
330
1E
100
AcDbEntity
  8
0
100
AcDbLine
 10
64.13330000000001
 20
152.1213794999999
 30
0.0
 11
65.33329999999999
 21
152.1213794999999
 31
0.0
  0
LINE
  5
1A3
330
1E
100
AcDbEntity
  8
0
100
AcDbLine
 10
49.6
 20
152.1213794999999
 30
0.0
 11
56.1333
 21
152.1213794999999
 31
0.0
  0
LINE
  5
1A4
330
1E
100
AcDbEntity
  8
0
100
AcDbLine
 10
66.13330000000001
 20
152.6213794999999
 30
0.0
 11
67.33329999999999
 21
152.6213794999999
 31
0.0
  0
LINE
  5
1A5
330
1E
100
AcDbEntity
  8
0
100
AcDbLine
 10
57.6
 20
152.6213794999999
 30
0.0
 11
62.8
 21
152.6213794999999
 31
0.0
  0
LINE
  5
1A6
330
1E
100
AcDbEntity
  8
0
100
AcDbLine
 10
62.8
 20
152.6213794999999
 30
0.0
 11
66.13330000000001
 21
152.6213794999999
 31
0.0
  0
LINE
  5
1A7
330
1E
100
AcDbEntity
  8
0
100
AcDbLine
 10
50.53329999999999
 20
152.6213794999999
 30
0.0
 11
57.6
 21
152.6213794999999
 31
0.0
  0
LINE
  5
1A8
330
1E
100
AcDbEntity
  8
0
100
AcDbLine
 10
68.0
 20
154.1213794999999
 30
0.0
 11
68.0
 21
175.1213794999999
 31
0.0
  0
LINE
  5
1A9
330
1E
100
AcDbEntity
  8
0
100
AcDbLine
 10
63.4667
 20
175.1213794999999
 30
0.0
 11
66.79999999999999
 21
175.1213794999999
 31
0.0
  0
LINE
  5
1AA
330
1E
100
AcDbEntity
  8
0
100
AcDbLine
 10
58.0
 20
175.1213794999999
 30
0.0
 11
63.4667
 21
175.1213794999999
 31
0.0
  0
LINE
  5
1AB
330
1E
100
AcDbEntity
  8
0
100
AcDbLine
 10
66.79999999999999
 20
175.1213794999999
 30
0.0
 11
68.0
 21
175.1213794999999
 31
0.0
  0
LINE
  5
1AC
330
1E
100
AcDbEntity
  8
0
100
AcDbLine
 10
50.9333
 20
175.1213794999999
 30
0.0
 11
58.0
 21
175.1213794999999
 31
0.0
  0
LINE
  5
1AD
330
1E
100
AcDbEntity
  8
0
100
AcDbLine
 10
67.33329999999999
 20
152.6213794999999
 30
0.0
 11
68.0
 21
154.1213794999999
 31
0.0
  0
LINE
  5
1AE
330
1E
100
AcDbEntity
  8
0
100
AcDbLine
 10
150.0
 20
154.1213794999999
 30
0.0
 11
150.6669999999999
 21
152.6213794999999
 31
0.0
  0
LINE
  5
1AF
330
1E
100
AcDbEntity
  8
0
100
AcDbLine
 10
150.0
 20
154.1213794999999
 30
0.0
 11
150.0
 21
175.1213794999999
 31
0.0
  0
LINE
  5
1B0
330
1E
100
AcDbEntity
  8
0
100
AcDbLine
 10
150.6669999999999
 20
152.6213794999999
 30
0.0
 11
152.667
 21
152.1213794999999
 31
0.0
  0
LINE
  5
1B1
330
1E
100
AcDbEntity
  8
0
100
AcDbLine
 10
150.6669999999999
 20
152.6213794999999
 30
0.0
 11
151.867
 21
152.6213794999999
 31
0.0
  0
LINE
  5
1B2
330
1E
100
AcDbEntity
  8
0
100
AcDbLine
 10
151.867
 20
152.6213794999999
 30
0.0
 11
155.1999999999999
 21
152.6213794999999
 31
0.0
  0
LINE
  5
1B3
330
1E
100
AcDbEntity
  8
0
100
AcDbLine
 10
160.4
 20
152.6213794999999
 30
0.0
 11
167.467
 21
152.6213794999999
 31
0.0
  0
LINE
  5
1B4
330
1E
100
AcDbEntity
  8
0
100
AcDbLine
 10
160.0
 20
175.1213794999999
 30
0.0
 11
167.067
 21
175.1213794999999
 31
0.0
  0
LINE
  5
1B5
330
1E
100
AcDbEntity
  8
0
100
AcDbLine
 10
167.467
 20
152.6213794999999
 30
0.0
 11
175.467
 21
152.6213794999999
 31
0.0
  0
LINE
  5
1B6
330
1E
100
AcDbEntity
  8
0
100
AcDbLine
 10
207.6
 20
152.6213794999999
 30
0.0
 11
212.8
 21
152.6213794999999
 31
0.0
  0
LINE
  5
1B7
330
1E
100
AcDbEntity
  8
0
100
AcDbLine
 10
200.5329999999999
 20
152.6213794999999
 30
0.0
 11
207.6
 21
152.6213794999999
 31
0.0
  0
LINE
  5
1B8
330
1E
100
AcDbEntity
  8
0
100
AcDbLine
 10
212.8
 20
152.6213794999999
 30
0.0
 11
216.1329999999999
 21
152.6213794999999
 31
0.0
  0
LINE
  5
1B9
330
1E
100
AcDbEntity
  8
0
100
AcDbLine
 10
216.1329999999999
 20
152.6213794999999
 30
0.0
 11
217.3329999999999
 21
152.6213794999999
 31
0.0
  0
LINE
  5
1BA
330
1E
100
AcDbEntity
  8
0
100
AcDbLine
 10
217.3329999999999
 20
152.6213794999999
 30
0.0
 11
218.0
 21
154.1213794999999
 31
0.0
  0
LINE
  5
1BB
330
1E
100
AcDbEntity
  8
0
100
AcDbLine
 10
192.5329999999999
 20
152.6213794999999
 30
0.0
 11
200.5329999999999
 21
152.6213794999999
 31
0.0
  0
LINE
  5
1BC
330
1E
100
AcDbEntity
  8
0
100
AcDbLine
 10
184.0
 20
152.6213794999999
 30
0.0
 11
192.5329999999999
 21
152.6213794999999
 31
0.0
  0
LINE
  5
1BD
330
1E
100
AcDbEntity
  8
0
100
AcDbLine
 10
200.9329999999999
 20
175.1213794999999
 30
0.0
 11
208.0
 21
175.1213794999999
 31
0.0
  0
LINE
  5
1BE
330
1E
100
AcDbEntity
  8
0
100
AcDbLine
 10
213.467
 20
175.1213794999999
 30
0.0
 11
216.8
 21
175.1213794999999
 31
0.0
  0
LINE
  5
1BF
330
1E
100
AcDbEntity
  8
0
100
AcDbLine
 10
208.0
 20
175.1213794999999
 30
0.0
 11
213.467
 21
175.1213794999999
 31
0.0
  0
LINE
  5
1C0
330
1E
100
AcDbEntity
  8
0
100
AcDbLine
 10
218.0
 20
175.1213794999999
 30
0.0
 11
218.0
 21
154.1213794999999
 31
0.0
  0
LINE
  5
1C1
330
1E
100
AcDbEntity
  8
0
100
AcDbLine
 10
218.0
 20
154.1213794999999
 30
0.0
 11
218.0
 21
175.1213794999999
 31
0.0
  0
LINE
  5
1C2
330
1E
100
AcDbEntity
  8
0
100
AcDbLine
 10
216.8
 20
175.1213794999999
 30
0.0
 11
218.0
 21
175.1213794999999
 31
0.0
  0
LINE
  5
1C3
330
1E
100
AcDbEntity
  8
0
100
AcDbLine
 10
192.8
 20
175.1213794999999
 30
0.0
 11
200.9329999999999
 21
175.1213794999999
 31
0.0
  0
LINE
  5
1C4
330
1E
100
AcDbEntity
  8
0
100
AcDbLine
 10
184.0
 20
175.1213794999999
 30
0.0
 11
192.8
 21
175.1213794999999
 31
0.0
  0
LINE
  5
1C5
330
1E
100
AcDbEntity
  8
0
100
AcDbLine
 10
175.467
 20
152.6213794999999
 30
0.0
 11
184.0
 21
152.6213794999999
 31
0.0
  0
LINE
  5
1C6
330
1E
100
AcDbEntity
  8
0
100
AcDbLine
 10
175.1999999999999
 20
175.1213794999999
 30
0.0
 11
184.0
 21
175.1213794999999
 31
0.0
  0
LINE
  5
1C7
330
1E
100
AcDbEntity
  8
0
100
AcDbLine
 10
167.067
 20
175.1213794999999
 30
0.0
 11
175.1999999999999
 21
175.1213794999999
 31
0.0
  0
LINE
  5
1C8
330
1E
100
AcDbEntity
  8
0
100
AcDbLine
 10
155.1999999999999
 20
152.6213794999999
 30
0.0
 11
160.4
 21
152.6213794999999
 31
0.0
  0
LINE
  5
1C9
330
1E
100
AcDbEntity
  8
0
100
AcDbLine
 10
154.5329999999999
 20
175.1213794999999
 30
0.0
 11
160.0
 21
175.1213794999999
 31
0.0
  0
LINE
  5
1CA
330
1E
100
AcDbEntity
  8
0
100
AcDbLine
 10
151.2
 20
175.1213794999999
 30
0.0
 11
154.5329999999999
 21
175.1213794999999
 31
0.0
  0
LINE
  5
1CB
330
1E
100
AcDbEntity
  8
0
100
AcDbLine
 10
150.0
 20
175.1213794999999
 30
0.0
 11
151.2
 21
175.1213794999999
 31
0.0
  0
LINE
  5
1CC
330
1E
100
AcDbEntity
  8
0
100
AcDbLine
 10
150.0
 20
175.1213794999999
 30
0.0
 11
150.0
 21
154.1213794999999
 31
0.0
  0
LINE
  5
1CD
330
1E
100
AcDbEntity
  8
0
100
AcDbLine
 10
68.0
 20
175.1213794999999
 30
0.0
 11
68.0
 21
154.1213794999999
 31
0.0
  0
LINE
  5
1CE
330
1E
100
AcDbEntity
  8
0
100
AcDbLine
 10
56.1333
 20
152.1213794999999
 30
0.0
 11
61.2
 21
152.1213794999999
 31
0.0
  0
LINE
  5
1CF
330
1E
100
AcDbEntity
  8
0
100
AcDbLine
 10
45.0
 20
152.1213794999999
 30
0.0
 11
45.0
 21
148.1213794999999
 31
0.0
  0
LINE
  5
1D0
330
1E
100
AcDbEntity
  8
0
100
AcDbLine
 10
45.0
 20
152.1213794999999
 30
0.0
 11
49.6
 21
152.1213794999999
 31
0.0
  0
LINE
  5
1D1
330
1E
100
AcDbEntity
  8
0
100
AcDbLine
 10
45.0
 20
152.1213794999999
 30
0.0
 11
65.33329999999999
 21
152.1213794999999
 31
0.0
  0
LINE
  5
1D2
330
1E
100
AcDbEntity
  8
0
100
AcDbLine
 10
23.0
 20
148.1213794999999
 30
0.0
 11
23.0
 21
152.1213794999999
 31
0.0
  0
LINE
  5
1D3
330
1E
100
AcDbEntity
  8
0
100
AcDbLine
 10
23.0
 20
148.1213794999999
 30
0.0
 11
23.39999999999999
 21
148.1213794999999
 31
0.0
  0
LINE
  5
1D4
330
1E
100
AcDbEntity
  8
0
100
AcDbLine
 10
21.0
 20
146.1213794999999
 30
0.0
 11
23.0
 21
148.1213794999999
 31
0.0
  0
LINE
  5
1D5
330
1E
100
AcDbEntity
  8
0
100
AcDbLine
 10
21.0
 20
146.1213794999999
 30
0.0
 11
21.49999999999999
 21
146.1213794999999
 31
0.0
  0
LINE
  5
1D6
330
1E
100
AcDbEntity
  8
0
100
AcDbLine
 10
21.0
 20
146.1213794999999
 30
0.0
 11
21.0
 21
144.1213794999999
 31
0.0
  0
LINE
  5
1D7
330
1E
100
AcDbEntity
  8
0
100
AcDbLine
 10
21.0
 20
136.1213794999999
 30
0.0
 11
23.0
 21
134.1213794999999
 31
0.0
  0
LINE
  5
1D8
330
1E
100
AcDbEntity
  8
0
100
AcDbLine
 10
21.0
 20
136.1213794999999
 30
0.0
 11
21.0
 21
138.1213794999999
 31
0.0
  0
LINE
  5
1D9
330
1E
100
AcDbEntity
  8
0
100
AcDbLine
 10
21.0
 20
136.1213794999999
 30
0.0
 11
21.49999999999999
 21
136.1213794999999
 31
0.0
  0
LINE
  5
1DA
330
1E
100
AcDbEntity
  8
0
100
AcDbLine
 10
18.39999999999999
 20
152.1213794999999
 30
0.0
 11
23.0
 21
152.1213794999999
 31
0.0
  0
ENDSEC
  0
SECTION
  2
OBJECTS
  0
DICTIONARY
  5
C
330
0
100
AcDbDictionary
  3
ACAD_GROUP
350
D
  3
ACAD_LAYOUT
350
19
  3
ACAD_MLINESTYLE
350
16
  3
ACAD_PLOTSETTINGS
350
18
  3
ACAD_PLOTSTYLENAME
350
E
  3
ACDBHEADERROUNDTRIPXREC
350
1E2
  3
ACDBVARIABLEDICTIONARY
350
1DF
  0
DICTIONARY
  5
204
330
1E
100
AcDbDictionary
280
     1
  3
ACAD_LAYOUTSELFREF
360
205
  0
DICTIONARY
  5
202
330
1A
100
AcDbDictionary
280
     1
  3
ACAD_LAYOUTSELFREF
360
203
  0
DICTIONARY
  5
D
102
{ACAD_REACTORS
330
C
102
}
330
C
100
AcDbDictionary
  0
DICTIONARY
  5
19
102
{ACAD_REACTORS
330
C
102
}
330
C
100
AcDbDictionary
  0
DICTIONARY
  5
16
102
{ACAD_REACTORS
330
C
102
}
330
C
100
AcDbDictionary
  3
STANDARD
350
17
  0
DICTIONARY
  5
18
102
{ACAD_REACTORS
330
C
102
}
330
C
100
AcDbDictionary
  0
ACDBDICTIONARYWDFLT
  5
E
102
{ACAD_REACTORS
330
C
102
}
330
C
100
AcDbDictionary
281
     1
  3
Normal
350
F
100
AcDbDictionaryWithDefault
340
F
  0
DICTIONARY
  5
1E2
102
{ACAD_REACTORS
330
C
102
}
330
C
100
AcDbDictionary
  3
CEPSNTYPE
350
1EC
  3
FINGERPRINTGUID
350
1ED
  3
HYPERLINKBASE
350
1E5
  3
INSUNITS
350
1EB
  3
LAYOUTDICT
350
1E7
  3
LWETCUNION
350
1EA
  3
PLOTSETDICT
350
1E8
  3
PLOTSTYLNAMDICT
350
1E9
  3
PSVPSCALE
350
1EF
  3
PUCSBASE
350
1F2
  3
PUCSORGBACK
350
1F8
  3
PUCSORGBOTTOM
350
1F4
  3
PUCSORGFRONT
350
1F7
  3
PUCSORGLEFT
350
1F5
  3
PUCSORGRIGHT
350
1F6
  3
PUCSORGTOP
350
1F3
  3
PUCSORTHOREF
350
1F0
  3
PUCSORTHOVIEW
350
1F1
  3
STYLESHEET
350
1E6
  3
TSTACKALIGN
350
1E3
  3
TSTACKSIZE
350
1E4
  3
UCSBASE
350
1FB
  3
UCSORGBACK
350
201
  3
UCSORGBOTTOM
350
1FD
  3
UCSORGFRONT
350
200
  3
UCSORGLEFT
350
1FE
  3
UCSORGRIGHT
350
1FF
  3
UCSORGTOP
350
1FC
  3
UCSORTHOREF
350
1F9
  3
UCSORTHOVIEW
350
1FA
  3
VERSIONGUID
350
1EE
  0
DICTIONARY
  5
1DF
102
{ACAD_REACTORS
330
C
102
}
330
C
100
AcDbDictionary
  3
DIMASSOC
350
1E0
  0
XRECORD
  5
205
102
{ACAD_REACTORS
330
204
102
}
330
204
100
AcDbXrecord
340
1E
  0
XRECORD
  5
203
102
{ACAD_REACTORS
330
202
102
}
330
202
100
AcDbXrecord
340
1A
  0
MLINESTYLE
  5
17
102
{ACAD_REACTORS
330
16
102
}
330
16
100
AcDbMlineStyle
  2
STANDARD
 70
     0
  3

 62
   256
 51
90.0
 52
90.0
 71
     2
 49
0.5
 62
   256
  6
BYLAYER
 49
-0.5
 62
   256
  6
BYLAYER
  0
ACDBPLACEHOLDER
  5
F
102
{ACAD_REACTORS
330
E
102
}
330
E
100
AcDbPlaceHolder
280
     0
  0
XRECORD
  5
1EC
102
{ACAD_REACTORS
330
1E2
102
}
330
1E2
100
AcDbXrecord
 90
        0
  0
XRECORD
  5
1ED
102
{ACAD_REACTORS
330
1E2
102
}
330
1E2
100
AcDbXrecord
  1
{A9E3F9E1-0C9A-48F2-8CA4-00C83AB4B476}
  0
XRECORD
  5
1E5
102
{ACAD_REACTORS
330
1E2
102
}
330
1E2
100
AcDbXrecord
  1

  0
XRECORD
  5
1EB
102
{ACAD_REACTORS
330
1E2
102
}
330
1E2
100
AcDbXrecord
 90
        0
  0
XRECORD
  5
1E7
102
{ACAD_REACTORS
330
1E2
102
}
330
1E2
100
AcDbXrecord
340
19
  0
XRECORD
  5
1EA
102
{ACAD_REACTORS
330
1E2
102
}
330
1E2
100
AcDbXrecord
 90
    10781
  0
XRECORD
  5
1E8
102
{ACAD_REACTORS
330
1E2
102
}
330
1E2
100
AcDbXrecord
340
18
  0
XRECORD
  5
1E9
102
{ACAD_REACTORS
330
1E2
102
}
330
1E2
100
AcDbXrecord
340
E
  0
XRECORD
  5
1EF
102
{ACAD_REACTORS
330
1E2
102
}
330
1E2
100
AcDbXrecord
 40
0.0
  0
XRECORD
  5
1F2
102
{ACAD_REACTORS
330
1E2
102
}
330
1E2
100
AcDbXrecord
340
0
  0
XRECORD
  5
1F8
102
{ACAD_REACTORS
330
1E2
102
}
330
1E2
100
AcDbXrecord
 10
0.0
 20
0.0
 30
0.0
  0
XRECORD
  5
1F4
102
{ACAD_REACTORS
330
1E2
102
}
330
1E2
100
AcDbXrecord
 10
0.0
 20
0.0
 30
0.0
  0
XRECORD
  5
1F7
102
{ACAD_REACTORS
330
1E2
102
}
330
1E2
100
AcDbXrecord
 10
0.0
 20
0.0
 30
0.0
  0
XRECORD
  5
1F5
102
{ACAD_REACTORS
330
1E2
102
}
330
1E2
100
AcDbXrecord
 10
0.0
 20
0.0
 30
0.0
  0
XRECORD
  5
1F6
102
{ACAD_REACTORS
330
1E2
102
}
330
1E2
100
AcDbXrecord
 10
0.0
 20
0.0
 30
0.0
  0
XRECORD
  5
1F3
102
{ACAD_REACTORS
330
1E2
102
}
330
1E2
100
AcDbXrecord
 10
0.0
 20
0.0
 30
0.0
  0
XRECORD
  5
1F0
102
{ACAD_REACTORS
330
1E2
102
}
330
1E2
100
AcDbXrecord
340
0
  0
XRECORD
  5
1F1
102
{ACAD_REACTORS
330
1E2
102
}
330
1E2
100
AcDbXrecord
 70
     0
  0
XRECORD
  5
1E6
102
{ACAD_REACTORS
330
1E2
102
}
330
1E2
100
AcDbXrecord
  1

  0
XRECORD
  5
1E3
102
{ACAD_REACTORS
330
1E2
102
}
330
1E2
100
AcDbXrecord
 90
        1
  0
XRECORD
  5
1E4
102
{ACAD_REACTORS
330
1E2
102
}
330
1E2
100
AcDbXrecord
 90
       70
  0
XRECORD
  5
1FB
102
{ACAD_REACTORS
330
1E2
102
}
330
1E2
100
AcDbXrecord
340
0
  0
XRECORD
  5
201
102
{ACAD_REACTORS
330
1E2
102
}
330
1E2
100
AcDbXrecord
 10
0.0
 20
0.0
 30
0.0
  0
XRECORD
  5
1FD
102
{ACAD_REACTORS
330
1E2
102
}
330
1E2
100
AcDbXrecord
 10
0.0
 20
0.0
 30
0.0
  0
XRECORD
  5
200
102
{ACAD_REACTORS
330
1E2
102
}
330
1E2
100
AcDbXrecord
 10
0.0
 20
0.0
 30
0.0
  0
XRECORD
  5
1FE
102
{ACAD_REACTORS
330
1E2
102
}
330
1E2
100
AcDbXrecord
 10
0.0
 20
0.0
 30
0.0
  0
XRECORD
  5
1FF
102
{ACAD_REACTORS
330
1E2
102
}
330
1E2
100
AcDbXrecord
 10
0.0
 20
0.0
 30
0.0
  0
XRECORD
  5
1FC
102
{ACAD_REACTORS
330
1E2
102
}
330
1E2
100
AcDbXrecord
 10
0.0
 20
0.0
 30
0.0
  0
XRECORD
  5
1F9
102
{ACAD_REACTORS
330
1E2
102
}
330
1E2
100
AcDbXrecord
340
0
  0
XRECORD
  5
1FA
102
{ACAD_REACTORS
330
1E2
102
}
330
1E2
100
AcDbXrecord
 70
     1
  0
XRECORD
  5
1EE
102
{ACAD_REACTORS
330
1E2
102
}
330
1E2
100
AcDbXrecord
  1
{B5BD4FD0-6DCA-46BB-8AE1-FE01FB61F819}
  0
DICTIONARYVAR
  5
1E0
102
{ACAD_REACTORS
330
1DF
102
}
330
1DF
100
DictionaryVariables
280
     0
  1
1
  0
ENDSEC
  0
EOF
