  0
SECTION
  2
HEADER
  9
$ACADVER
  1
AC1014
  9
$ACADMAINTVER
 70
     9
  9
$DWGCODEPAGE
  3
ANSI_1252
  9
$INSBASE
 10
0.0
 20
0.0
 30
0.0
  9
$EXTMIN
 10
-0.0965880000000077
 20
-0.0000000000000092
 30
0.0
  9
$EXTMAX
 10
72.09658799999999
 20
150.0
 30
0.0
  9
$LIMMIN
 10
0.0
 20
0.0
  9
$LIMMAX
 10
12.0
 20
9.0
  9
$ORTHOMODE
 70
     0
  9
$REGENMODE
 70
     1
  9
$FILLMODE
 70
     1
  9
$QTEXTMODE
 70
     0
  9
$MIRRTEXT
 70
     1
  9
$DRAGMODE
 70
     2
  9
$LTSCALE
 40
1.0
  9
$OSMODE
 70
    37
  9
$ATTMODE
 70
     1
  9
$TEXTSIZE
 40
0.2
  9
$TRACEWID
 40
0.05
  9
$TEXTSTYLE
  7
STANDARD
  9
$CLAYER
  8
0
  9
$CELTYPE
  6
CONTINUOUS
  9
$CECOLOR
 62
   256
  9
$CELTSCALE
 40
1.0
  9
$DELOBJ
 70
     1
  9
$DISPSILH
 70
     0
  9
$DIMSCALE
 40
1.0
  9
$DIMASZ
 40
0.18
  9
$DIMEXO
 40
0.0625
  9
$DIMDLI
 40
0.38
  9
$DIMRND
 40
0.0
  9
$DIMDLE
 40
0.0
  9
$DIMEXE
 40
0.18
  9
$DIMTP
 40
0.0
  9
$DIMTM
 40
0.0
  9
$DIMTXT
 40
0.18
  9
$DIMCEN
 40
0.09
  9
$DIMTSZ
 40
0.0
  9
$DIMTOL
 70
     0
  9
$DIMLIM
 70
     0
  9
$DIMTIH
 70
     1
  9
$DIMTOH
 70
     1
  9
$DIMSE1
 70
     0
  9
$DIMSE2
 70
     0
  9
$DIMTAD
 70
     0
  9
$DIMZIN
 70
     0
  9
$DIMBLK
  1

  9
$DIMASO
 70
     1
  9
$DIMSHO
 70
     1
  9
$DIMPOST
  1

  9
$DIMAPOST
  1

  9
$DIMALT
 70
     0
  9
$DIMALTD
 70
     2
  9
$DIMALTF
 40
25.4
  9
$DIMLFAC
 40
1.0
  9
$DIMTOFL
 70
     0
  9
$DIMTVP
 40
0.0
  9
$DIMTIX
 70
     0
  9
$DIMSOXD
 70
     0
  9
$DIMSAH
 70
     0
  9
$DIMBLK1
  1

  9
$DIMBLK2
  1

  9
$DIMSTYLE
  2
STANDARD
  9
$DIMCLRD
 70
     0
  9
$DIMCLRE
 70
     0
  9
$DIMCLRT
 70
     0
  9
$DIMTFAC
 40
1.0
  9
$DIMGAP
 40
0.09
  9
$DIMJUST
 70
     0
  9
$DIMSD1
 70
     0
  9
$DIMSD2
 70
     0
  9
$DIMTOLJ
 70
     1
  9
$DIMTZIN
 70
     0
  9
$DIMALTZ
 70
     0
  9
$DIMALTTZ
 70
     0
  9
$DIMFIT
 70
     3
  9
$DIMUPT
 70
     0
  9
$DIMUNIT
 70
     2
  9
$DIMDEC
 70
     4
  9
$DIMTDEC
 70
     4
  9
$DIMALTU
 70
     2
  9
$DIMALTTD
 70
     2
  9
$DIMTXSTY
  7
STANDARD
  9
$DIMAUNIT
 70
     0
  9
$LUNITS
 70
     2
  9
$LUPREC
 70
     4
  9
$SKETCHINC
 40
0.1
  9
$FILLETRAD
 40
0.0
  9
$AUNITS
 70
     0
  9
$AUPREC
 70
     0
  9
$MENU
  1
.
  9
$ELEVATION
 40
0.0
  9
$PELEVATION
 40
0.0
  9
$THICKNESS
 40
0.0
  9
$LIMCHECK
 70
     0
  9
$BLIPMODE
 70
     0
  9
$CHAMFERA
 40
0.0
  9
$CHAMFERB
 40
0.0
  9
$CHAMFERC
 40
0.0
  9
$CHAMFERD
 40
0.0
  9
$SKPOLY
 70
     0
  9
$TDCREATE
 40
2454699.500540543
  9
$TDUPDATE
 40
2454699.500935683
  9
$TDINDWG
 40
0.0003953241
  9
$TDUSRTIMER
 40
0.0003953241
  9
$USRTIMER
 70
     1
  9
$ANGBASE
 50
0.0
  9
$ANGDIR
 70
     0
  9
$PDMODE
 70
     0
  9
$PDSIZE
 40
0.0
  9
$PLINEWID
 40
0.0
  9
$COORDS
 70
     1
  9
$SPLFRAME
 70
     0
  9
$SPLINETYPE
 70
     6
  9
$SPLINESEGS
 70
     8
  9
$ATTDIA
 70
     0
  9
$ATTREQ
 70
     1
  9
$HANDLING
 70
 22529
  9
$HANDSEED
  5
12F
  9
$SURFTAB1
 70
     6
  9
$SURFTAB2
 70
     6
  9
$SURFTYPE
 70
     6
  9
$SURFU
 70
     6
  9
$SURFV
 70
     6
  9
$UCSNAME
  2

  9
$UCSORG
 10
0.0
 20
0.0
 30
0.0
  9
$UCSXDIR
 10
1.0
 20
0.0
 30
0.0
  9
$UCSYDIR
 10
0.0
 20
1.0
 30
0.0
  9
$PUCSNAME
  2

  9
$PUCSORG
 10
0.0
 20
0.0
 30
0.0
  9
$PUCSXDIR
 10
1.0
 20
0.0
 30
0.0
  9
$PUCSYDIR
 10
0.0
 20
1.0
 30
0.0
  9
$USERI1
 70
     0
  9
$USERI2
 70
     0
  9
$USERI3
 70
     0
  9
$USERI4
 70
     0
  9
$USERI5
 70
     0
  9
$USERR1
 40
0.0
  9
$USERR2
 40
0.0
  9
$USERR3
 40
0.0
  9
$USERR4
 40
0.0
  9
$USERR5
 40
0.0
  9
$WORLDVIEW
 70
     1
  9
$SHADEDGE
 70
     3
  9
$SHADEDIF
 70
    70
  9
$TILEMODE
 70
     1
  9
$MAXACTVP
 70
    64
  9
$PINSBASE
 10
0.0
 20
0.0
 30
0.0
  9
$PLIMCHECK
 70
     0
  9
$PEXTMIN
 10
1.000000000000000E+20
 20
1.000000000000000E+20
 30
1.000000000000000E+20
  9
$PEXTMAX
 10
-1.000000000000000E+20
 20
-1.000000000000000E+20
 30
-1.000000000000000E+20
  9
$PLIMMIN
 10
0.0
 20
0.0
  9
$PLIMMAX
 10
12.0
 20
9.0
  9
$UNITMODE
 70
     0
  9
$VISRETAIN
 70
     1
  9
$PLINEGEN
 70
     0
  9
$PSLTSCALE
 70
     1
  9
$TREEDEPTH
 70
  3020
  9
$PICKSTYLE
 70
     1
  9
$CMLSTYLE
  2
STANDARD
  9
$CMLJUST
 70
     0
  9
$CMLSCALE
 40
1.0
  9
$PROXYGRAPHICS
 70
     1
  9
$MEASUREMENT
 70
     0
  0
ENDSEC
  0
SECTION
  2
CLASSES
  0
CLASS
  1
ACDBDICTIONARYWDFLT
  2
AcDbDictionaryWithDefault
  3
AutoCAD 2000
 90
        0
280
     0
281
     0
  0
CLASS
  1
ACDBPLACEHOLDER
  2
AcDbPlaceHolder
  3
AutoCAD 2000
 90
        0
280
     0
281
     0
  0
CLASS
  1
LAYOUT
  2
AcDbLayout
  3
AutoCAD 2000
 90
        0
280
     0
281
     0
  0
CLASS
  1
DICTIONARYVAR
  2
AcDbDictionaryVar
  3
AutoCAD 2000
 90
        0
280
     0
281
     0
  0
CLASS
  1
LONG_TRANSACTION
  2
AcDbLongTransaction
  3
AutoCAD 2000
 90
        0
280
     0
281
     0
  0
CLASS
  1
LWPOLYLINE
  2
AcDbPolyline
  3
AutoCAD 2000
 90
        0
280
     0
281
     1
  0
CLASS
  1
HATCH
  2
AcDbHatch
  3
AutoCAD 2000
 90
        0
280
     0
281
     1
  0
CLASS
  1
XRECORD
  2
AcDbXrecord
  3
AutoCAD 2000
 90
        0
280
     0
281
     0
  0
ENDSEC
  0
SECTION
  2
TABLES
  0
TABLE
  2
VPORT
  5
8
330
0
100
AcDbSymbolTable
 70
     2
  0
VPORT
  5
10A
330
8
100
AcDbSymbolTableRecord
100
AcDbViewportTableRecord
  2
*ACTIVE
 70
     0
 10
0.0
 20
0.0
 11
1.0
 21
1.0
 12
35.99999999999999
 22
74.99999999999999
 13
0.0
 23
0.0
 14
1.0
 24
1.0
 15
0.0
 25
0.0
 16
0.0
 26
0.0
 36
1.0
 17
0.0
 27
0.0
 37
0.0
 40
151.1508951406649
 41
2.078104993597951
 42
50.0
 43
0.0
 44
0.0
 50
0.0
 51
0.0
 71
     0
 72
   100
 73
     1
 74
     3
 75
     0
 76
     0
 77
     0
 78
     0
  0
ENDTAB
  0
TABLE
  2
LTYPE
  5
5
330
0
100
AcDbSymbolTable
 70
     1
  0
LTYPE
  5
13
330
5
100
AcDbSymbolTableRecord
100
AcDbLinetypeTableRecord
  2
BYBLOCK
 70
     0
  3

 72
    65
 73
     0
 40
0.0
  0
LTYPE
  5
14
330
5
100
AcDbSymbolTableRecord
100
AcDbLinetypeTableRecord
  2
BYLAYER
 70
     0
  3

 72
    65
 73
     0
 40
0.0
  0
LTYPE
  5
15
330
5
100
AcDbSymbolTableRecord
100
AcDbLinetypeTableRecord
  2
CONTINUOUS
 70
     0
  3
Solid line
 72
    65
 73
     0
 40
0.0
  0
ENDTAB
  0
TABLE
  2
LAYER
  5
2
330
0
100
AcDbSymbolTable
 70
     1
  0
LAYER
  5
10
330
2
100
AcDbSymbolTableRecord
100
AcDbLayerTableRecord
  2
0
 70
     0
 62
     7
  6
CONTINUOUS
  0
ENDTAB
  0
TABLE
  2
STYLE
  5
3
330
0
100
AcDbSymbolTable
 70
     1
  0
STYLE
  5
11
330
3
100
AcDbSymbolTableRecord
100
AcDbTextStyleTableRecord
  2
STANDARD
 70
     0
 40
0.0
 41
1.0
 50
0.0
 71
     0
 42
0.2
  3
txt
  4

  0
ENDTAB
  0
TABLE
  2
VIEW
  5
6
330
0
100
AcDbSymbolTable
 70
     0
  0
ENDTAB
  0
TABLE
  2
UCS
  5
7
330
0
100
AcDbSymbolTable
 70
     0
  0
ENDTAB
  0
TABLE
  2
APPID
  5
9
330
0
100
AcDbSymbolTable
 70
     1
  0
APPID
  5
12
330
9
100
AcDbSymbolTableRecord
100
AcDbRegAppTableRecord
  2
ACAD
 70
     0
  0
ENDTAB
  0
TABLE
  2
DIMSTYLE
  5
A
330
0
100
AcDbSymbolTable
 70
     1
  0
DIMSTYLE
105
104
330
A
100
AcDbSymbolTableRecord
100
AcDbDimStyleTableRecord
  2
STANDARD
 70
     0
  3

  4

  5

  6

  7

 40
1.0
 41
0.18
 42
0.0625
 43
0.38
 44
0.18
 45
0.0
 46
0.0
 47
0.0
 48
0.0
140
0.18
141
0.09
142
0.0
143
25.4
144
1.0
145
0.0
146
1.0
147
0.09
 71
     0
 72
     0
 73
     1
 74
     1
 75
     0
 76
     0
 77
     0
 78
     0
170
     0
171
     2
172
     0
173
     0
174
     0
175
     0
176
     0
177
     0
178
     0
270
     2
271
     4
272
     4
273
     2
274
     2
340
11
275
     0
280
     0
281
     0
282
     0
283
     1
284
     0
285
     0
286
     0
287
     3
288
     0
  0
ENDTAB
  0
TABLE
  2
BLOCK_RECORD
  5
1
330
0
100
AcDbSymbolTable
 70
     0
  0
BLOCK_RECORD
  5
1E
102
{ACAD_XDICTIONARY
360
12D
102
}
330
1
100
AcDbSymbolTableRecord
100
AcDbBlockTableRecord
  2
*MODEL_SPACE
  0
BLOCK_RECORD
  5
1A
102
{ACAD_XDICTIONARY
360
12B
102
}
330
1
100
AcDbSymbolTableRecord
100
AcDbBlockTableRecord
  2
*PAPER_SPACE
  0
ENDTAB
  0
ENDSEC
  0
SECTION
  2
BLOCKS
  0
BLOCK
  5
1F
330
1E
100
AcDbEntity
  8
0
100
AcDbBlockBegin
  2
*MODEL_SPACE
 70
     0
 10
0.0
 20
0.0
 30
0.0
  3
*MODEL_SPACE
  1

  0
ENDBLK
  5
20
330
1E
100
AcDbEntity
  8
0
100
AcDbBlockEnd
  0
BLOCK
  5
1B
330
1A
100
AcDbEntity
 67
     1
  8
0
100
AcDbBlockBegin
  2
*PAPER_SPACE
 70
     0
 10
0.0
 20
0.0
 30
0.0
  3
*PAPER_SPACE
  1

  0
ENDBLK
  5
1C
330
1A
100
AcDbEntity
 67
     1
  8
0
100
AcDbBlockEnd
  0
ENDSEC
  0
SECTION
  2
ENTITIES
  0
LINE
  5
22
330
1E
100
AcDbEntity
  8
0
100
AcDbLine
 10
59.09658799999999
 20
2.647059999999989
 30
0.0
 11
59.59658799999999
 21
1.411759999999989
 31
0.0
  0
LINE
  5
23
330
1E
100
AcDbEntity
  8
0
100
AcDbLine
 10
59.09658799999999
 20
2.647059999999989
 30
0.0
 11
59.09658799999999
 21
3.35293999999999
 31
0.0
  0
LINE
  5
24
330
1E
100
AcDbEntity
  8
0
100
AcDbLine
 10
0.0965969999999923
 20
7.34409999999999
 30
0.0
 11
0.482967999999992
 21
7.240499999999999
 31
0.0
  0
LINE
  5
25
330
1E
100
AcDbEntity
  8
0
100
AcDbLine
 10
0.0965969999999923
 20
7.34409999999999
 30
0.0
 11
0.482967999999992
 21
7.240499999999999
 31
0.0
  0
LINE
  5
26
330
1E
100
AcDbEntity
  8
0
100
AcDbLine
 10
0.256964999999992
 20
6.7835
 30
0.0
 11
0.353557999999992
 21
6.7576
 31
0.0
  0
LINE
  5
27
330
1E
100
AcDbEntity
  8
0
100
AcDbLine
 10
-0.0965880000000077
 20
7.3958
 30
0.0
 11
12.396388
 21
54.0202141864626
 31
0.0
  0
LINE
  5
28
330
1E
100
AcDbEntity
  8
0
100
AcDbLine
 10
-0.0965880000000077
 20
7.3958
 30
0.0
 11
0.256964999999992
 21
6.7835
 31
0.0
  0
LINE
  5
29
330
1E
100
AcDbEntity
  8
0
100
AcDbLine
 10
-0.0965880000000077
 20
7.3958
 30
0.0
 11
0.0965969999999923
 21
7.34409999999999
 31
0.0
  0
LINE
  5
2A
330
1E
100
AcDbEntity
  8
0
100
AcDbLine
 10
-0.0965880000000077
 20
7.3958
 30
0.0
 11
12.396388
 21
54.0202141864626
 31
0.0
  0
LINE
  5
2B
330
1E
100
AcDbEntity
  8
0
100
AcDbLine
 10
-0.0965880000000076
 20
7.3958
 30
0.0
 11
0.256964999999992
 21
6.7835
 31
0.0
  0
LINE
  5
2C
330
1E
100
AcDbEntity
  8
0
100
AcDbLine
 10
-0.0965880000000076
 20
7.3958
 30
0.0
 11
0.0965969999999923
 21
7.34409999999999
 31
0.0
  0
LINE
  5
2D
330
1E
100
AcDbEntity
  8
0
100
AcDbLine
 10
4.25007799999999
 20
6.2312
 30
0.0
 11
5.40918799999999
 21
5.9206
 31
0.0
  0
LINE
  5
2E
330
1E
100
AcDbEntity
  8
0
100
AcDbLine
 10
3.15474799999999
 20
6.007
 30
0.0
 11
4.12066799999999
 21
5.748199999999999
 31
0.0
  0
LINE
  5
2F
330
1E
100
AcDbEntity
  8
0
100
AcDbLine
 10
3.09096799999999
 20
6.541699999999999
 30
0.0
 11
4.25007799999999
 21
6.2312
 31
0.0
  0
LINE
  5
30
330
1E
100
AcDbEntity
  8
0
100
AcDbLine
 10
2.188817999999989
 20
6.265799999999999
 30
0.0
 11
3.15474799999999
 21
6.007
 31
0.0
  0
LINE
  5
31
330
1E
100
AcDbEntity
  8
0
100
AcDbLine
 10
1.31948799999999
 20
6.4988
 30
0.0
 11
2.188817999999989
 21
6.265799999999999
 31
0.0
  0
LINE
  5
32
330
1E
100
AcDbEntity
  8
0
100
AcDbLine
 10
2.125037999999989
 20
6.8006
 30
0.0
 11
3.09096799999999
 21
6.541699999999999
 31
0.0
  0
LINE
  5
33
330
1E
100
AcDbEntity
  8
0
100
AcDbLine
 10
1.15911799999999
 20
7.05939999999999
 30
0.0
 11
2.125037999999989
 21
6.8006
 31
0.0
  0
LINE
  5
34
330
1E
100
AcDbEntity
  8
0
100
AcDbLine
 10
0.482967999999992
 20
7.240499999999999
 30
0.0
 11
1.15911799999999
 21
7.05939999999999
 31
0.0
  0
LINE
  5
35
330
1E
100
AcDbEntity
  8
0
100
AcDbLine
 10
0.7399279999999921
 20
6.65409999999999
 30
0.0
 11
1.31948799999999
 21
6.4988
 31
0.0
  0
LINE
  5
36
330
1E
100
AcDbEntity
  8
0
100
AcDbLine
 10
0.353557999999992
 20
6.7576
 30
0.0
 11
0.7399279999999921
 21
6.65409999999999
 31
0.0
  0
LINE
  5
37
330
1E
100
AcDbEntity
  8
0
100
AcDbLine
 10
4.12066799999999
 20
5.748199999999999
 30
0.0
 11
5.08659799999999
 21
5.489399999999999
 31
0.0
  0
LINE
  5
38
330
1E
100
AcDbEntity
  8
0
100
AcDbLine
 10
5.40918799999999
 20
5.9206
 30
0.0
 11
6.37511799999999
 21
5.661699999999999
 31
0.0
  0
LINE
  5
39
330
1E
100
AcDbEntity
  8
0
100
AcDbLine
 10
6.37511799999999
 20
5.661699999999999
 30
0.0
 11
7.34103799999999
 21
5.40289999999999
 31
0.0
  0
LINE
  5
3A
330
1E
100
AcDbEntity
  8
0
100
AcDbLine
 10
5.08659799999999
 20
5.489399999999999
 30
0.0
 11
6.05251799999999
 21
5.2305
 31
0.0
  0
LINE
  5
3B
330
1E
100
AcDbEntity
  8
0
100
AcDbLine
 10
6.05251799999999
 20
5.2305
 30
0.0
 11
6.92185799999999
 21
4.9976
 31
0.0
  0
LINE
  5
3C
330
1E
100
AcDbEntity
  8
0
100
AcDbLine
 10
7.34103799999999
 20
5.40289999999999
 30
0.0
 11
8.01718799999999
 21
5.221799999999999
 31
0.0
  0
LINE
  5
3D
330
1E
100
AcDbEntity
  8
0
100
AcDbLine
 10
6.92185799999999
 20
4.9976
 30
0.0
 11
7.50140799999999
 21
4.84229999999999
 31
0.0
  0
LINE
  5
3E
330
1E
100
AcDbEntity
  8
0
100
AcDbLine
 10
7.50140799999999
 20
4.84229999999999
 30
0.0
 11
7.88777799999999
 21
4.7388
 31
0.0
  0
LINE
  5
3F
330
1E
100
AcDbEntity
  8
0
100
AcDbLine
 10
8.01718799999999
 20
5.221799999999999
 30
0.0
 11
8.403557999999989
 21
5.118199999999999
 31
0.0
  0
LINE
  5
40
330
1E
100
AcDbEntity
  8
0
100
AcDbLine
 10
8.403557999999989
 20
5.118199999999999
 30
0.0
 11
8.59674799999999
 21
5.06649999999999
 31
0.0
  0
LINE
  5
41
330
1E
100
AcDbEntity
  8
0
100
AcDbLine
 10
8.59674799999999
 20
5.06649999999999
 30
0.0
 11
20.50266184012039
 21
49.5
 31
0.0
  0
LINE
  5
42
330
1E
100
AcDbEntity
  8
0
100
AcDbLine
 10
8.59674799999999
 20
5.06649999999999
 30
0.0
 11
20.50266184012039
 21
49.5
 31
0.0
  0
LINE
  5
43
330
1E
100
AcDbEntity
  8
0
100
AcDbLine
 10
7.98436799999999
 20
4.7129
 30
0.0
 11
8.59674799999999
 21
5.06649999999999
 31
0.0
  0
LINE
  5
44
330
1E
100
AcDbEntity
  8
0
100
AcDbLine
 10
7.88777799999999
 20
4.7388
 30
0.0
 11
7.98436799999999
 21
4.7129
 31
0.0
  0
LINE
  5
45
330
1E
100
AcDbEntity
  8
0
100
AcDbLine
 10
59.09658799999999
 20
3.35293999999999
 30
0.0
 11
59.09658799999999
 21
2.647059999999989
 31
0.0
  0
LINE
  5
46
330
1E
100
AcDbEntity
  8
0
100
AcDbLine
 10
59.09658799999999
 20
3.35293999999999
 30
0.0
 11
59.09658799999999
 21
5.29411999999999
 31
0.0
  0
LINE
  5
47
330
1E
100
AcDbEntity
  8
0
100
AcDbLine
 10
59.09658799999999
 20
5.29411999999999
 30
0.0
 11
59.09658799999999
 21
3.35293999999999
 31
0.0
  0
LINE
  5
48
330
1E
100
AcDbEntity
  8
0
100
AcDbLine
 10
59.09658799999999
 20
5.29411999999999
 30
0.0
 11
59.09658799999999
 21
8.29411999999999
 31
0.0
  0
LINE
  5
49
330
1E
100
AcDbEntity
  8
0
100
AcDbLine
 10
59.09658799999999
 20
8.29411999999999
 30
0.0
 11
59.09658799999999
 21
12.35289999999999
 31
0.0
  0
LINE
  5
4A
330
1E
100
AcDbEntity
  8
0
100
AcDbLine
 10
59.09658799999999
 20
8.29411999999999
 30
0.0
 11
59.09658799999999
 21
5.29411999999999
 31
0.0
  0
LINE
  5
4B
330
1E
100
AcDbEntity
  8
0
100
AcDbLine
 10
59.09658799999999
 20
12.35289999999999
 30
0.0
 11
59.09658799999999
 21
17.6471
 31
0.0
  0
LINE
  5
4C
330
1E
100
AcDbEntity
  8
0
100
AcDbLine
 10
59.09658799999999
 20
12.35289999999999
 30
0.0
 11
59.09658799999999
 21
8.29411999999999
 31
0.0
  0
LINE
  5
4D
330
1E
100
AcDbEntity
  8
0
100
AcDbLine
 10
12.896388
 20
50.43789548224
 30
0.0
 11
12.896388
 21
50.89999999999999
 31
0.0
  0
LINE
  5
4E
330
1E
100
AcDbEntity
  8
0
100
AcDbLine
 10
12.896388
 20
50.89999999999999
 30
0.0
 11
12.896388
 21
50.43789548224
 31
0.0
  0
LINE
  5
4F
330
1E
100
AcDbEntity
  8
0
100
AcDbLine
 10
12.896388
 20
50.89999999999999
 30
0.0
 11
12.896388
 21
53.39999999999999
 31
0.0
  0
LINE
  5
50
330
1E
100
AcDbEntity
  8
0
100
AcDbLine
 10
48.396388
 20
51.5
 30
0.0
 11
59.09658799999999
 21
51.5
 31
0.0
  0
LINE
  5
51
330
1E
100
AcDbEntity
  8
0
100
AcDbLine
 10
48.396388
 20
51.4
 30
0.0
 11
48.396388
 21
50.5
 31
0.0
  0
LINE
  5
52
330
1E
100
AcDbEntity
  8
0
100
AcDbLine
 10
47.396388
 20
50.4
 30
0.0
 11
47.396388
 21
49.5
 31
0.0
  0
LINE
  5
53
330
1E
100
AcDbEntity
  8
0
100
AcDbLine
 10
47.396388
 20
50.4
 30
0.0
 11
47.396388
 21
52.9
 31
0.0
  0
LINE
  5
54
330
1E
100
AcDbEntity
  8
0
100
AcDbLine
 10
47.396388
 20
49.5
 30
0.0
 11
48.396388
 21
50.5
 31
0.0
  0
LINE
  5
55
330
1E
100
AcDbEntity
  8
0
100
AcDbLine
 10
47.396388
 20
49.5
 30
0.0
 11
47.396388
 21
50.4
 31
0.0
  0
LINE
  5
56
330
1E
100
AcDbEntity
  8
0
100
AcDbLine
 10
20.50266184012039
 20
49.5
 30
0.0
 11
47.396388
 21
49.5
 31
0.0
  0
LINE
  5
57
330
1E
100
AcDbEntity
  8
0
100
AcDbLine
 10
59.09658799999999
 20
23.91179999999999
 30
0.0
 11
59.09658799999999
 21
31.0588
 31
0.0
  0
LINE
  5
58
330
1E
100
AcDbEntity
  8
0
100
AcDbLine
 10
59.09658799999999
 20
23.91179999999999
 30
0.0
 11
59.09658799999999
 21
17.6471
 31
0.0
  0
LINE
  5
59
330
1E
100
AcDbEntity
  8
0
100
AcDbLine
 10
59.09658799999999
 20
31.0588
 30
0.0
 11
59.09658799999999
 21
39.0
 31
0.0
  0
LINE
  5
5A
330
1E
100
AcDbEntity
  8
0
100
AcDbLine
 10
59.09658799999999
 20
31.0588
 30
0.0
 11
59.09658799999999
 21
23.91179999999999
 31
0.0
  0
LINE
  5
5B
330
1E
100
AcDbEntity
  8
0
100
AcDbLine
 10
12.396388
 20
54.6
 30
0.0
 11
12.396388
 21
58.39999999999999
 31
0.0
  0
LINE
  5
5C
330
1E
100
AcDbEntity
  8
0
100
AcDbLine
 10
12.396388
 20
51.8350477953161
 30
0.0
 11
12.396388
 21
52.4
 31
0.0
  0
LINE
  5
5D
330
1E
100
AcDbEntity
  8
0
100
AcDbLine
 10
12.396388
 20
52.4
 30
0.0
 11
12.396388
 21
51.8350477953161
 31
0.0
  0
LINE
  5
5E
330
1E
100
AcDbEntity
  8
0
100
AcDbLine
 10
12.396388
 20
63.3
 30
0.0
 11
12.396388
 21
69.0
 31
0.0
  0
LINE
  5
5F
330
1E
100
AcDbEntity
  8
0
100
AcDbLine
 10
12.396388
 20
63.3
 30
0.0
 11
12.396388
 21
58.39999999999999
 31
0.0
  0
LINE
  5
60
330
1E
100
AcDbEntity
  8
0
100
AcDbLine
 10
59.09658799999999
 20
52.4
 30
0.0
 11
59.09658799999999
 21
54.6
 31
0.0
  0
LINE
  5
61
330
1E
100
AcDbEntity
  8
0
100
AcDbLine
 10
59.09658799999999
 20
54.6
 30
0.0
 11
59.09658799999999
 21
58.39999999999999
 31
0.0
  0
LINE
  5
62
330
1E
100
AcDbEntity
  8
0
100
AcDbLine
 10
48.396388
 20
53.79999999999999
 30
0.0
 11
48.396388
 21
51.4
 31
0.0
  0
LINE
  5
63
330
1E
100
AcDbEntity
  8
0
100
AcDbLine
 10
47.396388
 20
57.0
 30
0.0
 11
47.396388
 21
52.9
 31
0.0
  0
LINE
  5
64
330
1E
100
AcDbEntity
  8
0
100
AcDbLine
 10
47.396388
 20
57.0
 30
0.0
 11
47.396388
 21
62.3
 31
0.0
  0
LINE
  5
65
330
1E
100
AcDbEntity
  8
0
100
AcDbLine
 10
47.396388
 20
52.9
 30
0.0
 11
47.396388
 21
50.4
 31
0.0
  0
LINE
  5
66
330
1E
100
AcDbEntity
  8
0
100
AcDbLine
 10
47.396388
 20
52.9
 30
0.0
 11
47.396388
 21
57.0
 31
0.0
  0
LINE
  5
67
330
1E
100
AcDbEntity
  8
0
100
AcDbLine
 10
12.896388
 20
53.39999999999999
 30
0.0
 11
12.896388
 21
57.3
 31
0.0
  0
LINE
  5
68
330
1E
100
AcDbEntity
  8
0
100
AcDbLine
 10
59.09658799999999
 20
58.39999999999999
 30
0.0
 11
59.09658799999999
 21
63.3
 31
0.0
  0
LINE
  5
69
330
1E
100
AcDbEntity
  8
0
100
AcDbLine
 10
48.396388
 20
57.7
 30
0.0
 11
48.396388
 21
53.79999999999999
 31
0.0
  0
LINE
  5
6A
330
1E
100
AcDbEntity
  8
0
100
AcDbLine
 10
59.09658799999999
 20
63.3
 30
0.0
 11
59.09658799999999
 21
69.0
 31
0.0
  0
LINE
  5
6B
330
1E
100
AcDbEntity
  8
0
100
AcDbLine
 10
48.396388
 20
62.8
 30
0.0
 11
48.396388
 21
57.7
 31
0.0
  0
LINE
  5
6C
330
1E
100
AcDbEntity
  8
0
100
AcDbLine
 10
47.396388
 20
62.3
 30
0.0
 11
47.396388
 21
57.0
 31
0.0
  0
LINE
  5
6D
330
1E
100
AcDbEntity
  8
0
100
AcDbLine
 10
47.396388
 20
62.3
 30
0.0
 11
47.396388
 21
68.4
 31
0.0
  0
LINE
  5
6E
330
1E
100
AcDbEntity
  8
0
100
AcDbLine
 10
12.896388
 20
62.6
 30
0.0
 11
12.896388
 21
57.3
 31
0.0
  0
LINE
  5
6F
330
1E
100
AcDbEntity
  8
0
100
AcDbLine
 10
12.896388
 20
62.6
 30
0.0
 11
12.896388
 21
68.59999999999999
 31
0.0
  0
LINE
  5
70
330
1E
100
AcDbEntity
  8
0
100
AcDbLine
 10
12.896388
 20
57.3
 30
0.0
 11
12.896388
 21
53.39999999999999
 31
0.0
  0
LINE
  5
71
330
1E
100
AcDbEntity
  8
0
100
AcDbLine
 10
12.896388
 20
57.3
 30
0.0
 11
12.896388
 21
62.6
 31
0.0
  0
LINE
  5
72
330
1E
100
AcDbEntity
  8
0
100
AcDbLine
 10
12.396388
 20
58.39999999999999
 30
0.0
 11
12.396388
 21
63.3
 31
0.0
  0
LINE
  5
73
330
1E
100
AcDbEntity
  8
0
100
AcDbLine
 10
12.396388
 20
58.39999999999999
 30
0.0
 11
12.396388
 21
52.4
 31
0.0
  0
LINE
  5
74
330
1E
100
AcDbEntity
  8
0
100
AcDbLine
 10
12.396388
 20
69.0
 30
0.0
 11
12.396388
 21
63.3
 31
0.0
  0
LINE
  5
75
330
1E
100
AcDbEntity
  8
0
100
AcDbLine
 10
12.396388
 20
69.0
 30
0.0
 11
12.396388
 21
75.0
 31
0.0
  0
LINE
  5
76
330
1E
100
AcDbEntity
  8
0
100
AcDbLine
 10
12.396388
 20
81.0
 30
0.0
 11
12.396388
 21
75.0
 31
0.0
  0
LINE
  5
77
330
1E
100
AcDbEntity
  8
0
100
AcDbLine
 10
12.396388
 20
81.0
 30
0.0
 11
12.396388
 21
86.69999999999999
 31
0.0
  0
LINE
  5
78
330
1E
100
AcDbEntity
  8
0
100
AcDbLine
 10
47.396388
 20
68.4
 30
0.0
 11
47.396388
 21
62.3
 31
0.0
  0
LINE
  5
79
330
1E
100
AcDbEntity
  8
0
100
AcDbLine
 10
47.396388
 20
68.4
 30
0.0
 11
47.396388
 21
75.0
 31
0.0
  0
LINE
  5
7A
330
1E
100
AcDbEntity
  8
0
100
AcDbLine
 10
12.896388
 20
81.4
 30
0.0
 11
12.896388
 21
87.4
 31
0.0
  0
LINE
  5
7B
330
1E
100
AcDbEntity
  8
0
100
AcDbLine
 10
12.896388
 20
81.4
 30
0.0
 11
12.896388
 21
75.0
 31
0.0
  0
LINE
  5
7C
330
1E
100
AcDbEntity
  8
0
100
AcDbLine
 10
12.396388
 20
86.69999999999999
 30
0.0
 11
12.396388
 21
91.6
 31
0.0
  0
LINE
  5
7D
330
1E
100
AcDbEntity
  8
0
100
AcDbLine
 10
12.396388
 20
91.6
 30
0.0
 11
12.396388
 21
86.69999999999999
 31
0.0
  0
LINE
  5
7E
330
1E
100
AcDbEntity
  8
0
100
AcDbLine
 10
12.396388
 20
91.6
 30
0.0
 11
12.396388
 21
95.4
 31
0.0
  0
LINE
  5
7F
330
1E
100
AcDbEntity
  8
0
100
AcDbLine
 10
48.396388
 20
75.0
 30
0.0
 11
48.396388
 21
68.7
 31
0.0
  0
LINE
  5
80
330
1E
100
AcDbEntity
  8
0
100
AcDbLine
 10
59.09658799999999
 20
69.0
 30
0.0
 11
59.09658799999999
 21
75.0
 31
0.0
  0
LINE
  5
81
330
1E
100
AcDbEntity
  8
0
100
AcDbLine
 10
59.09658799999999
 20
75.0
 30
0.0
 11
59.09658799999999
 21
81.0
 31
0.0
  0
LINE
  5
82
330
1E
100
AcDbEntity
  8
0
100
AcDbLine
 10
48.396388
 20
68.7
 30
0.0
 11
48.396388
 21
62.8
 31
0.0
  0
LINE
  5
83
330
1E
100
AcDbEntity
  8
0
100
AcDbLine
 10
12.896388
 20
87.4
 30
0.0
 11
12.896388
 21
92.70000000000001
 31
0.0
  0
LINE
  5
84
330
1E
100
AcDbEntity
  8
0
100
AcDbLine
 10
43.59638799999999
 20
92.3
 30
0.0
 11
44.996388
 21
87.2
 31
0.0
  0
LINE
  5
85
330
1E
100
AcDbEntity
  8
0
100
AcDbLine
 10
59.09658799999999
 20
81.0
 30
0.0
 11
59.09658799999999
 21
93.70589999999999
 31
0.0
  0
LINE
  5
86
330
1E
100
AcDbEntity
  8
0
100
AcDbLine
 10
46.59638799999999
 20
81.3
 30
0.0
 11
48.396388
 21
75.0
 31
0.0
  0
LINE
  5
87
330
1E
100
AcDbEntity
  8
0
100
AcDbLine
 10
44.996388
 20
87.2
 30
0.0
 11
46.59638799999999
 21
81.3
 31
0.0
  0
LINE
  5
88
330
1E
100
AcDbEntity
  8
0
100
AcDbLine
 10
45.596388
 20
81.6
 30
0.0
 11
47.396388
 21
75.0
 31
0.0
  0
LINE
  5
89
330
1E
100
AcDbEntity
  8
0
100
AcDbLine
 10
43.896388
 20
87.70000000000001
 30
0.0
 11
45.596388
 21
81.6
 31
0.0
  0
LINE
  5
8A
330
1E
100
AcDbEntity
  8
0
100
AcDbLine
 10
42.396388
 20
93.0
 30
0.0
 11
43.896388
 21
87.70000000000001
 31
0.0
  0
LINE
  5
8B
330
1E
100
AcDbEntity
  8
0
100
AcDbLine
 10
12.896388
 20
92.70000000000001
 30
0.0
 11
12.896388
 21
87.4
 31
0.0
  0
LINE
  5
8C
330
1E
100
AcDbEntity
  8
0
100
AcDbLine
 10
12.896388
 20
92.70000000000001
 30
0.0
 11
12.896388
 21
96.6
 31
0.0
  0
LINE
  5
8D
330
1E
100
AcDbEntity
  8
0
100
AcDbLine
 10
47.396388
 20
75.0
 30
0.0
 11
47.396388
 21
68.4
 31
0.0
  0
LINE
  5
8E
330
1E
100
AcDbEntity
  8
0
100
AcDbLine
 10
12.896388
 20
75.0
 30
0.0
 11
12.896388
 21
68.59999999999999
 31
0.0
  0
LINE
  5
8F
330
1E
100
AcDbEntity
  8
0
100
AcDbLine
 10
12.896388
 20
75.0
 30
0.0
 11
12.896388
 21
81.4
 31
0.0
  0
LINE
  5
90
330
1E
100
AcDbEntity
  8
0
100
AcDbLine
 10
12.896388
 20
68.59999999999999
 30
0.0
 11
12.896388
 21
62.6
 31
0.0
  0
LINE
  5
91
330
1E
100
AcDbEntity
  8
0
100
AcDbLine
 10
12.896388
 20
68.59999999999999
 30
0.0
 11
12.896388
 21
75.0
 31
0.0
  0
LINE
  5
92
330
1E
100
AcDbEntity
  8
0
100
AcDbLine
 10
12.396388
 20
75.0
 30
0.0
 11
12.396388
 21
81.0
 31
0.0
  0
LINE
  5
93
330
1E
100
AcDbEntity
  8
0
100
AcDbLine
 10
12.396388
 20
75.0
 30
0.0
 11
12.396388
 21
69.0
 31
0.0
  0
LINE
  5
94
330
1E
100
AcDbEntity
  8
0
100
AcDbLine
 10
59.09658799999999
 20
65.55880000000001
 30
0.0
 11
59.09658799999999
 21
56.2941
 31
0.0
  0
LINE
  5
95
330
1E
100
AcDbEntity
  8
0
100
AcDbLine
 10
59.09658799999999
 20
56.2941
 30
0.0
 11
59.09658799999999
 21
65.55880000000001
 31
0.0
  0
LINE
  5
96
330
1E
100
AcDbEntity
  8
0
100
AcDbLine
 10
59.09658799999999
 20
51.5
 30
0.0
 11
59.09658799999999
 21
47.3824
 31
0.0
  0
LINE
  5
97
330
1E
100
AcDbEntity
  8
0
100
AcDbLine
 10
59.09658799999999
 20
51.5
 30
0.0
 11
59.09658799999999
 21
52.4
 31
0.0
  0
LINE
  5
98
330
1E
100
AcDbEntity
  8
0
100
AcDbLine
 10
59.09658799999999
 20
47.3824
 30
0.0
 11
59.09658799999999
 21
39.0
 31
0.0
  0
LINE
  5
99
330
1E
100
AcDbEntity
  8
0
100
AcDbLine
 10
59.09658799999999
 20
47.3824
 30
0.0
 11
59.09658799999999
 21
51.5
 31
0.0
  0
LINE
  5
9A
330
1E
100
AcDbEntity
  8
0
100
AcDbLine
 10
59.09658799999999
 20
17.6471
 30
0.0
 11
59.09658799999999
 21
12.35289999999999
 31
0.0
  0
LINE
  5
9B
330
1E
100
AcDbEntity
  8
0
100
AcDbLine
 10
59.09658799999999
 20
17.6471
 30
0.0
 11
59.09658799999999
 21
23.91179999999999
 31
0.0
  0
LINE
  5
9C
330
1E
100
AcDbEntity
  8
0
100
AcDbLine
 10
59.09658799999999
 20
39.0
 30
0.0
 11
59.09658799999999
 21
31.0588
 31
0.0
  0
LINE
  5
9D
330
1E
100
AcDbEntity
  8
0
100
AcDbLine
 10
59.09658799999999
 20
39.0
 30
0.0
 11
59.09658799999999
 21
47.3824
 31
0.0
  0
LINE
  5
9E
330
1E
100
AcDbEntity
  8
0
100
AcDbLine
 10
41.296388
 20
97.1
 30
0.0
 11
42.396388
 21
93.0
 31
0.0
  0
LINE
  5
9F
330
1E
100
AcDbEntity
  8
0
100
AcDbLine
 10
12.896388
 20
96.6
 30
0.0
 11
12.896388
 21
92.70000000000001
 31
0.0
  0
LINE
  5
A0
330
1E
100
AcDbEntity
  8
0
100
AcDbLine
 10
12.896388
 20
96.6
 30
0.0
 11
12.896388
 21
99.1
 31
0.0
  0
LINE
  5
A1
330
1E
100
AcDbEntity
  8
0
100
AcDbLine
 10
12.396388
 20
95.4
 30
0.0
 11
12.396388
 21
91.6
 31
0.0
  0
LINE
  5
A2
330
1E
100
AcDbEntity
  8
0
100
AcDbLine
 10
12.396388
 20
95.4
 30
0.0
 11
12.396388
 21
98.50000000000001
 31
0.0
  0
LINE
  5
A3
330
1E
100
AcDbEntity
  8
0
100
AcDbLine
 10
12.396388
 20
98.50000000000001
 30
0.0
 11
12.396388
 21
95.4
 31
0.0
  0
LINE
  5
A4
330
1E
100
AcDbEntity
  8
0
100
AcDbLine
 10
42.596388
 20
96.2
 30
0.0
 11
43.59638799999999
 21
92.3
 31
0.0
  0
LINE
  5
A5
330
1E
100
AcDbEntity
  8
0
100
AcDbLine
 10
42.22939770873789
 20
97.45825242718451
 30
0.0
 11
44.39638799999999
 21
98.0
 31
0.0
  0
LINE
  5
A6
330
1E
100
AcDbEntity
  8
0
100
AcDbLine
 10
40.69638799999999
 20
99.6
 30
0.0
 11
41.296388
 21
97.1
 31
0.0
  0
LINE
  5
A7
330
1E
100
AcDbEntity
  8
0
100
AcDbLine
 10
12.896388
 20
99.1
 30
0.0
 11
12.896388
 21
96.6
 31
0.0
  0
LINE
  5
A8
330
1E
100
AcDbEntity
  8
0
100
AcDbLine
 10
12.896388
 20
99.1
 30
0.0
 11
12.896388
 21
100.0
 31
0.0
  0
LINE
  5
A9
330
1E
100
AcDbEntity
  8
0
100
AcDbLine
 10
41.89638799999999
 20
98.59999999999999
 30
0.0
 11
42.596388
 21
96.2
 31
0.0
  0
LINE
  5
AA
330
1E
100
AcDbEntity
  8
0
100
AcDbLine
 10
41.696388
 20
99.50000000000001
 30
0.0
 11
41.89638799999999
 21
98.59999999999999
 31
0.0
  0
LINE
  5
AB
330
1E
100
AcDbEntity
  8
0
100
AcDbLine
 10
14.39638799999999
 20
100.5
 30
0.0
 11
40.396388
 21
100.5
 31
0.0
  0
LINE
  5
AC
330
1E
100
AcDbEntity
  8
0
100
AcDbLine
 10
40.396388
 20
100.5
 30
0.0
 11
41.696388
 21
99.50000000000001
 31
0.0
  0
LINE
  5
AD
330
1E
100
AcDbEntity
  8
0
100
AcDbLine
 10
40.396388
 20
100.5
 30
0.0
 11
40.69638799999999
 21
99.6
 31
0.0
  0
LINE
  5
AE
330
1E
100
AcDbEntity
  8
0
100
AcDbLine
 10
14.39638799999999
 20
100.5
 30
0.0
 11
40.396388
 21
100.5
 31
0.0
  0
LINE
  5
AF
330
1E
100
AcDbEntity
  8
0
100
AcDbLine
 10
12.896388
 20
100.0
 30
0.0
 11
14.39638799999999
 21
100.5
 31
0.0
  0
LINE
  5
B0
330
1E
100
AcDbEntity
  8
0
100
AcDbLine
 10
12.896388
 20
100.0
 30
0.0
 11
12.896388
 21
99.1
 31
0.0
  0
LINE
  5
B1
330
1E
100
AcDbEntity
  8
0
100
AcDbLine
 10
12.396388
 20
98.50000000000001
 30
0.0
 11
12.896388
 21
100.0
 31
0.0
  0
LINE
  5
B2
330
1E
100
AcDbEntity
  8
0
100
AcDbLine
 10
44.39638799999999
 20
98.0
 30
0.0
 11
47.396388
 21
98.50000000000001
 31
0.0
  0
LINE
  5
B3
330
1E
100
AcDbEntity
  8
0
100
AcDbLine
 10
59.09658799999999
 20
95.4
 30
0.0
 11
59.09658799999999
 21
97.59999999999999
 31
0.0
  0
LINE
  5
B4
330
1E
100
AcDbEntity
  8
0
100
AcDbLine
 10
59.09658799999999
 20
97.59999999999999
 30
0.0
 11
59.09658799999999
 21
98.50000000000001
 31
0.0
  0
LINE
  5
B5
330
1E
100
AcDbEntity
  8
0
100
AcDbLine
 10
47.396388
 20
98.50000000000001
 30
0.0
 11
59.09658799999999
 21
98.50000000000001
 31
0.0
  0
LINE
  5
B6
330
1E
100
AcDbEntity
  8
0
100
AcDbLine
 10
59.09658799999999
 20
93.70589999999999
 30
0.0
 11
59.09658799999999
 21
102.6179999999999
 31
0.0
  0
LINE
  5
B7
330
1E
100
AcDbEntity
  8
0
100
AcDbLine
 10
59.09658799999999
 20
93.70589999999999
 30
0.0
 11
59.09658799999999
 21
95.4
 31
0.0
  0
LINE
  5
B8
330
1E
100
AcDbEntity
  8
0
100
AcDbLine
 10
59.09658799999999
 20
102.6179999999999
 30
0.0
 11
59.09658799999999
 21
111.0
 31
0.0
  0
LINE
  5
B9
330
1E
100
AcDbEntity
  8
0
100
AcDbLine
 10
59.09658799999999
 20
102.6179999999999
 30
0.0
 11
59.09658799999999
 21
93.70589999999999
 31
0.0
  0
LINE
  5
BA
330
1E
100
AcDbEntity
  8
0
100
AcDbLine
 10
59.09658799999999
 20
111.0
 30
0.0
 11
59.09658799999999
 21
118.941
 31
0.0
  0
LINE
  5
BB
330
1E
100
AcDbEntity
  8
0
100
AcDbLine
 10
59.09658799999999
 20
111.0
 30
0.0
 11
59.09658799999999
 21
102.6179999999999
 31
0.0
  0
LINE
  5
BC
330
1E
100
AcDbEntity
  8
0
100
AcDbLine
 10
59.09658799999999
 20
118.941
 30
0.0
 11
59.09658799999999
 21
126.088
 31
0.0
  0
LINE
  5
BD
330
1E
100
AcDbEntity
  8
0
100
AcDbLine
 10
59.09658799999999
 20
118.941
 30
0.0
 11
59.09658799999999
 21
111.0
 31
0.0
  0
LINE
  5
BE
330
1E
100
AcDbEntity
  8
0
100
AcDbLine
 10
59.09658799999999
 20
146.647
 30
0.0
 11
59.09658799999999
 21
147.3529999999999
 31
0.0
  0
LINE
  5
BF
330
1E
100
AcDbEntity
  8
0
100
AcDbLine
 10
59.09658799999999
 20
146.647
 30
0.0
 11
59.09658799999999
 21
144.706
 31
0.0
  0
LINE
  5
C0
330
1E
100
AcDbEntity
  8
0
100
AcDbLine
 10
59.09658799999999
 20
144.706
 30
0.0
 11
59.09658799999999
 21
146.647
 31
0.0
  0
LINE
  5
C1
330
1E
100
AcDbEntity
  8
0
100
AcDbLine
 10
59.09658799999999
 20
144.706
 30
0.0
 11
59.09658799999999
 21
141.706
 31
0.0
  0
LINE
  5
C2
330
1E
100
AcDbEntity
  8
0
100
AcDbLine
 10
59.09658799999999
 20
141.706
 30
0.0
 11
59.09658799999999
 21
137.647
 31
0.0
  0
LINE
  5
C3
330
1E
100
AcDbEntity
  8
0
100
AcDbLine
 10
59.09658799999999
 20
141.706
 30
0.0
 11
59.09658799999999
 21
144.706
 31
0.0
  0
LINE
  5
C4
330
1E
100
AcDbEntity
  8
0
100
AcDbLine
 10
59.09658799999999
 20
132.3529999999999
 30
0.0
 11
59.09658799999999
 21
126.088
 31
0.0
  0
LINE
  5
C5
330
1E
100
AcDbEntity
  8
0
100
AcDbLine
 10
59.09658799999999
 20
132.3529999999999
 30
0.0
 11
59.09658799999999
 21
137.647
 31
0.0
  0
LINE
  5
C6
330
1E
100
AcDbEntity
  8
0
100
AcDbLine
 10
59.09658799999999
 20
126.088
 30
0.0
 11
59.09658799999999
 21
132.3529999999999
 31
0.0
  0
LINE
  5
C7
330
1E
100
AcDbEntity
  8
0
100
AcDbLine
 10
59.09658799999999
 20
126.088
 30
0.0
 11
59.09658799999999
 21
118.941
 31
0.0
  0
LINE
  5
C8
330
1E
100
AcDbEntity
  8
0
100
AcDbLine
 10
59.59658799999999
 20
1.411759999999989
 30
0.0
 11
60.696588
 21
0.4411759999999921
 31
0.0
  0
LINE
  5
C9
330
1E
100
AcDbEntity
  8
0
100
AcDbLine
 10
59.59658799999999
 20
1.411759999999989
 30
0.0
 11
60.696588
 21
0.4411759999999921
 31
0.0
  0
LINE
  5
CA
330
1E
100
AcDbEntity
  8
0
100
AcDbLine
 10
59.09658799999999
 20
137.647
 30
0.0
 11
59.09658799999999
 21
141.706
 31
0.0
  0
LINE
  5
CB
330
1E
100
AcDbEntity
  8
0
100
AcDbLine
 10
59.09658799999999
 20
137.647
 30
0.0
 11
59.09658799999999
 21
132.3529999999999
 31
0.0
  0
LINE
  5
CC
330
1E
100
AcDbEntity
  8
0
100
AcDbLine
 10
59.09658799999999
 20
147.3529999999999
 30
0.0
 11
59.59658799999999
 21
148.5879999999999
 31
0.0
  0
LINE
  5
CD
330
1E
100
AcDbEntity
  8
0
100
AcDbLine
 10
59.09658799999999
 20
147.3529999999999
 30
0.0
 11
59.09658799999999
 21
146.647
 31
0.0
  0
LINE
  5
CE
330
1E
100
AcDbEntity
  8
0
100
AcDbLine
 10
62.09658799999999
 20
-0.0000000000000086
 30
0.0
 11
72.09658799999999
 21
-0.0000000000000092
 31
0.0
  0
LINE
  5
CF
330
1E
100
AcDbEntity
  8
0
100
AcDbLine
 10
60.696588
 20
0.4411759999999921
 30
0.0
 11
62.09658799999999
 21
-0.0000000000000086
 31
0.0
  0
LINE
  5
D0
330
1E
100
AcDbEntity
  8
0
100
AcDbLine
 10
60.696588
 20
0.4411759999999921
 30
0.0
 11
62.09658799999999
 21
-0.0000000000000086
 31
0.0
  0
LINE
  5
D1
330
1E
100
AcDbEntity
  8
0
100
AcDbLine
 10
59.59658799999999
 20
148.5879999999999
 30
0.0
 11
60.696588
 21
149.5589999999999
 31
0.0
  0
LINE
  5
D2
330
1E
100
AcDbEntity
  8
0
100
AcDbLine
 10
60.696588
 20
149.5589999999999
 30
0.0
 11
62.09658799999999
 21
150.0
 31
0.0
  0
LINE
  5
D3
330
1E
100
AcDbEntity
  8
0
100
AcDbLine
 10
72.09658799999999
 20
-0.0000000000000092
 30
0.0
 11
72.09658799999999
 21
0.7941179999999909
 31
0.0
  0
LINE
  5
D4
330
1E
100
AcDbEntity
  8
0
100
AcDbLine
 10
72.09658799999999
 20
0.7941179999999909
 30
0.0
 11
72.09658799999999
 21
-0.0000000000000092
 31
0.0
  0
LINE
  5
D5
330
1E
100
AcDbEntity
  8
0
100
AcDbLine
 10
72.09658799999999
 20
0.7941179999999909
 30
0.0
 11
72.09658799999999
 21
2.73528999999999
 31
0.0
  0
LINE
  5
D6
330
1E
100
AcDbEntity
  8
0
100
AcDbLine
 10
72.09658799999999
 20
2.73528999999999
 30
0.0
 11
72.09658799999999
 21
0.7941179999999909
 31
0.0
  0
LINE
  5
D7
330
1E
100
AcDbEntity
  8
0
100
AcDbLine
 10
72.09658799999999
 20
2.73528999999999
 30
0.0
 11
72.09658799999999
 21
5.82352999999999
 31
0.0
  0
LINE
  5
D8
330
1E
100
AcDbEntity
  8
0
100
AcDbLine
 10
72.09658799999999
 20
22.0588
 30
0.0
 11
72.09658799999999
 21
15.6176
 31
0.0
  0
LINE
  5
D9
330
1E
100
AcDbEntity
  8
0
100
AcDbLine
 10
72.09658799999999
 20
22.0588
 30
0.0
 11
72.09658799999999
 21
29.3824
 31
0.0
  0
LINE
  5
DA
330
1E
100
AcDbEntity
  8
0
100
AcDbLine
 10
72.09658799999999
 20
15.6176
 30
0.0
 11
72.09658799999999
 21
10.0588
 31
0.0
  0
LINE
  5
DB
330
1E
100
AcDbEntity
  8
0
100
AcDbLine
 10
72.09658799999999
 20
15.6176
 30
0.0
 11
72.09658799999999
 21
22.0588
 31
0.0
  0
LINE
  5
DC
330
1E
100
AcDbEntity
  8
0
100
AcDbLine
 10
72.09658799999999
 20
65.2059
 30
0.0
 11
72.09658799999999
 21
55.6765
 31
0.0
  0
LINE
  5
DD
330
1E
100
AcDbEntity
  8
0
100
AcDbLine
 10
72.09658799999999
 20
65.2059
 30
0.0
 11
72.09658799999999
 21
75.0
 31
0.0
  0
LINE
  5
DE
330
1E
100
AcDbEntity
  8
0
100
AcDbLine
 10
72.09658799999999
 20
55.6765
 30
0.0
 11
72.09658799999999
 21
46.3235
 31
0.0
  0
LINE
  5
DF
330
1E
100
AcDbEntity
  8
0
100
AcDbLine
 10
72.09658799999999
 20
55.6765
 30
0.0
 11
72.09658799999999
 21
65.2059
 31
0.0
  0
LINE
  5
E0
330
1E
100
AcDbEntity
  8
0
100
AcDbLine
 10
72.09658799999999
 20
46.3235
 30
0.0
 11
72.09658799999999
 21
37.67649999999999
 31
0.0
  0
LINE
  5
E1
330
1E
100
AcDbEntity
  8
0
100
AcDbLine
 10
72.09658799999999
 20
46.3235
 30
0.0
 11
72.09658799999999
 21
55.6765
 31
0.0
  0
LINE
  5
E2
330
1E
100
AcDbEntity
  8
0
100
AcDbLine
 10
72.09658799999999
 20
37.67649999999999
 30
0.0
 11
72.09658799999999
 21
29.3824
 31
0.0
  0
LINE
  5
E3
330
1E
100
AcDbEntity
  8
0
100
AcDbLine
 10
72.09658799999999
 20
37.67649999999999
 30
0.0
 11
72.09658799999999
 21
46.3235
 31
0.0
  0
LINE
  5
E4
330
1E
100
AcDbEntity
  8
0
100
AcDbLine
 10
72.09658799999999
 20
29.3824
 30
0.0
 11
72.09658799999999
 21
37.67649999999999
 31
0.0
  0
LINE
  5
E5
330
1E
100
AcDbEntity
  8
0
100
AcDbLine
 10
72.09658799999999
 20
29.3824
 30
0.0
 11
72.09658799999999
 21
22.0588
 31
0.0
  0
LINE
  5
E6
330
1E
100
AcDbEntity
  8
0
100
AcDbLine
 10
72.09658799999999
 20
10.0588
 30
0.0
 11
72.09658799999999
 21
5.82352999999999
 31
0.0
  0
LINE
  5
E7
330
1E
100
AcDbEntity
  8
0
100
AcDbLine
 10
72.09658799999999
 20
10.0588
 30
0.0
 11
72.09658799999999
 21
15.6176
 31
0.0
  0
LINE
  5
E8
330
1E
100
AcDbEntity
  8
0
100
AcDbLine
 10
72.09658799999999
 20
5.82352999999999
 30
0.0
 11
72.09658799999999
 21
2.73528999999999
 31
0.0
  0
LINE
  5
E9
330
1E
100
AcDbEntity
  8
0
100
AcDbLine
 10
72.09658799999999
 20
5.82352999999999
 30
0.0
 11
72.09658799999999
 21
10.0588
 31
0.0
  0
LINE
  5
EA
330
1E
100
AcDbEntity
  8
0
100
AcDbLine
 10
72.09658799999999
 20
75.0
 30
0.0
 11
72.09658799999999
 21
84.79409999999999
 31
0.0
  0
LINE
  5
EB
330
1E
100
AcDbEntity
  8
0
100
AcDbLine
 10
72.09658799999999
 20
75.0
 30
0.0
 11
72.09658799999999
 21
65.2059
 31
0.0
  0
LINE
  5
EC
330
1E
100
AcDbEntity
  8
0
100
AcDbLine
 10
72.09658799999999
 20
127.941
 30
0.0
 11
72.09658799999999
 21
120.618
 31
0.0
  0
LINE
  5
ED
330
1E
100
AcDbEntity
  8
0
100
AcDbLine
 10
72.09658799999999
 20
127.941
 30
0.0
 11
72.09658799999999
 21
134.382
 31
0.0
  0
LINE
  5
EE
330
1E
100
AcDbEntity
  8
0
100
AcDbLine
 10
72.09658799999999
 20
120.618
 30
0.0
 11
72.09658799999999
 21
112.324
 31
0.0
  0
LINE
  5
EF
330
1E
100
AcDbEntity
  8
0
100
AcDbLine
 10
72.09658799999999
 20
120.618
 30
0.0
 11
72.09658799999999
 21
127.941
 31
0.0
  0
LINE
  5
F0
330
1E
100
AcDbEntity
  8
0
100
AcDbLine
 10
72.09658799999999
 20
112.324
 30
0.0
 11
72.09658799999999
 21
103.676
 31
0.0
  0
LINE
  5
F1
330
1E
100
AcDbEntity
  8
0
100
AcDbLine
 10
72.09658799999999
 20
112.324
 30
0.0
 11
72.09658799999999
 21
120.618
 31
0.0
  0
LINE
  5
F2
330
1E
100
AcDbEntity
  8
0
100
AcDbLine
 10
72.09658799999999
 20
103.676
 30
0.0
 11
72.09658799999999
 21
94.32349999999999
 31
0.0
  0
LINE
  5
F3
330
1E
100
AcDbEntity
  8
0
100
AcDbLine
 10
72.09658799999999
 20
103.676
 30
0.0
 11
72.09658799999999
 21
112.324
 31
0.0
  0
LINE
  5
F4
330
1E
100
AcDbEntity
  8
0
100
AcDbLine
 10
72.09658799999999
 20
94.32349999999999
 30
0.0
 11
72.09658799999999
 21
84.79409999999999
 31
0.0
  0
LINE
  5
F5
330
1E
100
AcDbEntity
  8
0
100
AcDbLine
 10
72.09658799999999
 20
94.32349999999999
 30
0.0
 11
72.09658799999999
 21
103.676
 31
0.0
  0
LINE
  5
F6
330
1E
100
AcDbEntity
  8
0
100
AcDbLine
 10
72.09658799999999
 20
84.79409999999999
 30
0.0
 11
72.09658799999999
 21
75.0
 31
0.0
  0
LINE
  5
F7
330
1E
100
AcDbEntity
  8
0
100
AcDbLine
 10
72.09658799999999
 20
84.79409999999999
 30
0.0
 11
72.09658799999999
 21
94.32349999999999
 31
0.0
  0
LINE
  5
F8
330
1E
100
AcDbEntity
  8
0
100
AcDbLine
 10
72.09658799999999
 20
147.2649999999999
 30
0.0
 11
72.09658799999999
 21
144.176
 31
0.0
  0
LINE
  5
F9
330
1E
100
AcDbEntity
  8
0
100
AcDbLine
 10
72.09658799999999
 20
147.2649999999999
 30
0.0
 11
72.09658799999999
 21
149.206
 31
0.0
  0
LINE
  5
FA
330
1E
100
AcDbEntity
  8
0
100
AcDbLine
 10
72.09658799999999
 20
149.206
 30
0.0
 11
72.09658799999999
 21
147.2649999999999
 31
0.0
  0
LINE
  5
FB
330
1E
100
AcDbEntity
  8
0
100
AcDbLine
 10
72.09658799999999
 20
149.206
 30
0.0
 11
72.09658799999999
 21
150.0
 31
0.0
  0
LINE
  5
FC
330
1E
100
AcDbEntity
  8
0
100
AcDbLine
 10
72.09658799999999
 20
150.0
 30
0.0
 11
72.09658799999999
 21
149.206
 31
0.0
  0
LINE
  5
FD
330
1E
100
AcDbEntity
  8
0
100
AcDbLine
 10
72.09658799999999
 20
144.176
 30
0.0
 11
72.09658799999999
 21
139.941
 31
0.0
  0
LINE
  5
FE
330
1E
100
AcDbEntity
  8
0
100
AcDbLine
 10
72.09658799999999
 20
144.176
 30
0.0
 11
72.09658799999999
 21
147.2649999999999
 31
0.0
  0
LINE
  5
FF
330
1E
100
AcDbEntity
  8
0
100
AcDbLine
 10
72.09658799999999
 20
139.941
 30
0.0
 11
72.09658799999999
 21
134.382
 31
0.0
  0
LINE
  5
100
330
1E
100
AcDbEntity
  8
0
100
AcDbLine
 10
72.09658799999999
 20
139.941
 30
0.0
 11
72.09658799999999
 21
144.176
 31
0.0
  0
LINE
  5
101
330
1E
100
AcDbEntity
  8
0
100
AcDbLine
 10
72.09658799999999
 20
134.382
 30
0.0
 11
72.09658799999999
 21
127.941
 31
0.0
  0
LINE
  5
102
330
1E
100
AcDbEntity
  8
0
100
AcDbLine
 10
72.09658799999999
 20
134.382
 30
0.0
 11
72.09658799999999
 21
139.941
 31
0.0
  0
LINE
  5
103
330
1E
100
AcDbEntity
  8
0
100
AcDbLine
 10
62.09658799999999
 20
150.0
 30
0.0
 11
72.09658799999999
 21
150.0
 31
0.0
  0
ENDSEC
  0
SECTION
  2
OBJECTS
  0
DICTIONARY
  5
C
330
0
100
AcDbDictionary
  3
ACAD_GROUP
350
D
  3
ACAD_LAYOUT
350
19
  3
ACAD_MLINESTYLE
350
16
  3
ACAD_PLOTSETTINGS
350
18
  3
ACAD_PLOTSTYLENAME
350
E
  3
ACDBHEADERROUNDTRIPXREC
350
10B
  3
ACDBVARIABLEDICTIONARY
350
108
  0
DICTIONARY
  5
12D
330
1E
100
AcDbDictionary
280
     1
  3
ACAD_LAYOUTSELFREF
360
12E
  0
DICTIONARY
  5
12B
330
1A
100
AcDbDictionary
280
     1
  3
ACAD_LAYOUTSELFREF
360
12C
  0
DICTIONARY
  5
D
102
{ACAD_REACTORS
330
C
102
}
330
C
100
AcDbDictionary
  0
DICTIONARY
  5
19
102
{ACAD_REACTORS
330
C
102
}
330
C
100
AcDbDictionary
  0
DICTIONARY
  5
16
102
{ACAD_REACTORS
330
C
102
}
330
C
100
AcDbDictionary
  3
STANDARD
350
17
  0
DICTIONARY
  5
18
102
{ACAD_REACTORS
330
C
102
}
330
C
100
AcDbDictionary
  0
ACDBDICTIONARYWDFLT
  5
E
102
{ACAD_REACTORS
330
C
102
}
330
C
100
AcDbDictionary
281
     1
  3
Normal
350
F
100
AcDbDictionaryWithDefault
340
F
  0
DICTIONARY
  5
10B
102
{ACAD_REACTORS
330
C
102
}
330
C
100
AcDbDictionary
  3
CEPSNTYPE
350
115
  3
FINGERPRINTGUID
350
116
  3
HYPERLINKBASE
350
10E
  3
INSUNITS
350
114
  3
LAYOUTDICT
350
110
  3
LWETCUNION
350
113
  3
PLOTSETDICT
350
111
  3
PLOTSTYLNAMDICT
350
112
  3
PSVPSCALE
350
118
  3
PUCSBASE
350
11B
  3
PUCSORGBACK
350
121
  3
PUCSORGBOTTOM
350
11D
  3
PUCSORGFRONT
350
120
  3
PUCSORGLEFT
350
11E
  3
PUCSORGRIGHT
350
11F
  3
PUCSORGTOP
350
11C
  3
PUCSORTHOREF
350
119
  3
PUCSORTHOVIEW
350
11A
  3
STYLESHEET
350
10F
  3
TSTACKALIGN
350
10C
  3
TSTACKSIZE
350
10D
  3
UCSBASE
350
124
  3
UCSORGBACK
350
12A
  3
UCSORGBOTTOM
350
126
  3
UCSORGFRONT
350
129
  3
UCSORGLEFT
350
127
  3
UCSORGRIGHT
350
128
  3
UCSORGTOP
350
125
  3
UCSORTHOREF
350
122
  3
UCSORTHOVIEW
350
123
  3
VERSIONGUID
350
117
  0
DICTIONARY
  5
108
102
{ACAD_REACTORS
330
C
102
}
330
C
100
AcDbDictionary
  3
DIMASSOC
350
109
  0
XRECORD
  5
12E
102
{ACAD_REACTORS
330
12D
102
}
330
12D
100
AcDbXrecord
340
1E
  0
XRECORD
  5
12C
102
{ACAD_REACTORS
330
12B
102
}
330
12B
100
AcDbXrecord
340
1A
  0
MLINESTYLE
  5
17
102
{ACAD_REACTORS
330
16
102
}
330
16
100
AcDbMlineStyle
  2
STANDARD
 70
     0
  3

 62
   256
 51
90.0
 52
90.0
 71
     2
 49
0.5
 62
   256
  6
BYLAYER
 49
-0.5
 62
   256
  6
BYLAYER
  0
ACDBPLACEHOLDER
  5
F
102
{ACAD_REACTORS
330
E
102
}
330
E
100
AcDbPlaceHolder
280
     0
  0
XRECORD
  5
115
102
{ACAD_REACTORS
330
10B
102
}
330
10B
100
AcDbXrecord
 90
        0
  0
XRECORD
  5
116
102
{ACAD_REACTORS
330
10B
102
}
330
10B
100
AcDbXrecord
  1
{41DD7E67-CDEB-4081-88CE-EDA77B3B8D95}
  0
XRECORD
  5
10E
102
{ACAD_REACTORS
330
10B
102
}
330
10B
100
AcDbXrecord
  1

  0
XRECORD
  5
114
102
{ACAD_REACTORS
330
10B
102
}
330
10B
100
AcDbXrecord
 90
        0
  0
XRECORD
  5
110
102
{ACAD_REACTORS
330
10B
102
}
330
10B
100
AcDbXrecord
340
19
  0
XRECORD
  5
113
102
{ACAD_REACTORS
330
10B
102
}
330
10B
100
AcDbXrecord
 90
    10781
  0
XRECORD
  5
111
102
{ACAD_REACTORS
330
10B
102
}
330
10B
100
AcDbXrecord
340
18
  0
XRECORD
  5
112
102
{ACAD_REACTORS
330
10B
102
}
330
10B
100
AcDbXrecord
340
E
  0
XRECORD
  5
118
102
{ACAD_REACTORS
330
10B
102
}
330
10B
100
AcDbXrecord
 40
0.0
  0
XRECORD
  5
11B
102
{ACAD_REACTORS
330
10B
102
}
330
10B
100
AcDbXrecord
340
0
  0
XRECORD
  5
121
102
{ACAD_REACTORS
330
10B
102
}
330
10B
100
AcDbXrecord
 10
0.0
 20
0.0
 30
0.0
  0
XRECORD
  5
11D
102
{ACAD_REACTORS
330
10B
102
}
330
10B
100
AcDbXrecord
 10
0.0
 20
0.0
 30
0.0
  0
XRECORD
  5
120
102
{ACAD_REACTORS
330
10B
102
}
330
10B
100
AcDbXrecord
 10
0.0
 20
0.0
 30
0.0
  0
XRECORD
  5
11E
102
{ACAD_REACTORS
330
10B
102
}
330
10B
100
AcDbXrecord
 10
0.0
 20
0.0
 30
0.0
  0
XRECORD
  5
11F
102
{ACAD_REACTORS
330
10B
102
}
330
10B
100
AcDbXrecord
 10
0.0
 20
0.0
 30
0.0
  0
XRECORD
  5
11C
102
{ACAD_REACTORS
330
10B
102
}
330
10B
100
AcDbXrecord
 10
0.0
 20
0.0
 30
0.0
  0
XRECORD
  5
119
102
{ACAD_REACTORS
330
10B
102
}
330
10B
100
AcDbXrecord
340
0
  0
XRECORD
  5
11A
102
{ACAD_REACTORS
330
10B
102
}
330
10B
100
AcDbXrecord
 70
     0
  0
XRECORD
  5
10F
102
{ACAD_REACTORS
330
10B
102
}
330
10B
100
AcDbXrecord
  1

  0
XRECORD
  5
10C
102
{ACAD_REACTORS
330
10B
102
}
330
10B
100
AcDbXrecord
 90
        1
  0
XRECORD
  5
10D
102
{ACAD_REACTORS
330
10B
102
}
330
10B
100
AcDbXrecord
 90
       70
  0
XRECORD
  5
124
102
{ACAD_REACTORS
330
10B
102
}
330
10B
100
AcDbXrecord
340
0
  0
XRECORD
  5
12A
102
{ACAD_REACTORS
330
10B
102
}
330
10B
100
AcDbXrecord
 10
0.0
 20
0.0
 30
0.0
  0
XRECORD
  5
126
102
{ACAD_REACTORS
330
10B
102
}
330
10B
100
AcDbXrecord
 10
0.0
 20
0.0
 30
0.0
  0
XRECORD
  5
129
102
{ACAD_REACTORS
330
10B
102
}
330
10B
100
AcDbXrecord
 10
0.0
 20
0.0
 30
0.0
  0
XRECORD
  5
127
102
{ACAD_REACTORS
330
10B
102
}
330
10B
100
AcDbXrecord
 10
0.0
 20
0.0
 30
0.0
  0
XRECORD
  5
128
102
{ACAD_REACTORS
330
10B
102
}
330
10B
100
AcDbXrecord
 10
0.0
 20
0.0
 30
0.0
  0
XRECORD
  5
125
102
{ACAD_REACTORS
330
10B
102
}
330
10B
100
AcDbXrecord
 10
0.0
 20
0.0
 30
0.0
  0
XRECORD
  5
122
102
{ACAD_REACTORS
330
10B
102
}
330
10B
100
AcDbXrecord
340
0
  0
XRECORD
  5
123
102
{ACAD_REACTORS
330
10B
102
}
330
10B
100
AcDbXrecord
 70
     1
  0
XRECORD
  5
117
102
{ACAD_REACTORS
330
10B
102
}
330
10B
100
AcDbXrecord
  1
{7A82DF13-09F6-44F7-B4CB-A6CF3BD6C306}
  0
DICTIONARYVAR
  5
109
102
{ACAD_REACTORS
330
108
102
}
330
108
100
DictionaryVariables
280
     0
  1
1
  0
ENDSEC
  0
EOF
