  0
SECTION
  2
HEADER
  9
$ACADVER
  1
AC1014
  9
$ACADMAINTVER
 70
     9
  9
$DWGCODEPAGE
  3
ANSI_1252
  9
$INSBASE
 10
0.0
 20
0.0
 30
0.0
  9
$EXTMIN
 10
-0.0000000000000082
 20
0.0609999999999867
 30
0.0
  9
$EXTMAX
 10
130.0
 20
163.939
 30
0.0
  9
$LIMMIN
 10
0.0
 20
0.0
  9
$LIMMAX
 10
12.0
 20
9.0
  9
$ORTHOMODE
 70
     0
  9
$REGENMODE
 70
     1
  9
$FILLMODE
 70
     1
  9
$QTEXTMODE
 70
     0
  9
$MIRRTEXT
 70
     1
  9
$DRAGMODE
 70
     2
  9
$LTSCALE
 40
1.0
  9
$OSMODE
 70
    37
  9
$ATTMODE
 70
     1
  9
$TEXTSIZE
 40
0.2
  9
$TRACEWID
 40
0.05
  9
$TEXTSTYLE
  7
STANDARD
  9
$CLAYER
  8
0
  9
$CELTYPE
  6
CONTINUOUS
  9
$CECOLOR
 62
   256
  9
$CELTSCALE
 40
1.0
  9
$DELOBJ
 70
     1
  9
$DISPSILH
 70
     0
  9
$DIMSCALE
 40
1.0
  9
$DIMASZ
 40
0.18
  9
$DIMEXO
 40
0.0625
  9
$DIMDLI
 40
0.38
  9
$DIMRND
 40
0.0
  9
$DIMDLE
 40
0.0
  9
$DIMEXE
 40
0.18
  9
$DIMTP
 40
0.0
  9
$DIMTM
 40
0.0
  9
$DIMTXT
 40
0.18
  9
$DIMCEN
 40
0.09
  9
$DIMTSZ
 40
0.0
  9
$DIMTOL
 70
     0
  9
$DIMLIM
 70
     0
  9
$DIMTIH
 70
     1
  9
$DIMTOH
 70
     1
  9
$DIMSE1
 70
     0
  9
$DIMSE2
 70
     0
  9
$DIMTAD
 70
     0
  9
$DIMZIN
 70
     0
  9
$DIMBLK
  1

  9
$DIMASO
 70
     1
  9
$DIMSHO
 70
     1
  9
$DIMPOST
  1

  9
$DIMAPOST
  1

  9
$DIMALT
 70
     0
  9
$DIMALTD
 70
     2
  9
$DIMALTF
 40
25.4
  9
$DIMLFAC
 40
1.0
  9
$DIMTOFL
 70
     0
  9
$DIMTVP
 40
0.0
  9
$DIMTIX
 70
     0
  9
$DIMSOXD
 70
     0
  9
$DIMSAH
 70
     0
  9
$DIMBLK1
  1

  9
$DIMBLK2
  1

  9
$DIMSTYLE
  2
STANDARD
  9
$DIMCLRD
 70
     0
  9
$DIMCLRE
 70
     0
  9
$DIMCLRT
 70
     0
  9
$DIMTFAC
 40
1.0
  9
$DIMGAP
 40
0.09
  9
$DIMJUST
 70
     0
  9
$DIMSD1
 70
     0
  9
$DIMSD2
 70
     0
  9
$DIMTOLJ
 70
     1
  9
$DIMTZIN
 70
     0
  9
$DIMALTZ
 70
     0
  9
$DIMALTTZ
 70
     0
  9
$DIMFIT
 70
     3
  9
$DIMUPT
 70
     0
  9
$DIMUNIT
 70
     2
  9
$DIMDEC
 70
     4
  9
$DIMTDEC
 70
     4
  9
$DIMALTU
 70
     2
  9
$DIMALTTD
 70
     2
  9
$DIMTXSTY
  7
STANDARD
  9
$DIMAUNIT
 70
     0
  9
$LUNITS
 70
     2
  9
$LUPREC
 70
     4
  9
$SKETCHINC
 40
0.1
  9
$FILLETRAD
 40
0.0
  9
$AUNITS
 70
     0
  9
$AUPREC
 70
     0
  9
$MENU
  1
.
  9
$ELEVATION
 40
0.0
  9
$PELEVATION
 40
0.0
  9
$THICKNESS
 40
0.0
  9
$LIMCHECK
 70
     0
  9
$BLIPMODE
 70
     0
  9
$CHAMFERA
 40
0.0
  9
$CHAMFERB
 40
0.0
  9
$CHAMFERC
 40
0.0
  9
$CHAMFERD
 40
0.0
  9
$SKPOLY
 70
     0
  9
$TDCREATE
 40
2454700.514489652
  9
$TDUPDATE
 40
2454700.517772349
  9
$TDINDWG
 40
0.0032826968
  9
$TDUSRTIMER
 40
0.0032826968
  9
$USRTIMER
 70
     1
  9
$ANGBASE
 50
0.0
  9
$ANGDIR
 70
     0
  9
$PDMODE
 70
     0
  9
$PDSIZE
 40
0.0
  9
$PLINEWID
 40
0.0
  9
$COORDS
 70
     1
  9
$SPLFRAME
 70
     0
  9
$SPLINETYPE
 70
     6
  9
$SPLINESEGS
 70
     8
  9
$ATTDIA
 70
     0
  9
$ATTREQ
 70
     1
  9
$HANDLING
 70
 22529
  9
$HANDSEED
  5
29D
  9
$SURFTAB1
 70
     6
  9
$SURFTAB2
 70
     6
  9
$SURFTYPE
 70
     6
  9
$SURFU
 70
     6
  9
$SURFV
 70
     6
  9
$UCSNAME
  2

  9
$UCSORG
 10
0.0
 20
0.0
 30
0.0
  9
$UCSXDIR
 10
1.0
 20
0.0
 30
0.0
  9
$UCSYDIR
 10
0.0
 20
1.0
 30
0.0
  9
$PUCSNAME
  2

  9
$PUCSORG
 10
0.0
 20
0.0
 30
0.0
  9
$PUCSXDIR
 10
1.0
 20
0.0
 30
0.0
  9
$PUCSYDIR
 10
0.0
 20
1.0
 30
0.0
  9
$USERI1
 70
     0
  9
$USERI2
 70
     0
  9
$USERI3
 70
     0
  9
$USERI4
 70
     0
  9
$USERI5
 70
     0
  9
$USERR1
 40
0.0
  9
$USERR2
 40
0.0
  9
$USERR3
 40
0.0
  9
$USERR4
 40
0.0
  9
$USERR5
 40
0.0
  9
$WORLDVIEW
 70
     1
  9
$SHADEDGE
 70
     3
  9
$SHADEDIF
 70
    70
  9
$TILEMODE
 70
     1
  9
$MAXACTVP
 70
    64
  9
$PINSBASE
 10
0.0
 20
0.0
 30
0.0
  9
$PLIMCHECK
 70
     0
  9
$PEXTMIN
 10
1.000000000000000E+20
 20
1.000000000000000E+20
 30
1.000000000000000E+20
  9
$PEXTMAX
 10
-1.000000000000000E+20
 20
-1.000000000000000E+20
 30
-1.000000000000000E+20
  9
$PLIMMIN
 10
0.0
 20
0.0
  9
$PLIMMAX
 10
12.0
 20
9.0
  9
$UNITMODE
 70
     0
  9
$VISRETAIN
 70
     1
  9
$PLINEGEN
 70
     0
  9
$PSLTSCALE
 70
     1
  9
$TREEDEPTH
 70
  3020
  9
$PICKSTYLE
 70
     1
  9
$CMLSTYLE
  2
STANDARD
  9
$CMLJUST
 70
     0
  9
$CMLSCALE
 40
1.0
  9
$PROXYGRAPHICS
 70
     1
  9
$MEASUREMENT
 70
     0
  0
ENDSEC
  0
SECTION
  2
CLASSES
  0
CLASS
  1
ACDBDICTIONARYWDFLT
  2
AcDbDictionaryWithDefault
  3
AutoCAD 2000
 90
        0
280
     0
281
     0
  0
CLASS
  1
ACDBPLACEHOLDER
  2
AcDbPlaceHolder
  3
AutoCAD 2000
 90
        0
280
     0
281
     0
  0
CLASS
  1
LAYOUT
  2
AcDbLayout
  3
AutoCAD 2000
 90
        0
280
     0
281
     0
  0
CLASS
  1
DICTIONARYVAR
  2
AcDbDictionaryVar
  3
AutoCAD 2000
 90
        0
280
     0
281
     0
  0
CLASS
  1
LONG_TRANSACTION
  2
AcDbLongTransaction
  3
AutoCAD 2000
 90
        0
280
     0
281
     0
  0
CLASS
  1
LWPOLYLINE
  2
AcDbPolyline
  3
AutoCAD 2000
 90
        0
280
     0
281
     1
  0
CLASS
  1
HATCH
  2
AcDbHatch
  3
AutoCAD 2000
 90
        0
280
     0
281
     1
  0
CLASS
  1
XRECORD
  2
AcDbXrecord
  3
AutoCAD 2000
 90
        0
280
     0
281
     0
  0
ENDSEC
  0
SECTION
  2
TABLES
  0
TABLE
  2
VPORT
  5
8
330
0
100
AcDbSymbolTable
 70
     2
  0
VPORT
  5
278
330
8
100
AcDbSymbolTableRecord
100
AcDbViewportTableRecord
  2
*ACTIVE
 70
     0
 10
0.0
 20
0.0
 11
1.0
 21
1.0
 12
64.99999999999999
 22
82.00000000000001
 13
0.0
 23
0.0
 14
1.0
 24
1.0
 15
0.0
 25
0.0
 16
0.0
 26
0.0
 36
1.0
 17
0.0
 27
0.0
 37
0.0
 40
165.1353759590793
 41
2.078104993597951
 42
50.0
 43
0.0
 44
0.0
 50
0.0
 51
0.0
 71
     0
 72
   100
 73
     1
 74
     3
 75
     0
 76
     0
 77
     0
 78
     0
  0
ENDTAB
  0
TABLE
  2
LTYPE
  5
5
330
0
100
AcDbSymbolTable
 70
     1
  0
LTYPE
  5
13
330
5
100
AcDbSymbolTableRecord
100
AcDbLinetypeTableRecord
  2
BYBLOCK
 70
     0
  3

 72
    65
 73
     0
 40
0.0
  0
LTYPE
  5
14
330
5
100
AcDbSymbolTableRecord
100
AcDbLinetypeTableRecord
  2
BYLAYER
 70
     0
  3

 72
    65
 73
     0
 40
0.0
  0
LTYPE
  5
15
330
5
100
AcDbSymbolTableRecord
100
AcDbLinetypeTableRecord
  2
CONTINUOUS
 70
     0
  3
Solid line
 72
    65
 73
     0
 40
0.0
  0
ENDTAB
  0
TABLE
  2
LAYER
  5
2
330
0
100
AcDbSymbolTable
 70
     1
  0
LAYER
  5
10
330
2
100
AcDbSymbolTableRecord
100
AcDbLayerTableRecord
  2
0
 70
     0
 62
     7
  6
CONTINUOUS
  0
ENDTAB
  0
TABLE
  2
STYLE
  5
3
330
0
100
AcDbSymbolTable
 70
     1
  0
STYLE
  5
11
330
3
100
AcDbSymbolTableRecord
100
AcDbTextStyleTableRecord
  2
STANDARD
 70
     0
 40
0.0
 41
1.0
 50
0.0
 71
     0
 42
0.2
  3
txt
  4

  0
ENDTAB
  0
TABLE
  2
VIEW
  5
6
330
0
100
AcDbSymbolTable
 70
     0
  0
ENDTAB
  0
TABLE
  2
UCS
  5
7
330
0
100
AcDbSymbolTable
 70
     0
  0
ENDTAB
  0
TABLE
  2
APPID
  5
9
330
0
100
AcDbSymbolTable
 70
     1
  0
APPID
  5
12
330
9
100
AcDbSymbolTableRecord
100
AcDbRegAppTableRecord
  2
ACAD
 70
     0
  0
ENDTAB
  0
TABLE
  2
DIMSTYLE
  5
A
330
0
100
AcDbSymbolTable
 70
     1
  0
DIMSTYLE
105
270
330
A
100
AcDbSymbolTableRecord
100
AcDbDimStyleTableRecord
  2
STANDARD
 70
     0
  3

  4

  5

  6

  7

 40
1.0
 41
0.18
 42
0.0625
 43
0.38
 44
0.18
 45
0.0
 46
0.0
 47
0.0
 48
0.0
140
0.18
141
0.09
142
0.0
143
25.4
144
1.0
145
0.0
146
1.0
147
0.09
 71
     0
 72
     0
 73
     1
 74
     1
 75
     0
 76
     0
 77
     0
 78
     0
170
     0
171
     2
172
     0
173
     0
174
     0
175
     0
176
     0
177
     0
178
     0
270
     2
271
     4
272
     4
273
     2
274
     2
340
11
275
     0
280
     0
281
     0
282
     0
283
     1
284
     0
285
     0
286
     0
287
     3
288
     0
  0
ENDTAB
  0
TABLE
  2
BLOCK_RECORD
  5
1
330
0
100
AcDbSymbolTable
 70
     0
  0
BLOCK_RECORD
  5
1E
102
{ACAD_XDICTIONARY
360
29B
102
}
330
1
100
AcDbSymbolTableRecord
100
AcDbBlockTableRecord
  2
*MODEL_SPACE
  0
BLOCK_RECORD
  5
1A
102
{ACAD_XDICTIONARY
360
299
102
}
330
1
100
AcDbSymbolTableRecord
100
AcDbBlockTableRecord
  2
*PAPER_SPACE
  0
ENDTAB
  0
ENDSEC
  0
SECTION
  2
BLOCKS
  0
BLOCK
  5
1F
330
1E
100
AcDbEntity
  8
0
100
AcDbBlockBegin
  2
*MODEL_SPACE
 70
     0
 10
0.0
 20
0.0
 30
0.0
  3
*MODEL_SPACE
  1

  0
ENDBLK
  5
20
330
1E
100
AcDbEntity
  8
0
100
AcDbBlockEnd
  0
BLOCK
  5
1B
330
1A
100
AcDbEntity
 67
     1
  8
0
100
AcDbBlockBegin
  2
*PAPER_SPACE
 70
     0
 10
0.0
 20
0.0
 30
0.0
  3
*PAPER_SPACE
  1

  0
ENDBLK
  5
1C
330
1A
100
AcDbEntity
 67
     1
  8
0
100
AcDbBlockEnd
  0
ENDSEC
  0
SECTION
  2
ENTITIES
  0
LINE
  5
22
330
1E
100
AcDbEntity
  8
0
100
AcDbLine
 10
-0.0000000000000081
 20
54.7723
 30
0.0
 11
0.4999999999999911
 21
48.1057
 31
0.0
  0
LINE
  5
23
330
1E
100
AcDbEntity
  8
0
100
AcDbLine
 10
-0.0000000000000081
 20
54.7723
 30
0.0
 11
-0.0000000000000081
 21
54.9723
 31
0.0
  0
LINE
  5
24
330
1E
100
AcDbEntity
  8
0
100
AcDbLine
 10
-0.0000000000000079
 20
58.239
 30
0.0
 11
-0.0000000000000079
 21
59.43899999999999
 31
0.0
  0
LINE
  5
25
330
1E
100
AcDbEntity
  8
0
100
AcDbLine
 10
-0.000000000000008
 20
57.1057
 30
0.0
 11
-0.0000000000000079
 21
58.239
 31
0.0
  0
LINE
  5
26
330
1E
100
AcDbEntity
  8
0
100
AcDbLine
 10
-0.0000000000000081
 20
56.1723
 30
0.0
 11
-0.000000000000008
 21
57.1057
 31
0.0
  0
LINE
  5
27
330
1E
100
AcDbEntity
  8
0
100
AcDbLine
 10
-0.0000000000000081
 20
55.3723
 30
0.0
 11
-0.0000000000000081
 21
56.1723
 31
0.0
  0
LINE
  5
28
330
1E
100
AcDbEntity
  8
0
100
AcDbLine
 10
-0.0000000000000081
 20
54.9723
 30
0.0
 11
-0.0000000000000081
 21
55.3723
 31
0.0
  0
LINE
  5
29
330
1E
100
AcDbEntity
  8
0
100
AcDbLine
 10
-0.000000000000004
 20
121.9389999999999
 30
0.0
 11
-0.0000000000000039
 21
123.7389999999999
 31
0.0
  0
LINE
  5
2A
330
1E
100
AcDbEntity
  8
0
100
AcDbLine
 10
-0.0000000000000039
 20
123.7389999999999
 30
0.0
 11
-0.0000000000000038
 21
125.4389999999999
 31
0.0
  0
LINE
  5
2B
330
1E
100
AcDbEntity
  8
0
100
AcDbLine
 10
-0.0000000000000038
 20
125.4389999999999
 30
0.0
 11
-0.0000000000000037
 21
126.8389999999999
 31
0.0
  0
LINE
  5
2C
330
1E
100
AcDbEntity
  8
0
100
AcDbLine
 10
-0.0000000000000037
 20
126.8389999999999
 30
0.0
 11
-0.0000000000000037
 21
128.0389999999999
 31
0.0
  0
LINE
  5
41
330
1E
100
AcDbEntity
  8
0
100
AcDbLine
 10
-0.0000000000000037
 20
128.0389999999999
 30
0.0
 11
-0.0000000000000036
 21
128.639
 31
0.0
  0
LINE
  5
42
330
1E
100
AcDbEntity
  8
0
100
AcDbLine
 10
-0.0000000000000036
 20
128.639
 30
0.0
 11
-0.0000000000000036
 21
128.939
 31
0.0
  0
LINE
  5
43
330
1E
100
AcDbEntity
  8
0
100
AcDbLine
 10
-0.0000000000000079
 20
59.43899999999999
 30
0.0
 11
-0.000000000000004
 21
121.9389999999999
 31
0.0
  0
LINE
  5
44
330
1E
100
AcDbEntity
  8
0
100
AcDbLine
 10
-0.0000000000000082
 20
54.7723
 30
0.0
 11
0.4999999999999911
 21
48.1057
 31
0.0
  0
LINE
  5
45
330
1E
100
AcDbEntity
  8
0
100
AcDbLine
 10
0.4999999999999911
 20
48.1057
 30
0.0
 11
0.9999999999999909
 21
44.7723
 31
0.0
  0
LINE
  5
46
330
1E
100
AcDbEntity
  8
0
100
AcDbLine
 10
-0.0000000000000036
 20
128.939
 30
0.0
 11
0.499999999999997
 21
138.9389999999999
 31
0.0
  0
LINE
  5
47
330
1E
100
AcDbEntity
  8
0
100
AcDbLine
 10
0.9999999999999909
 20
45.30569999999999
 30
0.0
 11
0.9999999999999909
 21
46.7057
 31
0.0
  0
LINE
  5
49
330
1E
100
AcDbEntity
  8
0
100
AcDbLine
 10
0.9999999999999909
 20
46.7057
 30
0.0
 11
0.9999999999999909
 21
45.30569999999999
 31
0.0
  0
LINE
  5
4A
330
1E
100
AcDbEntity
  8
0
100
AcDbLine
 10
0.9999999999999909
 20
46.7057
 30
0.0
 11
0.9999999999999921
 21
49.10569999999999
 31
0.0
  0
LINE
  5
4B
330
1E
100
AcDbEntity
  8
0
100
AcDbLine
 10
0.9999999999999921
 20
55.639
 30
0.0
 11
0.9999999999999921
 21
59.43899999999999
 31
0.0
  0
LINE
  5
4C
330
1E
100
AcDbEntity
  8
0
100
AcDbLine
 10
0.9999999999999921
 20
52.1723
 30
0.0
 11
0.9999999999999921
 21
55.639
 31
0.0
  0
LINE
  5
4D
330
1E
100
AcDbEntity
  8
0
100
AcDbLine
 10
0.9999999999999921
 20
49.10569999999999
 30
0.0
 11
0.9999999999999921
 21
52.1723
 31
0.0
  0
LINE
  5
51
330
1E
100
AcDbEntity
  8
0
100
AcDbLine
 10
0.999999999999996
 20
121.9389999999999
 30
0.0
 11
0.999999999999996
 21
127.6389999999999
 31
0.0
  0
LINE
  5
52
330
1E
100
AcDbEntity
  8
0
100
AcDbLine
 10
0.999999999999996
 20
127.6389999999999
 30
0.0
 11
0.9999999999999969
 21
132.8389999999999
 31
0.0
  0
LINE
  5
54
330
1E
100
AcDbEntity
  8
0
100
AcDbLine
 10
0.9999999999999969
 20
132.8389999999999
 30
0.0
 11
0.9999999999999969
 21
137.439
 31
0.0
  0
LINE
  5
55
330
1E
100
AcDbEntity
  8
0
100
AcDbLine
 10
0.9999999999999969
 20
137.439
 30
0.0
 11
0.9999999999999969
 21
141.0389999999999
 31
0.0
  0
LINE
  5
58
330
1E
100
AcDbEntity
  8
0
100
AcDbLine
 10
0.9999999999999969
 20
143.139
 30
0.0
 11
0.9999999999999969
 21
143.9389999999999
 31
0.0
  0
LINE
  5
59
330
1E
100
AcDbEntity
  8
0
100
AcDbLine
 10
0.9999999999999969
 20
141.0389999999999
 30
0.0
 11
0.9999999999999969
 21
143.139
 31
0.0
  0
LINE
  5
5D
330
1E
100
AcDbEntity
  8
0
100
AcDbLine
 10
0.9999999999999921
 20
59.43899999999999
 30
0.0
 11
0.999999999999996
 21
121.9389999999999
 31
0.0
  0
LINE
  5
5E
330
1E
100
AcDbEntity
  8
0
100
AcDbLine
 10
0.9999999999999909
 20
44.7723
 30
0.0
 11
1.499999999999989
 21
44.43899999999999
 31
0.0
  0
LINE
  5
5F
330
1E
100
AcDbEntity
  8
0
100
AcDbLine
 10
0.9999999999999909
 20
44.7723
 30
0.0
 11
0.9999999999999909
 21
45.30569999999999
 31
0.0
  0
LINE
  5
60
330
1E
100
AcDbEntity
  8
0
100
AcDbLine
 10
1.499999999999989
 20
44.43899999999999
 30
0.0
 11
2.99999999999999
 21
44.43899999999999
 31
0.0
  0
LINE
  5
61
330
1E
100
AcDbEntity
  8
0
100
AcDbLine
 10
0.499999999999997
 20
138.9389999999999
 30
0.0
 11
0.9999999999999969
 21
143.9389999999999
 31
0.0
  0
LINE
  5
62
330
1E
100
AcDbEntity
  8
0
100
AcDbLine
 10
0.9999999999999969
 20
143.9389999999999
 30
0.0
 11
1.5
 21
144.439
 31
0.0
  0
LINE
  5
63
330
1E
100
AcDbEntity
  8
0
100
AcDbLine
 10
0.9999999999999969
 20
143.9389999999999
 30
0.0
 11
0.9999999999999969
 21
143.139
 31
0.0
  0
LINE
  5
64
330
1E
100
AcDbEntity
  8
0
100
AcDbLine
 10
71.9404
 20
0.0689999999999964
 30
0.0
 11
73.741
 21
0.126999999999989
 31
0.0
  0
LINE
  5
65
330
1E
100
AcDbEntity
  8
0
100
AcDbLine
 10
70.0402
 20
0.0609999999999867
 30
0.0
 11
71.9404
 21
0.0689999999999964
 31
0.0
  0
LINE
  5
66
330
1E
100
AcDbEntity
  8
0
100
AcDbLine
 10
62.5809
 20
4.392999999999999
 30
0.0
 11
63.1088
 21
60.1292
 31
0.0
  0
LINE
  5
67
330
1E
100
AcDbEntity
  8
0
100
AcDbLine
 10
62.8937
 20
5.74
 30
0.0
 11
63.605
 21
6.932999999999999
 31
0.0
  0
LINE
  5
68
330
1E
100
AcDbEntity
  8
0
100
AcDbLine
 10
62.5809
 20
4.392999999999999
 30
0.0
 11
62.8621
 21
2.403999999999999
 31
0.0
  0
LINE
  5
69
330
1E
100
AcDbEntity
  8
0
100
AcDbLine
 10
62.5809
 20
4.392999999999999
 30
0.0
 11
63.1088
 21
60.1292
 31
0.0
  0
LINE
  5
6A
330
1E
100
AcDbEntity
  8
0
100
AcDbLine
 10
62.5809
 20
4.392999999999999
 30
0.0
 11
62.8937
 21
5.74
 31
0.0
  0
LINE
  5
6B
330
1E
100
AcDbEntity
  8
0
100
AcDbLine
 10
62.8621
 20
2.403999999999999
 30
0.0
 11
63.5514
 21
1.272999999999999
 31
0.0
  0
LINE
  5
6C
330
1E
100
AcDbEntity
  8
0
100
AcDbLine
 10
63.605
 20
6.932999999999999
 30
0.0
 11
64.8163
 21
8.121
 31
0.0
  0
LINE
  5
6D
330
1E
100
AcDbEntity
  8
0
100
AcDbLine
 10
64.8163
 20
8.121
 30
0.0
 11
66.42619999999999
 21
9.154999999999999
 31
0.0
  0
LINE
  5
6E
330
1E
100
AcDbEntity
  8
0
100
AcDbLine
 10
63.5514
 20
1.272999999999999
 30
0.0
 11
64.7449
 21
0.5869999999999691
 31
0.0
  0
LINE
  5
6F
330
1E
100
AcDbEntity
  8
0
100
AcDbLine
 10
64.7449
 20
0.5869999999999691
 30
0.0
 11
66.3413
 21
0.197000000000011
 31
0.0
  0
LINE
  5
70
330
1E
100
AcDbEntity
  8
0
100
AcDbLine
 10
73.741
 20
0.126999999999989
 30
0.0
 11
75.34449999999999
 21
0.486999999999974
 31
0.0
  0
LINE
  5
71
330
1E
100
AcDbEntity
  8
0
100
AcDbLine
 10
76.55079999999999
 20
1.149999999999999
 30
0.0
 11
77.2614
 21
2.26800000000001
 31
0.0
  0
LINE
  5
72
330
1E
100
AcDbEntity
  8
0
100
AcDbLine
 10
75.34449999999999
 20
0.486999999999974
 30
0.0
 11
76.55079999999999
 21
1.149999999999999
 31
0.0
  0
LINE
  5
73
330
1E
100
AcDbEntity
  8
0
100
AcDbLine
 10
77.58020000000001
 20
4.251000000000009
 30
0.0
 11
78.1080995264725
 21
59.9871500044985
 31
0.0
  0
LINE
  5
74
330
1E
100
AcDbEntity
  8
0
100
AcDbLine
 10
77.2614
 20
2.26800000000001
 30
0.0
 11
77.58020000000001
 21
4.251000000000009
 31
0.0
  0
LINE
  5
75
330
1E
100
AcDbEntity
  8
0
100
AcDbLine
 10
77.58020000000001
 20
4.251000000000009
 30
0.0
 11
78.1080995264725
 21
59.9871500044985
 31
0.0
  0
LINE
  5
76
330
1E
100
AcDbEntity
  8
0
100
AcDbLine
 10
77.29300000000001
 20
5.604000000000009
 30
0.0
 11
77.58020000000001
 21
4.251000000000009
 31
0.0
  0
LINE
  5
77
330
1E
100
AcDbEntity
  8
0
100
AcDbLine
 10
76.6044
 20
6.810000000000009
 30
0.0
 11
77.29300000000001
 21
5.604000000000009
 31
0.0
  0
LINE
  5
78
330
1E
100
AcDbEntity
  8
0
100
AcDbLine
 10
75.4158
 20
8.01999999999999
 30
0.0
 11
76.6044
 21
6.810000000000009
 31
0.0
  0
LINE
  5
79
330
1E
100
AcDbEntity
  8
0
100
AcDbLine
 10
73.8258
 20
9.085
 30
0.0
 11
75.4158
 21
8.01999999999999
 31
0.0
  0
LINE
  5
7A
330
1E
100
AcDbEntity
  8
0
100
AcDbLine
 10
72.0326
 20
9.814000000000019
 30
0.0
 11
73.8258
 21
9.085
 31
0.0
  0
LINE
  5
7B
330
1E
100
AcDbEntity
  8
0
100
AcDbLine
 10
66.42619999999999
 20
9.154999999999999
 30
0.0
 11
68.2328
 21
9.849999999999999
 31
0.0
  0
LINE
  5
7C
330
1E
100
AcDbEntity
  8
0
100
AcDbLine
 10
70.1349
 20
10.06
 30
0.0
 11
72.0326
 21
9.814000000000019
 31
0.0
  0
LINE
  5
7D
330
1E
100
AcDbEntity
  8
0
100
AcDbLine
 10
68.2328
 20
9.849999999999999
 30
0.0
 11
70.1349
 21
10.06
 31
0.0
  0
LINE
  5
7E
330
1E
100
AcDbEntity
  8
0
100
AcDbLine
 10
66.3413
 20
0.197000000000011
 30
0.0
 11
68.1405
 21
0.104999999999998
 31
0.0
  0
LINE
  5
7F
330
1E
100
AcDbEntity
  8
0
100
AcDbLine
 10
68.1405
 20
0.104999999999998
 30
0.0
 11
70.0402
 21
0.0609999999999867
 31
0.0
  0
LINE
  5
80
330
1E
100
AcDbEntity
  8
0
100
AcDbLine
 10
4.49999999999999
 20
44.43899999999999
 30
0.0
 11
4.99999999999999
 21
44.7723
 31
0.0
  0
LINE
  5
8A
330
1E
100
AcDbEntity
  8
0
100
AcDbLine
 10
3.0
 20
144.439
 30
0.0
 11
31.0
 21
144.439
 31
0.0
  0
LINE
  5
8B
330
1E
100
AcDbEntity
  8
0
100
AcDbLine
 10
3.0
 20
144.439
 30
0.0
 11
31.0
 21
144.439
 31
0.0
  0
LINE
  5
91
330
1E
100
AcDbEntity
  8
0
100
AcDbLine
 10
5.99999999999999
 20
58.239
 30
0.0
 11
5.99999999999999
 21
59.43899999999999
 31
0.0
  0
LINE
  5
92
330
1E
100
AcDbEntity
  8
0
100
AcDbLine
 10
5.99999999999999
 20
58.239
 30
0.0
 11
5.99999999999999
 21
57.1057
 31
0.0
  0
LINE
  5
93
330
1E
100
AcDbEntity
  8
0
100
AcDbLine
 10
5.99999999999999
 20
57.1057
 30
0.0
 11
5.99999999999999
 21
58.239
 31
0.0
  0
LINE
  5
94
330
1E
100
AcDbEntity
  8
0
100
AcDbLine
 10
5.99999999999999
 20
57.1057
 30
0.0
 11
5.99999999999999
 21
56.1723
 31
0.0
  0
LINE
  5
95
330
1E
100
AcDbEntity
  8
0
100
AcDbLine
 10
5.99999999999999
 20
56.1723
 30
0.0
 11
5.99999999999999
 21
57.1057
 31
0.0
  0
LINE
  5
96
330
1E
100
AcDbEntity
  8
0
100
AcDbLine
 10
5.99999999999999
 20
56.1723
 30
0.0
 11
5.99999999999999
 21
55.3723
 31
0.0
  0
LINE
  5
97
330
1E
100
AcDbEntity
  8
0
100
AcDbLine
 10
5.99999999999999
 20
55.3723
 30
0.0
 11
5.99999999999999
 21
56.1723
 31
0.0
  0
LINE
  5
98
330
1E
100
AcDbEntity
  8
0
100
AcDbLine
 10
5.99999999999999
 20
55.3723
 30
0.0
 11
5.99999999999999
 21
54.9723
 31
0.0
  0
LINE
  5
99
330
1E
100
AcDbEntity
  8
0
100
AcDbLine
 10
5.99999999999999
 20
54.9723
 30
0.0
 11
5.99999999999999
 21
55.3723
 31
0.0
  0
LINE
  5
9A
330
1E
100
AcDbEntity
  8
0
100
AcDbLine
 10
5.99999999999999
 20
54.9723
 30
0.0
 11
5.99999999999999
 21
54.7723
 31
0.0
  0
LINE
  5
9B
330
1E
100
AcDbEntity
  8
0
100
AcDbLine
 10
5.99999999999999
 20
54.7723
 30
0.0
 11
5.99999999999999
 21
54.9723
 31
0.0
  0
LINE
  5
9E
330
1E
100
AcDbEntity
  8
0
100
AcDbLine
 10
5.99999999999999
 20
59.43899999999999
 30
0.0
 11
5.99999999999999
 21
99.43899999999999
 31
0.0
  0
LINE
  5
9F
330
1E
100
AcDbEntity
  8
0
100
AcDbLine
 10
5.99999999999999
 20
59.43899999999999
 30
0.0
 11
5.99999999999999
 21
58.239
 31
0.0
  0
LINE
  5
AF
330
1E
100
AcDbEntity
  8
0
100
AcDbLine
 10
6.0
 20
99.43899999999999
 30
0.0
 11
32.50302599999999
 21
99.43899999999999
 31
0.0
  0
LINE
  5
B0
330
1E
100
AcDbEntity
  8
0
100
AcDbLine
 10
31.9847
 20
141.3816999999999
 30
0.0
 11
33.2181
 21
137.75918
 31
0.0
  0
LINE
  5
B1
330
1E
100
AcDbEntity
  8
0
100
AcDbLine
 10
6.0
 20
99.43899999999999
 30
0.0
 11
32.50302599999999
 21
99.43899999999999
 31
0.0
  0
LINE
  5
B3
330
1E
100
AcDbEntity
  8
0
100
AcDbLine
 10
33.8945
 20
137.3610999999999
 30
0.0
 11
35.36659999999999
 21
132.9025799999999
 31
0.0
  0
LINE
  5
B4
330
1E
100
AcDbEntity
  8
0
100
AcDbLine
 10
34.76979999999999
 20
133.14143
 30
0.0
 11
36.5602
 21
127.7673199999999
 31
0.0
  0
LINE
  5
B5
330
1E
100
AcDbEntity
  8
0
100
AcDbLine
 10
32.70089999999999
 20
140.9438
 30
0.0
 11
33.8945
 21
137.3610999999999
 31
0.0
  0
LINE
  5
B6
330
1E
100
AcDbEntity
  8
0
100
AcDbLine
 10
33.2181
 20
137.75918
 30
0.0
 11
34.76979999999999
 21
133.14143
 31
0.0
  0
LINE
  5
B7
330
1E
100
AcDbEntity
  8
0
100
AcDbLine
 10
32.50302599999999
 20
99.43899999999999
 30
0.0
 11
38.5
 21
99.43899999999999
 31
0.0
  0
LINE
  5
B8
330
1E
100
AcDbEntity
  8
0
100
AcDbLine
 10
31.9847
 20
143.1332999999999
 30
0.0
 11
32.70089999999999
 21
140.9438
 31
0.0
  0
LINE
  5
B9
330
1E
100
AcDbEntity
  8
0
100
AcDbLine
 10
31.6664
 20
143.9693
 30
0.0
 11
31.9847
 21
143.1332999999999
 31
0.0
  0
LINE
  5
BA
330
1E
100
AcDbEntity
  8
0
100
AcDbLine
 10
31.2686
 20
143.6508
 30
0.0
 11
31.9847
 21
141.3816999999999
 31
0.0
  0
LINE
  5
BB
330
1E
100
AcDbEntity
  8
0
100
AcDbLine
 10
31.0
 20
144.439
 30
0.0
 11
31.6664
 21
143.9693
 31
0.0
  0
LINE
  5
BC
330
1E
100
AcDbEntity
  8
0
100
AcDbLine
 10
31.0
 20
144.439
 30
0.0
 11
31.2686
 21
143.6508
 31
0.0
  0
LINE
  5
BD
330
1E
100
AcDbEntity
  8
0
100
AcDbLine
 10
31.9975047532762
 20
143.094154499723
 30
0.0
 11
34.79999999999999
 21
143.439
 31
0.0
  0
LINE
  5
BE
330
1E
100
AcDbEntity
  8
0
100
AcDbLine
 10
66.9086
 20
60.0932
 30
0.0
 11
68.7085
 21
60.0762
 31
0.0
  0
LINE
  5
BF
330
1E
100
AcDbEntity
  8
0
100
AcDbLine
 10
61.90879999999999
 20
60.1406
 30
0.0
 11
62.80879999999999
 21
60.1321
 31
0.0
  0
LINE
  5
C0
330
1E
100
AcDbEntity
  8
0
100
AcDbLine
 10
61.6088
 20
60.1434
 30
0.0
 11
61.90879999999999
 21
60.1406
 31
0.0
  0
LINE
  5
C1
330
1E
100
AcDbEntity
  8
0
100
AcDbLine
 10
60.65999999999999
 20
90.93899999999999
 30
0.0
 11
61.716
 21
90.93899999999999
 31
0.0
  0
LINE
  5
C2
330
1E
100
AcDbEntity
  8
0
100
AcDbLine
 10
60.26399999999999
 20
90.93899999999999
 30
0.0
 11
60.65999999999999
 21
90.93899999999999
 31
0.0
  0
LINE
  5
C3
330
1E
100
AcDbEntity
  8
0
100
AcDbLine
 10
60.0
 20
91.539
 30
0.0
 11
60.0
 21
95.93899999999999
 31
0.0
  0
LINE
  5
C4
330
1E
100
AcDbEntity
  8
0
100
AcDbLine
 10
60.0
 20
91.539
 30
0.0
 11
60.26399999999999
 21
90.93899999999999
 31
0.0
  0
LINE
  5
C5
330
1E
100
AcDbEntity
  8
0
100
AcDbLine
 10
62.0272
 20
90.14078353150351
 30
0.0
 11
62.0272
 21
90.93899999999999
 31
0.0
  0
LINE
  5
C6
330
1E
100
AcDbEntity
  8
0
100
AcDbLine
 10
62.1929
 20
90.1392
 30
0.0
 11
63.79290000000001
 21
90.1241
 31
0.0
  0
LINE
  5
C7
330
1E
100
AcDbEntity
  8
0
100
AcDbLine
 10
61.716
 20
90.93899999999999
 30
0.0
 11
62.0272
 21
90.93899999999999
 31
0.0
  0
LINE
  5
C8
330
1E
100
AcDbEntity
  8
0
100
AcDbLine
 10
61.716
 20
90.93899999999999
 30
0.0
 11
63.43199999999999
 21
90.93899999999999
 31
0.0
  0
LINE
  5
C9
330
1E
100
AcDbEntity
  8
0
100
AcDbLine
 10
62.0272
 20
90.93899999999999
 30
0.0
 11
62.0272
 21
90.14078353150351
 31
0.0
  0
LINE
  5
CA
330
1E
100
AcDbEntity
  8
0
100
AcDbLine
 10
61.293
 20
90.1478
 30
0.0
 11
62.1929
 21
90.1392
 31
0.0
  0
LINE
  5
CB
330
1E
100
AcDbEntity
  8
0
100
AcDbLine
 10
60.893
 20
90.15159999999999
 30
0.0
 11
61.293
 21
90.1478
 31
0.0
  0
LINE
  5
CC
330
1E
100
AcDbEntity
  8
0
100
AcDbLine
 10
59.8741
 20
88.1611
 30
0.0
 11
61.6088
 21
60.1434
 31
0.0
  0
LINE
  5
CD
330
1E
100
AcDbEntity
  8
0
100
AcDbLine
 10
59.8741
 20
88.1611
 30
0.0
 11
60.893
 21
90.15159999999999
 31
0.0
  0
LINE
  5
CE
330
1E
100
AcDbEntity
  8
0
100
AcDbLine
 10
63.1088
 20
60.1292
 30
0.0
 11
63.40636687540921
 21
60.1264227091628
 31
0.0
  0
LINE
  5
CF
330
1E
100
AcDbEntity
  8
0
100
AcDbLine
 10
63.43199999999999
 20
90.93899999999999
 30
0.0
 11
65.676
 21
90.93899999999999
 31
0.0
  0
LINE
  5
D0
330
1E
100
AcDbEntity
  8
0
100
AcDbLine
 10
63.79290000000001
 20
90.1241
 30
0.0
 11
65.89279999999999
 21
90.10420000000001
 31
0.0
  0
LINE
  5
D1
330
1E
100
AcDbEntity
  8
0
100
AcDbLine
 10
65.676
 20
90.93899999999999
 30
0.0
 11
68.228
 21
90.93899999999999
 31
0.0
  0
LINE
  5
D2
330
1E
100
AcDbEntity
  8
0
100
AcDbLine
 10
68.228
 20
90.93899999999999
 30
0.0
 11
71.0
 21
90.93899999999999
 31
0.0
  0
LINE
  5
D3
330
1E
100
AcDbEntity
  8
0
100
AcDbLine
 10
65.89279999999999
 20
90.10420000000001
 30
0.0
 11
68.2927
 21
90.0815
 31
0.0
  0
LINE
  5
D4
330
1E
100
AcDbEntity
  8
0
100
AcDbLine
 10
68.2927
 20
90.0815
 30
0.0
 11
70.89249999999999
 21
90.05689999999999
 31
0.0
  0
LINE
  5
D5
330
1E
100
AcDbEntity
  8
0
100
AcDbLine
 10
64.20869999999999
 20
60.1188
 30
0.0
 11
66.10859999999999
 21
60.1008
 31
0.0
  0
LINE
  5
D6
330
1E
100
AcDbEntity
  8
0
100
AcDbLine
 10
66.10859999999999
 20
60.1008
 30
0.0
 11
68.30849999999999
 21
60.08
 31
0.0
  0
LINE
  5
D7
330
1E
100
AcDbEntity
  8
0
100
AcDbLine
 10
62.80879999999999
 20
60.1321
 30
0.0
 11
63.40636687540921
 21
60.1264227091628
 31
0.0
  0
LINE
  5
D8
330
1E
100
AcDbEntity
  8
0
100
AcDbLine
 10
62.80879999999999
 20
60.1321
 30
0.0
 11
64.20869999999999
 21
60.1188
 31
0.0
  0
LINE
  5
D9
330
1E
100
AcDbEntity
  8
0
100
AcDbLine
 10
66.1190130791244
 20
60.1007015445949
 30
0.0
 11
68.30849999999999
 21
60.08
 31
0.0
  0
LINE
  5
DA
330
1E
100
AcDbEntity
  8
0
100
AcDbLine
 10
66.1190130791244
 20
60.1007015445949
 30
0.0
 11
66.9086
 21
60.0932
 31
0.0
  0
LINE
  5
DB
330
1E
100
AcDbEntity
  8
0
100
AcDbLine
 10
79.608
 20
59.973
 30
0.0
 11
81.8731
 21
87.95279999999999
 31
0.0
  0
LINE
  5
DC
330
1E
100
AcDbEntity
  8
0
100
AcDbLine
 10
75.10819999999999
 20
60.0156
 30
0.0
 11
77.0081
 21
59.9976
 31
0.0
  0
LINE
  5
DD
330
1E
100
AcDbEntity
  8
0
100
AcDbLine
 10
72.90829999999999
 20
60.0364
 30
0.0
 11
75.10819999999999
 21
60.0156
 31
0.0
  0
LINE
  5
DE
330
1E
100
AcDbEntity
  8
0
100
AcDbLine
 10
68.7085
 20
60.0762
 30
0.0
 11
70.6084
 21
60.05819999999999
 31
0.0
  0
LINE
  5
DF
330
1E
100
AcDbEntity
  8
0
100
AcDbLine
 10
70.6084
 20
60.05819999999999
 30
0.0
 11
72.90829999999999
 21
60.0364
 31
0.0
  0
LINE
  5
E0
330
1E
100
AcDbEntity
  8
0
100
AcDbLine
 10
75.90819999999999
 20
60.008
 30
0.0
 11
77.10809999999999
 21
59.9966
 31
0.0
  0
LINE
  5
E1
330
1E
100
AcDbEntity
  8
0
100
AcDbLine
 10
77.10809999999999
 20
59.9966
 30
0.0
 11
77.80809999999999
 21
59.99
 31
0.0
  0
LINE
  5
E2
330
1E
100
AcDbEntity
  8
0
100
AcDbLine
 10
80.4921
 20
89.96590000000001
 30
0.0
 11
80.89209999999999
 21
89.96210000000001
 31
0.0
  0
LINE
  5
E3
330
1E
100
AcDbEntity
  8
0
100
AcDbLine
 10
77.0081
 20
59.9976
 30
0.0
 11
78.40810000000001
 21
59.98429999999999
 31
0.0
  0
LINE
  5
E4
330
1E
100
AcDbEntity
  8
0
100
AcDbLine
 10
78.40810000000001
 20
59.98429999999999
 30
0.0
 11
79.30800000000001
 21
59.9758
 31
0.0
  0
LINE
  5
E5
330
1E
100
AcDbEntity
  8
0
100
AcDbLine
 10
75.126186098482
 20
60.0154295964142
 30
0.0
 11
77.0081
 21
59.9976
 31
0.0
  0
LINE
  5
E6
330
1E
100
AcDbEntity
  8
0
100
AcDbLine
 10
75.126186098482
 20
60.0154295964142
 30
0.0
 11
75.90819999999999
 21
60.008
 31
0.0
  0
LINE
  5
E7
330
1E
100
AcDbEntity
  8
0
100
AcDbLine
 10
77.9922
 20
89.9896
 30
0.0
 11
79.59220000000001
 21
89.9745
 31
0.0
  0
LINE
  5
E8
330
1E
100
AcDbEntity
  8
0
100
AcDbLine
 10
79.59220000000001
 20
89.9745
 30
0.0
 11
80.4921
 21
89.96590000000001
 31
0.0
  0
LINE
  5
E9
330
1E
100
AcDbEntity
  8
0
100
AcDbLine
 10
75.8923
 20
90.00950000000001
 30
0.0
 11
77.9922
 21
89.9896
 31
0.0
  0
LINE
  5
EA
330
1E
100
AcDbEntity
  8
0
100
AcDbLine
 10
71.0
 20
90.93899999999999
 30
0.0
 11
73.77199999999999
 21
90.93899999999999
 31
0.0
  0
LINE
  5
EB
330
1E
100
AcDbEntity
  8
0
100
AcDbLine
 10
73.77199999999999
 20
90.93899999999999
 30
0.0
 11
76.324
 21
90.93899999999999
 31
0.0
  0
LINE
  5
EC
330
1E
100
AcDbEntity
  8
0
100
AcDbLine
 10
76.324
 20
90.93899999999999
 30
0.0
 11
78.56799999999999
 21
90.93899999999999
 31
0.0
  0
LINE
  5
ED
330
1E
100
AcDbEntity
  8
0
100
AcDbLine
 10
78.56799999999999
 20
90.93899999999999
 30
0.0
 11
80.28399999999999
 21
90.93899999999999
 31
0.0
  0
LINE
  5
EE
330
1E
100
AcDbEntity
  8
0
100
AcDbLine
 10
80.28399999999999
 20
90.93899999999999
 30
0.0
 11
81.34
 21
90.93899999999999
 31
0.0
  0
LINE
  5
EF
330
1E
100
AcDbEntity
  8
0
100
AcDbLine
 10
80.0272
 20
90.93899999999999
 30
0.0
 11
80.0272
 21
89.97034287143021
 31
0.0
  0
LINE
  5
F0
330
1E
100
AcDbEntity
  8
0
100
AcDbLine
 10
80.0272
 20
90.93899999999999
 30
0.0
 11
80.28399999999999
 21
90.93899999999999
 31
0.0
  0
LINE
  5
F1
330
1E
100
AcDbEntity
  8
0
100
AcDbLine
 10
73.4924
 20
90.0322
 30
0.0
 11
75.8923
 21
90.00950000000001
 31
0.0
  0
LINE
  5
F2
330
1E
100
AcDbEntity
  8
0
100
AcDbLine
 10
70.89249999999999
 20
90.05689999999999
 30
0.0
 11
73.4924
 21
90.0322
 31
0.0
  0
LINE
  5
F3
330
1E
100
AcDbEntity
  8
0
100
AcDbLine
 10
80.0272
 20
89.97034287143021
 30
0.0
 11
80.4921
 21
89.96590000000001
 31
0.0
  0
LINE
  5
F4
330
1E
100
AcDbEntity
  8
0
100
AcDbLine
 10
80.0272
 20
89.97034287143021
 30
0.0
 11
80.0272
 21
90.93899999999999
 31
0.0
  0
LINE
  5
F5
330
1E
100
AcDbEntity
  8
0
100
AcDbLine
 10
81.736
 20
90.93899999999999
 30
0.0
 11
82.0
 21
91.539
 31
0.0
  0
LINE
  5
F6
330
1E
100
AcDbEntity
  8
0
100
AcDbLine
 10
82.0
 20
91.539
 30
0.0
 11
82.0
 21
95.93899999999999
 31
0.0
  0
LINE
  5
F7
330
1E
100
AcDbEntity
  8
0
100
AcDbLine
 10
130.0
 20
93.939
 30
0.0
 11
130.0
 21
95.23899999999999
 31
0.0
  0
LINE
  5
F8
330
1E
100
AcDbEntity
  8
0
100
AcDbLine
 10
81.34
 20
90.93899999999999
 30
0.0
 11
81.736
 21
90.93899999999999
 31
0.0
  0
LINE
  5
F9
330
1E
100
AcDbEntity
  8
0
100
AcDbLine
 10
80.89209999999999
 20
89.96210000000001
 30
0.0
 11
81.8731
 21
87.95279999999999
 31
0.0
  0
LINE
  5
FA
330
1E
100
AcDbEntity
  8
0
100
AcDbLine
 10
79.30800000000001
 20
59.9758
 30
0.0
 11
79.608
 21
59.973
 31
0.0
  0
LINE
  5
FB
330
1E
100
AcDbEntity
  8
0
100
AcDbLine
 10
68.30849999999999
 20
60.08
 30
0.0
 11
70.6084
 21
60.05819999999999
 31
0.0
  0
LINE
  5
FC
330
1E
100
AcDbEntity
  8
0
100
AcDbLine
 10
60.0
 20
95.93899999999999
 30
0.0
 11
60.0
 21
91.539
 31
0.0
  0
LINE
  5
FD
330
1E
100
AcDbEntity
  8
0
100
AcDbLine
 10
60.0
 20
95.93899999999999
 30
0.0
 11
60.0
 21
98.02233333333331
 31
0.0
  0
LINE
  5
FE
330
1E
100
AcDbEntity
  8
0
100
AcDbLine
 10
82.0
 20
95.93899999999999
 30
0.0
 11
82.0
 21
91.539
 31
0.0
  0
LINE
  5
FF
330
1E
100
AcDbEntity
  8
0
100
AcDbLine
 10
82.0
 20
95.93899999999999
 30
0.0
 11
82.0
 21
97.939
 31
0.0
  0
LINE
  5
100
330
1E
100
AcDbEntity
  8
0
100
AcDbLine
 10
57.5
 20
97.939
 30
0.0
 11
82.0
 21
97.939
 31
0.0
  0
LINE
  5
101
330
1E
100
AcDbEntity
  8
0
100
AcDbLine
 10
57.5
 20
97.939
 30
0.0
 11
57.5
 21
98.839
 31
0.0
  0
LINE
  5
102
330
1E
100
AcDbEntity
  8
0
100
AcDbLine
 10
60.0
 20
98.02233333333331
 30
0.0
 11
60.0
 21
95.93899999999999
 31
0.0
  0
LINE
  5
103
330
1E
100
AcDbEntity
  8
0
100
AcDbLine
 10
82.0
 20
97.939
 30
0.0
 11
84.50000000000001
 21
97.939
 31
0.0
  0
LINE
  5
104
330
1E
100
AcDbEntity
  8
0
100
AcDbLine
 10
130.0
 20
95.23899999999999
 30
0.0
 11
130.0
 21
98.63900000000001
 31
0.0
  0
LINE
  5
105
330
1E
100
AcDbEntity
  8
0
100
AcDbLine
 10
85.0
 20
98.43899999999999
 30
0.0
 11
85.0
 21
99.23899999999999
 31
0.0
  0
LINE
  5
106
330
1E
100
AcDbEntity
  8
0
100
AcDbLine
 10
125.0
 20
95.23899999999999
 30
0.0
 11
125.0
 21
98.63900000000001
 31
0.0
  0
LINE
  5
107
330
1E
100
AcDbEntity
  8
0
100
AcDbLine
 10
125.0
 20
95.23899999999999
 30
0.0
 11
125.0
 21
93.939
 31
0.0
  0
LINE
  5
108
330
1E
100
AcDbEntity
  8
0
100
AcDbLine
 10
84.50000000000001
 20
97.939
 30
0.0
 11
85.0
 21
98.43899999999999
 31
0.0
  0
LINE
  5
109
330
1E
100
AcDbEntity
  8
0
100
AcDbLine
 10
84.50000000000001
 20
97.939
 30
0.0
 11
84.50000000000001
 21
98.839
 31
0.0
  0
LINE
  5
10A
330
1E
100
AcDbEntity
  8
0
100
AcDbLine
 10
57.0
 20
99.939
 30
0.0
 11
57.0
 21
99.23899999999999
 31
0.0
  0
LINE
  5
10B
330
1E
100
AcDbEntity
  8
0
100
AcDbLine
 10
130.0
 20
98.63900000000001
 30
0.0
 11
130.0
 21
104.2389999999999
 31
0.0
  0
LINE
  5
10C
330
1E
100
AcDbEntity
  8
0
100
AcDbLine
 10
125.0
 20
98.63900000000001
 30
0.0
 11
125.0
 21
104.2389999999999
 31
0.0
  0
LINE
  5
10D
330
1E
100
AcDbEntity
  8
0
100
AcDbLine
 10
125.0
 20
98.63900000000001
 30
0.0
 11
125.0
 21
95.23899999999999
 31
0.0
  0
LINE
  5
10E
330
1E
100
AcDbEntity
  8
0
100
AcDbLine
 10
57.5
 20
98.839
 30
0.0
 11
57.5
 21
97.939
 31
0.0
  0
LINE
  5
10F
330
1E
100
AcDbEntity
  8
0
100
AcDbLine
 10
57.5
 20
98.839
 30
0.0
 11
57.5
 21
101.139
 31
0.0
  0
LINE
  5
110
330
1E
100
AcDbEntity
  8
0
100
AcDbLine
 10
85.0
 20
99.23899999999999
 30
0.0
 11
85.0
 21
98.43899999999999
 31
0.0
  0
LINE
  5
111
330
1E
100
AcDbEntity
  8
0
100
AcDbLine
 10
85.0
 20
99.23899999999999
 30
0.0
 11
85.0
 21
101.539
 31
0.0
  0
LINE
  5
112
330
1E
100
AcDbEntity
  8
0
100
AcDbLine
 10
84.50000000000001
 20
98.839
 30
0.0
 11
84.50000000000001
 21
101.139
 31
0.0
  0
LINE
  5
113
330
1E
100
AcDbEntity
  8
0
100
AcDbLine
 10
84.50000000000001
 20
98.839
 30
0.0
 11
84.50000000000001
 21
97.939
 31
0.0
  0
LINE
  5
114
330
1E
100
AcDbEntity
  8
0
100
AcDbLine
 10
57.0
 20
99.23899999999999
 30
0.0
 11
57.0
 21
99.939
 31
0.0
  0
LINE
  5
115
330
1E
100
AcDbEntity
  8
0
100
AcDbLine
 10
57.0
 20
99.23899999999999
 30
0.0
 11
57.0
 21
98.43899999999999
 31
0.0
  0
LINE
  5
116
330
1E
100
AcDbEntity
  8
0
100
AcDbLine
 10
57.0
 20
99.23899999999999
 30
0.0
 11
57.0
 21
101.539
 31
0.0
  0
LINE
  5
117
330
1E
100
AcDbEntity
  8
0
100
AcDbLine
 10
57.0
 20
98.43899999999999
 30
0.0
 11
57.0
 21
99.23899999999999
 31
0.0
  0
LINE
  5
118
330
1E
100
AcDbEntity
  8
0
100
AcDbLine
 10
57.0
 20
98.43899999999999
 30
0.0
 11
57.5
 21
97.939
 31
0.0
  0
LINE
  5
119
330
1E
100
AcDbEntity
  8
0
100
AcDbLine
 10
40.42309999999999
 20
99.939
 30
0.0
 11
57.0
 21
99.939
 31
0.0
  0
LINE
  5
11A
330
1E
100
AcDbEntity
  8
0
100
AcDbLine
 10
125.0
 20
93.939
 30
0.0
 11
130.0
 21
93.939
 31
0.0
  0
LINE
  5
11B
330
1E
100
AcDbEntity
  8
0
100
AcDbLine
 10
125.0
 20
93.939
 30
0.0
 11
125.0
 21
95.23899999999999
 31
0.0
  0
LINE
  5
11C
330
1E
100
AcDbEntity
  8
0
100
AcDbLine
 10
39.0
 20
99.939
 30
0.0
 11
39.0
 21
100.739
 31
0.0
  0
LINE
  5
11D
330
1E
100
AcDbEntity
  8
0
100
AcDbLine
 10
39.7237731726163
 20
100.4389999999999
 30
0.0
 11
39.80769999999999
 21
100.2625
 31
0.0
  0
LINE
  5
11E
330
1E
100
AcDbEntity
  8
0
100
AcDbLine
 10
39.80769999999999
 20
100.2625
 30
0.0
 11
40.42309999999999
 21
99.939
 31
0.0
  0
LINE
  5
11F
330
1E
100
AcDbEntity
  8
0
100
AcDbLine
 10
39.80769999999999
 20
100.2625
 30
0.0
 11
39.80769999999999
 21
101.039
 31
0.0
  0
LINE
  5
120
330
1E
100
AcDbEntity
  8
0
100
AcDbLine
 10
38.5
 20
100.2389999999999
 30
0.0
 11
38.5
 21
102.4389999999999
 31
0.0
  0
LINE
  5
121
330
1E
100
AcDbEntity
  8
0
100
AcDbLine
 10
38.5
 20
99.43899999999999
 30
0.0
 11
39.0
 21
99.939
 31
0.0
  0
LINE
  5
122
330
1E
100
AcDbEntity
  8
0
100
AcDbLine
 10
38.5
 20
99.43899999999999
 30
0.0
 11
38.5
 21
100.2389999999999
 31
0.0
  0
LINE
  5
123
330
1E
100
AcDbEntity
  8
0
100
AcDbLine
 10
35.36659999999999
 20
132.9025799999999
 30
0.0
 11
37.0775
 21
127.6877
 31
0.0
  0
LINE
  5
124
330
1E
100
AcDbEntity
  8
0
100
AcDbLine
 10
38.5
 20
121.9389999999999
 30
0.0
 11
38.5
 21
116.1389999999999
 31
0.0
  0
LINE
  5
125
330
1E
100
AcDbEntity
  8
0
100
AcDbLine
 10
38.5
 20
116.1389999999999
 30
0.0
 11
38.5
 21
121.9389999999999
 31
0.0
  0
LINE
  5
126
330
1E
100
AcDbEntity
  8
0
100
AcDbLine
 10
38.5
 20
116.1389999999999
 30
0.0
 11
38.5
 21
110.7389999999999
 31
0.0
  0
LINE
  5
127
330
1E
100
AcDbEntity
  8
0
100
AcDbLine
 10
38.5
 20
110.7389999999999
 30
0.0
 11
38.5
 21
116.1389999999999
 31
0.0
  0
LINE
  5
128
330
1E
100
AcDbEntity
  8
0
100
AcDbLine
 10
38.5
 20
110.7389999999999
 30
0.0
 11
38.5
 21
106.0389999999999
 31
0.0
  0
LINE
  5
129
330
1E
100
AcDbEntity
  8
0
100
AcDbLine
 10
38.5
 20
106.0389999999999
 30
0.0
 11
38.5
 21
110.7389999999999
 31
0.0
  0
LINE
  5
12A
330
1E
100
AcDbEntity
  8
0
100
AcDbLine
 10
38.5
 20
106.0389999999999
 30
0.0
 11
38.5
 21
102.4389999999999
 31
0.0
  0
LINE
  5
12B
330
1E
100
AcDbEntity
  8
0
100
AcDbLine
 10
39.0
 20
116.239
 30
0.0
 11
39.0
 21
121.9389999999999
 31
0.0
  0
LINE
  5
12C
330
1E
100
AcDbEntity
  8
0
100
AcDbLine
 10
39.0
 20
111.0389999999999
 30
0.0
 11
39.0
 21
116.239
 31
0.0
  0
LINE
  5
12D
330
1E
100
AcDbEntity
  8
0
100
AcDbLine
 10
39.0
 20
106.4389999999999
 30
0.0
 11
39.0
 21
111.0389999999999
 31
0.0
  0
LINE
  5
12E
330
1E
100
AcDbEntity
  8
0
100
AcDbLine
 10
39.80769999999999
 20
103.1743
 30
0.0
 11
39.80769999999999
 21
106.6037
 31
0.0
  0
LINE
  5
12F
330
1E
100
AcDbEntity
  8
0
100
AcDbLine
 10
39.80769999999999
 20
103.1743
 30
0.0
 11
39.80769999999999
 21
101.039
 31
0.0
  0
LINE
  5
130
330
1E
100
AcDbEntity
  8
0
100
AcDbLine
 10
39.80769999999999
 20
101.039
 30
0.0
 11
39.80769999999999
 21
103.1743
 31
0.0
  0
LINE
  5
131
330
1E
100
AcDbEntity
  8
0
100
AcDbLine
 10
39.80769999999999
 20
101.039
 30
0.0
 11
39.80769999999999
 21
100.2625
 31
0.0
  0
LINE
  5
132
330
1E
100
AcDbEntity
  8
0
100
AcDbLine
 10
39.80769999999999
 20
106.6037
 30
0.0
 11
39.80769999999999
 21
111.1331
 31
0.0
  0
LINE
  5
133
330
1E
100
AcDbEntity
  8
0
100
AcDbLine
 10
39.80769999999999
 20
106.6037
 30
0.0
 11
39.80769999999999
 21
103.1743
 31
0.0
  0
LINE
  5
134
330
1E
100
AcDbEntity
  8
0
100
AcDbLine
 10
57.0
 20
101.539
 30
0.0
 11
57.0
 21
105.339
 31
0.0
  0
LINE
  5
135
330
1E
100
AcDbEntity
  8
0
100
AcDbLine
 10
57.0
 20
101.539
 30
0.0
 11
57.0
 21
99.23899999999999
 31
0.0
  0
LINE
  5
136
330
1E
100
AcDbEntity
  8
0
100
AcDbLine
 10
57.5
 20
101.139
 30
0.0
 11
57.5
 21
98.839
 31
0.0
  0
LINE
  5
137
330
1E
100
AcDbEntity
  8
0
100
AcDbLine
 10
57.5
 20
101.139
 30
0.0
 11
57.5
 21
105.0389999999999
 31
0.0
  0
LINE
  5
138
330
1E
100
AcDbEntity
  8
0
100
AcDbLine
 10
84.50000000000001
 20
101.139
 30
0.0
 11
84.50000000000001
 21
105.0389999999999
 31
0.0
  0
LINE
  5
139
330
1E
100
AcDbEntity
  8
0
100
AcDbLine
 10
84.50000000000001
 20
101.139
 30
0.0
 11
84.50000000000001
 21
98.839
 31
0.0
  0
LINE
  5
13A
330
1E
100
AcDbEntity
  8
0
100
AcDbLine
 10
57.0
 20
105.339
 30
0.0
 11
57.0
 21
110.2389999999999
 31
0.0
  0
LINE
  5
13B
330
1E
100
AcDbEntity
  8
0
100
AcDbLine
 10
57.0
 20
105.339
 30
0.0
 11
57.0
 21
101.539
 31
0.0
  0
LINE
  5
13C
330
1E
100
AcDbEntity
  8
0
100
AcDbLine
 10
57.5
 20
105.0389999999999
 30
0.0
 11
57.5
 21
101.139
 31
0.0
  0
LINE
  5
13D
330
1E
100
AcDbEntity
  8
0
100
AcDbLine
 10
57.5
 20
105.0389999999999
 30
0.0
 11
57.5
 21
110.0389999999999
 31
0.0
  0
LINE
  5
13E
330
1E
100
AcDbEntity
  8
0
100
AcDbLine
 10
84.50000000000001
 20
105.0389999999999
 30
0.0
 11
84.50000000000001
 21
110.0389999999999
 31
0.0
  0
LINE
  5
13F
330
1E
100
AcDbEntity
  8
0
100
AcDbLine
 10
84.50000000000001
 20
105.0389999999999
 30
0.0
 11
84.50000000000001
 21
101.139
 31
0.0
  0
LINE
  5
140
330
1E
100
AcDbEntity
  8
0
100
AcDbLine
 10
57.0
 20
110.2389999999999
 30
0.0
 11
57.0
 21
111.7566999999999
 31
0.0
  0
LINE
  5
141
330
1E
100
AcDbEntity
  8
0
100
AcDbLine
 10
57.0
 20
110.2389999999999
 30
0.0
 11
57.0
 21
105.339
 31
0.0
  0
LINE
  5
142
330
1E
100
AcDbEntity
  8
0
100
AcDbLine
 10
57.5
 20
110.0389999999999
 30
0.0
 11
57.5
 21
105.0389999999999
 31
0.0
  0
LINE
  5
143
330
1E
100
AcDbEntity
  8
0
100
AcDbLine
 10
57.5
 20
110.0389999999999
 30
0.0
 11
57.5
 21
111.3008999999999
 31
0.0
  0
LINE
  5
144
330
1E
100
AcDbEntity
  8
0
100
AcDbLine
 10
84.50000000000001
 20
110.0389999999999
 30
0.0
 11
84.50000000000001
 21
111.3008999999999
 31
0.0
  0
LINE
  5
145
330
1E
100
AcDbEntity
  8
0
100
AcDbLine
 10
84.50000000000001
 20
110.0389999999999
 30
0.0
 11
84.50000000000001
 21
105.0389999999999
 31
0.0
  0
LINE
  5
146
330
1E
100
AcDbEntity
  8
0
100
AcDbLine
 10
57.0
 20
111.7566999999999
 30
0.0
 11
57.0
 21
112.439
 31
0.0
  0
LINE
  5
147
330
1E
100
AcDbEntity
  8
0
100
AcDbLine
 10
57.0
 20
111.7566999999999
 30
0.0
 11
57.0
 21
110.2389999999999
 31
0.0
  0
LINE
  5
148
330
1E
100
AcDbEntity
  8
0
100
AcDbLine
 10
57.5
 20
111.3008999999999
 30
0.0
 11
57.5
 21
110.0389999999999
 31
0.0
  0
LINE
  5
149
330
1E
100
AcDbEntity
  8
0
100
AcDbLine
 10
57.5
 20
111.3008999999999
 30
0.0
 11
57.5
 21
111.9389999999999
 31
0.0
  0
LINE
  5
14A
330
1E
100
AcDbEntity
  8
0
100
AcDbLine
 10
84.50000000000001
 20
111.3008999999999
 30
0.0
 11
84.50000000000001
 21
111.9389999999999
 31
0.0
  0
LINE
  5
14B
330
1E
100
AcDbEntity
  8
0
100
AcDbLine
 10
84.50000000000001
 20
111.3008999999999
 30
0.0
 11
84.50000000000001
 21
110.0389999999999
 31
0.0
  0
LINE
  5
14C
330
1E
100
AcDbEntity
  8
0
100
AcDbLine
 10
57.0
 20
112.439
 30
0.0
 11
57.0
 21
113.039
 31
0.0
  0
LINE
  5
14D
330
1E
100
AcDbEntity
  8
0
100
AcDbLine
 10
57.0
 20
112.439
 30
0.0
 11
57.5
 21
111.9389999999999
 31
0.0
  0
LINE
  5
14E
330
1E
100
AcDbEntity
  8
0
100
AcDbLine
 10
57.0
 20
112.439
 30
0.0
 11
57.0
 21
111.7566999999999
 31
0.0
  0
LINE
  5
14F
330
1E
100
AcDbEntity
  8
0
100
AcDbLine
 10
57.5
 20
111.9389999999999
 30
0.0
 11
84.50000000000001
 21
111.9389999999999
 31
0.0
  0
LINE
  5
150
330
1E
100
AcDbEntity
  8
0
100
AcDbLine
 10
57.5
 20
111.9389999999999
 30
0.0
 11
57.5
 21
111.3008999999999
 31
0.0
  0
LINE
  5
151
330
1E
100
AcDbEntity
  8
0
100
AcDbLine
 10
57.5
 20
111.9389999999999
 30
0.0
 11
57.5
 21
112.539
 31
0.0
  0
LINE
  5
152
330
1E
100
AcDbEntity
  8
0
100
AcDbLine
 10
84.50000000000001
 20
111.9389999999999
 30
0.0
 11
84.50000000000001
 21
112.539
 31
0.0
  0
LINE
  5
153
330
1E
100
AcDbEntity
  8
0
100
AcDbLine
 10
84.50000000000001
 20
111.9389999999999
 30
0.0
 11
85.0
 21
112.439
 31
0.0
  0
LINE
  5
154
330
1E
100
AcDbEntity
  8
0
100
AcDbLine
 10
84.50000000000001
 20
111.9389999999999
 30
0.0
 11
84.50000000000001
 21
111.3008999999999
 31
0.0
  0
LINE
  5
155
330
1E
100
AcDbEntity
  8
0
100
AcDbLine
 10
57.0
 20
113.039
 30
0.0
 11
57.0
 21
114.639
 31
0.0
  0
LINE
  5
156
330
1E
100
AcDbEntity
  8
0
100
AcDbLine
 10
57.0
 20
113.039
 30
0.0
 11
57.0
 21
112.439
 31
0.0
  0
LINE
  5
157
330
1E
100
AcDbEntity
  8
0
100
AcDbLine
 10
57.5
 20
112.539
 30
0.0
 11
57.5
 21
111.9389999999999
 31
0.0
  0
LINE
  5
158
330
1E
100
AcDbEntity
  8
0
100
AcDbLine
 10
57.5
 20
112.539
 30
0.0
 11
57.5
 21
114.239
 31
0.0
  0
LINE
  5
159
330
1E
100
AcDbEntity
  8
0
100
AcDbLine
 10
85.0
 20
111.7566999999999
 30
0.0
 11
85.0
 21
110.2389999999999
 31
0.0
  0
LINE
  5
15A
330
1E
100
AcDbEntity
  8
0
100
AcDbLine
 10
85.0
 20
111.7566999999999
 30
0.0
 11
85.0
 21
112.439
 31
0.0
  0
LINE
  5
15B
330
1E
100
AcDbEntity
  8
0
100
AcDbLine
 10
85.0
 20
110.2389999999999
 30
0.0
 11
85.0
 21
105.339
 31
0.0
  0
LINE
  5
15C
330
1E
100
AcDbEntity
  8
0
100
AcDbLine
 10
85.0
 20
110.2389999999999
 30
0.0
 11
85.0
 21
111.7566999999999
 31
0.0
  0
LINE
  5
15D
330
1E
100
AcDbEntity
  8
0
100
AcDbLine
 10
85.0
 20
105.339
 30
0.0
 11
85.0
 21
101.539
 31
0.0
  0
LINE
  5
15E
330
1E
100
AcDbEntity
  8
0
100
AcDbLine
 10
85.0
 20
105.339
 30
0.0
 11
85.0
 21
110.2389999999999
 31
0.0
  0
LINE
  5
15F
330
1E
100
AcDbEntity
  8
0
100
AcDbLine
 10
85.0
 20
101.539
 30
0.0
 11
85.0
 21
99.23899999999999
 31
0.0
  0
LINE
  5
160
330
1E
100
AcDbEntity
  8
0
100
AcDbLine
 10
85.0
 20
101.539
 30
0.0
 11
85.0
 21
105.339
 31
0.0
  0
LINE
  5
161
330
1E
100
AcDbEntity
  8
0
100
AcDbLine
 10
85.0
 20
112.439
 30
0.0
 11
85.0
 21
113.039
 31
0.0
  0
LINE
  5
162
330
1E
100
AcDbEntity
  8
0
100
AcDbLine
 10
85.0
 20
112.439
 30
0.0
 11
85.0
 21
111.7566999999999
 31
0.0
  0
LINE
  5
163
330
1E
100
AcDbEntity
  8
0
100
AcDbLine
 10
85.0
 20
113.039
 30
0.0
 11
85.0
 21
114.639
 31
0.0
  0
LINE
  5
164
330
1E
100
AcDbEntity
  8
0
100
AcDbLine
 10
85.0
 20
113.039
 30
0.0
 11
85.0
 21
112.439
 31
0.0
  0
LINE
  5
165
330
1E
100
AcDbEntity
  8
0
100
AcDbLine
 10
84.50000000000001
 20
112.539
 30
0.0
 11
84.50000000000001
 21
114.239
 31
0.0
  0
LINE
  5
166
330
1E
100
AcDbEntity
  8
0
100
AcDbLine
 10
84.50000000000001
 20
112.539
 30
0.0
 11
84.50000000000001
 21
111.9389999999999
 31
0.0
  0
LINE
  5
167
330
1E
100
AcDbEntity
  8
0
100
AcDbLine
 10
57.0
 20
114.639
 30
0.0
 11
57.0
 21
117.2389999999999
 31
0.0
  0
LINE
  5
168
330
1E
100
AcDbEntity
  8
0
100
AcDbLine
 10
57.0
 20
114.639
 30
0.0
 11
57.0
 21
113.039
 31
0.0
  0
LINE
  5
169
330
1E
100
AcDbEntity
  8
0
100
AcDbLine
 10
87.0
 20
115.9389999999999
 30
0.0
 11
89.0
 21
114.9389999999999
 31
0.0
  0
LINE
  5
16A
330
1E
100
AcDbEntity
  8
0
100
AcDbLine
 10
85.0
 20
114.639
 30
0.0
 11
85.0
 21
117.2389999999999
 31
0.0
  0
LINE
  5
16B
330
1E
100
AcDbEntity
  8
0
100
AcDbLine
 10
85.0
 20
114.639
 30
0.0
 11
85.0
 21
113.039
 31
0.0
  0
LINE
  5
16C
330
1E
100
AcDbEntity
  8
0
100
AcDbLine
 10
57.5
 20
114.239
 30
0.0
 11
57.5
 21
112.539
 31
0.0
  0
LINE
  5
16D
330
1E
100
AcDbEntity
  8
0
100
AcDbLine
 10
57.5
 20
114.239
 30
0.0
 11
57.5
 21
116.9389999999999
 31
0.0
  0
LINE
  5
16E
330
1E
100
AcDbEntity
  8
0
100
AcDbLine
 10
84.50000000000001
 20
114.239
 30
0.0
 11
84.50000000000001
 21
116.9389999999999
 31
0.0
  0
LINE
  5
16F
330
1E
100
AcDbEntity
  8
0
100
AcDbLine
 10
84.50000000000001
 20
114.239
 30
0.0
 11
84.50000000000001
 21
112.539
 31
0.0
  0
LINE
  5
170
330
1E
100
AcDbEntity
  8
0
100
AcDbLine
 10
39.80769999999999
 20
111.1331
 30
0.0
 11
39.80769999999999
 21
116.3742999999999
 31
0.0
  0
LINE
  5
171
330
1E
100
AcDbEntity
  8
0
100
AcDbLine
 10
39.80769999999999
 20
111.1331
 30
0.0
 11
39.80769999999999
 21
106.6037
 31
0.0
  0
LINE
  5
172
330
1E
100
AcDbEntity
  8
0
100
AcDbLine
 10
57.0
 20
117.2389999999999
 30
0.0
 11
57.0
 21
120.5389999999999
 31
0.0
  0
LINE
  5
173
330
1E
100
AcDbEntity
  8
0
100
AcDbLine
 10
57.0
 20
117.2389999999999
 30
0.0
 11
57.0
 21
114.639
 31
0.0
  0
LINE
  5
174
330
1E
100
AcDbEntity
  8
0
100
AcDbLine
 10
57.5
 20
116.9389999999999
 30
0.0
 11
57.5
 21
114.239
 31
0.0
  0
LINE
  5
175
330
1E
100
AcDbEntity
  8
0
100
AcDbLine
 10
57.5
 20
116.9389999999999
 30
0.0
 11
57.5
 21
120.4389999999999
 31
0.0
  0
LINE
  5
179
330
1E
100
AcDbEntity
  8
0
100
AcDbLine
 10
85.0
 20
117.2389999999999
 30
0.0
 11
85.0
 21
120.5389999999999
 31
0.0
  0
LINE
  5
17A
330
1E
100
AcDbEntity
  8
0
100
AcDbLine
 10
85.0
 20
117.2389999999999
 30
0.0
 11
85.0
 21
114.639
 31
0.0
  0
LINE
  5
17B
330
1E
100
AcDbEntity
  8
0
100
AcDbLine
 10
84.50000000000001
 20
116.9389999999999
 30
0.0
 11
84.50000000000001
 21
120.4389999999999
 31
0.0
  0
LINE
  5
17C
330
1E
100
AcDbEntity
  8
0
100
AcDbLine
 10
84.50000000000001
 20
116.9389999999999
 30
0.0
 11
84.50000000000001
 21
114.239
 31
0.0
  0
LINE
  5
17D
330
1E
100
AcDbEntity
  8
0
100
AcDbLine
 10
39.80769999999999
 20
116.3742999999999
 30
0.0
 11
39.80769999999999
 21
121.9389999999999
 31
0.0
  0
LINE
  5
17E
330
1E
100
AcDbEntity
  8
0
100
AcDbLine
 10
39.80769999999999
 20
116.3742999999999
 30
0.0
 11
39.80769999999999
 21
111.1331
 31
0.0
  0
LINE
  5
17F
330
1E
100
AcDbEntity
  8
0
100
AcDbLine
 10
125.0
 20
111.539
 30
0.0
 11
125.0
 21
119.9389999999999
 31
0.0
  0
LINE
  5
180
330
1E
100
AcDbEntity
  8
0
100
AcDbLine
 10
125.0
 20
111.539
 30
0.0
 11
125.0
 21
104.2389999999999
 31
0.0
  0
LINE
  5
181
330
1E
100
AcDbEntity
  8
0
100
AcDbLine
 10
130.0
 20
111.539
 30
0.0
 11
130.0
 21
119.9389999999999
 31
0.0
  0
LINE
  5
182
330
1E
100
AcDbEntity
  8
0
100
AcDbLine
 10
130.0
 20
104.2389999999999
 30
0.0
 11
130.0
 21
111.539
 31
0.0
  0
LINE
  5
183
330
1E
100
AcDbEntity
  8
0
100
AcDbLine
 10
125.0
 20
104.2389999999999
 30
0.0
 11
125.0
 21
111.539
 31
0.0
  0
LINE
  5
184
330
1E
100
AcDbEntity
  8
0
100
AcDbLine
 10
125.0
 20
104.2389999999999
 30
0.0
 11
125.0
 21
98.63900000000001
 31
0.0
  0
LINE
  5
185
330
1E
100
AcDbEntity
  8
0
100
AcDbLine
 10
105.0
 20
114.9389999999999
 30
0.0
 11
105.0
 21
115.439
 31
0.0
  0
LINE
  5
186
330
1E
100
AcDbEntity
  8
0
100
AcDbLine
 10
105.0
 20
114.9389999999999
 30
0.0
 11
125.0
 21
93.939
 31
0.0
  0
LINE
  5
187
330
1E
100
AcDbEntity
  8
0
100
AcDbLine
 10
92.0
 20
114.9389999999999
 30
0.0
 11
95.0
 21
114.9389999999999
 31
0.0
  0
LINE
  5
18B
330
1E
100
AcDbEntity
  8
0
100
AcDbLine
 10
97.0
 20
115.9389999999999
 30
0.0
 11
99.0
 21
117.9389999999999
 31
0.0
  0
LINE
  5
18C
330
1E
100
AcDbEntity
  8
0
100
AcDbLine
 10
105.0
 20
117.9389999999999
 30
0.0
 11
105.0
 21
116.839
 31
0.0
  0
LINE
  5
18D
330
1E
100
AcDbEntity
  8
0
100
AcDbLine
 10
105.0
 20
117.9389999999999
 30
0.0
 11
105.0
 21
118.3389999999999
 31
0.0
  0
LINE
  5
18E
330
1E
100
AcDbEntity
  8
0
100
AcDbLine
 10
105.0
 20
116.839
 30
0.0
 11
105.0
 21
117.9389999999999
 31
0.0
  0
LINE
  5
18F
330
1E
100
AcDbEntity
  8
0
100
AcDbLine
 10
105.0
 20
116.839
 30
0.0
 11
105.0
 21
115.439
 31
0.0
  0
LINE
  5
190
330
1E
100
AcDbEntity
  8
0
100
AcDbLine
 10
105.0
 20
116.839
 30
0.0
 11
105.0
 21
119.039
 31
0.0
  0
LINE
  5
191
330
1E
100
AcDbEntity
  8
0
100
AcDbLine
 10
105.0
 20
115.439
 30
0.0
 11
105.0
 21
116.839
 31
0.0
  0
LINE
  5
192
330
1E
100
AcDbEntity
  8
0
100
AcDbLine
 10
105.0
 20
115.439
 30
0.0
 11
105.0
 21
114.9389999999999
 31
0.0
  0
LINE
  5
193
330
1E
100
AcDbEntity
  8
0
100
AcDbLine
 10
99.0
 20
117.9389999999999
 30
0.0
 11
105.0
 21
117.9389999999999
 31
0.0
  0
LINE
  5
194
330
1E
100
AcDbEntity
  8
0
100
AcDbLine
 10
99.0
 20
117.9389999999999
 30
0.0
 11
99.0
 21
118.3389999999999
 31
0.0
  0
LINE
  5
195
330
1E
100
AcDbEntity
  8
0
100
AcDbLine
 10
95.0
 20
114.9389999999999
 30
0.0
 11
97.0
 21
115.9389999999999
 31
0.0
  0
LINE
  5
196
330
1E
100
AcDbEntity
  8
0
100
AcDbLine
 10
89.0
 20
114.9389999999999
 30
0.0
 11
92.0
 21
114.9389999999999
 31
0.0
  0
LINE
  5
197
330
1E
100
AcDbEntity
  8
0
100
AcDbLine
 10
39.80769999999999
 20
127.5036999999999
 30
0.0
 11
39.80769999999999
 21
132.7449
 31
0.0
  0
LINE
  5
198
330
1E
100
AcDbEntity
  8
0
100
AcDbLine
 10
39.80769999999999
 20
127.5036999999999
 30
0.0
 11
39.80769999999999
 21
121.9389999999999
 31
0.0
  0
LINE
  5
199
330
1E
100
AcDbEntity
  8
0
100
AcDbLine
 10
57.0
 20
120.5389999999999
 30
0.0
 11
57.0
 21
124.7389999999999
 31
0.0
  0
LINE
  5
19A
330
1E
100
AcDbEntity
  8
0
100
AcDbLine
 10
57.0
 20
120.5389999999999
 30
0.0
 11
57.0
 21
117.2389999999999
 31
0.0
  0
LINE
  5
19B
330
1E
100
AcDbEntity
  8
0
100
AcDbLine
 10
57.5
 20
120.4389999999999
 30
0.0
 11
57.5
 21
116.9389999999999
 31
0.0
  0
LINE
  5
19C
330
1E
100
AcDbEntity
  8
0
100
AcDbLine
 10
57.5
 20
120.4389999999999
 30
0.0
 11
57.5
 21
124.5389999999999
 31
0.0
  0
LINE
  5
19D
330
1E
100
AcDbEntity
  8
0
100
AcDbLine
 10
105.0
 20
118.3389999999999
 30
0.0
 11
105.0
 21
119.439
 31
0.0
  0
LINE
  5
19E
330
1E
100
AcDbEntity
  8
0
100
AcDbLine
 10
105.0
 20
118.3389999999999
 30
0.0
 11
105.0
 21
117.9389999999999
 31
0.0
  0
LINE
  5
19F
330
1E
100
AcDbEntity
  8
0
100
AcDbLine
 10
105.0
 20
119.039
 30
0.0
 11
105.0
 21
121.9389999999999
 31
0.0
  0
LINE
  5
1A0
330
1E
100
AcDbEntity
  8
0
100
AcDbLine
 10
105.0
 20
119.039
 30
0.0
 11
105.0
 21
116.839
 31
0.0
  0
LINE
  5
1A1
330
1E
100
AcDbEntity
  8
0
100
AcDbLine
 10
105.0
 20
119.439
 30
0.0
 11
105.0
 21
121.1389999999999
 31
0.0
  0
LINE
  5
1A2
330
1E
100
AcDbEntity
  8
0
100
AcDbLine
 10
105.0
 20
119.439
 30
0.0
 11
105.0
 21
118.3389999999999
 31
0.0
  0
LINE
  5
1A3
330
1E
100
AcDbEntity
  8
0
100
AcDbLine
 10
130.0
 20
119.9389999999999
 30
0.0
 11
130.0
 21
128.939
 31
0.0
  0
LINE
  5
1A4
330
1E
100
AcDbEntity
  8
0
100
AcDbLine
 10
125.0
 20
119.9389999999999
 30
0.0
 11
125.0
 21
128.939
 31
0.0
  0
LINE
  5
1A5
330
1E
100
AcDbEntity
  8
0
100
AcDbLine
 10
125.0
 20
119.9389999999999
 30
0.0
 11
125.0
 21
111.539
 31
0.0
  0
LINE
  5
1A6
330
1E
100
AcDbEntity
  8
0
100
AcDbLine
 10
99.0
 20
119.439
 30
0.0
 11
99.0
 21
121.1389999999999
 31
0.0
  0
LINE
  5
1A7
330
1E
100
AcDbEntity
  8
0
100
AcDbLine
 10
99.0
 20
119.439
 30
0.0
 11
99.0
 21
118.3389999999999
 31
0.0
  0
LINE
  5
1A9
330
1E
100
AcDbEntity
  8
0
100
AcDbLine
 10
99.0
 20
118.3389999999999
 30
0.0
 11
99.0
 21
119.439
 31
0.0
  0
LINE
  5
1AA
330
1E
100
AcDbEntity
  8
0
100
AcDbLine
 10
99.0
 20
118.3389999999999
 30
0.0
 11
99.0
 21
117.9389999999999
 31
0.0
  0
LINE
  5
1AC
330
1E
100
AcDbEntity
  8
0
100
AcDbLine
 10
105.0
 20
121.1389999999999
 30
0.0
 11
105.0
 21
123.4389999999999
 31
0.0
  0
LINE
  5
1AD
330
1E
100
AcDbEntity
  8
0
100
AcDbLine
 10
105.0
 20
121.1389999999999
 30
0.0
 11
105.0
 21
119.439
 31
0.0
  0
LINE
  5
1AE
330
1E
100
AcDbEntity
  8
0
100
AcDbLine
 10
105.0
 20
121.9389999999999
 30
0.0
 11
105.0
 21
125.339
 31
0.0
  0
LINE
  5
1AF
330
1E
100
AcDbEntity
  8
0
100
AcDbLine
 10
105.0
 20
121.9389999999999
 30
0.0
 11
105.0
 21
119.039
 31
0.0
  0
LINE
  5
1B0
330
1E
100
AcDbEntity
  8
0
100
AcDbLine
 10
105.0
 20
123.4389999999999
 30
0.0
 11
105.0
 21
126.139
 31
0.0
  0
LINE
  5
1B1
330
1E
100
AcDbEntity
  8
0
100
AcDbLine
 10
105.0
 20
123.4389999999999
 30
0.0
 11
105.0
 21
121.1389999999999
 31
0.0
  0
LINE
  5
1B2
330
1E
100
AcDbEntity
  8
0
100
AcDbLine
 10
99.0
 20
123.4389999999999
 30
0.0
 11
99.0
 21
126.139
 31
0.0
  0
LINE
  5
1B3
330
1E
100
AcDbEntity
  8
0
100
AcDbLine
 10
99.0
 20
123.4389999999999
 30
0.0
 11
99.0
 21
121.1389999999999
 31
0.0
  0
LINE
  5
1B4
330
1E
100
AcDbEntity
  8
0
100
AcDbLine
 10
99.0
 20
121.1389999999999
 30
0.0
 11
99.0
 21
123.4389999999999
 31
0.0
  0
LINE
  5
1B5
330
1E
100
AcDbEntity
  8
0
100
AcDbLine
 10
99.0
 20
121.1389999999999
 30
0.0
 11
99.0
 21
119.439
 31
0.0
  0
LINE
  5
1B6
330
1E
100
AcDbEntity
  8
0
100
AcDbLine
 10
85.0
 20
120.5389999999999
 30
0.0
 11
85.0
 21
124.7389999999999
 31
0.0
  0
LINE
  5
1B7
330
1E
100
AcDbEntity
  8
0
100
AcDbLine
 10
85.0
 20
120.5389999999999
 30
0.0
 11
85.0
 21
117.2389999999999
 31
0.0
  0
LINE
  5
1B8
330
1E
100
AcDbEntity
  8
0
100
AcDbLine
 10
84.50000000000001
 20
120.4389999999999
 30
0.0
 11
84.50000000000001
 21
124.5389999999999
 31
0.0
  0
LINE
  5
1B9
330
1E
100
AcDbEntity
  8
0
100
AcDbLine
 10
84.50000000000001
 20
120.4389999999999
 30
0.0
 11
84.50000000000001
 21
116.9389999999999
 31
0.0
  0
LINE
  5
1BA
330
1E
100
AcDbEntity
  8
0
100
AcDbLine
 10
57.5
 20
124.5389999999999
 30
0.0
 11
57.5
 21
120.4389999999999
 31
0.0
  0
LINE
  5
1BB
330
1E
100
AcDbEntity
  8
0
100
AcDbLine
 10
57.5
 20
124.5389999999999
 30
0.0
 11
57.5
 21
128.939
 31
0.0
  0
LINE
  5
1BC
330
1E
100
AcDbEntity
  8
0
100
AcDbLine
 10
57.0
 20
124.7389999999999
 30
0.0
 11
57.0
 21
128.939
 31
0.0
  0
LINE
  5
1BD
330
1E
100
AcDbEntity
  8
0
100
AcDbLine
 10
57.0
 20
124.7389999999999
 30
0.0
 11
57.0
 21
120.5389999999999
 31
0.0
  0
LINE
  5
1BE
330
1E
100
AcDbEntity
  8
0
100
AcDbLine
 10
105.0
 20
125.339
 30
0.0
 11
105.0
 21
128.939
 31
0.0
  0
LINE
  5
1BF
330
1E
100
AcDbEntity
  8
0
100
AcDbLine
 10
105.0
 20
125.339
 30
0.0
 11
105.0
 21
121.9389999999999
 31
0.0
  0
LINE
  5
1C1
330
1E
100
AcDbEntity
  8
0
100
AcDbLine
 10
105.0
 20
126.139
 30
0.0
 11
105.0
 21
128.939
 31
0.0
  0
LINE
  5
1C2
330
1E
100
AcDbEntity
  8
0
100
AcDbLine
 10
105.0
 20
126.139
 30
0.0
 11
105.0
 21
123.4389999999999
 31
0.0
  0
LINE
  5
1C3
330
1E
100
AcDbEntity
  8
0
100
AcDbLine
 10
99.0
 20
126.139
 30
0.0
 11
99.0
 21
128.939
 31
0.0
  0
LINE
  5
1C4
330
1E
100
AcDbEntity
  8
0
100
AcDbLine
 10
99.0
 20
126.139
 30
0.0
 11
99.0
 21
123.4389999999999
 31
0.0
  0
LINE
  5
1C6
330
1E
100
AcDbEntity
  8
0
100
AcDbLine
 10
85.0
 20
124.7389999999999
 30
0.0
 11
85.0
 21
128.939
 31
0.0
  0
LINE
  5
1C7
330
1E
100
AcDbEntity
  8
0
100
AcDbLine
 10
85.0
 20
124.7389999999999
 30
0.0
 11
85.0
 21
120.5389999999999
 31
0.0
  0
LINE
  5
1C8
330
1E
100
AcDbEntity
  8
0
100
AcDbLine
 10
84.50000000000001
 20
124.5389999999999
 30
0.0
 11
84.50000000000001
 21
128.939
 31
0.0
  0
LINE
  5
1C9
330
1E
100
AcDbEntity
  8
0
100
AcDbLine
 10
84.50000000000001
 20
124.5389999999999
 30
0.0
 11
84.50000000000001
 21
120.4389999999999
 31
0.0
  0
LINE
  5
1CA
330
1E
100
AcDbEntity
  8
0
100
AcDbLine
 10
39.80769999999999
 20
121.9389999999999
 30
0.0
 11
39.80769999999999
 21
116.3742999999999
 31
0.0
  0
LINE
  5
1CB
330
1E
100
AcDbEntity
  8
0
100
AcDbLine
 10
39.80769999999999
 20
121.9389999999999
 30
0.0
 11
39.80769999999999
 21
127.5036999999999
 31
0.0
  0
LINE
  5
1CC
330
1E
100
AcDbEntity
  8
0
100
AcDbLine
 10
85.0
 20
117.9389999999999
 30
0.0
 11
87.0
 21
115.9389999999999
 31
0.0
  0
LINE
  5
1CD
330
1E
100
AcDbEntity
  8
0
100
AcDbLine
 10
39.0
 20
102.8389999999999
 30
0.0
 11
39.0
 21
106.4389999999999
 31
0.0
  0
LINE
  5
1CE
330
1E
100
AcDbEntity
  8
0
100
AcDbLine
 10
39.0
 20
100.739
 30
0.0
 11
39.0
 21
102.8389999999999
 31
0.0
  0
LINE
  5
1CF
330
1E
100
AcDbEntity
  8
0
100
AcDbLine
 10
38.5
 20
102.4389999999999
 30
0.0
 11
38.5
 21
106.0389999999999
 31
0.0
  0
LINE
  5
1D0
330
1E
100
AcDbEntity
  8
0
100
AcDbLine
 10
38.5
 20
102.4389999999999
 30
0.0
 11
38.5
 21
100.2389999999999
 31
0.0
  0
LINE
  5
1D1
330
1E
100
AcDbEntity
  8
0
100
AcDbLine
 10
39.80769999999999
 20
132.7449
 30
0.0
 11
39.80769999999999
 21
137.2743
 31
0.0
  0
LINE
  5
1D2
330
1E
100
AcDbEntity
  8
0
100
AcDbLine
 10
39.80769999999999
 20
132.7449
 30
0.0
 11
39.80769999999999
 21
127.5036999999999
 31
0.0
  0
LINE
  5
1D3
330
1E
100
AcDbEntity
  8
0
100
AcDbLine
 10
39.80769999999999
 20
137.2743
 30
0.0
 11
39.80769999999999
 21
140.7037
 31
0.0
  0
LINE
  5
1D4
330
1E
100
AcDbEntity
  8
0
100
AcDbLine
 10
39.80769999999999
 20
137.2743
 30
0.0
 11
39.80769999999999
 21
132.7449
 31
0.0
  0
LINE
  5
1D5
330
1E
100
AcDbEntity
  8
0
100
AcDbLine
 10
39.80769999999999
 20
140.7037
 30
0.0
 11
39.80769999999999
 21
142.839
 31
0.0
  0
LINE
  5
1D6
330
1E
100
AcDbEntity
  8
0
100
AcDbLine
 10
39.80769999999999
 20
142.839
 30
0.0
 11
39.80769999999999
 21
143.6155
 31
0.0
  0
LINE
  5
1D7
330
1E
100
AcDbEntity
  8
0
100
AcDbLine
 10
39.80769999999999
 20
142.839
 30
0.0
 11
39.80769999999999
 21
140.7037
 31
0.0
  0
LINE
  5
1D8
330
1E
100
AcDbEntity
  8
0
100
AcDbLine
 10
39.7237731726163
 20
143.439
 30
0.0
 11
39.80769999999999
 21
143.6155
 31
0.0
  0
LINE
  5
1D9
330
1E
100
AcDbEntity
  8
0
100
AcDbLine
 10
39.80769999999999
 20
143.6155
 30
0.0
 11
40.42309999999999
 21
143.9389999999999
 31
0.0
  0
LINE
  5
1DA
330
1E
100
AcDbEntity
  8
0
100
AcDbLine
 10
39.80769999999999
 20
143.6155
 30
0.0
 11
39.80769999999999
 21
142.839
 31
0.0
  0
LINE
  5
1DB
330
1E
100
AcDbEntity
  8
0
100
AcDbLine
 10
57.0
 20
128.939
 30
0.0
 11
57.0
 21
133.139
 31
0.0
  0
LINE
  5
1DC
330
1E
100
AcDbEntity
  8
0
100
AcDbLine
 10
57.0
 20
128.939
 30
0.0
 11
57.0
 21
124.7389999999999
 31
0.0
  0
LINE
  5
1DD
330
1E
100
AcDbEntity
  8
0
100
AcDbLine
 10
57.0
 20
133.139
 30
0.0
 11
57.0
 21
137.339
 31
0.0
  0
LINE
  5
1DE
330
1E
100
AcDbEntity
  8
0
100
AcDbLine
 10
57.0
 20
133.139
 30
0.0
 11
57.0
 21
128.939
 31
0.0
  0
LINE
  5
1DF
330
1E
100
AcDbEntity
  8
0
100
AcDbLine
 10
57.5
 20
128.939
 30
0.0
 11
57.5
 21
124.5389999999999
 31
0.0
  0
LINE
  5
1E0
330
1E
100
AcDbEntity
  8
0
100
AcDbLine
 10
57.5
 20
128.939
 30
0.0
 11
57.5
 21
133.339
 31
0.0
  0
LINE
  5
1E1
330
1E
100
AcDbEntity
  8
0
100
AcDbLine
 10
84.50000000000001
 20
133.339
 30
0.0
 11
84.50000000000001
 21
137.439
 31
0.0
  0
LINE
  5
1E2
330
1E
100
AcDbEntity
  8
0
100
AcDbLine
 10
84.50000000000001
 20
133.339
 30
0.0
 11
84.50000000000001
 21
128.939
 31
0.0
  0
LINE
  5
1E5
330
1E
100
AcDbEntity
  8
0
100
AcDbLine
 10
85.0
 20
133.139
 30
0.0
 11
85.0
 21
137.339
 31
0.0
  0
LINE
  5
1E6
330
1E
100
AcDbEntity
  8
0
100
AcDbLine
 10
85.0
 20
133.139
 30
0.0
 11
85.0
 21
128.939
 31
0.0
  0
LINE
  5
1E7
330
1E
100
AcDbEntity
  8
0
100
AcDbLine
 10
85.0
 20
128.939
 30
0.0
 11
85.0
 21
133.139
 31
0.0
  0
LINE
  5
1E8
330
1E
100
AcDbEntity
  8
0
100
AcDbLine
 10
85.0
 20
128.939
 30
0.0
 11
85.0
 21
124.7389999999999
 31
0.0
  0
LINE
  5
1E9
330
1E
100
AcDbEntity
  8
0
100
AcDbLine
 10
84.50000000000001
 20
128.939
 30
0.0
 11
84.50000000000001
 21
133.339
 31
0.0
  0
LINE
  5
1EA
330
1E
100
AcDbEntity
  8
0
100
AcDbLine
 10
84.50000000000001
 20
128.939
 30
0.0
 11
84.50000000000001
 21
124.5389999999999
 31
0.0
  0
LINE
  5
1EB
330
1E
100
AcDbEntity
  8
0
100
AcDbLine
 10
57.0
 20
137.339
 30
0.0
 11
57.0
 21
140.639
 31
0.0
  0
LINE
  5
1EC
330
1E
100
AcDbEntity
  8
0
100
AcDbLine
 10
57.0
 20
137.339
 30
0.0
 11
57.0
 21
133.139
 31
0.0
  0
LINE
  5
1ED
330
1E
100
AcDbEntity
  8
0
100
AcDbLine
 10
57.0
 20
140.639
 30
0.0
 11
57.0
 21
143.239
 31
0.0
  0
LINE
  5
1EE
330
1E
100
AcDbEntity
  8
0
100
AcDbLine
 10
57.0
 20
140.639
 30
0.0
 11
57.0
 21
137.339
 31
0.0
  0
LINE
  5
1EF
330
1E
100
AcDbEntity
  8
0
100
AcDbLine
 10
57.0
 20
143.239
 30
0.0
 11
57.0
 21
144.839
 31
0.0
  0
LINE
  5
1F0
330
1E
100
AcDbEntity
  8
0
100
AcDbLine
 10
57.0
 20
143.239
 30
0.0
 11
57.0
 21
140.639
 31
0.0
  0
LINE
  5
1F1
330
1E
100
AcDbEntity
  8
0
100
AcDbLine
 10
57.5
 20
143.639
 30
0.0
 11
57.5
 21
140.9389999999999
 31
0.0
  0
LINE
  5
1F2
330
1E
100
AcDbEntity
  8
0
100
AcDbLine
 10
57.5
 20
143.639
 30
0.0
 11
57.5
 21
145.3389999999999
 31
0.0
  0
LINE
  5
1F3
330
1E
100
AcDbEntity
  8
0
100
AcDbLine
 10
57.5
 20
140.9389999999999
 30
0.0
 11
57.5
 21
137.439
 31
0.0
  0
LINE
  5
1F4
330
1E
100
AcDbEntity
  8
0
100
AcDbLine
 10
57.5
 20
140.9389999999999
 30
0.0
 11
57.5
 21
143.639
 31
0.0
  0
LINE
  5
1F5
330
1E
100
AcDbEntity
  8
0
100
AcDbLine
 10
85.0
 20
137.339
 30
0.0
 11
85.0
 21
140.639
 31
0.0
  0
LINE
  5
1F6
330
1E
100
AcDbEntity
  8
0
100
AcDbLine
 10
85.0
 20
137.339
 30
0.0
 11
85.0
 21
133.139
 31
0.0
  0
LINE
  5
1F7
330
1E
100
AcDbEntity
  8
0
100
AcDbLine
 10
84.50000000000001
 20
143.639
 30
0.0
 11
84.50000000000001
 21
145.3389999999999
 31
0.0
  0
LINE
  5
1F8
330
1E
100
AcDbEntity
  8
0
100
AcDbLine
 10
84.50000000000001
 20
143.639
 30
0.0
 11
84.50000000000001
 21
140.9389999999999
 31
0.0
  0
LINE
  5
1FC
330
1E
100
AcDbEntity
  8
0
100
AcDbLine
 10
85.0
 20
139.9389999999999
 30
0.0
 11
87.0
 21
141.9389999999999
 31
0.0
  0
LINE
  5
1FE
330
1E
100
AcDbEntity
  8
0
100
AcDbLine
 10
85.0
 20
143.239
 30
0.0
 11
85.0
 21
144.839
 31
0.0
  0
LINE
  5
1FF
330
1E
100
AcDbEntity
  8
0
100
AcDbLine
 10
85.0
 20
143.239
 30
0.0
 11
85.0
 21
140.639
 31
0.0
  0
LINE
  5
200
330
1E
100
AcDbEntity
  8
0
100
AcDbLine
 10
85.0
 20
140.639
 30
0.0
 11
85.0
 21
143.239
 31
0.0
  0
LINE
  5
201
330
1E
100
AcDbEntity
  8
0
100
AcDbLine
 10
85.0
 20
140.639
 30
0.0
 11
85.0
 21
137.339
 31
0.0
  0
LINE
  5
202
330
1E
100
AcDbEntity
  8
0
100
AcDbLine
 10
84.50000000000001
 20
140.9389999999999
 30
0.0
 11
84.50000000000001
 21
143.639
 31
0.0
  0
LINE
  5
203
330
1E
100
AcDbEntity
  8
0
100
AcDbLine
 10
84.50000000000001
 20
140.9389999999999
 30
0.0
 11
84.50000000000001
 21
137.439
 31
0.0
  0
LINE
  5
204
330
1E
100
AcDbEntity
  8
0
100
AcDbLine
 10
84.50000000000001
 20
137.439
 30
0.0
 11
84.50000000000001
 21
140.9389999999999
 31
0.0
  0
LINE
  5
205
330
1E
100
AcDbEntity
  8
0
100
AcDbLine
 10
84.50000000000001
 20
137.439
 30
0.0
 11
84.50000000000001
 21
133.339
 31
0.0
  0
LINE
  5
206
330
1E
100
AcDbEntity
  8
0
100
AcDbLine
 10
57.5
 20
137.439
 30
0.0
 11
57.5
 21
133.339
 31
0.0
  0
LINE
  5
207
330
1E
100
AcDbEntity
  8
0
100
AcDbLine
 10
57.5
 20
137.439
 30
0.0
 11
57.5
 21
140.9389999999999
 31
0.0
  0
LINE
  5
208
330
1E
100
AcDbEntity
  8
0
100
AcDbLine
 10
57.5
 20
133.339
 30
0.0
 11
57.5
 21
128.939
 31
0.0
  0
LINE
  5
209
330
1E
100
AcDbEntity
  8
0
100
AcDbLine
 10
57.5
 20
133.339
 30
0.0
 11
57.5
 21
137.439
 31
0.0
  0
LINE
  5
20A
330
1E
100
AcDbEntity
  8
0
100
AcDbLine
 10
40.42309999999999
 20
143.9389999999999
 30
0.0
 11
57.0
 21
143.9389999999999
 31
0.0
  0
LINE
  5
20B
330
1E
100
AcDbEntity
  8
0
100
AcDbLine
 10
57.0
 20
145.4389999999999
 30
0.0
 11
57.0
 21
144.839
 31
0.0
  0
LINE
  5
20C
330
1E
100
AcDbEntity
  8
0
100
AcDbLine
 10
57.0
 20
145.4389999999999
 30
0.0
 11
57.5
 21
145.9389999999999
 31
0.0
  0
LINE
  5
20D
330
1E
100
AcDbEntity
  8
0
100
AcDbLine
 10
85.0
 20
144.839
 30
0.0
 11
85.0
 21
145.4389999999999
 31
0.0
  0
LINE
  5
20E
330
1E
100
AcDbEntity
  8
0
100
AcDbLine
 10
85.0
 20
144.839
 30
0.0
 11
85.0
 21
143.239
 31
0.0
  0
LINE
  5
20F
330
1E
100
AcDbEntity
  8
0
100
AcDbLine
 10
85.0
 20
145.4389999999999
 30
0.0
 11
85.0
 21
144.839
 31
0.0
  0
LINE
  5
210
330
1E
100
AcDbEntity
  8
0
100
AcDbLine
 10
84.50000000000001
 20
145.9389999999999
 30
0.0
 11
84.50000000000001
 21
145.3389999999999
 31
0.0
  0
LINE
  5
211
330
1E
100
AcDbEntity
  8
0
100
AcDbLine
 10
84.50000000000001
 20
145.9389999999999
 30
0.0
 11
85.0
 21
145.4389999999999
 31
0.0
  0
LINE
  5
212
330
1E
100
AcDbEntity
  8
0
100
AcDbLine
 10
84.50000000000001
 20
145.3389999999999
 30
0.0
 11
84.50000000000001
 21
145.9389999999999
 31
0.0
  0
LINE
  5
213
330
1E
100
AcDbEntity
  8
0
100
AcDbLine
 10
84.50000000000001
 20
145.3389999999999
 30
0.0
 11
84.50000000000001
 21
143.639
 31
0.0
  0
LINE
  5
214
330
1E
100
AcDbEntity
  8
0
100
AcDbLine
 10
57.5
 20
145.3389999999999
 30
0.0
 11
57.5
 21
143.639
 31
0.0
  0
LINE
  5
215
330
1E
100
AcDbEntity
  8
0
100
AcDbLine
 10
57.5
 20
145.3389999999999
 30
0.0
 11
57.5
 21
145.9389999999999
 31
0.0
  0
LINE
  5
216
330
1E
100
AcDbEntity
  8
0
100
AcDbLine
 10
57.5
 20
145.9389999999999
 30
0.0
 11
57.5
 21
145.3389999999999
 31
0.0
  0
LINE
  5
217
330
1E
100
AcDbEntity
  8
0
100
AcDbLine
 10
57.5
 20
145.9389999999999
 30
0.0
 11
84.50000000000001
 21
145.9389999999999
 31
0.0
  0
LINE
  5
218
330
1E
100
AcDbEntity
  8
0
100
AcDbLine
 10
57.0
 20
144.839
 30
0.0
 11
57.0
 21
145.4389999999999
 31
0.0
  0
LINE
  5
219
330
1E
100
AcDbEntity
  8
0
100
AcDbLine
 10
57.0
 20
144.839
 30
0.0
 11
57.0
 21
143.9389999999999
 31
0.0
  0
LINE
  5
21A
330
1E
100
AcDbEntity
  8
0
100
AcDbLine
 10
57.0
 20
144.839
 30
0.0
 11
57.0
 21
143.239
 31
0.0
  0
LINE
  5
21B
330
1E
100
AcDbEntity
  8
0
100
AcDbLine
 10
57.0
 20
143.9389999999999
 30
0.0
 11
57.0
 21
144.839
 31
0.0
  0
LINE
  5
21E
330
1E
100
AcDbEntity
  8
0
100
AcDbLine
 10
99.0
 20
128.939
 30
0.0
 11
99.0
 21
131.739
 31
0.0
  0
LINE
  5
21F
330
1E
100
AcDbEntity
  8
0
100
AcDbLine
 10
99.0
 20
128.939
 30
0.0
 11
99.0
 21
126.139
 31
0.0
  0
LINE
  5
221
330
1E
100
AcDbEntity
  8
0
100
AcDbLine
 10
99.0
 20
131.739
 30
0.0
 11
99.0
 21
134.4389999999999
 31
0.0
  0
LINE
  5
223
330
1E
100
AcDbEntity
  8
0
100
AcDbLine
 10
99.0
 20
134.4389999999999
 30
0.0
 11
99.0
 21
136.739
 31
0.0
  0
LINE
  5
224
330
1E
100
AcDbEntity
  8
0
100
AcDbLine
 10
99.0
 20
134.4389999999999
 30
0.0
 11
99.0
 21
131.739
 31
0.0
  0
LINE
  5
225
330
1E
100
AcDbEntity
  8
0
100
AcDbLine
 10
99.0
 20
136.739
 30
0.0
 11
99.0
 21
138.439
 31
0.0
  0
LINE
  5
226
330
1E
100
AcDbEntity
  8
0
100
AcDbLine
 10
99.0
 20
136.739
 30
0.0
 11
99.0
 21
134.4389999999999
 31
0.0
  0
LINE
  5
227
330
1E
100
AcDbEntity
  8
0
100
AcDbLine
 10
99.0
 20
139.9389999999999
 30
0.0
 11
99.0
 21
139.5389999999999
 31
0.0
  0
LINE
  5
228
330
1E
100
AcDbEntity
  8
0
100
AcDbLine
 10
99.0
 20
139.9389999999999
 30
0.0
 11
105.0
 21
139.9389999999999
 31
0.0
  0
LINE
  5
229
330
1E
100
AcDbEntity
  8
0
100
AcDbLine
 10
99.0
 20
138.439
 30
0.0
 11
99.0
 21
139.5389999999999
 31
0.0
  0
LINE
  5
22A
330
1E
100
AcDbEntity
  8
0
100
AcDbLine
 10
99.0
 20
138.439
 30
0.0
 11
99.0
 21
136.739
 31
0.0
  0
LINE
  5
22B
330
1E
100
AcDbEntity
  8
0
100
AcDbLine
 10
105.0
 20
132.5389999999999
 30
0.0
 11
105.0
 21
135.9389999999999
 31
0.0
  0
LINE
  5
22C
330
1E
100
AcDbEntity
  8
0
100
AcDbLine
 10
105.0
 20
132.5389999999999
 30
0.0
 11
105.0
 21
128.939
 31
0.0
  0
LINE
  5
22D
330
1E
100
AcDbEntity
  8
0
100
AcDbLine
 10
105.0
 20
131.739
 30
0.0
 11
105.0
 21
134.4389999999999
 31
0.0
  0
LINE
  5
22E
330
1E
100
AcDbEntity
  8
0
100
AcDbLine
 10
105.0
 20
131.739
 30
0.0
 11
105.0
 21
128.939
 31
0.0
  0
LINE
  5
22F
330
1E
100
AcDbEntity
  8
0
100
AcDbLine
 10
105.0
 20
135.9389999999999
 30
0.0
 11
105.0
 21
138.839
 31
0.0
  0
LINE
  5
230
330
1E
100
AcDbEntity
  8
0
100
AcDbLine
 10
105.0
 20
135.9389999999999
 30
0.0
 11
105.0
 21
132.5389999999999
 31
0.0
  0
LINE
  5
231
330
1E
100
AcDbEntity
  8
0
100
AcDbLine
 10
105.0
 20
134.4389999999999
 30
0.0
 11
105.0
 21
136.739
 31
0.0
  0
LINE
  5
232
330
1E
100
AcDbEntity
  8
0
100
AcDbLine
 10
105.0
 20
134.4389999999999
 30
0.0
 11
105.0
 21
131.739
 31
0.0
  0
LINE
  5
233
330
1E
100
AcDbEntity
  8
0
100
AcDbLine
 10
105.0
 20
136.739
 30
0.0
 11
105.0
 21
138.439
 31
0.0
  0
LINE
  5
234
330
1E
100
AcDbEntity
  8
0
100
AcDbLine
 10
105.0
 20
136.739
 30
0.0
 11
105.0
 21
134.4389999999999
 31
0.0
  0
LINE
  5
235
330
1E
100
AcDbEntity
  8
0
100
AcDbLine
 10
105.0
 20
138.839
 30
0.0
 11
105.0
 21
141.0389999999999
 31
0.0
  0
LINE
  5
236
330
1E
100
AcDbEntity
  8
0
100
AcDbLine
 10
105.0
 20
138.839
 30
0.0
 11
105.0
 21
135.9389999999999
 31
0.0
  0
LINE
  5
237
330
1E
100
AcDbEntity
  8
0
100
AcDbLine
 10
105.0
 20
138.439
 30
0.0
 11
105.0
 21
139.5389999999999
 31
0.0
  0
LINE
  5
238
330
1E
100
AcDbEntity
  8
0
100
AcDbLine
 10
105.0
 20
138.439
 30
0.0
 11
105.0
 21
136.739
 31
0.0
  0
LINE
  5
239
330
1E
100
AcDbEntity
  8
0
100
AcDbLine
 10
105.0
 20
139.5389999999999
 30
0.0
 11
105.0
 21
139.9389999999999
 31
0.0
  0
LINE
  5
23A
330
1E
100
AcDbEntity
  8
0
100
AcDbLine
 10
105.0
 20
139.5389999999999
 30
0.0
 11
105.0
 21
138.439
 31
0.0
  0
LINE
  5
23B
330
1E
100
AcDbEntity
  8
0
100
AcDbLine
 10
105.0
 20
128.939
 30
0.0
 11
105.0
 21
126.139
 31
0.0
  0
LINE
  5
23C
330
1E
100
AcDbEntity
  8
0
100
AcDbLine
 10
105.0
 20
128.939
 30
0.0
 11
105.0
 21
125.339
 31
0.0
  0
LINE
  5
23D
330
1E
100
AcDbEntity
  8
0
100
AcDbLine
 10
105.0
 20
128.939
 30
0.0
 11
105.0
 21
131.739
 31
0.0
  0
LINE
  5
23E
330
1E
100
AcDbEntity
  8
0
100
AcDbLine
 10
105.0
 20
128.939
 30
0.0
 11
105.0
 21
132.5389999999999
 31
0.0
  0
LINE
  5
23F
330
1E
100
AcDbEntity
  8
0
100
AcDbLine
 10
99.0
 20
139.5389999999999
 30
0.0
 11
99.0
 21
139.9389999999999
 31
0.0
  0
LINE
  5
240
330
1E
100
AcDbEntity
  8
0
100
AcDbLine
 10
99.0
 20
139.5389999999999
 30
0.0
 11
99.0
 21
138.439
 31
0.0
  0
LINE
  5
244
330
1E
100
AcDbEntity
  8
0
100
AcDbLine
 10
97.0
 20
141.9389999999999
 30
0.0
 11
99.0
 21
139.9389999999999
 31
0.0
  0
LINE
  5
245
330
1E
100
AcDbEntity
  8
0
100
AcDbLine
 10
105.0
 20
139.9389999999999
 30
0.0
 11
105.0
 21
141.0389999999999
 31
0.0
  0
LINE
  5
246
330
1E
100
AcDbEntity
  8
0
100
AcDbLine
 10
105.0
 20
139.9389999999999
 30
0.0
 11
105.0
 21
139.5389999999999
 31
0.0
  0
LINE
  5
247
330
1E
100
AcDbEntity
  8
0
100
AcDbLine
 10
130.0
 20
128.939
 30
0.0
 11
130.0
 21
137.9389999999999
 31
0.0
  0
LINE
  5
248
330
1E
100
AcDbEntity
  8
0
100
AcDbLine
 10
130.0
 20
137.9389999999999
 30
0.0
 11
130.0
 21
146.3389999999999
 31
0.0
  0
LINE
  5
249
330
1E
100
AcDbEntity
  8
0
100
AcDbLine
 10
125.0
 20
137.9389999999999
 30
0.0
 11
125.0
 21
146.3389999999999
 31
0.0
  0
LINE
  5
24A
330
1E
100
AcDbEntity
  8
0
100
AcDbLine
 10
125.0
 20
137.9389999999999
 30
0.0
 11
125.0
 21
128.939
 31
0.0
  0
LINE
  5
24B
330
1E
100
AcDbEntity
  8
0
100
AcDbLine
 10
125.0
 20
128.939
 30
0.0
 11
125.0
 21
119.9389999999999
 31
0.0
  0
LINE
  5
24C
330
1E
100
AcDbEntity
  8
0
100
AcDbLine
 10
125.0
 20
128.939
 30
0.0
 11
125.0
 21
137.9389999999999
 31
0.0
  0
LINE
  5
24D
330
1E
100
AcDbEntity
  8
0
100
AcDbLine
 10
105.0
 20
141.0389999999999
 30
0.0
 11
105.0
 21
142.439
 31
0.0
  0
LINE
  5
24E
330
1E
100
AcDbEntity
  8
0
100
AcDbLine
 10
105.0
 20
141.0389999999999
 30
0.0
 11
105.0
 21
139.9389999999999
 31
0.0
  0
LINE
  5
24F
330
1E
100
AcDbEntity
  8
0
100
AcDbLine
 10
105.0
 20
141.0389999999999
 30
0.0
 11
105.0
 21
138.839
 31
0.0
  0
LINE
  5
250
330
1E
100
AcDbEntity
  8
0
100
AcDbLine
 10
92.0
 20
142.9389999999999
 30
0.0
 11
95.0
 21
142.9389999999999
 31
0.0
  0
LINE
  5
251
330
1E
100
AcDbEntity
  8
0
100
AcDbLine
 10
95.0
 20
142.9389999999999
 30
0.0
 11
97.0
 21
141.9389999999999
 31
0.0
  0
LINE
  5
252
330
1E
100
AcDbEntity
  8
0
100
AcDbLine
 10
89.0
 20
142.9389999999999
 30
0.0
 11
92.0
 21
142.9389999999999
 31
0.0
  0
LINE
  5
253
330
1E
100
AcDbEntity
  8
0
100
AcDbLine
 10
125.0
 20
146.3389999999999
 30
0.0
 11
125.0
 21
153.639
 31
0.0
  0
LINE
  5
254
330
1E
100
AcDbEntity
  8
0
100
AcDbLine
 10
125.0
 20
146.3389999999999
 30
0.0
 11
125.0
 21
137.9389999999999
 31
0.0
  0
LINE
  5
255
330
1E
100
AcDbEntity
  8
0
100
AcDbLine
 10
125.0
 20
153.639
 30
0.0
 11
125.0
 21
159.2389999999999
 31
0.0
  0
LINE
  5
256
330
1E
100
AcDbEntity
  8
0
100
AcDbLine
 10
125.0
 20
153.639
 30
0.0
 11
125.0
 21
146.3389999999999
 31
0.0
  0
LINE
  5
257
330
1E
100
AcDbEntity
  8
0
100
AcDbLine
 10
130.0
 20
146.3389999999999
 30
0.0
 11
130.0
 21
153.639
 31
0.0
  0
LINE
  5
258
330
1E
100
AcDbEntity
  8
0
100
AcDbLine
 10
130.0
 20
153.639
 30
0.0
 11
130.0
 21
159.2389999999999
 31
0.0
  0
LINE
  5
259
330
1E
100
AcDbEntity
  8
0
100
AcDbLine
 10
130.0
 20
159.2389999999999
 30
0.0
 11
130.0
 21
162.639
 31
0.0
  0
LINE
  5
25A
330
1E
100
AcDbEntity
  8
0
100
AcDbLine
 10
130.0
 20
162.639
 30
0.0
 11
130.0
 21
163.939
 31
0.0
  0
LINE
  5
25B
330
1E
100
AcDbEntity
  8
0
100
AcDbLine
 10
125.0
 20
159.2389999999999
 30
0.0
 11
125.0
 21
162.639
 31
0.0
  0
LINE
  5
25C
330
1E
100
AcDbEntity
  8
0
100
AcDbLine
 10
125.0
 20
159.2389999999999
 30
0.0
 11
125.0
 21
153.639
 31
0.0
  0
LINE
  5
25D
330
1E
100
AcDbEntity
  8
0
100
AcDbLine
 10
125.0
 20
163.939
 30
0.0
 11
125.0
 21
162.639
 31
0.0
  0
LINE
  5
25E
330
1E
100
AcDbEntity
  8
0
100
AcDbLine
 10
125.0
 20
163.939
 30
0.0
 11
130.0
 21
163.939
 31
0.0
  0
LINE
  5
25F
330
1E
100
AcDbEntity
  8
0
100
AcDbLine
 10
125.0
 20
162.639
 30
0.0
 11
125.0
 21
163.939
 31
0.0
  0
LINE
  5
260
330
1E
100
AcDbEntity
  8
0
100
AcDbLine
 10
125.0
 20
162.639
 30
0.0
 11
125.0
 21
159.2389999999999
 31
0.0
  0
LINE
  5
261
330
1E
100
AcDbEntity
  8
0
100
AcDbLine
 10
105.0
 20
142.9389999999999
 30
0.0
 11
105.0
 21
142.439
 31
0.0
  0
LINE
  5
262
330
1E
100
AcDbEntity
  8
0
100
AcDbLine
 10
105.0
 20
142.9389999999999
 30
0.0
 11
125.0
 21
163.939
 31
0.0
  0
LINE
  5
263
330
1E
100
AcDbEntity
  8
0
100
AcDbLine
 10
105.0
 20
142.439
 30
0.0
 11
105.0
 21
142.9389999999999
 31
0.0
  0
LINE
  5
264
330
1E
100
AcDbEntity
  8
0
100
AcDbLine
 10
105.0
 20
142.439
 30
0.0
 11
105.0
 21
141.0389999999999
 31
0.0
  0
LINE
  5
265
330
1E
100
AcDbEntity
  8
0
100
AcDbLine
 10
87.0
 20
141.9389999999999
 30
0.0
 11
89.0
 21
142.9389999999999
 31
0.0
  0
LINE
  5
266
330
1E
100
AcDbEntity
  8
0
100
AcDbLine
 10
37.0775
 20
127.6877
 30
0.0
 11
39.0
 21
121.9389999999999
 31
0.0
  0
LINE
  5
267
330
1E
100
AcDbEntity
  8
0
100
AcDbLine
 10
36.5602
 20
127.7673199999999
 30
0.0
 11
38.5
 21
121.9389999999999
 31
0.0
  0
LINE
  5
268
330
1E
100
AcDbEntity
  8
0
100
AcDbLine
 10
39.0
 20
100.4389999999999
 30
0.0
 11
39.7237731726163
 21
100.4389999999999
 31
0.0
  0
LINE
  5
269
330
1E
100
AcDbEntity
  8
0
100
AcDbLine
 10
34.79999999999999
 20
143.439
 30
0.0
 11
39.7237731726163
 21
143.439
 31
0.0
  0
LINE
  5
26A
330
1E
100
AcDbEntity
  8
0
100
AcDbLine
 10
5.49999999999999
 20
48.1057
 30
0.0
 11
5.99999999999999
 21
54.7723
 31
0.0
  0
LINE
  5
26B
330
1E
100
AcDbEntity
  8
0
100
AcDbLine
 10
4.99999999999999
 20
44.7723
 30
0.0
 11
5.49999999999999
 21
48.1057
 31
0.0
  0
LINE
  5
26D
330
1E
100
AcDbEntity
  8
0
100
AcDbLine
 10
2.99999999999999
 20
44.43899999999999
 30
0.0
 11
4.49999999999999
 21
44.43899999999999
 31
0.0
  0
LINE
  5
26E
330
1E
100
AcDbEntity
  8
0
100
AcDbLine
 10
1.5
 20
144.439
 30
0.0
 11
3.0
 21
144.439
 31
0.0
  0
LINE
  5
274
330
1E
100
AcDbEntity
  8
0
100
AcDbLine
 10
87.0
 20
141.9389999999999
 30
0.0
 11
87.0
 21
115.9389999999999
 31
0.0
  0
LINE
  5
275
330
1E
100
AcDbEntity
  8
0
100
AcDbLine
 10
97.0
 20
141.9389999999999
 30
0.0
 11
97.0
 21
115.9389999999999
 31
0.0
  0
ENDSEC
  0
SECTION
  2
OBJECTS
  0
DICTIONARY
  5
C
330
0
100
AcDbDictionary
  3
ACAD_GROUP
350
D
  3
ACAD_LAYOUT
350
19
  3
ACAD_MLINESTYLE
350
16
  3
ACAD_PLOTSETTINGS
350
18
  3
ACAD_PLOTSTYLENAME
350
E
  3
ACDBHEADERROUNDTRIPXREC
350
279
  3
ACDBVARIABLEDICTIONARY
350
276
  0
DICTIONARY
  5
29B
330
1E
100
AcDbDictionary
280
     1
  3
ACAD_LAYOUTSELFREF
360
29C
  0
DICTIONARY
  5
299
330
1A
100
AcDbDictionary
280
     1
  3
ACAD_LAYOUTSELFREF
360
29A
  0
DICTIONARY
  5
D
102
{ACAD_REACTORS
330
C
102
}
330
C
100
AcDbDictionary
  0
DICTIONARY
  5
19
102
{ACAD_REACTORS
330
C
102
}
330
C
100
AcDbDictionary
  0
DICTIONARY
  5
16
102
{ACAD_REACTORS
330
C
102
}
330
C
100
AcDbDictionary
  3
STANDARD
350
17
  0
DICTIONARY
  5
18
102
{ACAD_REACTORS
330
C
102
}
330
C
100
AcDbDictionary
  0
ACDBDICTIONARYWDFLT
  5
E
102
{ACAD_REACTORS
330
C
102
}
330
C
100
AcDbDictionary
281
     1
  3
Normal
350
F
100
AcDbDictionaryWithDefault
340
F
  0
DICTIONARY
  5
279
102
{ACAD_REACTORS
330
C
102
}
330
C
100
AcDbDictionary
  3
CEPSNTYPE
350
283
  3
FINGERPRINTGUID
350
284
  3
HYPERLINKBASE
350
27C
  3
INSUNITS
350
282
  3
LAYOUTDICT
350
27E
  3
LWETCUNION
350
281
  3
PLOTSETDICT
350
27F
  3
PLOTSTYLNAMDICT
350
280
  3
PSVPSCALE
350
286
  3
PUCSBASE
350
289
  3
PUCSORGBACK
350
28F
  3
PUCSORGBOTTOM
350
28B
  3
PUCSORGFRONT
350
28E
  3
PUCSORGLEFT
350
28C
  3
PUCSORGRIGHT
350
28D
  3
PUCSORGTOP
350
28A
  3
PUCSORTHOREF
350
287
  3
PUCSORTHOVIEW
350
288
  3
STYLESHEET
350
27D
  3
TSTACKALIGN
350
27A
  3
TSTACKSIZE
350
27B
  3
UCSBASE
350
292
  3
UCSORGBACK
350
298
  3
UCSORGBOTTOM
350
294
  3
UCSORGFRONT
350
297
  3
UCSORGLEFT
350
295
  3
UCSORGRIGHT
350
296
  3
UCSORGTOP
350
293
  3
UCSORTHOREF
350
290
  3
UCSORTHOVIEW
350
291
  3
VERSIONGUID
350
285
  0
DICTIONARY
  5
276
102
{ACAD_REACTORS
330
C
102
}
330
C
100
AcDbDictionary
  3
DIMASSOC
350
277
  0
XRECORD
  5
29C
102
{ACAD_REACTORS
330
29B
102
}
330
29B
100
AcDbXrecord
340
1E
  0
XRECORD
  5
29A
102
{ACAD_REACTORS
330
299
102
}
330
299
100
AcDbXrecord
340
1A
  0
MLINESTYLE
  5
17
102
{ACAD_REACTORS
330
16
102
}
330
16
100
AcDbMlineStyle
  2
STANDARD
 70
     0
  3

 62
   256
 51
90.0
 52
90.0
 71
     2
 49
0.5
 62
   256
  6
BYLAYER
 49
-0.5
 62
   256
  6
BYLAYER
  0
ACDBPLACEHOLDER
  5
F
102
{ACAD_REACTORS
330
E
102
}
330
E
100
AcDbPlaceHolder
280
     0
  0
XRECORD
  5
283
102
{ACAD_REACTORS
330
279
102
}
330
279
100
AcDbXrecord
 90
        0
  0
XRECORD
  5
284
102
{ACAD_REACTORS
330
279
102
}
330
279
100
AcDbXrecord
  1
{A5E777E6-F7AA-4C1B-8AD6-2C4D3BD6558A}
  0
XRECORD
  5
27C
102
{ACAD_REACTORS
330
279
102
}
330
279
100
AcDbXrecord
  1

  0
XRECORD
  5
282
102
{ACAD_REACTORS
330
279
102
}
330
279
100
AcDbXrecord
 90
        0
  0
XRECORD
  5
27E
102
{ACAD_REACTORS
330
279
102
}
330
279
100
AcDbXrecord
340
19
  0
XRECORD
  5
281
102
{ACAD_REACTORS
330
279
102
}
330
279
100
AcDbXrecord
 90
    10781
  0
XRECORD
  5
27F
102
{ACAD_REACTORS
330
279
102
}
330
279
100
AcDbXrecord
340
18
  0
XRECORD
  5
280
102
{ACAD_REACTORS
330
279
102
}
330
279
100
AcDbXrecord
340
E
  0
XRECORD
  5
286
102
{ACAD_REACTORS
330
279
102
}
330
279
100
AcDbXrecord
 40
0.0
  0
XRECORD
  5
289
102
{ACAD_REACTORS
330
279
102
}
330
279
100
AcDbXrecord
340
0
  0
XRECORD
  5
28F
102
{ACAD_REACTORS
330
279
102
}
330
279
100
AcDbXrecord
 10
0.0
 20
0.0
 30
0.0
  0
XRECORD
  5
28B
102
{ACAD_REACTORS
330
279
102
}
330
279
100
AcDbXrecord
 10
0.0
 20
0.0
 30
0.0
  0
XRECORD
  5
28E
102
{ACAD_REACTORS
330
279
102
}
330
279
100
AcDbXrecord
 10
0.0
 20
0.0
 30
0.0
  0
XRECORD
  5
28C
102
{ACAD_REACTORS
330
279
102
}
330
279
100
AcDbXrecord
 10
0.0
 20
0.0
 30
0.0
  0
XRECORD
  5
28D
102
{ACAD_REACTORS
330
279
102
}
330
279
100
AcDbXrecord
 10
0.0
 20
0.0
 30
0.0
  0
XRECORD
  5
28A
102
{ACAD_REACTORS
330
279
102
}
330
279
100
AcDbXrecord
 10
0.0
 20
0.0
 30
0.0
  0
XRECORD
  5
287
102
{ACAD_REACTORS
330
279
102
}
330
279
100
AcDbXrecord
340
0
  0
XRECORD
  5
288
102
{ACAD_REACTORS
330
279
102
}
330
279
100
AcDbXrecord
 70
     0
  0
XRECORD
  5
27D
102
{ACAD_REACTORS
330
279
102
}
330
279
100
AcDbXrecord
  1

  0
XRECORD
  5
27A
102
{ACAD_REACTORS
330
279
102
}
330
279
100
AcDbXrecord
 90
        1
  0
XRECORD
  5
27B
102
{ACAD_REACTORS
330
279
102
}
330
279
100
AcDbXrecord
 90
       70
  0
XRECORD
  5
292
102
{ACAD_REACTORS
330
279
102
}
330
279
100
AcDbXrecord
340
0
  0
XRECORD
  5
298
102
{ACAD_REACTORS
330
279
102
}
330
279
100
AcDbXrecord
 10
0.0
 20
0.0
 30
0.0
  0
XRECORD
  5
294
102
{ACAD_REACTORS
330
279
102
}
330
279
100
AcDbXrecord
 10
0.0
 20
0.0
 30
0.0
  0
XRECORD
  5
297
102
{ACAD_REACTORS
330
279
102
}
330
279
100
AcDbXrecord
 10
0.0
 20
0.0
 30
0.0
  0
XRECORD
  5
295
102
{ACAD_REACTORS
330
279
102
}
330
279
100
AcDbXrecord
 10
0.0
 20
0.0
 30
0.0
  0
XRECORD
  5
296
102
{ACAD_REACTORS
330
279
102
}
330
279
100
AcDbXrecord
 10
0.0
 20
0.0
 30
0.0
  0
XRECORD
  5
293
102
{ACAD_REACTORS
330
279
102
}
330
279
100
AcDbXrecord
 10
0.0
 20
0.0
 30
0.0
  0
XRECORD
  5
290
102
{ACAD_REACTORS
330
279
102
}
330
279
100
AcDbXrecord
340
0
  0
XRECORD
  5
291
102
{ACAD_REACTORS
330
279
102
}
330
279
100
AcDbXrecord
 70
     1
  0
XRECORD
  5
285
102
{ACAD_REACTORS
330
279
102
}
330
279
100
AcDbXrecord
  1
{E1089303-386A-4B52-9DB3-3007EE1CCD5E}
  0
DICTIONARYVAR
  5
277
102
{ACAD_REACTORS
330
276
102
}
330
276
100
DictionaryVariables
280
     0
  1
1
  0
ENDSEC
  0
EOF
