  0
SECTION
  2
HEADER
  9
$ACADVER
  1
AC1015
  9
$ACADMAINTVER
 70
    13
  9
$DWGCODEPAGE
  3
ANSI_1252
  9
$INSBASE
 10
0.0
 20
0.0
 30
0.0
  9
$EXTMIN
 10
0.0000000000000017
 20
-0.0000000000000103
 30
0.0
  9
$EXTMAX
 10
240.0
 20
122.0
 30
0.0
  9
$LIMMIN
 10
0.0
 20
0.0
  9
$LIMMAX
 10
12.0
 20
9.0
  9
$ORTHOMODE
 70
     0
  9
$REGENMODE
 70
     1
  9
$FILLMODE
 70
     1
  9
$QTEXTMODE
 70
     0
  9
$MIRRTEXT
 70
     1
  9
$LTSCALE
 40
1.0
  9
$ATTMODE
 70
     1
  9
$TEXTSIZE
 40
0.2
  9
$TRACEWID
 40
0.05
  9
$TEXTSTYLE
  7
Standard
  9
$CLAYER
  8
0
  9
$CELTYPE
  6
Continuous
  9
$CECOLOR
 62
   256
  9
$CELTSCALE
 40
1.0
  9
$DISPSILH
 70
     0
  9
$DIMSCALE
 40
1.0
  9
$DIMASZ
 40
0.18
  9
$DIMEXO
 40
0.0625
  9
$DIMDLI
 40
0.38
  9
$DIMRND
 40
0.0
  9
$DIMDLE
 40
0.0
  9
$DIMEXE
 40
0.18
  9
$DIMTP
 40
0.0
  9
$DIMTM
 40
0.0
  9
$DIMTXT
 40
0.18
  9
$DIMCEN
 40
0.09
  9
$DIMTSZ
 40
0.0
  9
$DIMTOL
 70
     0
  9
$DIMLIM
 70
     0
  9
$DIMTIH
 70
     1
  9
$DIMTOH
 70
     1
  9
$DIMSE1
 70
     0
  9
$DIMSE2
 70
     0
  9
$DIMTAD
 70
     0
  9
$DIMZIN
 70
     0
  9
$DIMBLK
  1

  9
$DIMASO
 70
     1
  9
$DIMSHO
 70
     1
  9
$DIMPOST
  1

  9
$DIMAPOST
  1

  9
$DIMALT
 70
     0
  9
$DIMALTD
 70
     2
  9
$DIMALTF
 40
25.4
  9
$DIMLFAC
 40
1.0
  9
$DIMTOFL
 70
     0
  9
$DIMTVP
 40
0.0
  9
$DIMTIX
 70
     0
  9
$DIMSOXD
 70
     0
  9
$DIMSAH
 70
     0
  9
$DIMBLK1
  1

  9
$DIMBLK2
  1

  9
$DIMSTYLE
  2
Standard
  9
$DIMCLRD
 70
     0
  9
$DIMCLRE
 70
     0
  9
$DIMCLRT
 70
     0
  9
$DIMTFAC
 40
1.0
  9
$DIMGAP
 40
0.09
  9
$DIMJUST
 70
     0
  9
$DIMSD1
 70
     0
  9
$DIMSD2
 70
     0
  9
$DIMTOLJ
 70
     1
  9
$DIMTZIN
 70
     0
  9
$DIMALTZ
 70
     0
  9
$DIMALTTZ
 70
     0
  9
$DIMUPT
 70
     0
  9
$DIMDEC
 70
     4
  9
$DIMTDEC
 70
     4
  9
$DIMALTU
 70
     2
  9
$DIMALTTD
 70
     2
  9
$DIMTXSTY
  7
Standard
  9
$DIMAUNIT
 70
     0
  9
$DIMADEC
 70
     0
  9
$DIMALTRND
 40
0.0
  9
$DIMAZIN
 70
     0
  9
$DIMDSEP
 70
    46
  9
$DIMATFIT
 70
     3
  9
$DIMFRAC
 70
     0
  9
$DIMLDRBLK
  1

  9
$DIMLUNIT
 70
     2
  9
$DIMLWD
 70
    -2
  9
$DIMLWE
 70
    -2
  9
$DIMTMOVE
 70
     0
  9
$LUNITS
 70
     2
  9
$LUPREC
 70
     4
  9
$SKETCHINC
 40
0.1
  9
$FILLETRAD
 40
0.0
  9
$AUNITS
 70
     0
  9
$AUPREC
 70
     0
  9
$MENU
  1
.
  9
$ELEVATION
 40
0.0
  9
$PELEVATION
 40
0.0
  9
$THICKNESS
 40
0.0
  9
$LIMCHECK
 70
     0
  9
$CHAMFERA
 40
0.0
  9
$CHAMFERB
 40
0.0
  9
$CHAMFERC
 40
0.0
  9
$CHAMFERD
 40
0.0
  9
$SKPOLY
 70
     0
  9
$TDCREATE
 40
2454741.415497905
  9
$TDUCREATE
 40
2454741.332164571
  9
$TDUPDATE
 40
2454741.417505648
  9
$TDUUPDATE
 40
2454741.334172314
  9
$TDINDWG
 40
0.0020081019
  9
$TDUSRTIMER
 40
0.0020081019
  9
$USRTIMER
 70
     1
  9
$ANGBASE
 50
0.0
  9
$ANGDIR
 70
     0
  9
$PDMODE
 70
     0
  9
$PDSIZE
 40
0.0
  9
$PLINEWID
 40
0.0
  9
$SPLFRAME
 70
     0
  9
$SPLINETYPE
 70
     6
  9
$SPLINESEGS
 70
     8
  9
$HANDSEED
  5
365
  9
$SURFTAB1
 70
     6
  9
$SURFTAB2
 70
     6
  9
$SURFTYPE
 70
     6
  9
$SURFU
 70
     6
  9
$SURFV
 70
     6
  9
$UCSBASE
  2

  9
$UCSNAME
  2

  9
$UCSORG
 10
0.0
 20
0.0
 30
0.0
  9
$UCSXDIR
 10
1.0
 20
0.0
 30
0.0
  9
$UCSYDIR
 10
0.0
 20
1.0
 30
0.0
  9
$UCSORTHOREF
  2

  9
$UCSORTHOVIEW
 70
     1
  9
$UCSORGTOP
 10
0.0
 20
0.0
 30
0.0
  9
$UCSORGBOTTOM
 10
0.0
 20
0.0
 30
0.0
  9
$UCSORGLEFT
 10
0.0
 20
0.0
 30
0.0
  9
$UCSORGRIGHT
 10
0.0
 20
0.0
 30
0.0
  9
$UCSORGFRONT
 10
0.0
 20
0.0
 30
0.0
  9
$UCSORGBACK
 10
0.0
 20
0.0
 30
0.0
  9
$PUCSBASE
  2

  9
$PUCSNAME
  2

  9
$PUCSORG
 10
0.0
 20
0.0
 30
0.0
  9
$PUCSXDIR
 10
1.0
 20
0.0
 30
0.0
  9
$PUCSYDIR
 10
0.0
 20
1.0
 30
0.0
  9
$PUCSORTHOREF
  2

  9
$PUCSORTHOVIEW
 70
     0
  9
$PUCSORGTOP
 10
0.0
 20
0.0
 30
0.0
  9
$PUCSORGBOTTOM
 10
0.0
 20
0.0
 30
0.0
  9
$PUCSORGLEFT
 10
0.0
 20
0.0
 30
0.0
  9
$PUCSORGRIGHT
 10
0.0
 20
0.0
 30
0.0
  9
$PUCSORGFRONT
 10
0.0
 20
0.0
 30
0.0
  9
$PUCSORGBACK
 10
0.0
 20
0.0
 30
0.0
  9
$USERI1
 70
     0
  9
$USERI2
 70
     0
  9
$USERI3
 70
     0
  9
$USERI4
 70
     0
  9
$USERI5
 70
     0
  9
$USERR1
 40
0.0
  9
$USERR2
 40
0.0
  9
$USERR3
 40
0.0
  9
$USERR4
 40
0.0
  9
$USERR5
 40
0.0
  9
$WORLDVIEW
 70
     1
  9
$SHADEDGE
 70
     3
  9
$SHADEDIF
 70
    70
  9
$TILEMODE
 70
     1
  9
$MAXACTVP
 70
    64
  9
$PINSBASE
 10
0.0
 20
0.0
 30
0.0
  9
$PLIMCHECK
 70
     0
  9
$PEXTMIN
 10
1.000000000000000E+20
 20
1.000000000000000E+20
 30
1.000000000000000E+20
  9
$PEXTMAX
 10
-1.000000000000000E+20
 20
-1.000000000000000E+20
 30
-1.000000000000000E+20
  9
$PLIMMIN
 10
0.0
 20
0.0
  9
$PLIMMAX
 10
12.0
 20
9.0
  9
$UNITMODE
 70
     0
  9
$VISRETAIN
 70
     1
  9
$PLINEGEN
 70
     0
  9
$PSLTSCALE
 70
     1
  9
$TREEDEPTH
 70
  3020
  9
$CMLSTYLE
  2
Standard
  9
$CMLJUST
 70
     0
  9
$CMLSCALE
 40
1.0
  9
$PROXYGRAPHICS
 70
     1
  9
$MEASUREMENT
 70
     0
  9
$CELWEIGHT
370
    -1
  9
$ENDCAPS
280
     0
  9
$JOINSTYLE
280
     0
  9
$LWDISPLAY
290
     0
  9
$INSUNITS
 70
     0
  9
$HYPERLINKBASE
  1

  9
$STYLESHEET
  1

  9
$XEDIT
290
     1
  9
$CEPSNTYPE
380
     0
  9
$PSTYLEMODE
290
     1
  9
$FINGERPRINTGUID
  2
{679900E7-B211-4998-8688-3E73DED8E1A0}
  9
$VERSIONGUID
  2
{66421F4A-0F6C-4C0A-9873-253DDD23385C}
  9
$EXTNAMES
290
     1
  9
$PSVPSCALE
 40
0.0
  9
$OLESTARTUP
290
     0
  0
ENDSEC
  0
SECTION
  2
CLASSES
  0
CLASS
  1
ACDBDICTIONARYWDFLT
  2
AcDbDictionaryWithDefault
  3
AutoCAD 2000
 90
        0
280
     0
281
     0
  0
CLASS
  1
ACDBPLACEHOLDER
  2
AcDbPlaceHolder
  3
AutoCAD 2000
 90
        0
280
     0
281
     0
  0
CLASS
  1
LAYOUT
  2
AcDbLayout
  3
AutoCAD 2000
 90
        0
280
     0
281
     0
  0
CLASS
  1
DICTIONARYVAR
  2
AcDbDictionaryVar
  3
AutoCAD 2000
 90
        0
280
     0
281
     0
  0
ENDSEC
  0
SECTION
  2
TABLES
  0
TABLE
  2
VPORT
  5
8
330
0
100
AcDbSymbolTable
 70
     2
  0
VPORT
  5
364
330
8
100
AcDbSymbolTableRecord
100
AcDbViewportTableRecord
  2
*Active
 70
     0
 10
0.0
 20
0.0
 11
1.0
 21
1.0
 12
120.0
 22
61.0
 13
0.0
 23
0.0
 14
1.0
 24
1.0
 15
0.0
 25
0.0
 16
0.0
 26
0.0
 36
1.0
 17
0.0
 27
0.0
 37
0.0
 40
122.9360613810741
 41
2.078104993597951
 42
50.0
 43
0.0
 44
0.0
 50
0.0
 51
0.0
 71
     0
 72
   100
 73
     1
 74
     3
 75
     0
 76
     0
 77
     0
 78
     0
281
     0
 65
     1
110
0.0
120
0.0
130
0.0
111
1.0
121
0.0
131
0.0
112
0.0
122
1.0
132
0.0
 79
     1
146
0.0
  0
ENDTAB
  0
TABLE
  2
LTYPE
  5
5
330
0
100
AcDbSymbolTable
 70
     1
  0
LTYPE
  5
13
330
5
100
AcDbSymbolTableRecord
100
AcDbLinetypeTableRecord
  2
ByBlock
 70
     0
  3

 72
    65
 73
     0
 40
0.0
  0
LTYPE
  5
14
330
5
100
AcDbSymbolTableRecord
100
AcDbLinetypeTableRecord
  2
ByLayer
 70
     0
  3

 72
    65
 73
     0
 40
0.0
  0
LTYPE
  5
15
330
5
100
AcDbSymbolTableRecord
100
AcDbLinetypeTableRecord
  2
Continuous
 70
     0
  3
Solid line
 72
    65
 73
     0
 40
0.0
  0
ENDTAB
  0
TABLE
  2
LAYER
  5
2
330
0
100
AcDbSymbolTable
 70
     1
  0
LAYER
  5
10
330
2
100
AcDbSymbolTableRecord
100
AcDbLayerTableRecord
  2
0
 70
     0
 62
     7
  6
Continuous
370
    -3
390
F
  0
ENDTAB
  0
TABLE
  2
STYLE
  5
3
330
0
100
AcDbSymbolTable
 70
     1
  0
STYLE
  5
11
330
3
100
AcDbSymbolTableRecord
100
AcDbTextStyleTableRecord
  2
Standard
 70
     0
 40
0.0
 41
1.0
 50
0.0
 71
     0
 42
0.2
  3
txt
  4

  0
ENDTAB
  0
TABLE
  2
VIEW
  5
6
330
0
100
AcDbSymbolTable
 70
     0
  0
ENDTAB
  0
TABLE
  2
UCS
  5
7
330
0
100
AcDbSymbolTable
 70
     0
  0
ENDTAB
  0
TABLE
  2
APPID
  5
9
330
0
100
AcDbSymbolTable
 70
     1
  0
APPID
  5
12
330
9
100
AcDbSymbolTableRecord
100
AcDbRegAppTableRecord
  2
ACAD
 70
     0
  0
ENDTAB
  0
TABLE
  2
DIMSTYLE
  5
A
330
0
100
AcDbSymbolTable
 70
     1
100
AcDbDimStyleTable
 71
     0
  0
DIMSTYLE
105
35E
330
A
100
AcDbSymbolTableRecord
100
AcDbDimStyleTableRecord
  2
Standard
 70
     0
340
11
  0
ENDTAB
  0
TABLE
  2
BLOCK_RECORD
  5
1
330
0
100
AcDbSymbolTable
 70
     0
  0
BLOCK_RECORD
  5
1E
330
1
100
AcDbSymbolTableRecord
100
AcDbBlockTableRecord
  2
*Model_Space
340
21
  0
BLOCK_RECORD
  5
1A
330
1
100
AcDbSymbolTableRecord
100
AcDbBlockTableRecord
  2
*Paper_Space
340
1D
  0
ENDTAB
  0
ENDSEC
  0
SECTION
  2
BLOCKS
  0
BLOCK
  5
1F
330
1E
100
AcDbEntity
  8
0
100
AcDbBlockBegin
  2
*Model_Space
 70
     0
 10
0.0
 20
0.0
 30
0.0
  3
*Model_Space
  1

  0
ENDBLK
  5
20
330
1E
100
AcDbEntity
  8
0
100
AcDbBlockEnd
  0
BLOCK
  5
1B
330
1A
100
AcDbEntity
 67
     1
  8
0
100
AcDbBlockBegin
  2
*Paper_Space
 70
     0
 10
0.0
 20
0.0
 30
0.0
  3
*Paper_Space
  1

  0
ENDBLK
  5
1C
330
1A
100
AcDbEntity
 67
     1
  8
0
100
AcDbBlockEnd
  0
ENDSEC
  0
SECTION
  2
ENTITIES
  0
LINE
  5
22
330
1E
100
AcDbEntity
  8
0
100
AcDbLine
 10
71.634
 20
-0.0000000000000006
 30
0.0
 11
71.634
 21
2.0
 31
0.0
  0
LINE
  5
23
330
1E
100
AcDbEntity
  8
0
100
AcDbLine
 10
71.634
 20
-0.0000000000000006
 30
0.0
 11
73.366
 21
-0.0000000000000007
 31
0.0
  0
LINE
  5
24
330
1E
100
AcDbEntity
  8
0
100
AcDbLine
 10
71.634
 20
-0.0000000000000006
 30
0.0
 11
72.634
 21
-0.0000000000000006
 31
0.0
  0
LINE
  5
25
330
1E
100
AcDbEntity
  8
0
100
AcDbLine
 10
66.866
 20
-0.0000000000000003
 30
0.0
 11
66.866
 21
2.0
 31
0.0
  0
LINE
  5
26
330
1E
100
AcDbEntity
  8
0
100
AcDbLine
 10
70.0
 20
-0.0000000000000005
 30
0.0
 11
70.0
 21
2.0
 31
0.0
  0
LINE
  5
27
330
1E
100
AcDbEntity
  8
0
100
AcDbLine
 10
70.0
 20
-0.0000000000000005
 30
0.0
 11
71.9625
 21
-0.0000000000000006
 31
0.0
  0
LINE
  5
28
330
1E
100
AcDbEntity
  8
0
100
AcDbLine
 10
71.44490000000001
 20
-0.0000000000000006
 30
0.0
 11
71.9625
 21
-0.0000000000000006
 31
0.0
  0
LINE
  5
29
330
1E
100
AcDbEntity
  8
0
100
AcDbLine
 10
71.44490000000001
 20
-0.0000000000000006
 30
0.0
 11
71.44490000000001
 21
2.0
 31
0.0
  0
LINE
  5
2A
330
1E
100
AcDbEntity
  8
0
100
AcDbLine
 10
71.9625
 20
-0.0000000000000006
 30
0.0
 11
72.634
 21
-0.0000000000000006
 31
0.0
  0
LINE
  5
2B
330
1E
100
AcDbEntity
  8
0
100
AcDbLine
 10
72.634
 20
-0.0000000000000006
 30
0.0
 11
73.366
 21
-0.0000000000000007
 31
0.0
  0
LINE
  5
2C
330
1E
100
AcDbEntity
  8
0
100
AcDbLine
 10
80.134
 20
-0.0000000000000011
 30
0.0
 11
80.866
 21
-0.0000000000000011
 31
0.0
  0
LINE
  5
2D
330
1E
100
AcDbEntity
  8
0
100
AcDbLine
 10
87.634
 20
-0.0000000000000016
 30
0.0
 11
88.366
 21
-0.0000000000000016
 31
0.0
  0
LINE
  5
2E
330
1E
100
AcDbEntity
  8
0
100
AcDbLine
 10
89.366
 20
-0.0000000000000017
 30
0.0
 11
89.366
 21
2.0
 31
0.0
  0
LINE
  5
2F
330
1E
100
AcDbEntity
  8
0
100
AcDbLine
 10
90.564
 20
-0.0000000000000017
 30
0.0
 11
90.564
 21
2.0
 31
0.0
  0
LINE
  5
30
330
1E
100
AcDbEntity
  8
0
100
AcDbLine
 10
90.564
 20
-0.0000000000000017
 30
0.0
 11
92.49579999999999
 21
-0.0000000000000019
 31
0.0
  0
LINE
  5
31
330
1E
100
AcDbEntity
  8
0
100
AcDbLine
 10
90.92119999999999
 20
-0.0000000000000018
 30
0.0
 11
91.9212
 21
-0.0000000000000018
 31
0.0
  0
LINE
  5
32
330
1E
100
AcDbEntity
  8
0
100
AcDbLine
 10
90.18909999999999
 20
-0.0000000000000017
 30
0.0
 11
90.18909999999999
 21
2.0
 31
0.0
  0
LINE
  5
33
330
1E
100
AcDbEntity
  8
0
100
AcDbLine
 10
90.18909999999999
 20
-0.0000000000000017
 30
0.0
 11
91.9212
 21
-0.0000000000000018
 31
0.0
  0
LINE
  5
34
330
1E
100
AcDbEntity
  8
0
100
AcDbLine
 10
89.366
 20
-0.0000000000000017
 30
0.0
 11
90.18909999999999
 21
-0.0000000000000017
 31
0.0
  0
LINE
  5
35
330
1E
100
AcDbEntity
  8
0
100
AcDbLine
 10
88.366
 20
-0.0000000000000016
 30
0.0
 11
89.366
 21
-0.0000000000000017
 31
0.0
  0
LINE
  5
36
330
1E
100
AcDbEntity
  8
0
100
AcDbLine
 10
88.366
 20
-0.0000000000000016
 30
0.0
 11
88.366
 21
2.0
 31
0.0
  0
LINE
  5
37
330
1E
100
AcDbEntity
  8
0
100
AcDbLine
 10
81.866
 20
-0.0000000000000012
 30
0.0
 11
81.866
 21
2.0
 31
0.0
  0
LINE
  5
38
330
1E
100
AcDbEntity
  8
0
100
AcDbLine
 10
85.93380000000001
 20
-0.0000000000000015
 30
0.0
 11
86.45140000000001
 21
-0.0000000000000015
 31
0.0
  0
LINE
  5
39
330
1E
100
AcDbEntity
  8
0
100
AcDbLine
 10
86.63400000000001
 20
-0.0000000000000015
 30
0.0
 11
86.63400000000001
 21
2.0
 31
0.0
  0
LINE
  5
3A
330
1E
100
AcDbEntity
  8
0
100
AcDbLine
 10
86.63400000000001
 20
-0.0000000000000015
 30
0.0
 11
88.366
 21
-0.0000000000000016
 31
0.0
  0
LINE
  5
3B
330
1E
100
AcDbEntity
  8
0
100
AcDbLine
 10
86.63400000000001
 20
-0.0000000000000015
 30
0.0
 11
87.634
 21
-0.0000000000000016
 31
0.0
  0
LINE
  5
3C
330
1E
100
AcDbEntity
  8
0
100
AcDbLine
 10
86.766
 20
-0.0000000000000015
 30
0.0
 11
87.0
 21
-0.0000000000000015
 31
0.0
  0
LINE
  5
3D
330
1E
100
AcDbEntity
  8
0
100
AcDbLine
 10
86.45140000000001
 20
-0.0000000000000015
 30
0.0
 11
86.63400000000001
 21
-0.0000000000000015
 31
0.0
  0
LINE
  5
3E
330
1E
100
AcDbEntity
  8
0
100
AcDbLine
 10
85.3518
 20
-0.0000000000000014
 30
0.0
 11
85.93380000000001
 21
-0.0000000000000015
 31
0.0
  0
LINE
  5
3F
330
1E
100
AcDbEntity
  8
0
100
AcDbLine
 10
85.3518
 20
-0.0000000000000014
 30
0.0
 11
85.3518
 21
2.0
 31
0.0
  0
LINE
  5
40
330
1E
100
AcDbEntity
  8
0
100
AcDbLine
 10
85.3518
 20
-0.0000000000000014
 30
0.0
 11
86.63400000000001
 21
-0.0000000000000015
 31
0.0
  0
LINE
  5
41
330
1E
100
AcDbEntity
  8
0
100
AcDbLine
 10
83.9376
 20
-0.0000000000000013
 30
0.0
 11
83.9376
 21
2.0
 31
0.0
  0
LINE
  5
42
330
1E
100
AcDbEntity
  8
0
100
AcDbLine
 10
83.9376
 20
-0.0000000000000013
 30
0.0
 11
85.3518
 21
-0.0000000000000014
 31
0.0
  0
LINE
  5
43
330
1E
100
AcDbEntity
  8
0
100
AcDbLine
 10
87.0
 20
-0.0000000000000015
 30
0.0
 11
87.634
 21
-0.0000000000000016
 31
0.0
  0
LINE
  5
44
330
1E
100
AcDbEntity
  8
0
100
AcDbLine
 10
80.866
 20
-0.0000000000000011
 30
0.0
 11
81.866
 21
-0.0000000000000012
 31
0.0
  0
LINE
  5
45
330
1E
100
AcDbEntity
  8
0
100
AcDbLine
 10
80.866
 20
-0.0000000000000011
 30
0.0
 11
80.866
 21
2.0
 31
0.0
  0
LINE
  5
46
330
1E
100
AcDbEntity
  8
0
100
AcDbLine
 10
76.15940000000001
 20
-0.0000000000000009
 30
0.0
 11
76.15940000000001
 21
2.0
 31
0.0
  0
LINE
  5
47
330
1E
100
AcDbEntity
  8
0
100
AcDbLine
 10
74.7452
 20
-0.0000000000000008
 30
0.0
 11
74.7452
 21
2.0
 31
0.0
  0
LINE
  5
48
330
1E
100
AcDbEntity
  8
0
100
AcDbLine
 10
74.7452
 20
-0.0000000000000008
 30
0.0
 11
76.15940000000001
 21
-0.0000000000000009
 31
0.0
  0
LINE
  5
49
330
1E
100
AcDbEntity
  8
0
100
AcDbLine
 10
74.366
 20
-0.0000000000000007
 30
0.0
 11
74.7452
 21
-0.0000000000000008
 31
0.0
  0
LINE
  5
4A
330
1E
100
AcDbEntity
  8
0
100
AcDbLine
 10
74.366
 20
-0.0000000000000007
 30
0.0
 11
74.366
 21
2.0
 31
0.0
  0
LINE
  5
4B
330
1E
100
AcDbEntity
  8
0
100
AcDbLine
 10
78.93080000000001
 20
-0.000000000000001
 30
0.0
 11
78.93080000000001
 21
2.0
 31
0.0
  0
LINE
  5
4C
330
1E
100
AcDbEntity
  8
0
100
AcDbLine
 10
77.1987
 20
-0.0000000000000009
 30
0.0
 11
77.1987
 21
2.0
 31
0.0
  0
LINE
  5
4D
330
1E
100
AcDbEntity
  8
0
100
AcDbLine
 10
77.1987
 20
-0.0000000000000009
 30
0.0
 11
78.93080000000001
 21
-0.000000000000001
 31
0.0
  0
LINE
  5
4E
330
1E
100
AcDbEntity
  8
0
100
AcDbLine
 10
77.9308
 20
-0.000000000000001
 30
0.0
 11
78.93080000000001
 21
-0.000000000000001
 31
0.0
  0
LINE
  5
4F
330
1E
100
AcDbEntity
  8
0
100
AcDbLine
 10
76.1987
 20
-0.0000000000000009
 30
0.0
 11
76.1987
 21
2.0
 31
0.0
  0
LINE
  5
50
330
1E
100
AcDbEntity
  8
0
100
AcDbLine
 10
76.1987
 20
-0.0000000000000009
 30
0.0
 11
77.9308
 21
-0.000000000000001
 31
0.0
  0
LINE
  5
51
330
1E
100
AcDbEntity
  8
0
100
AcDbLine
 10
76.1987
 20
-0.0000000000000009
 30
0.0
 11
77.1987
 21
-0.0000000000000009
 31
0.0
  0
LINE
  5
52
330
1E
100
AcDbEntity
  8
0
100
AcDbLine
 10
79.134
 20
-0.000000000000001
 30
0.0
 11
80.134
 21
-0.0000000000000011
 31
0.0
  0
LINE
  5
53
330
1E
100
AcDbEntity
  8
0
100
AcDbLine
 10
79.134
 20
-0.000000000000001
 30
0.0
 11
79.134
 21
2.0
 31
0.0
  0
LINE
  5
54
330
1E
100
AcDbEntity
  8
0
100
AcDbLine
 10
79.134
 20
-0.000000000000001
 30
0.0
 11
80.866
 21
-0.0000000000000011
 31
0.0
  0
LINE
  5
55
330
1E
100
AcDbEntity
  8
0
100
AcDbLine
 10
73.366
 20
-0.0000000000000007
 30
0.0
 11
74.366
 21
-0.0000000000000007
 31
0.0
  0
LINE
  5
56
330
1E
100
AcDbEntity
  8
0
100
AcDbLine
 10
73.366
 20
-0.0000000000000007
 30
0.0
 11
73.366
 21
2.0
 31
0.0
  0
LINE
  5
57
330
1E
100
AcDbEntity
  8
0
100
AcDbLine
 10
13.4893
 20
0.000000000000003
 30
0.0
 11
13.4893
 21
2.0
 31
0.0
  0
LINE
  5
58
330
1E
100
AcDbEntity
  8
0
100
AcDbLine
 10
15.9388
 20
0.0000000000000028
 30
0.0
 11
15.9388
 21
2.0
 31
0.0
  0
LINE
  5
59
330
1E
100
AcDbEntity
  8
0
100
AcDbLine
 10
15.4212
 20
0.0000000000000029
 30
0.0
 11
15.9388
 21
0.0000000000000028
 31
0.0
  0
LINE
  5
5A
330
1E
100
AcDbEntity
  8
0
100
AcDbLine
 10
14.007
 20
0.000000000000003
 30
0.0
 11
15.4212
 21
0.0000000000000029
 31
0.0
  0
LINE
  5
5B
330
1E
100
AcDbEntity
  8
0
100
AcDbLine
 10
14.007
 20
0.000000000000003
 30
0.0
 11
14.007
 21
2.0
 31
0.0
  0
LINE
  5
5C
330
1E
100
AcDbEntity
  8
0
100
AcDbLine
 10
14.007
 20
0.000000000000003
 30
0.0
 11
15.9388
 21
0.0000000000000028
 31
0.0
  0
LINE
  5
5D
330
1E
100
AcDbEntity
  8
0
100
AcDbLine
 10
10.0
 20
0.0000000000000034
 30
0.0
 11
10.0
 21
2.0
 31
0.0
  0
LINE
  5
5E
330
1E
100
AcDbEntity
  8
0
100
AcDbLine
 10
12.0
 20
0.0000000000000031
 30
0.0
 11
12.0
 21
2.0
 31
0.0
  0
LINE
  5
5F
330
1E
100
AcDbEntity
  8
0
100
AcDbLine
 10
10.0
 20
0.0000000000000032
 30
0.0
 11
10.0
 21
2.0
 31
0.0
  0
LINE
  5
60
330
1E
100
AcDbEntity
  8
0
100
AcDbLine
 10
10.0
 20
0.0000000000000032
 30
0.0
 11
12.0
 21
0.0000000000000031
 31
0.0
  0
LINE
  5
61
330
1E
100
AcDbEntity
  8
0
100
AcDbLine
 10
13.4893
 20
0.000000000000003
 30
0.0
 11
14.007
 21
0.000000000000003
 31
0.0
  0
LINE
  5
62
330
1E
100
AcDbEntity
  8
0
100
AcDbLine
 10
13.4893
 20
0.000000000000003
 30
0.0
 11
13.4893
 21
2.0
 31
0.0
  0
LINE
  5
63
330
1E
100
AcDbEntity
  8
0
100
AcDbLine
 10
44.33959999999999
 20
0.0000000000000011
 30
0.0
 11
44.33959999999999
 21
2.0
 31
0.0
  0
LINE
  5
64
330
1E
100
AcDbEntity
  8
0
100
AcDbLine
 10
44.9166
 20
0.0000000000000011
 30
0.0
 11
44.9166
 21
2.0
 31
0.0
  0
LINE
  5
65
330
1E
100
AcDbEntity
  8
0
100
AcDbLine
 10
44.39899999999999
 20
0.0000000000000011
 30
0.0
 11
44.9166
 21
0.0000000000000011
 31
0.0
  0
LINE
  5
66
330
1E
100
AcDbEntity
  8
0
100
AcDbLine
 10
42.9254
 20
0.0000000000000012
 30
0.0
 11
42.9254
 21
2.0
 31
0.0
  0
LINE
  5
67
330
1E
100
AcDbEntity
  8
0
100
AcDbLine
 10
42.9254
 20
0.0000000000000012
 30
0.0
 11
44.33959999999999
 21
0.0000000000000011
 31
0.0
  0
LINE
  5
68
330
1E
100
AcDbEntity
  8
0
100
AcDbLine
 10
42.9848
 20
0.0000000000000012
 30
0.0
 11
44.39899999999999
 21
0.0000000000000011
 31
0.0
  0
LINE
  5
69
330
1E
100
AcDbEntity
  8
0
100
AcDbLine
 10
42.9848
 20
0.0000000000000012
 30
0.0
 11
44.9166
 21
0.0000000000000011
 31
0.0
  0
LINE
  5
6A
330
1E
100
AcDbEntity
  8
0
100
AcDbLine
 10
42.4671
 20
0.0000000000000012
 30
0.0
 11
42.9848
 21
0.0000000000000012
 31
0.0
  0
LINE
  5
6B
330
1E
100
AcDbEntity
  8
0
100
AcDbLine
 10
50.218
 20
0.0000000000000008
 30
0.0
 11
50.218
 21
2.0
 31
0.0
  0
LINE
  5
6C
330
1E
100
AcDbEntity
  8
0
100
AcDbLine
 10
59.4055
 20
0.0000000000000002
 30
0.0
 11
59.4055
 21
2.0
 31
0.0
  0
LINE
  5
6D
330
1E
100
AcDbEntity
  8
0
100
AcDbLine
 10
57.4736
 20
0.0000000000000003
 30
0.0
 11
57.4736
 21
2.0
 31
0.0
  0
LINE
  5
6E
330
1E
100
AcDbEntity
  8
0
100
AcDbLine
 10
57.4736
 20
0.0000000000000003
 30
0.0
 11
59.4055
 21
0.0000000000000002
 31
0.0
  0
LINE
  5
6F
330
1E
100
AcDbEntity
  8
0
100
AcDbLine
 10
54.9462
 20
0.0000000000000004
 30
0.0
 11
54.9462
 21
2.0
 31
0.0
  0
LINE
  5
70
330
1E
100
AcDbEntity
  8
0
100
AcDbLine
 10
52.1177
 20
0.0000000000000006
 30
0.0
 11
52.1177
 21
2.0
 31
0.0
  0
LINE
  5
71
330
1E
100
AcDbEntity
  8
0
100
AcDbLine
 10
52.1177
 20
0.0000000000000006
 30
0.0
 11
53.532
 21
0.0000000000000005
 31
0.0
  0
LINE
  5
72
330
1E
100
AcDbEntity
  8
0
100
AcDbLine
 10
53.532
 20
0.0000000000000005
 30
0.0
 11
53.532
 21
2.0
 31
0.0
  0
LINE
  5
73
330
1E
100
AcDbEntity
  8
0
100
AcDbLine
 10
53.532
 20
0.0000000000000005
 30
0.0
 11
54.9462
 21
0.0000000000000004
 31
0.0
  0
LINE
  5
74
330
1E
100
AcDbEntity
  8
0
100
AcDbLine
 10
55.0
 20
0.0000000000000004
 30
0.0
 11
55.0
 21
2.0
 31
0.0
  0
LINE
  5
75
330
1E
100
AcDbEntity
  8
0
100
AcDbLine
 10
55.0
 20
0.0000000000000004
 30
0.0
 11
56.956
 21
0.0000000000000003
 31
0.0
  0
LINE
  5
76
330
1E
100
AcDbEntity
  8
0
100
AcDbLine
 10
56.956
 20
0.0000000000000003
 30
0.0
 11
57.4736
 21
0.0000000000000003
 31
0.0
  0
LINE
  5
77
330
1E
100
AcDbEntity
  8
0
100
AcDbLine
 10
56.956
 20
0.0000000000000003
 30
0.0
 11
57.4736
 21
0.0000000000000003
 31
0.0
  0
LINE
  5
78
330
1E
100
AcDbEntity
  8
0
100
AcDbLine
 10
56.956
 20
0.0000000000000003
 30
0.0
 11
56.956
 21
2.0
 31
0.0
  0
LINE
  5
79
330
1E
100
AcDbEntity
  8
0
100
AcDbLine
 10
64.13859999999999
 20
-0.0000000000000001
 30
0.0
 11
64.2084
 21
-0.0000000000000001
 31
0.0
  0
LINE
  5
7A
330
1E
100
AcDbEntity
  8
0
100
AcDbLine
 10
65.134
 20
-0.0000000000000002
 30
0.0
 11
65.866
 21
-0.0000000000000002
 31
0.0
  0
LINE
  5
7B
330
1E
100
AcDbEntity
  8
0
100
AcDbLine
 10
65.134
 20
-0.0000000000000002
 30
0.0
 11
65.866
 21
-0.0000000000000002
 31
0.0
  0
LINE
  5
7C
330
1E
100
AcDbEntity
  8
0
100
AcDbLine
 10
64.2084
 20
-0.0000000000000001
 30
0.0
 11
65.866
 21
-0.0000000000000002
 31
0.0
  0
LINE
  5
7D
330
1E
100
AcDbEntity
  8
0
100
AcDbLine
 10
64.134
 20
-0.0000000000000001
 30
0.0
 11
64.134
 21
2.0
 31
0.0
  0
LINE
  5
7E
330
1E
100
AcDbEntity
  8
0
100
AcDbLine
 10
64.134
 20
-0.0000000000000001
 30
0.0
 11
65.866
 21
-0.0000000000000002
 31
0.0
  0
LINE
  5
7F
330
1E
100
AcDbEntity
  8
0
100
AcDbLine
 10
64.134
 20
-0.0000000000000001
 30
0.0
 11
65.134
 21
-0.0000000000000002
 31
0.0
  0
LINE
  5
80
330
1E
100
AcDbEntity
  8
0
100
AcDbLine
 10
64.13859999999999
 20
-0.0000000000000001
 30
0.0
 11
65.134
 21
-0.0000000000000002
 31
0.0
  0
LINE
  5
81
330
1E
100
AcDbEntity
  8
0
100
AcDbLine
 10
64.13859999999999
 20
-0.0000000000000001
 30
0.0
 11
64.2084
 21
-0.0000000000000001
 31
0.0
  0
LINE
  5
82
330
1E
100
AcDbEntity
  8
0
100
AcDbLine
 10
62.72429999999999
 20
0.0
 30
0.0
 11
62.72429999999999
 21
2.0
 31
0.0
  0
LINE
  5
83
330
1E
100
AcDbEntity
  8
0
100
AcDbLine
 10
62.72429999999999
 20
0.0
 30
0.0
 11
64.13859999999999
 21
-0.0000000000000001
 31
0.0
  0
LINE
  5
84
330
1E
100
AcDbEntity
  8
0
100
AcDbLine
 10
51.218
 20
0.0000000000000007
 30
0.0
 11
51.218
 21
2.0
 31
0.0
  0
LINE
  5
85
330
1E
100
AcDbEntity
  8
0
100
AcDbLine
 10
51.218
 20
0.0000000000000007
 30
0.0
 11
52.1177
 21
0.0000000000000006
 31
0.0
  0
LINE
  5
86
330
1E
100
AcDbEntity
  8
0
100
AcDbLine
 10
51.95
 20
0.0000000000000006
 30
0.0
 11
52.1177
 21
0.0000000000000006
 31
0.0
  0
LINE
  5
87
330
1E
100
AcDbEntity
  8
0
100
AcDbLine
 10
51.95
 20
0.0000000000000006
 30
0.0
 11
52.1177
 21
0.0000000000000006
 31
0.0
  0
LINE
  5
88
330
1E
100
AcDbEntity
  8
0
100
AcDbLine
 10
50.218
 20
0.0000000000000007
 30
0.0
 11
50.218
 21
2.0
 31
0.0
  0
LINE
  5
89
330
1E
100
AcDbEntity
  8
0
100
AcDbLine
 10
50.218
 20
0.0000000000000007
 30
0.0
 11
51.95
 21
0.0000000000000006
 31
0.0
  0
LINE
  5
8A
330
1E
100
AcDbEntity
  8
0
100
AcDbLine
 10
50.218
 20
0.0000000000000007
 30
0.0
 11
51.218
 21
0.0000000000000007
 31
0.0
  0
LINE
  5
8B
330
1E
100
AcDbEntity
  8
0
100
AcDbLine
 10
26.9693
 20
0.0000000000000022
 30
0.0
 11
26.9693
 21
2.0
 31
0.0
  0
LINE
  5
8C
330
1E
100
AcDbEntity
  8
0
100
AcDbLine
 10
25.2372
 20
0.0000000000000021
 30
0.0
 11
25.2372
 21
2.0
 31
0.0
  0
LINE
  5
8D
330
1E
100
AcDbEntity
  8
0
100
AcDbLine
 10
27.0
 20
0.0000000000000022
 30
0.0
 11
27.0
 21
2.0
 31
0.0
  0
LINE
  5
8E
330
1E
100
AcDbEntity
  8
0
100
AcDbLine
 10
25.9693
 20
0.0000000000000022
 30
0.0
 11
26.9693
 21
0.0000000000000022
 31
0.0
  0
LINE
  5
8F
330
1E
100
AcDbEntity
  8
0
100
AcDbLine
 10
25.2372
 20
0.0000000000000023
 30
0.0
 11
25.2372
 21
2.0
 31
0.0
  0
LINE
  5
90
330
1E
100
AcDbEntity
  8
0
100
AcDbLine
 10
25.2372
 20
0.0000000000000023
 30
0.0
 11
26.9693
 21
0.0000000000000022
 31
0.0
  0
LINE
  5
91
330
1E
100
AcDbEntity
  8
0
100
AcDbLine
 10
30.4277
 20
0.0000000000000019
 30
0.0
 11
30.4277
 21
2.0
 31
0.0
  0
LINE
  5
92
330
1E
100
AcDbEntity
  8
0
100
AcDbLine
 10
39.9596
 20
0.0000000000000014
 30
0.0
 11
39.9596
 21
2.0
 31
0.0
  0
LINE
  5
93
330
1E
100
AcDbEntity
  8
0
100
AcDbLine
 10
41.5111
 20
0.0000000000000013
 30
0.0
 11
41.5111
 21
2.0
 31
0.0
  0
LINE
  5
94
330
1E
100
AcDbEntity
  8
0
100
AcDbLine
 10
41.5111
 20
0.0000000000000013
 30
0.0
 11
42.9254
 21
0.0000000000000012
 31
0.0
  0
LINE
  5
95
330
1E
100
AcDbEntity
  8
0
100
AcDbLine
 10
40.0
 20
0.0000000000000014
 30
0.0
 11
40.0
 21
2.0
 31
0.0
  0
LINE
  5
96
330
1E
100
AcDbEntity
  8
0
100
AcDbLine
 10
40.0
 20
0.0000000000000014
 30
0.0
 11
42.0
 21
0.0000000000000012
 31
0.0
  0
LINE
  5
97
330
1E
100
AcDbEntity
  8
0
100
AcDbLine
 10
38.2276
 20
0.0000000000000015
 30
0.0
 11
39.9596
 21
0.0000000000000014
 31
0.0
  0
LINE
  5
98
330
1E
100
AcDbEntity
  8
0
100
AcDbLine
 10
38.2276
 20
0.0000000000000015
 30
0.0
 11
38.2276
 21
2.0
 31
0.0
  0
LINE
  5
99
330
1E
100
AcDbEntity
  8
0
100
AcDbLine
 10
37.2276
 20
0.0000000000000015
 30
0.0
 11
37.2276
 21
2.0
 31
0.0
  0
LINE
  5
9A
330
1E
100
AcDbEntity
  8
0
100
AcDbLine
 10
37.2276
 20
0.0000000000000015
 30
0.0
 11
38.2276
 21
0.0000000000000015
 31
0.0
  0
LINE
  5
9B
330
1E
100
AcDbEntity
  8
0
100
AcDbLine
 10
37.2276
 20
0.0000000000000015
 30
0.0
 11
38.2276
 21
0.0000000000000015
 31
0.0
  0
LINE
  5
9C
330
1E
100
AcDbEntity
  8
0
100
AcDbLine
 10
28.4959
 20
0.0000000000000021
 30
0.0
 11
30.4277
 21
0.0000000000000019
 31
0.0
  0
LINE
  5
9D
330
1E
100
AcDbEntity
  8
0
100
AcDbLine
 10
28.4959
 20
0.0000000000000021
 30
0.0
 11
28.4959
 21
2.0
 31
0.0
  0
LINE
  5
9E
330
1E
100
AcDbEntity
  8
0
100
AcDbLine
 10
27.9782
 20
0.0000000000000021
 30
0.0
 11
27.9782
 21
2.0
 31
0.0
  0
LINE
  5
9F
330
1E
100
AcDbEntity
  8
0
100
AcDbLine
 10
27.9782
 20
0.0000000000000021
 30
0.0
 11
28.4959
 21
0.0000000000000021
 31
0.0
  0
LINE
  5
A0
330
1E
100
AcDbEntity
  8
0
100
AcDbLine
 10
27.9782
 20
0.0000000000000021
 30
0.0
 11
28.4959
 21
0.0000000000000021
 31
0.0
  0
LINE
  5
A1
330
1E
100
AcDbEntity
  8
0
100
AcDbLine
 10
42.0
 20
0.0000000000000012
 30
0.0
 11
42.4671
 21
0.0000000000000012
 31
0.0
  0
LINE
  5
A2
330
1E
100
AcDbEntity
  8
0
100
AcDbLine
 10
24.2372
 20
0.0000000000000023
 30
0.0
 11
24.2372
 21
2.0
 31
0.0
  0
LINE
  5
A3
330
1E
100
AcDbEntity
  8
0
100
AcDbLine
 10
24.2372
 20
0.0000000000000023
 30
0.0
 11
25.9693
 21
0.0000000000000022
 31
0.0
  0
LINE
  5
A4
330
1E
100
AcDbEntity
  8
0
100
AcDbLine
 10
24.2372
 20
0.0000000000000023
 30
0.0
 11
25.2372
 21
0.0000000000000023
 31
0.0
  0
LINE
  5
A5
330
1E
100
AcDbEntity
  8
0
100
AcDbLine
 10
65.866
 20
-0.0000000000000002
 30
0.0
 11
66.866
 21
-0.0000000000000003
 31
0.0
  0
LINE
  5
A6
330
1E
100
AcDbEntity
  8
0
100
AcDbLine
 10
65.866
 20
-0.0000000000000002
 30
0.0
 11
65.866
 21
2.0
 31
0.0
  0
LINE
  5
A7
330
1E
100
AcDbEntity
  8
0
100
AcDbLine
 10
94.96389999999999
 20
-0.000000000000002
 30
0.0
 11
96.89579999999999
 21
-0.0000000000000021
 31
0.0
  0
LINE
  5
A8
330
1E
100
AcDbEntity
  8
0
100
AcDbLine
 10
94.4463
 20
-0.000000000000002
 30
0.0
 11
94.4463
 21
2.0
 31
0.0
  0
LINE
  5
A9
330
1E
100
AcDbEntity
  8
0
100
AcDbLine
 10
94.4463
 20
-0.000000000000002
 30
0.0
 11
96.37810000000001
 21
-0.0000000000000021
 31
0.0
  0
LINE
  5
AA
330
1E
100
AcDbEntity
  8
0
100
AcDbLine
 10
96.37810000000001
 20
-0.0000000000000021
 30
0.0
 11
96.89579999999999
 21
-0.0000000000000021
 31
0.0
  0
LINE
  5
AB
330
1E
100
AcDbEntity
  8
0
100
AcDbLine
 10
96.37810000000001
 20
-0.0000000000000021
 30
0.0
 11
96.37810000000001
 21
2.0
 31
0.0
  0
LINE
  5
AC
330
1E
100
AcDbEntity
  8
0
100
AcDbLine
 10
95.134
 20
-0.000000000000002
 30
0.0
 11
96.866
 21
-0.0000000000000021
 31
0.0
  0
LINE
  5
AD
330
1E
100
AcDbEntity
  8
0
100
AcDbLine
 10
93.01349999999999
 20
-0.0000000000000019
 30
0.0
 11
93.01349999999999
 21
2.0
 31
0.0
  0
LINE
  5
AE
330
1E
100
AcDbEntity
  8
0
100
AcDbLine
 10
94.13400000000001
 20
-0.000000000000002
 30
0.0
 11
95.134
 21
-0.000000000000002
 31
0.0
  0
LINE
  5
AF
330
1E
100
AcDbEntity
  8
0
100
AcDbLine
 10
94.13400000000001
 20
-0.000000000000002
 30
0.0
 11
94.13400000000001
 21
2.0
 31
0.0
  0
LINE
  5
B0
330
1E
100
AcDbEntity
  8
0
100
AcDbLine
 10
94.13400000000001
 20
-0.000000000000002
 30
0.0
 11
94.4463
 21
-0.000000000000002
 31
0.0
  0
LINE
  5
B1
330
1E
100
AcDbEntity
  8
0
100
AcDbLine
 10
98.84619999999999
 20
-0.0000000000000022
 30
0.0
 11
100.7779999999999
 21
-0.0000000000000024
 31
0.0
  0
LINE
  5
B2
330
1E
100
AcDbEntity
  8
0
100
AcDbLine
 10
100.26
 20
-0.0000000000000023
 30
0.0
 11
100.7779999999999
 21
-0.0000000000000024
 31
0.0
  0
LINE
  5
B3
330
1E
100
AcDbEntity
  8
0
100
AcDbLine
 10
100.26
 20
-0.0000000000000023
 30
0.0
 11
100.26
 21
2.0
 31
0.0
  0
LINE
  5
B4
330
1E
100
AcDbEntity
  8
0
100
AcDbLine
 10
101.634
 20
-0.0000000000000024
 30
0.0
 11
101.634
 21
2.0
 31
0.0
  0
LINE
  5
B5
330
1E
100
AcDbEntity
  8
0
100
AcDbLine
 10
101.634
 20
-0.0000000000000024
 30
0.0
 11
102.211
 21
-0.0000000000000024
 31
0.0
  0
LINE
  5
B6
330
1E
100
AcDbEntity
  8
0
100
AcDbLine
 10
101.634
 20
-0.0000000000000024
 30
0.0
 11
102.634
 21
-0.0000000000000025
 31
0.0
  0
LINE
  5
B7
330
1E
100
AcDbEntity
  8
0
100
AcDbLine
 10
102.211
 20
-0.0000000000000024
 30
0.0
 11
102.211
 21
2.0
 31
0.0
  0
LINE
  5
B8
330
1E
100
AcDbEntity
  8
0
100
AcDbLine
 10
102.211
 20
-0.0000000000000024
 30
0.0
 11
104.1429999999999
 21
-0.0000000000000026
 31
0.0
  0
LINE
  5
B9
330
1E
100
AcDbEntity
  8
0
100
AcDbLine
 10
100.7779999999999
 20
-0.0000000000000024
 30
0.0
 11
100.7779999999999
 21
2.0
 31
0.0
  0
LINE
  5
BA
330
1E
100
AcDbEntity
  8
0
100
AcDbLine
 10
100.94
 20
-0.0000000000000024
 30
0.0
 11
100.94
 21
2.0
 31
0.0
  0
LINE
  5
BB
330
1E
100
AcDbEntity
  8
0
100
AcDbLine
 10
100.94
 20
-0.0000000000000024
 30
0.0
 11
102.1789999999999
 21
-0.0000000000000024
 31
0.0
  0
LINE
  5
BC
330
1E
100
AcDbEntity
  8
0
100
AcDbLine
 10
100.4229999999999
 20
-0.0000000000000023
 30
0.0
 11
102.1789999999999
 21
-0.0000000000000024
 31
0.0
  0
LINE
  5
BD
330
1E
100
AcDbEntity
  8
0
100
AcDbLine
 10
100.4229999999999
 20
-0.0000000000000023
 30
0.0
 11
100.94
 21
-0.0000000000000024
 31
0.0
  0
LINE
  5
BE
330
1E
100
AcDbEntity
  8
0
100
AcDbLine
 10
102.634
 20
-0.0000000000000025
 30
0.0
 11
104.1429999999999
 21
-0.0000000000000026
 31
0.0
  0
LINE
  5
BF
330
1E
100
AcDbEntity
  8
0
100
AcDbLine
 10
106.611
 20
-0.0000000000000027
 30
0.0
 11
108.025
 21
-0.0000000000000028
 31
0.0
  0
LINE
  5
C0
330
1E
100
AcDbEntity
  8
0
100
AcDbLine
 10
112.4249999999999
 20
-0.0000000000000031
 30
0.0
 11
112.4249999999999
 21
2.0
 31
0.0
  0
LINE
  5
C1
330
1E
100
AcDbEntity
  8
0
100
AcDbLine
 10
116.307
 20
-0.0000000000000033
 30
0.0
 11
116.307
 21
2.0
 31
0.0
  0
LINE
  5
C2
330
1E
100
AcDbEntity
  8
0
100
AcDbLine
 10
115.79
 20
-0.0000000000000033
 30
0.0
 11
116.307
 21
-0.0000000000000033
 31
0.0
  0
LINE
  5
C3
330
1E
100
AcDbEntity
  8
0
100
AcDbLine
 10
115.79
 20
-0.0000000000000033
 30
0.0
 11
115.79
 21
2.0
 31
0.0
  0
LINE
  5
C4
330
1E
100
AcDbEntity
  8
0
100
AcDbLine
 10
113.8579999999999
 20
-0.0000000000000032
 30
0.0
 11
113.8579999999999
 21
2.0
 31
0.0
  0
LINE
  5
C5
330
1E
100
AcDbEntity
  8
0
100
AcDbLine
 10
113.8579999999999
 20
-0.0000000000000032
 30
0.0
 11
115.79
 21
-0.0000000000000033
 31
0.0
  0
LINE
  5
C6
330
1E
100
AcDbEntity
  8
0
100
AcDbLine
 10
108.5429999999999
 20
-0.0000000000000028
 30
0.0
 11
108.5429999999999
 21
2.0
 31
0.0
  0
LINE
  5
C7
330
1E
100
AcDbEntity
  8
0
100
AcDbLine
 10
110.4929999999999
 20
-0.000000000000003
 30
0.0
 11
111.907
 21
-0.000000000000003
 31
0.0
  0
LINE
  5
C8
330
1E
100
AcDbEntity
  8
0
100
AcDbLine
 10
109.975
 20
-0.0000000000000029
 30
0.0
 11
109.975
 21
2.0
 31
0.0
  0
LINE
  5
C9
330
1E
100
AcDbEntity
  8
0
100
AcDbLine
 10
109.975
 20
-0.0000000000000029
 30
0.0
 11
111.907
 21
-0.000000000000003
 31
0.0
  0
LINE
  5
CA
330
1E
100
AcDbEntity
  8
0
100
AcDbLine
 10
109.975
 20
-0.0000000000000029
 30
0.0
 11
110.4929999999999
 21
-0.000000000000003
 31
0.0
  0
LINE
  5
CB
330
1E
100
AcDbEntity
  8
0
100
AcDbLine
 10
110.1339999999999
 20
-0.0000000000000029
 30
0.0
 11
111.8659999999999
 21
-0.000000000000003
 31
0.0
  0
LINE
  5
CC
330
1E
100
AcDbEntity
  8
0
100
AcDbLine
 10
109.1339999999999
 20
-0.0000000000000029
 30
0.0
 11
110.1339999999999
 21
-0.0000000000000029
 31
0.0
  0
LINE
  5
CD
330
1E
100
AcDbEntity
  8
0
100
AcDbLine
 10
109.1339999999999
 20
-0.0000000000000029
 30
0.0
 11
109.1339999999999
 21
2.0
 31
0.0
  0
LINE
  5
CE
330
1E
100
AcDbEntity
  8
0
100
AcDbLine
 10
109.1339999999999
 20
-0.0000000000000029
 30
0.0
 11
109.975
 21
-0.0000000000000029
 31
0.0
  0
LINE
  5
CF
330
1E
100
AcDbEntity
  8
0
100
AcDbLine
 10
111.907
 20
-0.000000000000003
 30
0.0
 11
112.4249999999999
 21
-0.0000000000000031
 31
0.0
  0
LINE
  5
D0
330
1E
100
AcDbEntity
  8
0
100
AcDbLine
 10
111.907
 20
-0.000000000000003
 30
0.0
 11
111.907
 21
2.0
 31
0.0
  0
LINE
  5
D1
330
1E
100
AcDbEntity
  8
0
100
AcDbLine
 10
108.025
 20
-0.0000000000000028
 30
0.0
 11
108.5429999999999
 21
-0.0000000000000028
 31
0.0
  0
LINE
  5
D2
330
1E
100
AcDbEntity
  8
0
100
AcDbLine
 10
108.025
 20
-0.0000000000000028
 30
0.0
 11
108.025
 21
2.0
 31
0.0
  0
LINE
  5
D3
330
1E
100
AcDbEntity
  8
0
100
AcDbLine
 10
104.6599999999999
 20
-0.0000000000000026
 30
0.0
 11
104.6599999999999
 21
2.0
 31
0.0
  0
LINE
  5
D4
330
1E
100
AcDbEntity
  8
0
100
AcDbLine
 10
104.6599999999999
 20
-0.0000000000000026
 30
0.0
 11
104.912
 21
-0.0000000000000026
 31
0.0
  0
LINE
  5
D5
330
1E
100
AcDbEntity
  8
0
100
AcDbLine
 10
104.912
 20
-0.0000000000000026
 30
0.0
 11
104.912
 21
2.0
 31
0.0
  0
LINE
  5
D6
330
1E
100
AcDbEntity
  8
0
100
AcDbLine
 10
105.151
 20
-0.0000000000000026
 30
0.0
 11
105.151
 21
2.0
 31
0.0
  0
LINE
  5
D7
330
1E
100
AcDbEntity
  8
0
100
AcDbLine
 10
105.151
 20
-0.0000000000000026
 30
0.0
 11
106.0929999999999
 21
-0.0000000000000027
 31
0.0
  0
LINE
  5
D8
330
1E
100
AcDbEntity
  8
0
100
AcDbLine
 10
104.6599999999999
 20
-0.0000000000000026
 30
0.0
 11
104.912
 21
-0.0000000000000026
 31
0.0
  0
LINE
  5
D9
330
1E
100
AcDbEntity
  8
0
100
AcDbLine
 10
106.0929999999999
 20
-0.0000000000000027
 30
0.0
 11
106.611
 21
-0.0000000000000027
 31
0.0
  0
LINE
  5
DA
330
1E
100
AcDbEntity
  8
0
100
AcDbLine
 10
106.0929999999999
 20
-0.0000000000000027
 30
0.0
 11
106.0929999999999
 21
2.0
 31
0.0
  0
LINE
  5
DB
330
1E
100
AcDbEntity
  8
0
100
AcDbLine
 10
106.0929999999999
 20
-0.0000000000000027
 30
0.0
 11
108.025
 21
-0.0000000000000028
 31
0.0
  0
LINE
  5
DC
330
1E
100
AcDbEntity
  8
0
100
AcDbLine
 10
104.1429999999999
 20
-0.0000000000000026
 30
0.0
 11
104.6599999999999
 21
-0.0000000000000026
 31
0.0
  0
LINE
  5
DD
330
1E
100
AcDbEntity
  8
0
100
AcDbLine
 10
104.1429999999999
 20
-0.0000000000000026
 30
0.0
 11
104.1429999999999
 21
2.0
 31
0.0
  0
LINE
  5
DE
330
1E
100
AcDbEntity
  8
0
100
AcDbLine
 10
96.89579999999999
 20
-0.0000000000000021
 30
0.0
 11
96.89579999999999
 21
2.0
 31
0.0
  0
LINE
  5
DF
330
1E
100
AcDbEntity
  8
0
100
AcDbLine
 10
97.3726
 20
-0.0000000000000022
 30
0.0
 11
97.3726
 21
2.0
 31
0.0
  0
LINE
  5
E0
330
1E
100
AcDbEntity
  8
0
100
AcDbLine
 10
96.89579999999999
 20
-0.0000000000000021
 30
0.0
 11
97.3726
 21
-0.0000000000000022
 31
0.0
  0
LINE
  5
E1
330
1E
100
AcDbEntity
  8
0
100
AcDbLine
 10
98.3286
 20
-0.0000000000000022
 30
0.0
 11
98.3286
 21
2.0
 31
0.0
  0
LINE
  5
E2
330
1E
100
AcDbEntity
  8
0
100
AcDbLine
 10
98.3286
 20
-0.0000000000000022
 30
0.0
 11
98.84619999999999
 21
-0.0000000000000022
 31
0.0
  0
LINE
  5
E3
330
1E
100
AcDbEntity
  8
0
100
AcDbLine
 10
98.3286
 20
-0.0000000000000022
 30
0.0
 11
100.26
 21
-0.0000000000000023
 31
0.0
  0
LINE
  5
E4
330
1E
100
AcDbEntity
  8
0
100
AcDbLine
 10
115.79
 20
2.0
 30
0.0
 11
116.307
 21
2.0
 31
0.0
  0
LINE
  5
E5
330
1E
100
AcDbEntity
  8
0
100
AcDbLine
 10
115.79
 20
2.0
 30
0.0
 11
115.79
 21
-0.0000000000000034
 31
0.0
  0
LINE
  5
E6
330
1E
100
AcDbEntity
  8
0
100
AcDbLine
 10
116.307
 20
2.0
 30
0.0
 11
116.307
 21
-0.0000000000000034
 31
0.0
  0
LINE
  5
E7
330
1E
100
AcDbEntity
  8
0
100
AcDbLine
 10
92.49579999999999
 20
-0.0000000000000019
 30
0.0
 11
93.01349999999999
 21
-0.0000000000000019
 31
0.0
  0
LINE
  5
E8
330
1E
100
AcDbEntity
  8
0
100
AcDbLine
 10
92.49579999999999
 20
-0.0000000000000019
 30
0.0
 11
92.49579999999999
 21
2.0
 31
0.0
  0
LINE
  5
E9
330
1E
100
AcDbEntity
  8
0
100
AcDbLine
 10
91.9212
 20
-0.0000000000000018
 30
0.0
 11
92.49579999999999
 21
-0.0000000000000019
 31
0.0
  0
LINE
  5
EA
330
1E
100
AcDbEntity
  8
0
100
AcDbLine
 10
80.866
 20
2.0
 30
0.0
 11
81.866
 21
2.0
 31
0.0
  0
LINE
  5
EB
330
1E
100
AcDbEntity
  8
0
100
AcDbLine
 10
80.866
 20
2.0
 30
0.0
 11
80.866
 21
-0.0000000000000013
 31
0.0
  0
LINE
  5
EC
330
1E
100
AcDbEntity
  8
0
100
AcDbLine
 10
73.366
 20
2.0
 30
0.0
 11
74.366
 21
2.0
 31
0.0
  0
LINE
  5
ED
330
1E
100
AcDbEntity
  8
0
100
AcDbLine
 10
73.366
 20
2.0
 30
0.0
 11
73.366
 21
-0.0000000000000008
 31
0.0
  0
LINE
  5
EE
330
1E
100
AcDbEntity
  8
0
100
AcDbLine
 10
74.366
 20
2.0
 30
0.0
 11
74.366
 21
-0.0000000000000008
 31
0.0
  0
LINE
  5
EF
330
1E
100
AcDbEntity
  8
0
100
AcDbLine
 10
74.366
 20
2.0
 30
0.0
 11
74.5
 21
2.0
 31
0.0
  0
LINE
  5
F0
330
1E
100
AcDbEntity
  8
0
100
AcDbLine
 10
74.7452
 20
2.0
 30
0.0
 11
74.7452
 21
-0.0000000000000008
 31
0.0
  0
LINE
  5
F1
330
1E
100
AcDbEntity
  8
0
100
AcDbLine
 10
77.1987
 20
2.0
 30
0.0
 11
77.1987
 21
-0.0000000000000008
 31
0.0
  0
LINE
  5
F2
330
1E
100
AcDbEntity
  8
0
100
AcDbLine
 10
78.93080000000001
 20
2.0
 30
0.0
 11
78.93080000000001
 21
-0.0000000000000008
 31
0.0
  0
LINE
  5
F3
330
1E
100
AcDbEntity
  8
0
100
AcDbLine
 10
76.1987
 20
2.0
 30
0.0
 11
76.1987
 21
-0.0000000000000008
 31
0.0
  0
LINE
  5
F4
330
1E
100
AcDbEntity
  8
0
100
AcDbLine
 10
79.134
 20
2.0
 30
0.0
 11
79.134
 21
-0.0000000000000008
 31
0.0
  0
LINE
  5
F5
330
1E
100
AcDbEntity
  8
0
100
AcDbLine
 10
79.134
 20
2.0
 30
0.0
 11
80.866
 21
2.0
 31
0.0
  0
LINE
  5
F6
330
1E
100
AcDbEntity
  8
0
100
AcDbLine
 10
74.5
 20
2.0
 30
0.0
 11
89.29999999999999
 21
2.0
 31
0.0
  0
LINE
  5
F7
330
1E
100
AcDbEntity
  8
0
100
AcDbLine
 10
78.93080000000001
 20
2.0
 30
0.0
 11
79.134
 21
2.0
 31
0.0
  0
LINE
  5
F8
330
1E
100
AcDbEntity
  8
0
100
AcDbLine
 10
86.63400000000001
 20
2.0
 30
0.0
 11
88.366
 21
2.0
 31
0.0
  0
LINE
  5
F9
330
1E
100
AcDbEntity
  8
0
100
AcDbLine
 10
86.63400000000001
 20
2.0
 30
0.0
 11
86.63400000000001
 21
-0.0000000000000017
 31
0.0
  0
LINE
  5
FA
330
1E
100
AcDbEntity
  8
0
100
AcDbLine
 10
88.366
 20
2.0
 30
0.0
 11
89.29999999999999
 21
2.0
 31
0.0
  0
LINE
  5
FB
330
1E
100
AcDbEntity
  8
0
100
AcDbLine
 10
88.366
 20
2.0
 30
0.0
 11
88.366
 21
-0.0000000000000017
 31
0.0
  0
LINE
  5
FC
330
1E
100
AcDbEntity
  8
0
100
AcDbLine
 10
89.366
 20
2.0
 30
0.0
 11
89.366
 21
-0.0000000000000017
 31
0.0
  0
LINE
  5
FD
330
1E
100
AcDbEntity
  8
0
100
AcDbLine
 10
90.564
 20
2.0
 30
0.0
 11
90.564
 21
-0.0000000000000017
 31
0.0
  0
LINE
  5
FE
330
1E
100
AcDbEntity
  8
0
100
AcDbLine
 10
92.49579999999999
 20
2.0
 30
0.0
 11
92.49579999999999
 21
-0.0000000000000017
 31
0.0
  0
LINE
  5
FF
330
1E
100
AcDbEntity
  8
0
100
AcDbLine
 10
90.18909999999999
 20
2.0
 30
0.0
 11
90.18909999999999
 21
-0.0000000000000017
 31
0.0
  0
LINE
  5
100
330
1E
100
AcDbEntity
  8
0
100
AcDbLine
 10
85.3518
 20
2.0
 30
0.0
 11
85.3518
 21
-0.0000000000000013
 31
0.0
  0
LINE
  5
101
330
1E
100
AcDbEntity
  8
0
100
AcDbLine
 10
83.9376
 20
2.0
 30
0.0
 11
83.9376
 21
-0.0000000000000013
 31
0.0
  0
LINE
  5
102
330
1E
100
AcDbEntity
  8
0
100
AcDbLine
 10
89.29999999999999
 20
2.0
 30
0.0
 11
104.4
 21
2.0
 31
0.0
  0
LINE
  5
103
330
1E
100
AcDbEntity
  8
0
100
AcDbLine
 10
81.866
 20
2.0
 30
0.0
 11
83.9376
 21
2.0
 31
0.0
  0
LINE
  5
104
330
1E
100
AcDbEntity
  8
0
100
AcDbLine
 10
81.866
 20
2.0
 30
0.0
 11
81.866
 21
-0.0000000000000013
 31
0.0
  0
LINE
  5
105
330
1E
100
AcDbEntity
  8
0
100
AcDbLine
 10
52.1177
 20
2.0
 30
0.0
 11
53.532
 21
2.0
 31
0.0
  0
LINE
  5
106
330
1E
100
AcDbEntity
  8
0
100
AcDbLine
 10
52.1177
 20
2.0
 30
0.0
 11
52.1177
 21
0.0000000000000004
 31
0.0
  0
LINE
  5
107
330
1E
100
AcDbEntity
  8
0
100
AcDbLine
 10
53.532
 20
2.0
 30
0.0
 11
54.9462
 21
2.0
 31
0.0
  0
LINE
  5
108
330
1E
100
AcDbEntity
  8
0
100
AcDbLine
 10
53.532
 20
2.0
 30
0.0
 11
53.532
 21
0.0000000000000004
 31
0.0
  0
LINE
  5
109
330
1E
100
AcDbEntity
  8
0
100
AcDbLine
 10
51.218
 20
2.0
 30
0.0
 11
52.1177
 21
2.0
 31
0.0
  0
LINE
  5
10A
330
1E
100
AcDbEntity
  8
0
100
AcDbLine
 10
51.218
 20
2.0
 30
0.0
 11
51.218
 21
0.0000000000000008
 31
0.0
  0
LINE
  5
10B
330
1E
100
AcDbEntity
  8
0
100
AcDbLine
 10
56.956
 20
2.0
 30
0.0
 11
56.956
 21
0.0000000000000004
 31
0.0
  0
LINE
  5
10C
330
1E
100
AcDbEntity
  8
0
100
AcDbLine
 10
57.4736
 20
2.0
 30
0.0
 11
57.4736
 21
0.0000000000000004
 31
0.0
  0
LINE
  5
10D
330
1E
100
AcDbEntity
  8
0
100
AcDbLine
 10
55.0
 20
2.0
 30
0.0
 11
55.0
 21
0.0000000000000004
 31
0.0
  0
LINE
  5
10E
330
1E
100
AcDbEntity
  8
0
100
AcDbLine
 10
59.4055
 20
2.0
 30
0.0
 11
60.8
 21
2.0
 31
0.0
  0
LINE
  5
10F
330
1E
100
AcDbEntity
  8
0
100
AcDbLine
 10
59.4055
 20
2.0
 30
0.0
 11
59.4055
 21
0.0
 31
0.0
  0
LINE
  5
110
330
1E
100
AcDbEntity
  8
0
100
AcDbLine
 10
54.9462
 20
2.0
 30
0.0
 11
55.0
 21
2.0
 31
0.0
  0
LINE
  5
111
330
1E
100
AcDbEntity
  8
0
100
AcDbLine
 10
54.9462
 20
2.0
 30
0.0
 11
54.9462
 21
0.0000000000000004
 31
0.0
  0
LINE
  5
112
330
1E
100
AcDbEntity
  8
0
100
AcDbLine
 10
0.0000000000000017
 20
3.0
 30
0.0
 11
0.0000000000000022
 21
11.0
 31
0.0
  0
LINE
  5
113
330
1E
100
AcDbEntity
  8
0
100
AcDbLine
 10
0.0000000000000017
 20
3.0
 30
0.0
 11
1.0
 21
2.0
 31
0.0
  0
LINE
  5
114
330
1E
100
AcDbEntity
  8
0
100
AcDbLine
 10
0.0000000000000017
 20
3.0
 30
0.0
 11
1.199999999999999
 21
3.0
 31
0.0
  0
LINE
  5
115
330
1E
100
AcDbEntity
  8
0
100
AcDbLine
 10
0.0000000000000017
 20
3.0
 30
0.0
 11
0.0000000000000022
 21
11.0
 31
0.0
  0
LINE
  5
116
330
1E
100
AcDbEntity
  8
0
100
AcDbLine
 10
0.0000000000000023
 20
11.0
 30
0.0
 11
1.199999999999999
 21
11.0
 31
0.0
  0
LINE
  5
117
330
1E
100
AcDbEntity
  8
0
100
AcDbLine
 10
0.0000000000000023
 20
11.0
 30
0.0
 11
1.0
 21
12.0
 31
0.0
  0
LINE
  5
118
330
1E
100
AcDbEntity
  8
0
100
AcDbLine
 10
0.0000000000000022
 20
11.0
 30
0.0
 11
1.0
 21
12.0
 31
0.0
  0
LINE
  5
119
330
1E
100
AcDbEntity
  8
0
100
AcDbLine
 10
0.0000000000000022
 20
11.0
 30
0.0
 11
1.199999999999999
 21
11.0
 31
0.0
  0
LINE
  5
11A
330
1E
100
AcDbEntity
  8
0
100
AcDbLine
 10
0.0000000000000017
 20
3.0
 30
0.0
 11
1.0
 21
2.0
 31
0.0
  0
LINE
  5
11B
330
1E
100
AcDbEntity
  8
0
100
AcDbLine
 10
0.0000000000000017
 20
3.0
 30
0.0
 11
1.199999999999999
 21
3.0
 31
0.0
  0
LINE
  5
11C
330
1E
100
AcDbEntity
  8
0
100
AcDbLine
 10
10.0
 20
2.0
 30
0.0
 11
12.0
 21
2.0
 31
0.0
  0
LINE
  5
11D
330
1E
100
AcDbEntity
  8
0
100
AcDbLine
 10
13.4893
 20
2.0
 30
0.0
 11
14.007
 21
2.0
 31
0.0
  0
LINE
  5
11E
330
1E
100
AcDbEntity
  8
0
100
AcDbLine
 10
14.007
 20
2.0
 30
0.0
 11
15.9388
 21
2.0
 31
0.0
  0
LINE
  5
11F
330
1E
100
AcDbEntity
  8
0
100
AcDbLine
 10
14.007
 20
2.0
 30
0.0
 11
14.007
 21
0.000000000000003
 31
0.0
  0
LINE
  5
120
330
1E
100
AcDbEntity
  8
0
100
AcDbLine
 10
12.0
 20
2.0
 30
0.0
 11
12.0
 21
0.000000000000003
 31
0.0
  0
LINE
  5
121
330
1E
100
AcDbEntity
  8
0
100
AcDbLine
 10
25.2372
 20
2.0
 30
0.0
 11
25.8
 21
2.0
 31
0.0
  0
LINE
  5
122
330
1E
100
AcDbEntity
  8
0
100
AcDbLine
 10
26.9693
 20
2.0
 30
0.0
 11
26.9693
 21
0.0000000000000021
 31
0.0
  0
LINE
  5
123
330
1E
100
AcDbEntity
  8
0
100
AcDbLine
 10
27.0
 20
2.0
 30
0.0
 11
27.0
 21
0.0000000000000021
 31
0.0
  0
LINE
  5
124
330
1E
100
AcDbEntity
  8
0
100
AcDbLine
 10
28.4959
 20
2.0
 30
0.0
 11
28.4959
 21
0.0000000000000021
 31
0.0
  0
LINE
  5
125
330
1E
100
AcDbEntity
  8
0
100
AcDbLine
 10
30.4277
 20
2.0
 30
0.0
 11
30.4277
 21
0.0000000000000021
 31
0.0
  0
LINE
  5
126
330
1E
100
AcDbEntity
  8
0
100
AcDbLine
 10
27.9782
 20
2.0
 30
0.0
 11
27.9782
 21
0.0000000000000021
 31
0.0
  0
LINE
  5
127
330
1E
100
AcDbEntity
  8
0
100
AcDbLine
 10
24.2372
 20
2.0
 30
0.0
 11
24.2372
 21
0.0000000000000021
 31
0.0
  0
LINE
  5
128
330
1E
100
AcDbEntity
  8
0
100
AcDbLine
 10
24.2372
 20
2.0
 30
0.0
 11
25.2372
 21
2.0
 31
0.0
  0
LINE
  5
129
330
1E
100
AcDbEntity
  8
0
100
AcDbLine
 10
39.9596
 20
2.0
 30
0.0
 11
39.9596
 21
0.0000000000000013
 31
0.0
  0
LINE
  5
12A
330
1E
100
AcDbEntity
  8
0
100
AcDbLine
 10
38.2276
 20
2.0
 30
0.0
 11
39.9596
 21
2.0
 31
0.0
  0
LINE
  5
12B
330
1E
100
AcDbEntity
  8
0
100
AcDbLine
 10
38.2276
 20
2.0
 30
0.0
 11
38.2276
 21
0.0000000000000013
 31
0.0
  0
LINE
  5
12C
330
1E
100
AcDbEntity
  8
0
100
AcDbLine
 10
41.5111
 20
2.0
 30
0.0
 11
41.5111
 21
0.0000000000000013
 31
0.0
  0
LINE
  5
12D
330
1E
100
AcDbEntity
  8
0
100
AcDbLine
 10
42.9254
 20
2.0
 30
0.0
 11
42.9254
 21
0.0000000000000013
 31
0.0
  0
LINE
  5
12E
330
1E
100
AcDbEntity
  8
0
100
AcDbLine
 10
44.33959999999999
 20
2.0
 30
0.0
 11
44.33959999999999
 21
0.0000000000000013
 31
0.0
  0
LINE
  5
12F
330
1E
100
AcDbEntity
  8
0
100
AcDbLine
 10
44.9166
 20
2.0
 30
0.0
 11
44.9166
 21
0.0000000000000013
 31
0.0
  0
LINE
  5
130
330
1E
100
AcDbEntity
  8
0
100
AcDbLine
 10
40.0
 20
2.0
 30
0.0
 11
41.5111
 21
2.0
 31
0.0
  0
LINE
  5
131
330
1E
100
AcDbEntity
  8
0
100
AcDbLine
 10
40.0
 20
2.0
 30
0.0
 11
40.0
 21
0.0000000000000013
 31
0.0
  0
LINE
  5
132
330
1E
100
AcDbEntity
  8
0
100
AcDbLine
 10
37.2276
 20
2.0
 30
0.0
 11
37.2276
 21
0.0000000000000017
 31
0.0
  0
LINE
  5
133
330
1E
100
AcDbEntity
  8
0
100
AcDbLine
 10
37.2276
 20
2.0
 30
0.0
 11
38.2276
 21
2.0
 31
0.0
  0
LINE
  5
134
330
1E
100
AcDbEntity
  8
0
100
AcDbLine
 10
36.0
 20
2.0
 30
0.0
 11
47.7
 21
2.0
 31
0.0
  0
LINE
  5
135
330
1E
100
AcDbEntity
  8
0
100
AcDbLine
 10
25.8
 20
2.0
 30
0.0
 11
36.0
 21
2.0
 31
0.0
  0
LINE
  5
136
330
1E
100
AcDbEntity
  8
0
100
AcDbLine
 10
16.89999999999999
 20
2.0
 30
0.0
 11
25.8
 21
2.0
 31
0.0
  0
LINE
  5
137
330
1E
100
AcDbEntity
  8
0
100
AcDbLine
 10
15.9388
 20
2.0
 30
0.0
 11
16.89999999999999
 21
2.0
 31
0.0
  0
LINE
  5
138
330
1E
100
AcDbEntity
  8
0
100
AcDbLine
 10
15.9388
 20
2.0
 30
0.0
 11
15.9388
 21
0.000000000000003
 31
0.0
  0
LINE
  5
139
330
1E
100
AcDbEntity
  8
0
100
AcDbLine
 10
10.3
 20
2.0
 30
0.0
 11
13.4893
 21
2.0
 31
0.0
  0
LINE
  5
13A
330
1E
100
AcDbEntity
  8
0
100
AcDbLine
 10
10.3
 20
2.0
 30
0.0
 11
16.89999999999999
 21
2.0
 31
0.0
  0
LINE
  5
13B
330
1E
100
AcDbEntity
  8
0
100
AcDbLine
 10
1.0
 20
12.0
 30
0.0
 11
2.2
 21
12.0
 31
0.0
  0
LINE
  5
13C
330
1E
100
AcDbEntity
  8
0
100
AcDbLine
 10
25.0
 20
3.0
 30
0.0
 11
35.29999999999999
 21
3.0
 31
0.0
  0
LINE
  5
13D
330
1E
100
AcDbEntity
  8
0
100
AcDbLine
 10
16.1
 20
3.0
 30
0.0
 11
25.0
 21
3.0
 31
0.0
  0
LINE
  5
13E
330
1E
100
AcDbEntity
  8
0
100
AcDbLine
 10
9.4
 20
3.0
 30
0.0
 11
16.1
 21
3.0
 31
0.0
  0
LINE
  5
13F
330
1E
100
AcDbEntity
  8
0
100
AcDbLine
 10
25.0
 20
11.0
 30
0.0
 11
35.29999999999999
 21
11.0
 31
0.0
  0
LINE
  5
140
330
1E
100
AcDbEntity
  8
0
100
AcDbLine
 10
16.1
 20
11.0
 30
0.0
 11
25.0
 21
11.0
 31
0.0
  0
LINE
  5
141
330
1E
100
AcDbEntity
  8
0
100
AcDbLine
 10
9.4
 20
11.0
 30
0.0
 11
16.1
 21
11.0
 31
0.0
  0
LINE
  5
142
330
1E
100
AcDbEntity
  8
0
100
AcDbLine
 10
16.89999999999999
 20
12.0
 30
0.0
 11
25.8
 21
12.0
 31
0.0
  0
LINE
  5
143
330
1E
100
AcDbEntity
  8
0
100
AcDbLine
 10
10.3
 20
12.0
 30
0.0
 11
16.89999999999999
 21
12.0
 31
0.0
  0
LINE
  5
144
330
1E
100
AcDbEntity
  8
0
100
AcDbLine
 10
5.299999999999999
 20
12.0
 30
0.0
 11
10.3
 21
12.0
 31
0.0
  0
LINE
  5
145
330
1E
100
AcDbEntity
  8
0
100
AcDbLine
 10
2.2
 20
12.0
 30
0.0
 11
5.299999999999999
 21
12.0
 31
0.0
  0
LINE
  5
146
330
1E
100
AcDbEntity
  8
0
100
AcDbLine
 10
4.299999999999999
 20
11.0
 30
0.0
 11
9.4
 21
11.0
 31
0.0
  0
LINE
  5
147
330
1E
100
AcDbEntity
  8
0
100
AcDbLine
 10
1.199999999999999
 20
11.0
 30
0.0
 11
4.299999999999999
 21
11.0
 31
0.0
  0
LINE
  5
148
330
1E
100
AcDbEntity
  8
0
100
AcDbLine
 10
4.299999999999999
 20
3.0
 30
0.0
 11
9.4
 21
3.0
 31
0.0
  0
LINE
  5
149
330
1E
100
AcDbEntity
  8
0
100
AcDbLine
 10
1.199999999999999
 20
3.0
 30
0.0
 11
4.299999999999999
 21
3.0
 31
0.0
  0
LINE
  5
14A
330
1E
100
AcDbEntity
  8
0
100
AcDbLine
 10
2.2
 20
2.0
 30
0.0
 11
5.299999999999999
 21
2.0
 31
0.0
  0
LINE
  5
14B
330
1E
100
AcDbEntity
  8
0
100
AcDbLine
 10
36.0
 20
12.0
 30
0.0
 11
47.7
 21
12.0
 31
0.0
  0
LINE
  5
14C
330
1E
100
AcDbEntity
  8
0
100
AcDbLine
 10
35.29999999999999
 20
11.0
 30
0.0
 11
47.09999999999999
 21
11.0
 31
0.0
  0
LINE
  5
14D
330
1E
100
AcDbEntity
  8
0
100
AcDbLine
 10
47.09999999999999
 20
11.0
 30
0.0
 11
60.3
 21
11.0
 31
0.0
  0
LINE
  5
14E
330
1E
100
AcDbEntity
  8
0
100
AcDbLine
 10
35.29999999999999
 20
3.0
 30
0.0
 11
47.09999999999999
 21
3.0
 31
0.0
  0
LINE
  5
14F
330
1E
100
AcDbEntity
  8
0
100
AcDbLine
 10
47.7
 20
12.0
 30
0.0
 11
60.8
 21
12.0
 31
0.0
  0
LINE
  5
150
330
1E
100
AcDbEntity
  8
0
100
AcDbLine
 10
60.8
 20
12.0
 30
0.0
 11
74.5
 21
12.0
 31
0.0
  0
LINE
  5
151
330
1E
100
AcDbEntity
  8
0
100
AcDbLine
 10
60.3
 20
11.0
 30
0.0
 11
74.2
 21
11.0
 31
0.0
  0
LINE
  5
152
330
1E
100
AcDbEntity
  8
0
100
AcDbLine
 10
47.09999999999999
 20
3.0
 30
0.0
 11
60.3
 21
3.0
 31
0.0
  0
LINE
  5
153
330
1E
100
AcDbEntity
  8
0
100
AcDbLine
 10
60.3
 20
3.0
 30
0.0
 11
74.2
 21
3.0
 31
0.0
  0
LINE
  5
154
330
1E
100
AcDbEntity
  8
0
100
AcDbLine
 10
25.8
 20
12.0
 30
0.0
 11
36.0
 21
12.0
 31
0.0
  0
LINE
  5
155
330
1E
100
AcDbEntity
  8
0
100
AcDbLine
 10
5.299999999999999
 20
2.0
 30
0.0
 11
10.3
 21
2.0
 31
0.0
  0
LINE
  5
156
330
1E
100
AcDbEntity
  8
0
100
AcDbLine
 10
1.0
 20
2.0
 30
0.0
 11
2.2
 21
2.0
 31
0.0
  0
LINE
  5
157
330
1E
100
AcDbEntity
  8
0
100
AcDbLine
 10
47.7
 20
2.0
 30
0.0
 11
50.218
 21
2.0
 31
0.0
  0
LINE
  5
158
330
1E
100
AcDbEntity
  8
0
100
AcDbLine
 10
47.7
 20
2.0
 30
0.0
 11
60.8
 21
2.0
 31
0.0
  0
LINE
  5
159
330
1E
100
AcDbEntity
  8
0
100
AcDbLine
 10
65.866
 20
2.0
 30
0.0
 11
66.866
 21
2.0
 31
0.0
  0
LINE
  5
15A
330
1E
100
AcDbEntity
  8
0
100
AcDbLine
 10
65.866
 20
2.0
 30
0.0
 11
65.866
 21
-0.0000000000000004
 31
0.0
  0
LINE
  5
15B
330
1E
100
AcDbEntity
  8
0
100
AcDbLine
 10
70.0
 20
2.0
 30
0.0
 11
70.0
 21
-0.0000000000000004
 31
0.0
  0
LINE
  5
15C
330
1E
100
AcDbEntity
  8
0
100
AcDbLine
 10
71.634
 20
2.0
 30
0.0
 11
71.634
 21
-0.0000000000000004
 31
0.0
  0
LINE
  5
15D
330
1E
100
AcDbEntity
  8
0
100
AcDbLine
 10
71.44490000000001
 20
2.0
 30
0.0
 11
71.44490000000001
 21
-0.0000000000000004
 31
0.0
  0
LINE
  5
15E
330
1E
100
AcDbEntity
  8
0
100
AcDbLine
 10
65.134
 20
2.0
 30
0.0
 11
65.866
 21
2.0
 31
0.0
  0
LINE
  5
15F
330
1E
100
AcDbEntity
  8
0
100
AcDbLine
 10
64.134
 20
2.0
 30
0.0
 11
65.866
 21
2.0
 31
0.0
  0
LINE
  5
160
330
1E
100
AcDbEntity
  8
0
100
AcDbLine
 10
64.134
 20
2.0
 30
0.0
 11
64.134
 21
0.0
 31
0.0
  0
LINE
  5
161
330
1E
100
AcDbEntity
  8
0
100
AcDbLine
 10
62.72429999999999
 20
2.0
 30
0.0
 11
62.72429999999999
 21
0.0
 31
0.0
  0
LINE
  5
162
330
1E
100
AcDbEntity
  8
0
100
AcDbLine
 10
74.5
 20
12.0
 30
0.0
 11
89.29999999999999
 21
12.0
 31
0.0
  0
LINE
  5
163
330
1E
100
AcDbEntity
  8
0
100
AcDbLine
 10
74.2
 20
11.0
 30
0.0
 11
89.0
 21
11.0
 31
0.0
  0
LINE
  5
164
330
1E
100
AcDbEntity
  8
0
100
AcDbLine
 10
89.0
 20
11.0
 30
0.0
 11
104.4
 21
11.0
 31
0.0
  0
LINE
  5
165
330
1E
100
AcDbEntity
  8
0
100
AcDbLine
 10
74.2
 20
3.0
 30
0.0
 11
89.0
 21
3.0
 31
0.0
  0
LINE
  5
166
330
1E
100
AcDbEntity
  8
0
100
AcDbLine
 10
89.0
 20
3.0
 30
0.0
 11
104.4
 21
3.0
 31
0.0
  0
LINE
  5
167
330
1E
100
AcDbEntity
  8
0
100
AcDbLine
 10
84.7
 20
15.0
 30
0.0
 11
89.59999999999999
 21
15.0
 31
0.0
  0
LINE
  5
168
330
1E
100
AcDbEntity
  8
0
100
AcDbLine
 10
80.4
 20
15.0
 30
0.0
 11
84.7
 21
15.0
 31
0.0
  0
LINE
  5
169
330
1E
100
AcDbEntity
  8
0
100
AcDbLine
 10
76.7
 20
15.0
 30
0.0
 11
80.4
 21
15.0
 31
0.0
  0
LINE
  5
16A
330
1E
100
AcDbEntity
  8
0
100
AcDbLine
 10
73.9
 20
15.0
 30
0.0
 11
76.7
 21
15.0
 31
0.0
  0
LINE
  5
16B
330
1E
100
AcDbEntity
  8
0
100
AcDbLine
 10
71.79999999999999
 20
15.0
 30
0.0
 11
73.9
 21
15.0
 31
0.0
  0
LINE
  5
16C
330
1E
100
AcDbEntity
  8
0
100
AcDbLine
 10
88.49999999999999
 20
122.0
 30
0.0
 11
88.49999999999999
 21
119.0
 31
0.0
  0
LINE
  5
16D
330
1E
100
AcDbEntity
  8
0
100
AcDbLine
 10
88.49999999999999
 20
122.0
 30
0.0
 11
89.59999999999999
 21
122.0
 31
0.0
  0
LINE
  5
16E
330
1E
100
AcDbEntity
  8
0
100
AcDbLine
 10
88.49999999999999
 20
119.0
 30
0.0
 11
106.4999999999999
 21
117.0
 31
0.0
  0
LINE
  5
16F
330
1E
100
AcDbEntity
  8
0
100
AcDbLine
 10
88.49999999999999
 20
119.0
 30
0.0
 11
88.49999999999999
 21
122.0
 31
0.0
  0
LINE
  5
170
330
1E
100
AcDbEntity
  8
0
100
AcDbLine
 10
88.49999999999999
 20
119.0
 30
0.0
 11
89.59999999999999
 21
119.0
 31
0.0
  0
LINE
  5
171
330
1E
100
AcDbEntity
  8
0
100
AcDbLine
 10
70.5
 20
15.0
 30
0.0
 11
71.79999999999999
 21
15.0
 31
0.0
  0
LINE
  5
172
330
1E
100
AcDbEntity
  8
0
100
AcDbLine
 10
70.0
 20
15.0
 30
0.0
 11
70.0
 21
12.0
 31
0.0
  0
LINE
  5
173
330
1E
100
AcDbEntity
  8
0
100
AcDbLine
 10
70.0
 20
15.0
 30
0.0
 11
70.5
 21
15.0
 31
0.0
  0
LINE
  5
174
330
1E
100
AcDbEntity
  8
0
100
AcDbLine
 10
70.0
 20
12.0
 30
0.0
 11
70.0
 21
15.0
 31
0.0
  0
LINE
  5
175
330
1E
100
AcDbEntity
  8
0
100
AcDbLine
 10
89.59999999999999
 20
12.0
 30
0.0
 11
95.09999999999999
 21
12.0
 31
0.0
  0
LINE
  5
176
330
1E
100
AcDbEntity
  8
0
100
AcDbLine
 10
89.59999999999999
 20
122.0
 30
0.0
 11
92.70000000000001
 21
122.0
 31
0.0
  0
LINE
  5
177
330
1E
100
AcDbEntity
  8
0
100
AcDbLine
 10
92.70000000000001
 20
122.0
 30
0.0
 11
97.80000000000001
 21
122.0
 31
0.0
  0
LINE
  5
178
330
1E
100
AcDbEntity
  8
0
100
AcDbLine
 10
89.59999999999999
 20
119.0
 30
0.0
 11
92.70000000000001
 21
119.0
 31
0.0
  0
LINE
  5
179
330
1E
100
AcDbEntity
  8
0
100
AcDbLine
 10
92.70000000000001
 20
119.0
 30
0.0
 11
97.80000000000001
 21
119.0
 31
0.0
  0
LINE
  5
17A
330
1E
100
AcDbEntity
  8
0
100
AcDbLine
 10
89.59999999999999
 20
15.0
 30
0.0
 11
95.09999999999999
 21
15.0
 31
0.0
  0
LINE
  5
17B
330
1E
100
AcDbEntity
  8
0
100
AcDbLine
 10
89.29999999999999
 20
12.0
 30
0.0
 11
89.59999999999999
 21
12.0
 31
0.0
  0
LINE
  5
17C
330
1E
100
AcDbEntity
  8
0
100
AcDbLine
 10
89.29999999999999
 20
12.0
 30
0.0
 11
104.4
 21
12.0
 31
0.0
  0
LINE
  5
17D
330
1E
100
AcDbEntity
  8
0
100
AcDbLine
 10
66.866
 20
2.0
 30
0.0
 11
70.0
 21
2.0
 31
0.0
  0
LINE
  5
17E
330
1E
100
AcDbEntity
  8
0
100
AcDbLine
 10
66.866
 20
2.0
 30
0.0
 11
66.866
 21
-0.0000000000000004
 31
0.0
  0
LINE
  5
17F
330
1E
100
AcDbEntity
  8
0
100
AcDbLine
 10
60.8
 20
2.0
 30
0.0
 11
62.72429999999999
 21
2.0
 31
0.0
  0
LINE
  5
180
330
1E
100
AcDbEntity
  8
0
100
AcDbLine
 10
60.8
 20
2.0
 30
0.0
 11
74.5
 21
2.0
 31
0.0
  0
LINE
  5
181
330
1E
100
AcDbEntity
  8
0
100
AcDbLine
 10
76.15940000000001
 20
2.0
 30
0.0
 11
76.15940000000001
 21
-0.0000000000000008
 31
0.0
  0
LINE
  5
182
330
1E
100
AcDbEntity
  8
0
100
AcDbLine
 10
94.4463
 20
2.0
 30
0.0
 11
96.37810000000001
 21
2.0
 31
0.0
  0
LINE
  5
183
330
1E
100
AcDbEntity
  8
0
100
AcDbLine
 10
94.4463
 20
2.0
 30
0.0
 11
94.4463
 21
-0.0000000000000021
 31
0.0
  0
LINE
  5
184
330
1E
100
AcDbEntity
  8
0
100
AcDbLine
 10
96.37810000000001
 20
2.0
 30
0.0
 11
96.89579999999999
 21
2.0
 31
0.0
  0
LINE
  5
185
330
1E
100
AcDbEntity
  8
0
100
AcDbLine
 10
96.37810000000001
 20
2.0
 30
0.0
 11
96.37810000000001
 21
-0.0000000000000021
 31
0.0
  0
LINE
  5
186
330
1E
100
AcDbEntity
  8
0
100
AcDbLine
 10
96.89579999999999
 20
2.0
 30
0.0
 11
97.3726
 21
2.0
 31
0.0
  0
LINE
  5
187
330
1E
100
AcDbEntity
  8
0
100
AcDbLine
 10
96.89579999999999
 20
2.0
 30
0.0
 11
96.89579999999999
 21
-0.0000000000000021
 31
0.0
  0
LINE
  5
188
330
1E
100
AcDbEntity
  8
0
100
AcDbLine
 10
94.13400000000001
 20
2.0
 30
0.0
 11
94.13400000000001
 21
-0.0000000000000021
 31
0.0
  0
LINE
  5
189
330
1E
100
AcDbEntity
  8
0
100
AcDbLine
 10
94.13400000000001
 20
2.0
 30
0.0
 11
94.4463
 21
2.0
 31
0.0
  0
LINE
  5
18A
330
1E
100
AcDbEntity
  8
0
100
AcDbLine
 10
98.3286
 20
2.0
 30
0.0
 11
98.3286
 21
-0.0000000000000021
 31
0.0
  0
LINE
  5
18B
330
1E
100
AcDbEntity
  8
0
100
AcDbLine
 10
108.025
 20
2.0
 30
0.0
 11
108.5429999999999
 21
2.0
 31
0.0
  0
LINE
  5
18C
330
1E
100
AcDbEntity
  8
0
100
AcDbLine
 10
108.025
 20
2.0
 30
0.0
 11
108.025
 21
-0.000000000000003
 31
0.0
  0
LINE
  5
18D
330
1E
100
AcDbEntity
  8
0
100
AcDbLine
 10
109.975
 20
2.0
 30
0.0
 11
111.907
 21
2.0
 31
0.0
  0
LINE
  5
18E
330
1E
100
AcDbEntity
  8
0
100
AcDbLine
 10
109.975
 20
2.0
 30
0.0
 11
109.975
 21
-0.000000000000003
 31
0.0
  0
LINE
  5
18F
330
1E
100
AcDbEntity
  8
0
100
AcDbLine
 10
111.907
 20
2.0
 30
0.0
 11
112.4249999999999
 21
2.0
 31
0.0
  0
LINE
  5
190
330
1E
100
AcDbEntity
  8
0
100
AcDbLine
 10
111.907
 20
2.0
 30
0.0
 11
111.907
 21
-0.000000000000003
 31
0.0
  0
LINE
  5
191
330
1E
100
AcDbEntity
  8
0
100
AcDbLine
 10
112.4249999999999
 20
2.0
 30
0.0
 11
112.4249999999999
 21
-0.000000000000003
 31
0.0
  0
LINE
  5
192
330
1E
100
AcDbEntity
  8
0
100
AcDbLine
 10
108.5429999999999
 20
2.0
 30
0.0
 11
108.5429999999999
 21
-0.000000000000003
 31
0.0
  0
LINE
  5
193
330
1E
100
AcDbEntity
  8
0
100
AcDbLine
 10
100.26
 20
2.0
 30
0.0
 11
100.7779999999999
 21
2.0
 31
0.0
  0
LINE
  5
194
330
1E
100
AcDbEntity
  8
0
100
AcDbLine
 10
100.26
 20
2.0
 30
0.0
 11
100.26
 21
-0.0000000000000025
 31
0.0
  0
LINE
  5
195
330
1E
100
AcDbEntity
  8
0
100
AcDbLine
 10
102.211
 20
2.0
 30
0.0
 11
104.1429999999999
 21
2.0
 31
0.0
  0
LINE
  5
196
330
1E
100
AcDbEntity
  8
0
100
AcDbLine
 10
102.211
 20
2.0
 30
0.0
 11
102.211
 21
-0.0000000000000025
 31
0.0
  0
LINE
  5
197
330
1E
100
AcDbEntity
  8
0
100
AcDbLine
 10
104.1429999999999
 20
2.0
 30
0.0
 11
104.4
 21
2.0
 31
0.0
  0
LINE
  5
198
330
1E
100
AcDbEntity
  8
0
100
AcDbLine
 10
104.1429999999999
 20
2.0
 30
0.0
 11
104.1429999999999
 21
-0.0000000000000025
 31
0.0
  0
LINE
  5
199
330
1E
100
AcDbEntity
  8
0
100
AcDbLine
 10
104.6599999999999
 20
2.0
 30
0.0
 11
104.6599999999999
 21
-0.0000000000000025
 31
0.0
  0
LINE
  5
19A
330
1E
100
AcDbEntity
  8
0
100
AcDbLine
 10
101.634
 20
2.0
 30
0.0
 11
102.211
 21
2.0
 31
0.0
  0
LINE
  5
19B
330
1E
100
AcDbEntity
  8
0
100
AcDbLine
 10
101.634
 20
2.0
 30
0.0
 11
101.634
 21
-0.0000000000000025
 31
0.0
  0
LINE
  5
19C
330
1E
100
AcDbEntity
  8
0
100
AcDbLine
 10
104.912
 20
2.0
 30
0.0
 11
104.912
 21
-0.0000000000000025
 31
0.0
  0
LINE
  5
19D
330
1E
100
AcDbEntity
  8
0
100
AcDbLine
 10
100.7779999999999
 20
2.0
 30
0.0
 11
100.94
 21
2.0
 31
0.0
  0
LINE
  5
19E
330
1E
100
AcDbEntity
  8
0
100
AcDbLine
 10
100.7779999999999
 20
2.0
 30
0.0
 11
100.7779999999999
 21
-0.0000000000000025
 31
0.0
  0
LINE
  5
19F
330
1E
100
AcDbEntity
  8
0
100
AcDbLine
 10
100.94
 20
2.0
 30
0.0
 11
101.634
 21
2.0
 31
0.0
  0
LINE
  5
1A0
330
1E
100
AcDbEntity
  8
0
100
AcDbLine
 10
100.94
 20
2.0
 30
0.0
 11
100.94
 21
-0.0000000000000025
 31
0.0
  0
LINE
  5
1A1
330
1E
100
AcDbEntity
  8
0
100
AcDbLine
 10
106.611
 20
2.0
 30
0.0
 11
108.025
 21
2.0
 31
0.0
  0
LINE
  5
1A2
330
1E
100
AcDbEntity
  8
0
100
AcDbLine
 10
106.0929999999999
 20
2.0
 30
0.0
 11
108.025
 21
2.0
 31
0.0
  0
LINE
  5
1A3
330
1E
100
AcDbEntity
  8
0
100
AcDbLine
 10
106.0929999999999
 20
2.0
 30
0.0
 11
106.0929999999999
 21
-0.0000000000000025
 31
0.0
  0
LINE
  5
1A4
330
1E
100
AcDbEntity
  8
0
100
AcDbLine
 10
105.151
 20
2.0
 30
0.0
 11
105.151
 21
-0.0000000000000025
 31
0.0
  0
LINE
  5
1A5
330
1E
100
AcDbEntity
  8
0
100
AcDbLine
 10
109.1339999999999
 20
2.0
 30
0.0
 11
109.1339999999999
 21
-0.000000000000003
 31
0.0
  0
LINE
  5
1A6
330
1E
100
AcDbEntity
  8
0
100
AcDbLine
 10
109.1339999999999
 20
2.0
 30
0.0
 11
109.975
 21
2.0
 31
0.0
  0
LINE
  5
1A7
330
1E
100
AcDbEntity
  8
0
100
AcDbLine
 10
113.8579999999999
 20
2.0
 30
0.0
 11
113.8579999999999
 21
-0.000000000000003
 31
0.0
  0
LINE
  5
1A8
330
1E
100
AcDbEntity
  8
0
100
AcDbLine
 10
104.4
 20
2.0
 30
0.0
 11
120.0
 21
2.0
 31
0.0
  0
LINE
  5
1A9
330
1E
100
AcDbEntity
  8
0
100
AcDbLine
 10
98.84619999999999
 20
2.0
 30
0.0
 11
100.0
 21
2.0
 31
0.0
  0
LINE
  5
1AA
330
1E
100
AcDbEntity
  8
0
100
AcDbLine
 10
95.09999999999999
 20
15.0
 30
0.0
 11
100.9
 21
15.0
 31
0.0
  0
LINE
  5
1AB
330
1E
100
AcDbEntity
  8
0
100
AcDbLine
 10
104.4
 20
11.0
 30
0.0
 11
120.0
 21
11.0
 31
0.0
  0
LINE
  5
1AC
330
1E
100
AcDbEntity
  8
0
100
AcDbLine
 10
104.4
 20
3.0
 30
0.0
 11
120.0
 21
3.0
 31
0.0
  0
LINE
  5
1AD
330
1E
100
AcDbEntity
  8
0
100
AcDbLine
 10
104.4
 20
12.0
 30
0.0
 11
107.0999999999999
 21
12.0
 31
0.0
  0
LINE
  5
1AE
330
1E
100
AcDbEntity
  8
0
100
AcDbLine
 10
104.4
 20
12.0
 30
0.0
 11
120.0
 21
12.0
 31
0.0
  0
LINE
  5
1AF
330
1E
100
AcDbEntity
  8
0
100
AcDbLine
 10
106.4999999999999
 20
15.0
 30
0.0
 11
106.4999999999999
 21
117.0
 31
0.0
  0
LINE
  5
1B0
330
1E
100
AcDbEntity
  8
0
100
AcDbLine
 10
100.9
 20
15.0
 30
0.0
 11
107.0999999999999
 21
15.0
 31
0.0
  0
LINE
  5
1B1
330
1E
100
AcDbEntity
  8
0
100
AcDbLine
 10
106.4999999999999
 20
117.0
 30
0.0
 11
107.0
 21
117.0
 31
0.0
  0
LINE
  5
1B2
330
1E
100
AcDbEntity
  8
0
100
AcDbLine
 10
106.4999999999999
 20
15.0
 30
0.0
 11
106.4999999999999
 21
117.0
 31
0.0
  0
LINE
  5
1B3
330
1E
100
AcDbEntity
  8
0
100
AcDbLine
 10
107.0
 20
117.0
 30
0.0
 11
108.2999999999999
 21
117.0
 31
0.0
  0
LINE
  5
1B4
330
1E
100
AcDbEntity
  8
0
100
AcDbLine
 10
108.2999999999999
 20
117.0
 30
0.0
 11
110.4999999999999
 21
117.0
 31
0.0
  0
LINE
  5
1B5
330
1E
100
AcDbEntity
  8
0
100
AcDbLine
 10
97.80000000000001
 20
119.0
 30
0.0
 11
104.2999999999999
 21
119.0
 31
0.0
  0
LINE
  5
1B6
330
1E
100
AcDbEntity
  8
0
100
AcDbLine
 10
97.80000000000001
 20
122.0
 30
0.0
 11
104.2999999999999
 21
122.0
 31
0.0
  0
LINE
  5
1B7
330
1E
100
AcDbEntity
  8
0
100
AcDbLine
 10
104.2999999999999
 20
122.0
 30
0.0
 11
111.8999999999999
 21
122.0
 31
0.0
  0
LINE
  5
1B8
330
1E
100
AcDbEntity
  8
0
100
AcDbLine
 10
111.8999999999999
 20
122.0
 30
0.0
 11
120.0
 21
122.0
 31
0.0
  0
LINE
  5
1B9
330
1E
100
AcDbEntity
  8
0
100
AcDbLine
 10
104.2999999999999
 20
119.0
 30
0.0
 11
111.8999999999999
 21
119.0
 31
0.0
  0
LINE
  5
1BA
330
1E
100
AcDbEntity
  8
0
100
AcDbLine
 10
111.8999999999999
 20
119.0
 30
0.0
 11
120.0
 21
119.0
 31
0.0
  0
LINE
  5
1BB
330
1E
100
AcDbEntity
  8
0
100
AcDbLine
 10
110.4999999999999
 20
117.0
 30
0.0
 11
113.3
 21
117.0
 31
0.0
  0
LINE
  5
1BC
330
1E
100
AcDbEntity
  8
0
100
AcDbLine
 10
113.3
 20
117.0
 30
0.0
 11
116.5
 21
117.0
 31
0.0
  0
LINE
  5
1BD
330
1E
100
AcDbEntity
  8
0
100
AcDbLine
 10
107.0999999999999
 20
15.0
 30
0.0
 11
113.5
 21
15.0
 31
0.0
  0
LINE
  5
1BE
330
1E
100
AcDbEntity
  8
0
100
AcDbLine
 10
116.5
 20
117.0
 30
0.0
 11
120.0
 21
117.0
 31
0.0
  0
LINE
  5
1BF
330
1E
100
AcDbEntity
  8
0
100
AcDbLine
 10
113.5
 20
15.0
 30
0.0
 11
120.0
 21
15.0
 31
0.0
  0
LINE
  5
1C0
330
1E
100
AcDbEntity
  8
0
100
AcDbLine
 10
107.0999999999999
 20
12.0
 30
0.0
 11
113.5
 21
12.0
 31
0.0
  0
LINE
  5
1C1
330
1E
100
AcDbEntity
  8
0
100
AcDbLine
 10
95.09999999999999
 20
12.0
 30
0.0
 11
104.4
 21
12.0
 31
0.0
  0
LINE
  5
1C2
330
1E
100
AcDbEntity
  8
0
100
AcDbLine
 10
97.3726
 20
2.0
 30
0.0
 11
98.3286
 21
2.0
 31
0.0
  0
LINE
  5
1C3
330
1E
100
AcDbEntity
  8
0
100
AcDbLine
 10
97.3726
 20
2.0
 30
0.0
 11
97.3726
 21
-0.0000000000000021
 31
0.0
  0
LINE
  5
1C4
330
1E
100
AcDbEntity
  8
0
100
AcDbLine
 10
93.01349999999999
 20
2.0
 30
0.0
 11
94.13400000000001
 21
2.0
 31
0.0
  0
LINE
  5
1C5
330
1E
100
AcDbEntity
  8
0
100
AcDbLine
 10
93.01349999999999
 20
2.0
 30
0.0
 11
93.01349999999999
 21
-0.0000000000000017
 31
0.0
  0
LINE
  5
1C6
330
1E
100
AcDbEntity
  8
0
100
AcDbLine
 10
119.0
 20
2.0
 30
0.0
 11
119.0
 21
-0.0000000000000034
 31
0.0
  0
LINE
  5
1C7
330
1E
100
AcDbEntity
  8
0
100
AcDbLine
 10
119.0
 20
2.0
 30
0.0
 11
121.0
 21
2.0
 31
0.0
  0
LINE
  5
1C8
330
1E
100
AcDbEntity
  8
0
100
AcDbLine
 10
123.693
 20
-0.0000000000000038
 30
0.0
 11
124.2099999999999
 21
-0.0000000000000038
 31
0.0
  0
LINE
  5
1C9
330
1E
100
AcDbEntity
  8
0
100
AcDbLine
 10
123.693
 20
-0.0000000000000038
 30
0.0
 11
125.625
 21
-0.0000000000000039
 31
0.0
  0
LINE
  5
1CA
330
1E
100
AcDbEntity
  8
0
100
AcDbLine
 10
123.693
 20
-0.0000000000000038
 30
0.0
 11
123.693
 21
2.0
 31
0.0
  0
LINE
  5
1CB
330
1E
100
AcDbEntity
  8
0
100
AcDbLine
 10
127.575
 20
-0.000000000000004
 30
0.0
 11
128.0929999999999
 21
-0.000000000000004
 31
0.0
  0
LINE
  5
1CC
330
1E
100
AcDbEntity
  8
0
100
AcDbLine
 10
127.575
 20
-0.000000000000004
 30
0.0
 11
128.0929999999999
 21
-0.000000000000004
 31
0.0
  0
LINE
  5
1CD
330
1E
100
AcDbEntity
  8
0
100
AcDbLine
 10
127.575
 20
-0.000000000000004
 30
0.0
 11
127.575
 21
2.0
 31
0.0
  0
LINE
  5
1CE
330
1E
100
AcDbEntity
  8
0
100
AcDbLine
 10
130.866
 20
-0.0000000000000042
 30
0.0
 11
130.866
 21
2.0
 31
0.0
  0
LINE
  5
1CF
330
1E
100
AcDbEntity
  8
0
100
AcDbLine
 10
131.457
 20
-0.0000000000000042
 30
0.0
 11
131.9749999999999
 21
-0.0000000000000043
 31
0.0
  0
LINE
  5
1D0
330
1E
100
AcDbEntity
  8
0
100
AcDbLine
 10
131.457
 20
-0.0000000000000042
 30
0.0
 11
131.9749999999999
 21
-0.0000000000000043
 31
0.0
  0
LINE
  5
1D1
330
1E
100
AcDbEntity
  8
0
100
AcDbLine
 10
131.457
 20
-0.0000000000000042
 30
0.0
 11
131.457
 21
2.0
 31
0.0
  0
LINE
  5
1D2
330
1E
100
AcDbEntity
  8
0
100
AcDbLine
 10
135.6339999999999
 20
-0.0000000000000045
 30
0.0
 11
136.6339999999999
 21
-0.0000000000000046
 31
0.0
  0
LINE
  5
1D3
330
1E
100
AcDbEntity
  8
0
100
AcDbLine
 10
134.8489999999999
 20
-0.0000000000000044
 30
0.0
 11
134.8489999999999
 21
2.0
 31
0.0
  0
LINE
  5
1D4
330
1E
100
AcDbEntity
  8
0
100
AcDbLine
 10
135.0879999999999
 20
-0.0000000000000045
 30
0.0
 11
135.34
 21
-0.0000000000000045
 31
0.0
  0
LINE
  5
1D5
330
1E
100
AcDbEntity
  8
0
100
AcDbLine
 10
135.0879999999999
 20
-0.0000000000000045
 30
0.0
 11
135.34
 21
-0.0000000000000045
 31
0.0
  0
LINE
  5
1D6
330
1E
100
AcDbEntity
  8
0
100
AcDbLine
 10
135.0879999999999
 20
-0.0000000000000045
 30
0.0
 11
135.0879999999999
 21
2.0
 31
0.0
  0
LINE
  5
1D7
330
1E
100
AcDbEntity
  8
0
100
AcDbLine
 10
135.34
 20
-0.0000000000000045
 30
0.0
 11
135.857
 21
-0.0000000000000045
 31
0.0
  0
LINE
  5
1D8
330
1E
100
AcDbEntity
  8
0
100
AcDbLine
 10
135.34
 20
-0.0000000000000045
 30
0.0
 11
137.272
 21
-0.0000000000000046
 31
0.0
  0
LINE
  5
1D9
330
1E
100
AcDbEntity
  8
0
100
AcDbLine
 10
135.34
 20
-0.0000000000000045
 30
0.0
 11
135.34
 21
2.0
 31
0.0
  0
LINE
  5
1DA
330
1E
100
AcDbEntity
  8
0
100
AcDbLine
 10
135.34
 20
-0.0000000000000045
 30
0.0
 11
135.6339999999999
 21
-0.0000000000000045
 31
0.0
  0
LINE
  5
1DB
330
1E
100
AcDbEntity
  8
0
100
AcDbLine
 10
138.366
 20
-0.0000000000000047
 30
0.0
 11
139.74
 21
-0.0000000000000047
 31
0.0
  0
LINE
  5
1DC
330
1E
100
AcDbEntity
  8
0
100
AcDbLine
 10
138.366
 20
-0.0000000000000047
 30
0.0
 11
139.06
 21
-0.0000000000000047
 31
0.0
  0
LINE
  5
1DD
330
1E
100
AcDbEntity
  8
0
100
AcDbLine
 10
139.06
 20
-0.0000000000000047
 30
0.0
 11
139.06
 21
2.0
 31
0.0
  0
LINE
  5
1DE
330
1E
100
AcDbEntity
  8
0
100
AcDbLine
 10
139.06
 20
-0.0000000000000047
 30
0.0
 11
139.222
 21
-0.0000000000000047
 31
0.0
  0
LINE
  5
1DF
330
1E
100
AcDbEntity
  8
0
100
AcDbLine
 10
138.366
 20
-0.0000000000000047
 30
0.0
 11
138.366
 21
2.0
 31
0.0
  0
LINE
  5
1E0
330
1E
100
AcDbEntity
  8
0
100
AcDbLine
 10
139.222
 20
-0.0000000000000047
 30
0.0
 11
139.74
 21
-0.0000000000000047
 31
0.0
  0
LINE
  5
1E1
330
1E
100
AcDbEntity
  8
0
100
AcDbLine
 10
139.222
 20
-0.0000000000000047
 30
0.0
 11
139.222
 21
2.0
 31
0.0
  0
LINE
  5
1E2
330
1E
100
AcDbEntity
  8
0
100
AcDbLine
 10
142.627
 20
-0.0000000000000049
 30
0.0
 11
143.1039999999999
 21
-0.000000000000005
 31
0.0
  0
LINE
  5
1E3
330
1E
100
AcDbEntity
  8
0
100
AcDbLine
 10
142.627
 20
-0.0000000000000049
 30
0.0
 11
142.627
 21
2.0
 31
0.0
  0
LINE
  5
1E4
330
1E
100
AcDbEntity
  8
0
100
AcDbLine
 10
143.1039999999999
 20
-0.000000000000005
 30
0.0
 11
143.622
 21
-0.000000000000005
 31
0.0
  0
LINE
  5
1E5
330
1E
100
AcDbEntity
  8
0
100
AcDbLine
 10
143.1039999999999
 20
-0.000000000000005
 30
0.0
 11
143.1039999999999
 21
2.0
 31
0.0
  0
LINE
  5
1E6
330
1E
100
AcDbEntity
  8
0
100
AcDbLine
 10
145.866
 20
-0.0000000000000051
 30
0.0
 11
145.866
 21
2.0
 31
0.0
  0
LINE
  5
1E7
330
1E
100
AcDbEntity
  8
0
100
AcDbLine
 10
145.554
 20
-0.0000000000000051
 30
0.0
 11
145.866
 21
-0.0000000000000051
 31
0.0
  0
LINE
  5
1E8
330
1E
100
AcDbEntity
  8
0
100
AcDbLine
 10
146.987
 20
-0.0000000000000052
 30
0.0
 11
147.5039999999999
 21
-0.0000000000000052
 31
0.0
  0
LINE
  5
1E9
330
1E
100
AcDbEntity
  8
0
100
AcDbLine
 10
146.987
 20
-0.0000000000000052
 30
0.0
 11
148.918
 21
-0.0000000000000053
 31
0.0
  0
LINE
  5
1EA
330
1E
100
AcDbEntity
  8
0
100
AcDbLine
 10
146.987
 20
-0.0000000000000052
 30
0.0
 11
146.987
 21
2.0
 31
0.0
  0
LINE
  5
1EB
330
1E
100
AcDbEntity
  8
0
100
AcDbLine
 10
150.811
 20
-0.0000000000000054
 30
0.0
 11
151.617
 21
-0.0000000000000055
 31
0.0
  0
LINE
  5
1EC
330
1E
100
AcDbEntity
  8
0
100
AcDbLine
 10
151.617
 20
-0.0000000000000055
 30
0.0
 11
152.1339999999999
 21
-0.0000000000000055
 31
0.0
  0
LINE
  5
1ED
330
1E
100
AcDbEntity
  8
0
100
AcDbLine
 10
149.811
 20
-0.0000000000000054
 30
0.0
 11
149.811
 21
1.999999999999989
 31
0.0
  0
LINE
  5
1EE
330
1E
100
AcDbEntity
  8
0
100
AcDbLine
 10
149.811
 20
-0.0000000000000054
 30
0.0
 11
150.811
 21
-0.0000000000000054
 31
0.0
  0
LINE
  5
1EF
330
1E
100
AcDbEntity
  8
0
100
AcDbLine
 10
150.6339999999999
 20
-0.0000000000000054
 30
0.0
 11
151.6339999999999
 21
-0.0000000000000055
 31
0.0
  0
LINE
  5
1F0
330
1E
100
AcDbEntity
  8
0
100
AcDbLine
 10
150.6339999999999
 20
-0.0000000000000054
 30
0.0
 11
151.6339999999999
 21
-0.0000000000000055
 31
0.0
  0
LINE
  5
1F1
330
1E
100
AcDbEntity
  8
0
100
AcDbLine
 10
150.6339999999999
 20
-0.0000000000000054
 30
0.0
 11
150.6339999999999
 21
1.999999999999989
 31
0.0
  0
LINE
  5
1F2
330
1E
100
AcDbEntity
  8
0
100
AcDbLine
 10
156.062
 20
-0.0000000000000057
 30
0.0
 11
156.062
 21
1.999999999999989
 31
0.0
  0
LINE
  5
1F3
330
1E
100
AcDbEntity
  8
0
100
AcDbLine
 10
154.066
 20
-0.0000000000000056
 30
0.0
 11
155.0
 21
-0.0000000000000057
 31
0.0
  0
LINE
  5
1F4
330
1E
100
AcDbEntity
  8
0
100
AcDbLine
 10
154.648
 20
-0.0000000000000057
 30
0.0
 11
154.648
 21
1.999999999999989
 31
0.0
  0
LINE
  5
1F5
330
1E
100
AcDbEntity
  8
0
100
AcDbLine
 10
154.648
 20
-0.0000000000000057
 30
0.0
 11
156.062
 21
-0.0000000000000057
 31
0.0
  0
LINE
  5
1F6
330
1E
100
AcDbEntity
  8
0
100
AcDbLine
 10
153.549
 20
-0.0000000000000056
 30
0.0
 11
154.066
 21
-0.0000000000000056
 31
0.0
  0
LINE
  5
1F7
330
1E
100
AcDbEntity
  8
0
100
AcDbLine
 10
158.1339999999999
 20
-0.0000000000000059
 30
0.0
 11
159.1339999999999
 21
-0.0000000000000059
 31
0.0
  0
LINE
  5
1F8
330
1E
100
AcDbEntity
  8
0
100
AcDbLine
 10
158.1339999999999
 20
-0.0000000000000059
 30
0.0
 11
159.1339999999999
 21
-0.0000000000000059
 31
0.0
  0
LINE
  5
1F9
330
1E
100
AcDbEntity
  8
0
100
AcDbLine
 10
158.1339999999999
 20
-0.0000000000000059
 30
0.0
 11
158.1339999999999
 21
1.999999999999989
 31
0.0
  0
LINE
  5
1FA
330
1E
100
AcDbEntity
  8
0
100
AcDbLine
 10
165.2549999999999
 20
-0.0000000000000063
 30
0.0
 11
165.2549999999999
 21
1.999999999999989
 31
0.0
  0
LINE
  5
1FB
330
1E
100
AcDbEntity
  8
0
100
AcDbLine
 10
165.2549999999999
 20
-0.0000000000000063
 30
0.0
 11
166.669
 21
-0.0000000000000064
 31
0.0
  0
LINE
  5
1FC
330
1E
100
AcDbEntity
  8
0
100
AcDbLine
 10
163.8409999999999
 20
-0.0000000000000062
 30
0.0
 11
165.2549999999999
 21
-0.0000000000000063
 31
0.0
  0
LINE
  5
1FD
330
1E
100
AcDbEntity
  8
0
100
AcDbLine
 10
163.8409999999999
 20
-0.0000000000000062
 30
0.0
 11
163.8409999999999
 21
1.999999999999989
 31
0.0
  0
LINE
  5
1FE
330
1E
100
AcDbEntity
  8
0
100
AcDbLine
 10
163.801
 20
-0.0000000000000062
 30
0.0
 11
163.801
 21
1.999999999999989
 31
0.0
  0
LINE
  5
1FF
330
1E
100
AcDbEntity
  8
0
100
AcDbLine
 10
162.801
 20
-0.0000000000000062
 30
0.0
 11
162.801
 21
1.999999999999989
 31
0.0
  0
LINE
  5
200
330
1E
100
AcDbEntity
  8
0
100
AcDbLine
 10
162.801
 20
-0.0000000000000062
 30
0.0
 11
163.801
 21
-0.0000000000000062
 31
0.0
  0
LINE
  5
201
330
1E
100
AcDbEntity
  8
0
100
AcDbLine
 10
161.0689999999999
 20
-0.0000000000000061
 30
0.0
 11
162.801
 21
-0.0000000000000062
 31
0.0
  0
LINE
  5
202
330
1E
100
AcDbEntity
  8
0
100
AcDbLine
 10
161.0689999999999
 20
-0.0000000000000061
 30
0.0
 11
161.0689999999999
 21
1.999999999999989
 31
0.0
  0
LINE
  5
203
330
1E
100
AcDbEntity
  8
0
100
AcDbLine
 10
165.634
 20
-0.0000000000000063
 30
0.0
 11
166.634
 21
-0.0000000000000064
 31
0.0
  0
LINE
  5
204
330
1E
100
AcDbEntity
  8
0
100
AcDbLine
 10
165.634
 20
-0.0000000000000063
 30
0.0
 11
167.3659999999999
 21
-0.0000000000000064
 31
0.0
  0
LINE
  5
205
330
1E
100
AcDbEntity
  8
0
100
AcDbLine
 10
165.634
 20
-0.0000000000000063
 30
0.0
 11
165.634
 21
1.999999999999989
 31
0.0
  0
LINE
  5
206
330
1E
100
AcDbEntity
  8
0
100
AcDbLine
 10
174.134
 20
-0.0000000000000069
 30
0.0
 11
175.06
 21
-0.0000000000000069
 31
0.0
  0
LINE
  5
207
330
1E
100
AcDbEntity
  8
0
100
AcDbLine
 10
170.0
 20
-0.0000000000000066
 30
0.0
 11
170.0
 21
1.999999999999989
 31
0.0
  0
LINE
  5
208
330
1E
100
AcDbEntity
  8
0
100
AcDbLine
 10
168.555
 20
-0.0000000000000065
 30
0.0
 11
168.555
 21
1.999999999999989
 31
0.0
  0
LINE
  5
209
330
1E
100
AcDbEntity
  8
0
100
AcDbLine
 10
173.134
 20
-0.0000000000000068
 30
0.0
 11
174.134
 21
-0.0000000000000069
 31
0.0
  0
LINE
  5
20A
330
1E
100
AcDbEntity
  8
0
100
AcDbLine
 10
173.134
 20
-0.0000000000000068
 30
0.0
 11
174.8659999999999
 21
-0.0000000000000069
 31
0.0
  0
LINE
  5
20B
330
1E
100
AcDbEntity
  8
0
100
AcDbLine
 10
173.134
 20
-0.0000000000000068
 30
0.0
 11
173.134
 21
1.999999999999989
 31
0.0
  0
LINE
  5
20C
330
1E
100
AcDbEntity
  8
0
100
AcDbLine
 10
173.134
 20
-0.0000000000000068
 30
0.0
 11
174.06
 21
-0.0000000000000068
 31
0.0
  0
LINE
  5
20D
330
1E
100
AcDbEntity
  8
0
100
AcDbLine
 10
176.792
 20
-0.000000000000007
 30
0.0
 11
177.2759999999999
 21
-0.000000000000007
 31
0.0
  0
LINE
  5
20E
330
1E
100
AcDbEntity
  8
0
100
AcDbLine
 10
177.2759999999999
 20
-0.000000000000007
 30
0.0
 11
177.2759999999999
 21
1.999999999999989
 31
0.0
  0
LINE
  5
20F
330
1E
100
AcDbEntity
  8
0
100
AcDbLine
 10
183.0
 20
-0.0000000000000074
 30
0.0
 11
185.0
 21
-0.0000000000000075
 31
0.0
  0
LINE
  5
210
330
1E
100
AcDbEntity
  8
0
100
AcDbLine
 10
187.882
 20
-0.0000000000000077
 30
0.0
 11
187.882
 21
1.999999999999989
 31
0.0
  0
LINE
  5
211
330
1E
100
AcDbEntity
  8
0
100
AcDbLine
 10
197.0749999999999
 20
-0.0000000000000083
 30
0.0
 11
197.0749999999999
 21
1.999999999999989
 31
0.0
  0
LINE
  5
212
330
1E
100
AcDbEntity
  8
0
100
AcDbLine
 10
197.0749999999999
 20
-0.0000000000000083
 30
0.0
 11
198.489
 21
-0.0000000000000083
 31
0.0
  0
LINE
  5
213
330
1E
100
AcDbEntity
  8
0
100
AcDbLine
 10
195.66
 20
-0.0000000000000082
 30
0.0
 11
197.0749999999999
 21
-0.0000000000000083
 31
0.0
  0
LINE
  5
214
330
1E
100
AcDbEntity
  8
0
100
AcDbLine
 10
195.66
 20
-0.0000000000000082
 30
0.0
 11
195.66
 21
1.999999999999989
 31
0.0
  0
LINE
  5
215
330
1E
100
AcDbEntity
  8
0
100
AcDbLine
 10
195.601
 20
-0.0000000000000082
 30
0.0
 11
195.66
 21
-0.0000000000000082
 31
0.0
  0
LINE
  5
216
330
1E
100
AcDbEntity
  8
0
100
AcDbLine
 10
197.0749999999999
 20
-0.0000000000000083
 30
0.0
 11
197.5329999999999
 21
-0.0000000000000083
 31
0.0
  0
LINE
  5
217
330
1E
100
AcDbEntity
  8
0
100
AcDbLine
 10
200.0
 20
-0.0000000000000084
 30
0.0
 11
200.0
 21
1.999999999999989
 31
0.0
  0
LINE
  5
218
330
1E
100
AcDbEntity
  8
0
100
AcDbLine
 10
198.489
 20
-0.0000000000000083
 30
0.0
 11
200.0
 21
-0.0000000000000084
 31
0.0
  0
LINE
  5
219
330
1E
100
AcDbEntity
  8
0
100
AcDbLine
 10
198.489
 20
-0.0000000000000083
 30
0.0
 11
198.489
 21
1.999999999999989
 31
0.0
  0
LINE
  5
21A
330
1E
100
AcDbEntity
  8
0
100
AcDbLine
 10
197.0749999999999
 20
-0.0000000000000083
 30
0.0
 11
197.5329999999999
 21
-0.0000000000000083
 31
0.0
  0
LINE
  5
21B
330
1E
100
AcDbEntity
  8
0
100
AcDbLine
 10
195.083
 20
-0.0000000000000081
 30
0.0
 11
195.66
 21
-0.0000000000000082
 31
0.0
  0
LINE
  5
21C
330
1E
100
AcDbEntity
  8
0
100
AcDbLine
 10
195.083
 20
-0.0000000000000081
 30
0.0
 11
195.083
 21
1.999999999999989
 31
0.0
  0
LINE
  5
21D
330
1E
100
AcDbEntity
  8
0
100
AcDbLine
 10
195.083
 20
-0.0000000000000081
 30
0.0
 11
195.601
 21
-0.0000000000000082
 31
0.0
  0
LINE
  5
21E
330
1E
100
AcDbEntity
  8
0
100
AcDbLine
 10
210.09
 20
-0.0000000000000091
 30
0.0
 11
211.504
 21
-0.0000000000000091
 31
0.0
  0
LINE
  5
21F
330
1E
100
AcDbEntity
  8
0
100
AcDbLine
 10
215.763
 20
-0.0000000000000094
 30
0.0
 11
215.763
 21
1.999999999999989
 31
0.0
  0
LINE
  5
220
330
1E
100
AcDbEntity
  8
0
100
AcDbLine
 10
214.7629999999999
 20
-0.0000000000000093
 30
0.0
 11
214.7629999999999
 21
1.999999999999989
 31
0.0
  0
LINE
  5
221
330
1E
100
AcDbEntity
  8
0
100
AcDbLine
 10
214.7629999999999
 20
-0.0000000000000093
 30
0.0
 11
215.763
 21
-0.0000000000000094
 31
0.0
  0
LINE
  5
222
330
1E
100
AcDbEntity
  8
0
100
AcDbLine
 10
213.0
 20
-0.0000000000000092
 30
0.0
 11
214.7629999999999
 21
-0.0000000000000093
 31
0.0
  0
LINE
  5
223
330
1E
100
AcDbEntity
  8
0
100
AcDbLine
 10
213.0
 20
-0.0000000000000092
 30
0.0
 11
213.0
 21
1.999999999999989
 31
0.0
  0
LINE
  5
224
330
1E
100
AcDbEntity
  8
0
100
AcDbLine
 10
213.0309999999999
 20
-0.0000000000000092
 30
0.0
 11
214.7629999999999
 21
-0.0000000000000093
 31
0.0
  0
LINE
  5
225
330
1E
100
AcDbEntity
  8
0
100
AcDbLine
 10
213.0309999999999
 20
-0.0000000000000092
 30
0.0
 11
213.0309999999999
 21
1.999999999999989
 31
0.0
  0
LINE
  5
226
330
1E
100
AcDbEntity
  8
0
100
AcDbLine
 10
230.0
 20
-0.0000000000000103
 30
0.0
 11
230.0
 21
1.999999999999989
 31
0.0
  0
LINE
  5
227
330
1E
100
AcDbEntity
  8
0
100
AcDbLine
 10
228.0
 20
-0.0000000000000102
 30
0.0
 11
230.0
 21
-0.0000000000000103
 31
0.0
  0
LINE
  5
228
330
1E
100
AcDbEntity
  8
0
100
AcDbLine
 10
228.0
 20
-0.0000000000000102
 30
0.0
 11
228.0
 21
1.999999999999989
 31
0.0
  0
LINE
  5
229
330
1E
100
AcDbEntity
  8
0
100
AcDbLine
 10
226.5109999999999
 20
-0.0000000000000101
 30
0.0
 11
226.5109999999999
 21
1.999999999999989
 31
0.0
  0
LINE
  5
22A
330
1E
100
AcDbEntity
  8
0
100
AcDbLine
 10
224.5789999999999
 20
-0.0000000000000099
 30
0.0
 11
226.5109999999999
 21
-0.0000000000000101
 31
0.0
  0
LINE
  5
22B
330
1E
100
AcDbEntity
  8
0
100
AcDbLine
 10
225.993
 20
-0.00000000000001
 30
0.0
 11
225.993
 21
1.999999999999989
 31
0.0
  0
LINE
  5
22C
330
1E
100
AcDbEntity
  8
0
100
AcDbLine
 10
225.993
 20
-0.00000000000001
 30
0.0
 11
226.5109999999999
 21
-0.0000000000000101
 31
0.0
  0
LINE
  5
22D
330
1E
100
AcDbEntity
  8
0
100
AcDbLine
 10
224.0609999999999
 20
-0.0000000000000099
 30
0.0
 11
225.993
 21
-0.00000000000001
 31
0.0
  0
LINE
  5
22E
330
1E
100
AcDbEntity
  8
0
100
AcDbLine
 10
224.0609999999999
 20
-0.0000000000000099
 30
0.0
 11
224.0609999999999
 21
1.999999999999989
 31
0.0
  0
LINE
  5
22F
330
1E
100
AcDbEntity
  8
0
100
AcDbLine
 10
224.0609999999999
 20
-0.0000000000000099
 30
0.0
 11
224.5789999999999
 21
-0.0000000000000099
 31
0.0
  0
LINE
  5
230
330
1E
100
AcDbEntity
  8
0
100
AcDbLine
 10
212.022
 20
-0.0000000000000092
 30
0.0
 11
212.022
 21
1.999999999999989
 31
0.0
  0
LINE
  5
231
330
1E
100
AcDbEntity
  8
0
100
AcDbLine
 10
211.504
 20
-0.0000000000000091
 30
0.0
 11
211.504
 21
1.999999999999989
 31
0.0
  0
LINE
  5
232
330
1E
100
AcDbEntity
  8
0
100
AcDbLine
 10
211.504
 20
-0.0000000000000091
 30
0.0
 11
212.022
 21
-0.0000000000000092
 31
0.0
  0
LINE
  5
233
330
1E
100
AcDbEntity
  8
0
100
AcDbLine
 10
209.572
 20
-0.000000000000009
 30
0.0
 11
211.504
 21
-0.0000000000000091
 31
0.0
  0
LINE
  5
234
330
1E
100
AcDbEntity
  8
0
100
AcDbLine
 10
209.572
 20
-0.000000000000009
 30
0.0
 11
210.09
 21
-0.0000000000000091
 31
0.0
  0
LINE
  5
235
330
1E
100
AcDbEntity
  8
0
100
AcDbLine
 10
209.572
 20
-0.000000000000009
 30
0.0
 11
209.572
 21
1.999999999999989
 31
0.0
  0
LINE
  5
236
330
1E
100
AcDbEntity
  8
0
100
AcDbLine
 10
202.772
 20
-0.0000000000000086
 30
0.0
 11
202.772
 21
1.999999999999989
 31
0.0
  0
LINE
  5
237
330
1E
100
AcDbEntity
  8
0
100
AcDbLine
 10
201.0399999999999
 20
-0.0000000000000085
 30
0.0
 11
202.772
 21
-0.0000000000000086
 31
0.0
  0
LINE
  5
238
330
1E
100
AcDbEntity
  8
0
100
AcDbLine
 10
201.772
 20
-0.0000000000000085
 30
0.0
 11
201.772
 21
1.999999999999989
 31
0.0
  0
LINE
  5
239
330
1E
100
AcDbEntity
  8
0
100
AcDbLine
 10
201.772
 20
-0.0000000000000085
 30
0.0
 11
202.772
 21
-0.0000000000000086
 31
0.0
  0
LINE
  5
23A
330
1E
100
AcDbEntity
  8
0
100
AcDbLine
 10
200.0399999999999
 20
-0.0000000000000084
 30
0.0
 11
201.772
 21
-0.0000000000000085
 31
0.0
  0
LINE
  5
23B
330
1E
100
AcDbEntity
  8
0
100
AcDbLine
 10
200.0399999999999
 20
-0.0000000000000084
 30
0.0
 11
201.0399999999999
 21
-0.0000000000000085
 31
0.0
  0
LINE
  5
23C
330
1E
100
AcDbEntity
  8
0
100
AcDbLine
 10
200.0399999999999
 20
-0.0000000000000084
 30
0.0
 11
200.0399999999999
 21
1.999999999999989
 31
0.0
  0
LINE
  5
23D
330
1E
100
AcDbEntity
  8
0
100
AcDbLine
 10
189.782
 20
-0.0000000000000078
 30
0.0
 11
189.782
 21
1.999999999999989
 31
0.0
  0
LINE
  5
23E
330
1E
100
AcDbEntity
  8
0
100
AcDbLine
 10
188.7819999999999
 20
-0.0000000000000077
 30
0.0
 11
188.7819999999999
 21
1.999999999999989
 31
0.0
  0
LINE
  5
23F
330
1E
100
AcDbEntity
  8
0
100
AcDbLine
 10
188.7819999999999
 20
-0.0000000000000077
 30
0.0
 11
189.782
 21
-0.0000000000000078
 31
0.0
  0
LINE
  5
240
330
1E
100
AcDbEntity
  8
0
100
AcDbLine
 10
185.0
 20
-0.0000000000000075
 30
0.0
 11
185.0
 21
1.999999999999989
 31
0.0
  0
LINE
  5
241
330
1E
100
AcDbEntity
  8
0
100
AcDbLine
 10
186.4679999999999
 20
-0.0000000000000076
 30
0.0
 11
186.4679999999999
 21
1.999999999999989
 31
0.0
  0
LINE
  5
242
330
1E
100
AcDbEntity
  8
0
100
AcDbLine
 10
186.4679999999999
 20
-0.0000000000000076
 30
0.0
 11
187.882
 21
-0.0000000000000077
 31
0.0
  0
LINE
  5
243
330
1E
100
AcDbEntity
  8
0
100
AcDbLine
 10
185.054
 20
-0.0000000000000075
 30
0.0
 11
186.4679999999999
 21
-0.0000000000000076
 31
0.0
  0
LINE
  5
244
330
1E
100
AcDbEntity
  8
0
100
AcDbLine
 10
185.054
 20
-0.0000000000000075
 30
0.0
 11
185.054
 21
1.999999999999989
 31
0.0
  0
LINE
  5
245
330
1E
100
AcDbEntity
  8
0
100
AcDbLine
 10
187.05
 20
-0.0000000000000076
 30
0.0
 11
188.7819999999999
 21
-0.0000000000000077
 31
0.0
  0
LINE
  5
246
330
1E
100
AcDbEntity
  8
0
100
AcDbLine
 10
183.044
 20
-0.0000000000000074
 30
0.0
 11
183.044
 21
1.999999999999989
 31
0.0
  0
LINE
  5
247
330
1E
100
AcDbEntity
  8
0
100
AcDbLine
 10
181.112
 20
-0.0000000000000073
 30
0.0
 11
182.5259999999999
 21
-0.0000000000000074
 31
0.0
  0
LINE
  5
248
330
1E
100
AcDbEntity
  8
0
100
AcDbLine
 10
182.5259999999999
 20
-0.0000000000000074
 30
0.0
 11
182.5259999999999
 21
1.999999999999989
 31
0.0
  0
LINE
  5
249
330
1E
100
AcDbEntity
  8
0
100
AcDbLine
 10
182.5259999999999
 20
-0.0000000000000074
 30
0.0
 11
183.044
 21
-0.0000000000000074
 31
0.0
  0
LINE
  5
24A
330
1E
100
AcDbEntity
  8
0
100
AcDbLine
 10
180.5949999999999
 20
-0.0000000000000072
 30
0.0
 11
182.5259999999999
 21
-0.0000000000000074
 31
0.0
  0
LINE
  5
24B
330
1E
100
AcDbEntity
  8
0
100
AcDbLine
 10
180.5949999999999
 20
-0.0000000000000072
 30
0.0
 11
181.112
 21
-0.0000000000000073
 31
0.0
  0
LINE
  5
24C
330
1E
100
AcDbEntity
  8
0
100
AcDbLine
 10
180.5949999999999
 20
-0.0000000000000072
 30
0.0
 11
180.5949999999999
 21
1.999999999999989
 31
0.0
  0
LINE
  5
24D
330
1E
100
AcDbEntity
  8
0
100
AcDbLine
 10
174.4469999999999
 20
-0.0000000000000069
 30
0.0
 11
175.861
 21
-0.000000000000007
 31
0.0
  0
LINE
  5
24E
330
1E
100
AcDbEntity
  8
0
100
AcDbLine
 10
174.8659999999999
 20
-0.0000000000000069
 30
0.0
 11
175.792
 21
-0.000000000000007
 31
0.0
  0
LINE
  5
24F
330
1E
100
AcDbEntity
  8
0
100
AcDbLine
 10
175.861
 20
-0.000000000000007
 30
0.0
 11
177.2759999999999
 21
-0.000000000000007
 31
0.0
  0
LINE
  5
250
330
1E
100
AcDbEntity
  8
0
100
AcDbLine
 10
175.06
 20
-0.0000000000000069
 30
0.0
 11
175.792
 21
-0.000000000000007
 31
0.0
  0
LINE
  5
251
330
1E
100
AcDbEntity
  8
0
100
AcDbLine
 10
175.792
 20
-0.000000000000007
 30
0.0
 11
176.792
 21
-0.000000000000007
 31
0.0
  0
LINE
  5
252
330
1E
100
AcDbEntity
  8
0
100
AcDbLine
 10
174.8659999999999
 20
-0.0000000000000069
 30
0.0
 11
175.8659999999999
 21
-0.000000000000007
 31
0.0
  0
LINE
  5
253
330
1E
100
AcDbEntity
  8
0
100
AcDbLine
 10
175.8659999999999
 20
-0.000000000000007
 30
0.0
 11
175.8659999999999
 21
1.999999999999989
 31
0.0
  0
LINE
  5
254
330
1E
100
AcDbEntity
  8
0
100
AcDbLine
 10
174.134
 20
-0.0000000000000069
 30
0.0
 11
174.134
 21
1.999999999999989
 31
0.0
  0
LINE
  5
255
330
1E
100
AcDbEntity
  8
0
100
AcDbLine
 10
174.134
 20
-0.0000000000000069
 30
0.0
 11
175.8659999999999
 21
-0.000000000000007
 31
0.0
  0
LINE
  5
256
330
1E
100
AcDbEntity
  8
0
100
AcDbLine
 10
166.669
 20
-0.0000000000000064
 30
0.0
 11
168.037
 21
-0.0000000000000065
 31
0.0
  0
LINE
  5
257
330
1E
100
AcDbEntity
  8
0
100
AcDbLine
 10
168.037
 20
-0.0000000000000065
 30
0.0
 11
170.0
 21
-0.0000000000000066
 31
0.0
  0
LINE
  5
258
330
1E
100
AcDbEntity
  8
0
100
AcDbLine
 10
168.037
 20
-0.0000000000000065
 30
0.0
 11
168.555
 21
-0.0000000000000065
 31
0.0
  0
LINE
  5
259
330
1E
100
AcDbEntity
  8
0
100
AcDbLine
 10
167.3659999999999
 20
-0.0000000000000064
 30
0.0
 11
168.3659999999999
 21
-0.0000000000000065
 31
0.0
  0
LINE
  5
25A
330
1E
100
AcDbEntity
  8
0
100
AcDbLine
 10
168.3659999999999
 20
-0.0000000000000065
 30
0.0
 11
168.3659999999999
 21
1.999999999999989
 31
0.0
  0
LINE
  5
25B
330
1E
100
AcDbEntity
  8
0
100
AcDbLine
 10
166.634
 20
-0.0000000000000064
 30
0.0
 11
166.634
 21
1.999999999999989
 31
0.0
  0
LINE
  5
25C
330
1E
100
AcDbEntity
  8
0
100
AcDbLine
 10
166.634
 20
-0.0000000000000064
 30
0.0
 11
168.3659999999999
 21
-0.0000000000000065
 31
0.0
  0
LINE
  5
25D
330
1E
100
AcDbEntity
  8
0
100
AcDbLine
 10
160.866
 20
-0.000000000000006
 30
0.0
 11
160.866
 21
1.999999999999989
 31
0.0
  0
LINE
  5
25E
330
1E
100
AcDbEntity
  8
0
100
AcDbLine
 10
159.1339999999999
 20
-0.0000000000000059
 30
0.0
 11
159.1339999999999
 21
1.999999999999989
 31
0.0
  0
LINE
  5
25F
330
1E
100
AcDbEntity
  8
0
100
AcDbLine
 10
159.1339999999999
 20
-0.0000000000000059
 30
0.0
 11
160.866
 21
-0.000000000000006
 31
0.0
  0
LINE
  5
260
330
1E
100
AcDbEntity
  8
0
100
AcDbLine
 10
153.366
 20
-0.0000000000000056
 30
0.0
 11
154.648
 21
-0.0000000000000057
 31
0.0
  0
LINE
  5
261
330
1E
100
AcDbEntity
  8
0
100
AcDbLine
 10
152.1339999999999
 20
-0.0000000000000055
 30
0.0
 11
153.549
 21
-0.0000000000000056
 31
0.0
  0
LINE
  5
262
330
1E
100
AcDbEntity
  8
0
100
AcDbLine
 10
153.366
 20
-0.0000000000000056
 30
0.0
 11
153.549
 21
-0.0000000000000056
 31
0.0
  0
LINE
  5
263
330
1E
100
AcDbEntity
  8
0
100
AcDbLine
 10
153.366
 20
-0.0000000000000056
 30
0.0
 11
153.366
 21
1.999999999999989
 31
0.0
  0
LINE
  5
264
330
1E
100
AcDbEntity
  8
0
100
AcDbLine
 10
151.6339999999999
 20
-0.0000000000000055
 30
0.0
 11
151.6339999999999
 21
1.999999999999989
 31
0.0
  0
LINE
  5
265
330
1E
100
AcDbEntity
  8
0
100
AcDbLine
 10
151.6339999999999
 20
-0.0000000000000055
 30
0.0
 11
153.366
 21
-0.0000000000000056
 31
0.0
  0
LINE
  5
266
330
1E
100
AcDbEntity
  8
0
100
AcDbLine
 10
149.436
 20
-0.0000000000000053
 30
0.0
 11
150.811
 21
-0.0000000000000054
 31
0.0
  0
LINE
  5
267
330
1E
100
AcDbEntity
  8
0
100
AcDbLine
 10
149.436
 20
-0.0000000000000053
 30
0.0
 11
149.811
 21
-0.0000000000000054
 31
0.0
  0
LINE
  5
268
330
1E
100
AcDbEntity
  8
0
100
AcDbLine
 10
148.918
 20
-0.0000000000000053
 30
0.0
 11
149.436
 21
-0.0000000000000053
 31
0.0
  0
LINE
  5
269
330
1E
100
AcDbEntity
  8
0
100
AcDbLine
 10
149.436
 20
-0.0000000000000053
 30
0.0
 11
149.436
 21
1.999999999999989
 31
0.0
  0
LINE
  5
26A
330
1E
100
AcDbEntity
  8
0
100
AcDbLine
 10
147.5039999999999
 20
-0.0000000000000052
 30
0.0
 11
147.5039999999999
 21
2.0
 31
0.0
  0
LINE
  5
26B
330
1E
100
AcDbEntity
  8
0
100
AcDbLine
 10
147.5039999999999
 20
-0.0000000000000052
 30
0.0
 11
149.436
 21
-0.0000000000000053
 31
0.0
  0
LINE
  5
26C
330
1E
100
AcDbEntity
  8
0
100
AcDbLine
 10
145.036
 20
-0.0000000000000051
 30
0.0
 11
145.554
 21
-0.0000000000000051
 31
0.0
  0
LINE
  5
26D
330
1E
100
AcDbEntity
  8
0
100
AcDbLine
 10
145.554
 20
-0.0000000000000051
 30
0.0
 11
145.554
 21
2.0
 31
0.0
  0
LINE
  5
26E
330
1E
100
AcDbEntity
  8
0
100
AcDbLine
 10
143.622
 20
-0.000000000000005
 30
0.0
 11
143.622
 21
2.0
 31
0.0
  0
LINE
  5
26F
330
1E
100
AcDbEntity
  8
0
100
AcDbLine
 10
143.622
 20
-0.000000000000005
 30
0.0
 11
145.554
 21
-0.0000000000000051
 31
0.0
  0
LINE
  5
270
330
1E
100
AcDbEntity
  8
0
100
AcDbLine
 10
143.622
 20
-0.000000000000005
 30
0.0
 11
144.866
 21
-0.0000000000000051
 31
0.0
  0
LINE
  5
271
330
1E
100
AcDbEntity
  8
0
100
AcDbLine
 10
141.154
 20
-0.0000000000000048
 30
0.0
 11
141.6709999999999
 21
-0.0000000000000049
 31
0.0
  0
LINE
  5
272
330
1E
100
AcDbEntity
  8
0
100
AcDbLine
 10
141.6709999999999
 20
-0.0000000000000049
 30
0.0
 11
141.6709999999999
 21
2.0
 31
0.0
  0
LINE
  5
273
330
1E
100
AcDbEntity
  8
0
100
AcDbLine
 10
139.74
 20
-0.0000000000000047
 30
0.0
 11
139.74
 21
2.0
 31
0.0
  0
LINE
  5
274
330
1E
100
AcDbEntity
  8
0
100
AcDbLine
 10
139.74
 20
-0.0000000000000047
 30
0.0
 11
141.6709999999999
 21
-0.0000000000000049
 31
0.0
  0
LINE
  5
275
330
1E
100
AcDbEntity
  8
0
100
AcDbLine
 10
139.74
 20
-0.0000000000000047
 30
0.0
 11
141.154
 21
-0.0000000000000048
 31
0.0
  0
LINE
  5
276
330
1E
100
AcDbEntity
  8
0
100
AcDbLine
 10
136.0879999999999
 20
-0.0000000000000045
 30
0.0
 11
136.6339999999999
 21
-0.0000000000000046
 31
0.0
  0
LINE
  5
277
330
1E
100
AcDbEntity
  8
0
100
AcDbLine
 10
136.6339999999999
 20
-0.0000000000000046
 30
0.0
 11
138.366
 21
-0.0000000000000047
 31
0.0
  0
LINE
  5
278
330
1E
100
AcDbEntity
  8
0
100
AcDbLine
 10
137.272
 20
-0.0000000000000046
 30
0.0
 11
137.7889999999999
 21
-0.0000000000000046
 31
0.0
  0
LINE
  5
279
330
1E
100
AcDbEntity
  8
0
100
AcDbLine
 10
137.7889999999999
 20
-0.0000000000000046
 30
0.0
 11
137.7889999999999
 21
2.0
 31
0.0
  0
LINE
  5
27A
330
1E
100
AcDbEntity
  8
0
100
AcDbLine
 10
135.857
 20
-0.0000000000000045
 30
0.0
 11
135.857
 21
2.0
 31
0.0
  0
LINE
  5
27B
330
1E
100
AcDbEntity
  8
0
100
AcDbLine
 10
135.857
 20
-0.0000000000000045
 30
0.0
 11
137.7889999999999
 21
-0.0000000000000046
 31
0.0
  0
LINE
  5
27C
330
1E
100
AcDbEntity
  8
0
100
AcDbLine
 10
133.435
 20
-0.0000000000000044
 30
0.0
 11
133.907
 21
-0.0000000000000044
 31
0.0
  0
LINE
  5
27D
330
1E
100
AcDbEntity
  8
0
100
AcDbLine
 10
133.907
 20
-0.0000000000000044
 30
0.0
 11
134.8489999999999
 21
-0.0000000000000044
 31
0.0
  0
LINE
  5
27E
330
1E
100
AcDbEntity
  8
0
100
AcDbLine
 10
132.021
 20
-0.0000000000000043
 30
0.0
 11
133.435
 21
-0.0000000000000044
 31
0.0
  0
LINE
  5
27F
330
1E
100
AcDbEntity
  8
0
100
AcDbLine
 10
133.907
 20
-0.0000000000000044
 30
0.0
 11
133.907
 21
2.0
 31
0.0
  0
LINE
  5
280
330
1E
100
AcDbEntity
  8
0
100
AcDbLine
 10
131.9749999999999
 20
-0.0000000000000043
 30
0.0
 11
131.9749999999999
 21
2.0
 31
0.0
  0
LINE
  5
281
330
1E
100
AcDbEntity
  8
0
100
AcDbLine
 10
131.9749999999999
 20
-0.0000000000000043
 30
0.0
 11
133.907
 21
-0.0000000000000044
 31
0.0
  0
LINE
  5
282
330
1E
100
AcDbEntity
  8
0
100
AcDbLine
 10
129.1339999999999
 20
-0.0000000000000041
 30
0.0
 11
130.866
 21
-0.0000000000000042
 31
0.0
  0
LINE
  5
283
330
1E
100
AcDbEntity
  8
0
100
AcDbLine
 10
130.025
 20
-0.0000000000000042
 30
0.0
 11
130.025
 21
2.0
 31
0.0
  0
LINE
  5
284
330
1E
100
AcDbEntity
  8
0
100
AcDbLine
 10
128.0929999999999
 20
-0.000000000000004
 30
0.0
 11
128.0929999999999
 21
2.0
 31
0.0
  0
LINE
  5
285
330
1E
100
AcDbEntity
  8
0
100
AcDbLine
 10
128.0929999999999
 20
-0.000000000000004
 30
0.0
 11
130.025
 21
-0.0000000000000042
 31
0.0
  0
LINE
  5
286
330
1E
100
AcDbEntity
  8
0
100
AcDbLine
 10
125.625
 20
-0.0000000000000039
 30
0.0
 11
126.142
 21
-0.0000000000000039
 31
0.0
  0
LINE
  5
287
330
1E
100
AcDbEntity
  8
0
100
AcDbLine
 10
126.142
 20
-0.0000000000000039
 30
0.0
 11
126.142
 21
2.0
 31
0.0
  0
LINE
  5
288
330
1E
100
AcDbEntity
  8
0
100
AcDbLine
 10
124.2099999999999
 20
-0.0000000000000038
 30
0.0
 11
124.2099999999999
 21
2.0
 31
0.0
  0
LINE
  5
289
330
1E
100
AcDbEntity
  8
0
100
AcDbLine
 10
124.2099999999999
 20
-0.0000000000000038
 30
0.0
 11
126.142
 21
-0.0000000000000039
 31
0.0
  0
LINE
  5
28A
330
1E
100
AcDbEntity
  8
0
100
AcDbLine
 10
120.0
 20
122.0
 30
0.0
 11
128.0999999999999
 21
122.0
 31
0.0
  0
LINE
  5
28B
330
1E
100
AcDbEntity
  8
0
100
AcDbLine
 10
120.0
 20
119.0
 30
0.0
 11
128.0999999999999
 21
119.0
 31
0.0
  0
LINE
  5
28C
330
1E
100
AcDbEntity
  8
0
100
AcDbLine
 10
120.0
 20
117.0
 30
0.0
 11
123.5
 21
117.0
 31
0.0
  0
LINE
  5
28D
330
1E
100
AcDbEntity
  8
0
100
AcDbLine
 10
120.0
 20
15.0
 30
0.0
 11
126.5
 21
15.0
 31
0.0
  0
LINE
  5
28E
330
1E
100
AcDbEntity
  8
0
100
AcDbLine
 10
120.0
 20
12.0
 30
0.0
 11
135.5999999999999
 21
12.0
 31
0.0
  0
LINE
  5
28F
330
1E
100
AcDbEntity
  8
0
100
AcDbLine
 10
120.0
 20
11.0
 30
0.0
 11
135.5999999999999
 21
11.0
 31
0.0
  0
LINE
  5
290
330
1E
100
AcDbEntity
  8
0
100
AcDbLine
 10
120.0
 20
3.0
 30
0.0
 11
135.5999999999999
 21
3.0
 31
0.0
  0
LINE
  5
291
330
1E
100
AcDbEntity
  8
0
100
AcDbLine
 10
120.0
 20
2.0
 30
0.0
 11
135.5999999999999
 21
2.0
 31
0.0
  0
LINE
  5
292
330
1E
100
AcDbEntity
  8
0
100
AcDbLine
 10
130.866
 20
2.0
 30
0.0
 11
130.866
 21
-0.0000000000000042
 31
0.0
  0
LINE
  5
293
330
1E
100
AcDbEntity
  8
0
100
AcDbLine
 10
134.8489999999999
 20
2.0
 30
0.0
 11
134.8489999999999
 21
-0.0000000000000047
 31
0.0
  0
LINE
  5
294
330
1E
100
AcDbEntity
  8
0
100
AcDbLine
 10
135.0879999999999
 20
2.0
 30
0.0
 11
135.0879999999999
 21
-0.0000000000000047
 31
0.0
  0
LINE
  5
295
330
1E
100
AcDbEntity
  8
0
100
AcDbLine
 10
135.0879999999999
 20
2.0
 30
0.0
 11
135.34
 21
2.0
 31
0.0
  0
LINE
  5
296
330
1E
100
AcDbEntity
  8
0
100
AcDbLine
 10
135.5999999999999
 20
2.0
 30
0.0
 11
150.6999999999999
 21
1.999999999999989
 31
0.0
  0
LINE
  5
297
330
1E
100
AcDbEntity
  8
0
100
AcDbLine
 10
139.06
 20
2.0
 30
0.0
 11
139.06
 21
-0.0000000000000047
 31
0.0
  0
LINE
  5
298
330
1E
100
AcDbEntity
  8
0
100
AcDbLine
 10
138.366
 20
2.0
 30
0.0
 11
138.366
 21
-0.0000000000000047
 31
0.0
  0
LINE
  5
299
330
1E
100
AcDbEntity
  8
0
100
AcDbLine
 10
141.6709999999999
 20
2.0
 30
0.0
 11
142.627
 21
2.0
 31
0.0
  0
LINE
  5
29A
330
1E
100
AcDbEntity
  8
0
100
AcDbLine
 10
142.627
 20
2.0
 30
0.0
 11
142.627
 21
-0.0000000000000051
 31
0.0
  0
LINE
  5
29B
330
1E
100
AcDbEntity
  8
0
100
AcDbLine
 10
145.866
 20
2.0
 30
0.0
 11
145.866
 21
-0.0000000000000051
 31
0.0
  0
LINE
  5
29C
330
1E
100
AcDbEntity
  8
0
100
AcDbLine
 10
145.866
 20
2.0
 30
0.0
 11
146.987
 21
1.999999999999989
 31
0.0
  0
LINE
  5
29D
330
1E
100
AcDbEntity
  8
0
100
AcDbLine
 10
149.811
 20
1.999999999999989
 30
0.0
 11
149.811
 21
-0.0000000000000055
 31
0.0
  0
LINE
  5
29E
330
1E
100
AcDbEntity
  8
0
100
AcDbLine
 10
149.811
 20
1.999999999999989
 30
0.0
 11
150.6339999999999
 21
1.999999999999989
 31
0.0
  0
LINE
  5
29F
330
1E
100
AcDbEntity
  8
0
100
AcDbLine
 10
150.6999999999999
 20
1.999999999999989
 30
0.0
 11
165.5
 21
1.999999999999989
 31
0.0
  0
LINE
  5
2A0
330
1E
100
AcDbEntity
  8
0
100
AcDbLine
 10
156.062
 20
1.999999999999989
 30
0.0
 11
156.062
 21
-0.0000000000000059
 31
0.0
  0
LINE
  5
2A1
330
1E
100
AcDbEntity
  8
0
100
AcDbLine
 10
162.0689999999999
 20
1.999999999999989
 30
0.0
 11
162.801
 21
1.999999999999989
 31
0.0
  0
LINE
  5
2A2
330
1E
100
AcDbEntity
  8
0
100
AcDbLine
 10
165.5
 20
1.999999999999989
 30
0.0
 11
179.1999999999999
 21
1.999999999999989
 31
0.0
  0
LINE
  5
2A3
330
1E
100
AcDbEntity
  8
0
100
AcDbLine
 10
165.2549999999999
 20
1.999999999999989
 30
0.0
 11
165.2549999999999
 21
-0.0000000000000063
 31
0.0
  0
LINE
  5
2A4
330
1E
100
AcDbEntity
  8
0
100
AcDbLine
 10
165.2549999999999
 20
1.999999999999989
 30
0.0
 11
165.5
 21
1.999999999999989
 31
0.0
  0
LINE
  5
2A5
330
1E
100
AcDbEntity
  8
0
100
AcDbLine
 10
163.8409999999999
 20
1.999999999999989
 30
0.0
 11
163.8409999999999
 21
-0.0000000000000063
 31
0.0
  0
LINE
  5
2A6
330
1E
100
AcDbEntity
  8
0
100
AcDbLine
 10
163.8409999999999
 20
1.999999999999989
 30
0.0
 11
165.2549999999999
 21
1.999999999999989
 31
0.0
  0
LINE
  5
2A7
330
1E
100
AcDbEntity
  8
0
100
AcDbLine
 10
163.801
 20
1.999999999999989
 30
0.0
 11
163.801
 21
-0.0000000000000063
 31
0.0
  0
LINE
  5
2A8
330
1E
100
AcDbEntity
  8
0
100
AcDbLine
 10
162.801
 20
1.999999999999989
 30
0.0
 11
162.801
 21
-0.0000000000000063
 31
0.0
  0
LINE
  5
2A9
330
1E
100
AcDbEntity
  8
0
100
AcDbLine
 10
162.801
 20
1.999999999999989
 30
0.0
 11
163.801
 21
1.999999999999989
 31
0.0
  0
LINE
  5
2AA
330
1E
100
AcDbEntity
  8
0
100
AcDbLine
 10
161.0689999999999
 20
1.999999999999989
 30
0.0
 11
161.0689999999999
 21
-0.0000000000000059
 31
0.0
  0
LINE
  5
2AB
330
1E
100
AcDbEntity
  8
0
100
AcDbLine
 10
161.0689999999999
 20
1.999999999999989
 30
0.0
 11
162.801
 21
1.999999999999989
 31
0.0
  0
LINE
  5
2AC
330
1E
100
AcDbEntity
  8
0
100
AcDbLine
 10
170.0
 20
1.999999999999989
 30
0.0
 11
170.0
 21
-0.0000000000000068
 31
0.0
  0
LINE
  5
2AD
330
1E
100
AcDbEntity
  8
0
100
AcDbLine
 10
170.0
 20
1.999999999999989
 30
0.0
 11
173.134
 21
1.999999999999989
 31
0.0
  0
LINE
  5
2AE
330
1E
100
AcDbEntity
  8
0
100
AcDbLine
 10
179.1999999999999
 20
1.999999999999989
 30
0.0
 11
192.3
 21
1.999999999999989
 31
0.0
  0
LINE
  5
2AF
330
1E
100
AcDbEntity
  8
0
100
AcDbLine
 10
179.1999999999999
 20
1.999999999999989
 30
0.0
 11
180.5949999999999
 21
1.999999999999989
 31
0.0
  0
LINE
  5
2B0
330
1E
100
AcDbEntity
  8
0
100
AcDbLine
 10
177.2759999999999
 20
1.999999999999989
 30
0.0
 11
177.2759999999999
 21
-0.0000000000000072
 31
0.0
  0
LINE
  5
2B1
330
1E
100
AcDbEntity
  8
0
100
AcDbLine
 10
177.2759999999999
 20
1.999999999999989
 30
0.0
 11
179.1999999999999
 21
1.999999999999989
 31
0.0
  0
LINE
  5
2B2
330
1E
100
AcDbEntity
  8
0
100
AcDbLine
 10
185.0
 20
1.999999999999989
 30
0.0
 11
185.0
 21
-0.0000000000000076
 31
0.0
  0
LINE
  5
2B3
330
1E
100
AcDbEntity
  8
0
100
AcDbLine
 10
185.0
 20
1.999999999999989
 30
0.0
 11
185.054
 21
1.999999999999989
 31
0.0
  0
LINE
  5
2B4
330
1E
100
AcDbEntity
  8
0
100
AcDbLine
 10
189.782
 20
1.999999999999989
 30
0.0
 11
192.3
 21
1.999999999999989
 31
0.0
  0
LINE
  5
2B5
330
1E
100
AcDbEntity
  8
0
100
AcDbLine
 10
187.882
 20
1.999999999999989
 30
0.0
 11
187.882
 21
-0.0000000000000076
 31
0.0
  0
LINE
  5
2B6
330
1E
100
AcDbEntity
  8
0
100
AcDbLine
 10
186.4679999999999
 20
1.999999999999989
 30
0.0
 11
186.4679999999999
 21
-0.0000000000000076
 31
0.0
  0
LINE
  5
2B7
330
1E
100
AcDbEntity
  8
0
100
AcDbLine
 10
185.054
 20
1.999999999999989
 30
0.0
 11
185.054
 21
-0.0000000000000076
 31
0.0
  0
LINE
  5
2B8
330
1E
100
AcDbEntity
  8
0
100
AcDbLine
 10
200.0
 20
1.999999999999989
 30
0.0
 11
200.0
 21
-0.0000000000000085
 31
0.0
  0
LINE
  5
2B9
330
1E
100
AcDbEntity
  8
0
100
AcDbLine
 10
198.489
 20
1.999999999999989
 30
0.0
 11
198.489
 21
-0.0000000000000085
 31
0.0
  0
LINE
  5
2BA
330
1E
100
AcDbEntity
  8
0
100
AcDbLine
 10
197.0749999999999
 20
1.999999999999989
 30
0.0
 11
197.0749999999999
 21
-0.0000000000000085
 31
0.0
  0
LINE
  5
2BB
330
1E
100
AcDbEntity
  8
0
100
AcDbLine
 10
197.0749999999999
 20
1.999999999999989
 30
0.0
 11
198.489
 21
1.999999999999989
 31
0.0
  0
LINE
  5
2BC
330
1E
100
AcDbEntity
  8
0
100
AcDbLine
 10
204.0
 20
1.999999999999989
 30
0.0
 11
214.1999999999999
 21
1.999999999999989
 31
0.0
  0
LINE
  5
2BD
330
1E
100
AcDbEntity
  8
0
100
AcDbLine
 10
223.0999999999999
 20
1.999999999999989
 30
0.0
 11
229.7
 21
1.999999999999989
 31
0.0
  0
LINE
  5
2BE
330
1E
100
AcDbEntity
  8
0
100
AcDbLine
 10
229.7
 20
1.999999999999989
 30
0.0
 11
234.6999999999999
 21
1.999999999999989
 31
0.0
  0
LINE
  5
2BF
330
1E
100
AcDbEntity
  8
0
100
AcDbLine
 10
234.6999999999999
 20
1.999999999999989
 30
0.0
 11
237.8
 21
1.999999999999989
 31
0.0
  0
LINE
  5
2C0
330
1E
100
AcDbEntity
  8
0
100
AcDbLine
 10
239.0
 20
1.999999999999989
 30
0.0
 11
240.0
 21
2.99999999999999
 31
0.0
  0
LINE
  5
2C1
330
1E
100
AcDbEntity
  8
0
100
AcDbLine
 10
237.8
 20
1.999999999999989
 30
0.0
 11
239.0
 21
1.999999999999989
 31
0.0
  0
LINE
  5
2C2
330
1E
100
AcDbEntity
  8
0
100
AcDbLine
 10
230.0
 20
1.999999999999989
 30
0.0
 11
230.0
 21
-0.0000000000000102
 31
0.0
  0
LINE
  5
2C3
330
1E
100
AcDbEntity
  8
0
100
AcDbLine
 10
230.0
 20
1.999999999999989
 30
0.0
 11
234.6999999999999
 21
1.999999999999989
 31
0.0
  0
LINE
  5
2C4
330
1E
100
AcDbEntity
  8
0
100
AcDbLine
 10
228.0
 20
1.999999999999989
 30
0.0
 11
228.0
 21
-0.0000000000000102
 31
0.0
  0
LINE
  5
2C5
330
1E
100
AcDbEntity
  8
0
100
AcDbLine
 10
228.0
 20
1.999999999999989
 30
0.0
 11
229.7
 21
1.999999999999989
 31
0.0
  0
LINE
  5
2C6
330
1E
100
AcDbEntity
  8
0
100
AcDbLine
 10
226.5109999999999
 20
1.999999999999989
 30
0.0
 11
226.5109999999999
 21
-0.0000000000000102
 31
0.0
  0
LINE
  5
2C7
330
1E
100
AcDbEntity
  8
0
100
AcDbLine
 10
225.993
 20
1.999999999999989
 30
0.0
 11
225.993
 21
-0.0000000000000102
 31
0.0
  0
LINE
  5
2C8
330
1E
100
AcDbEntity
  8
0
100
AcDbLine
 10
225.993
 20
1.999999999999989
 30
0.0
 11
226.5109999999999
 21
1.999999999999989
 31
0.0
  0
LINE
  5
2C9
330
1E
100
AcDbEntity
  8
0
100
AcDbLine
 10
213.0
 20
1.999999999999989
 30
0.0
 11
213.0
 21
-0.0000000000000093
 31
0.0
  0
LINE
  5
2CA
330
1E
100
AcDbEntity
  8
0
100
AcDbLine
 10
214.1999999999999
 20
1.999999999999989
 30
0.0
 11
223.0999999999999
 21
1.999999999999989
 31
0.0
  0
LINE
  5
2CB
330
1E
100
AcDbEntity
  8
0
100
AcDbLine
 10
215.763
 20
1.999999999999989
 30
0.0
 11
215.763
 21
-0.0000000000000093
 31
0.0
  0
LINE
  5
2CC
330
1E
100
AcDbEntity
  8
0
100
AcDbLine
 10
215.763
 20
1.999999999999989
 30
0.0
 11
223.0999999999999
 21
1.999999999999989
 31
0.0
  0
LINE
  5
2CD
330
1E
100
AcDbEntity
  8
0
100
AcDbLine
 10
214.7629999999999
 20
1.999999999999989
 30
0.0
 11
214.7629999999999
 21
-0.0000000000000093
 31
0.0
  0
LINE
  5
2CE
330
1E
100
AcDbEntity
  8
0
100
AcDbLine
 10
213.0309999999999
 20
1.999999999999989
 30
0.0
 11
213.0309999999999
 21
-0.0000000000000093
 31
0.0
  0
LINE
  5
2CF
330
1E
100
AcDbEntity
  8
0
100
AcDbLine
 10
213.0309999999999
 20
1.999999999999989
 30
0.0
 11
214.1999999999999
 21
1.999999999999989
 31
0.0
  0
LINE
  5
2D0
330
1E
100
AcDbEntity
  8
0
100
AcDbLine
 10
224.0609999999999
 20
1.999999999999989
 30
0.0
 11
224.0609999999999
 21
-0.0000000000000097
 31
0.0
  0
LINE
  5
2D1
330
1E
100
AcDbEntity
  8
0
100
AcDbLine
 10
212.022
 20
1.999999999999989
 30
0.0
 11
212.022
 21
-0.0000000000000093
 31
0.0
  0
LINE
  5
2D2
330
1E
100
AcDbEntity
  8
0
100
AcDbLine
 10
211.504
 20
1.999999999999989
 30
0.0
 11
211.504
 21
-0.0000000000000093
 31
0.0
  0
LINE
  5
2D3
330
1E
100
AcDbEntity
  8
0
100
AcDbLine
 10
211.504
 20
1.999999999999989
 30
0.0
 11
212.022
 21
1.999999999999989
 31
0.0
  0
LINE
  5
2D4
330
1E
100
AcDbEntity
  8
0
100
AcDbLine
 10
209.572
 20
1.999999999999989
 30
0.0
 11
209.572
 21
-0.0000000000000089
 31
0.0
  0
LINE
  5
2D5
330
1E
100
AcDbEntity
  8
0
100
AcDbLine
 10
202.772
 20
1.999999999999989
 30
0.0
 11
202.772
 21
-0.0000000000000085
 31
0.0
  0
LINE
  5
2D6
330
1E
100
AcDbEntity
  8
0
100
AcDbLine
 10
201.772
 20
1.999999999999989
 30
0.0
 11
201.772
 21
-0.0000000000000085
 31
0.0
  0
LINE
  5
2D7
330
1E
100
AcDbEntity
  8
0
100
AcDbLine
 10
192.3
 20
1.999999999999989
 30
0.0
 11
204.0
 21
1.999999999999989
 31
0.0
  0
LINE
  5
2D8
330
1E
100
AcDbEntity
  8
0
100
AcDbLine
 10
195.66
 20
1.999999999999989
 30
0.0
 11
195.66
 21
-0.000000000000008
 31
0.0
  0
LINE
  5
2D9
330
1E
100
AcDbEntity
  8
0
100
AcDbLine
 10
195.083
 20
1.999999999999989
 30
0.0
 11
195.083
 21
-0.000000000000008
 31
0.0
  0
LINE
  5
2DA
330
1E
100
AcDbEntity
  8
0
100
AcDbLine
 10
200.0399999999999
 20
1.999999999999989
 30
0.0
 11
200.0399999999999
 21
-0.0000000000000085
 31
0.0
  0
LINE
  5
2DB
330
1E
100
AcDbEntity
  8
0
100
AcDbLine
 10
189.782
 20
1.999999999999989
 30
0.0
 11
189.782
 21
-0.0000000000000076
 31
0.0
  0
LINE
  5
2DC
330
1E
100
AcDbEntity
  8
0
100
AcDbLine
 10
188.7819999999999
 20
1.999999999999989
 30
0.0
 11
188.7819999999999
 21
-0.0000000000000076
 31
0.0
  0
LINE
  5
2DD
330
1E
100
AcDbEntity
  8
0
100
AcDbLine
 10
183.044
 20
1.999999999999989
 30
0.0
 11
183.044
 21
-0.0000000000000072
 31
0.0
  0
LINE
  5
2DE
330
1E
100
AcDbEntity
  8
0
100
AcDbLine
 10
182.5259999999999
 20
1.999999999999989
 30
0.0
 11
182.5259999999999
 21
-0.0000000000000072
 31
0.0
  0
LINE
  5
2DF
330
1E
100
AcDbEntity
  8
0
100
AcDbLine
 10
180.5949999999999
 20
1.999999999999989
 30
0.0
 11
180.5949999999999
 21
-0.0000000000000072
 31
0.0
  0
LINE
  5
2E0
330
1E
100
AcDbEntity
  8
0
100
AcDbLine
 10
175.8659999999999
 20
1.999999999999989
 30
0.0
 11
175.8659999999999
 21
-0.0000000000000068
 31
0.0
  0
LINE
  5
2E1
330
1E
100
AcDbEntity
  8
0
100
AcDbLine
 10
175.8659999999999
 20
1.999999999999989
 30
0.0
 11
177.2759999999999
 21
1.999999999999989
 31
0.0
  0
LINE
  5
2E2
330
1E
100
AcDbEntity
  8
0
100
AcDbLine
 10
174.134
 20
1.999999999999989
 30
0.0
 11
174.134
 21
-0.0000000000000068
 31
0.0
  0
LINE
  5
2E3
330
1E
100
AcDbEntity
  8
0
100
AcDbLine
 10
168.555
 20
1.999999999999989
 30
0.0
 11
168.555
 21
-0.0000000000000063
 31
0.0
  0
LINE
  5
2E4
330
1E
100
AcDbEntity
  8
0
100
AcDbLine
 10
173.134
 20
1.999999999999989
 30
0.0
 11
173.134
 21
-0.0000000000000068
 31
0.0
  0
LINE
  5
2E5
330
1E
100
AcDbEntity
  8
0
100
AcDbLine
 10
168.3659999999999
 20
1.999999999999989
 30
0.0
 11
168.3659999999999
 21
-0.0000000000000063
 31
0.0
  0
LINE
  5
2E6
330
1E
100
AcDbEntity
  8
0
100
AcDbLine
 10
166.634
 20
1.999999999999989
 30
0.0
 11
166.634
 21
-0.0000000000000063
 31
0.0
  0
LINE
  5
2E7
330
1E
100
AcDbEntity
  8
0
100
AcDbLine
 10
165.634
 20
1.999999999999989
 30
0.0
 11
165.634
 21
-0.0000000000000063
 31
0.0
  0
LINE
  5
2E8
330
1E
100
AcDbEntity
  8
0
100
AcDbLine
 10
160.866
 20
1.999999999999989
 30
0.0
 11
160.866
 21
-0.0000000000000059
 31
0.0
  0
LINE
  5
2E9
330
1E
100
AcDbEntity
  8
0
100
AcDbLine
 10
159.1339999999999
 20
1.999999999999989
 30
0.0
 11
159.1339999999999
 21
-0.0000000000000059
 31
0.0
  0
LINE
  5
2EA
330
1E
100
AcDbEntity
  8
0
100
AcDbLine
 10
154.648
 20
1.999999999999989
 30
0.0
 11
154.648
 21
-0.0000000000000055
 31
0.0
  0
LINE
  5
2EB
330
1E
100
AcDbEntity
  8
0
100
AcDbLine
 10
158.1339999999999
 20
1.999999999999989
 30
0.0
 11
158.1339999999999
 21
-0.0000000000000059
 31
0.0
  0
LINE
  5
2EC
330
1E
100
AcDbEntity
  8
0
100
AcDbLine
 10
153.366
 20
1.999999999999989
 30
0.0
 11
153.366
 21
-0.0000000000000055
 31
0.0
  0
LINE
  5
2ED
330
1E
100
AcDbEntity
  8
0
100
AcDbLine
 10
151.6339999999999
 20
1.999999999999989
 30
0.0
 11
151.6339999999999
 21
-0.0000000000000055
 31
0.0
  0
LINE
  5
2EE
330
1E
100
AcDbEntity
  8
0
100
AcDbLine
 10
150.6339999999999
 20
1.999999999999989
 30
0.0
 11
150.6339999999999
 21
-0.0000000000000055
 31
0.0
  0
LINE
  5
2EF
330
1E
100
AcDbEntity
  8
0
100
AcDbLine
 10
150.6339999999999
 20
1.999999999999989
 30
0.0
 11
150.6999999999999
 21
1.999999999999989
 31
0.0
  0
LINE
  5
2F0
330
1E
100
AcDbEntity
  8
0
100
AcDbLine
 10
148.079
 20
2.0
 30
0.0
 11
148.918
 21
2.0
 31
0.0
  0
LINE
  5
2F1
330
1E
100
AcDbEntity
  8
0
100
AcDbLine
 10
149.436
 20
1.999999999999989
 30
0.0
 11
149.436
 21
-0.0000000000000055
 31
0.0
  0
LINE
  5
2F2
330
1E
100
AcDbEntity
  8
0
100
AcDbLine
 10
149.436
 20
1.999999999999989
 30
0.0
 11
149.811
 21
1.999999999999989
 31
0.0
  0
LINE
  5
2F3
330
1E
100
AcDbEntity
  8
0
100
AcDbLine
 10
147.5039999999999
 20
2.0
 30
0.0
 11
147.5039999999999
 21
-0.0000000000000051
 31
0.0
  0
LINE
  5
2F4
330
1E
100
AcDbEntity
  8
0
100
AcDbLine
 10
147.5039999999999
 20
2.0
 30
0.0
 11
149.436
 21
1.999999999999989
 31
0.0
  0
LINE
  5
2F5
330
1E
100
AcDbEntity
  8
0
100
AcDbLine
 10
146.987
 20
2.0
 30
0.0
 11
146.987
 21
-0.0000000000000051
 31
0.0
  0
LINE
  5
2F6
330
1E
100
AcDbEntity
  8
0
100
AcDbLine
 10
145.554
 20
2.0
 30
0.0
 11
145.554
 21
-0.0000000000000051
 31
0.0
  0
LINE
  5
2F7
330
1E
100
AcDbEntity
  8
0
100
AcDbLine
 10
143.622
 20
2.0
 30
0.0
 11
143.622
 21
-0.0000000000000051
 31
0.0
  0
LINE
  5
2F8
330
1E
100
AcDbEntity
  8
0
100
AcDbLine
 10
143.1039999999999
 20
2.0
 30
0.0
 11
143.1039999999999
 21
-0.0000000000000051
 31
0.0
  0
LINE
  5
2F9
330
1E
100
AcDbEntity
  8
0
100
AcDbLine
 10
141.6709999999999
 20
2.0
 30
0.0
 11
141.6709999999999
 21
-0.0000000000000047
 31
0.0
  0
LINE
  5
2FA
330
1E
100
AcDbEntity
  8
0
100
AcDbLine
 10
139.74
 20
2.0
 30
0.0
 11
139.74
 21
-0.0000000000000047
 31
0.0
  0
LINE
  5
2FB
330
1E
100
AcDbEntity
  8
0
100
AcDbLine
 10
139.222
 20
2.0
 30
0.0
 11
139.222
 21
-0.0000000000000047
 31
0.0
  0
LINE
  5
2FC
330
1E
100
AcDbEntity
  8
0
100
AcDbLine
 10
137.7889999999999
 20
2.0
 30
0.0
 11
137.7889999999999
 21
-0.0000000000000047
 31
0.0
  0
LINE
  5
2FD
330
1E
100
AcDbEntity
  8
0
100
AcDbLine
 10
135.857
 20
2.0
 30
0.0
 11
135.857
 21
-0.0000000000000047
 31
0.0
  0
LINE
  5
2FE
330
1E
100
AcDbEntity
  8
0
100
AcDbLine
 10
135.34
 20
2.0
 30
0.0
 11
135.34
 21
-0.0000000000000047
 31
0.0
  0
LINE
  5
2FF
330
1E
100
AcDbEntity
  8
0
100
AcDbLine
 10
135.34
 20
2.0
 30
0.0
 11
135.5999999999999
 21
2.0
 31
0.0
  0
LINE
  5
300
330
1E
100
AcDbEntity
  8
0
100
AcDbLine
 10
133.907
 20
2.0
 30
0.0
 11
133.907
 21
-0.0000000000000042
 31
0.0
  0
LINE
  5
301
330
1E
100
AcDbEntity
  8
0
100
AcDbLine
 10
133.907
 20
2.0
 30
0.0
 11
134.8489999999999
 21
2.0
 31
0.0
  0
LINE
  5
302
330
1E
100
AcDbEntity
  8
0
100
AcDbLine
 10
131.9749999999999
 20
2.0
 30
0.0
 11
131.9749999999999
 21
-0.0000000000000042
 31
0.0
  0
LINE
  5
303
330
1E
100
AcDbEntity
  8
0
100
AcDbLine
 10
131.457
 20
2.0
 30
0.0
 11
131.457
 21
-0.0000000000000042
 31
0.0
  0
LINE
  5
304
330
1E
100
AcDbEntity
  8
0
100
AcDbLine
 10
130.025
 20
2.0
 30
0.0
 11
130.025
 21
-0.0000000000000042
 31
0.0
  0
LINE
  5
305
330
1E
100
AcDbEntity
  8
0
100
AcDbLine
 10
130.025
 20
2.0
 30
0.0
 11
130.866
 21
2.0
 31
0.0
  0
LINE
  5
306
330
1E
100
AcDbEntity
  8
0
100
AcDbLine
 10
128.0929999999999
 20
2.0
 30
0.0
 11
128.0929999999999
 21
-0.0000000000000042
 31
0.0
  0
LINE
  5
307
330
1E
100
AcDbEntity
  8
0
100
AcDbLine
 10
128.0929999999999
 20
2.0
 30
0.0
 11
130.025
 21
2.0
 31
0.0
  0
LINE
  5
308
330
1E
100
AcDbEntity
  8
0
100
AcDbLine
 10
127.575
 20
2.0
 30
0.0
 11
127.575
 21
-0.0000000000000038
 31
0.0
  0
LINE
  5
309
330
1E
100
AcDbEntity
  8
0
100
AcDbLine
 10
126.142
 20
2.0
 30
0.0
 11
126.142
 21
-0.0000000000000038
 31
0.0
  0
LINE
  5
30A
330
1E
100
AcDbEntity
  8
0
100
AcDbLine
 10
124.2099999999999
 20
2.0
 30
0.0
 11
124.2099999999999
 21
-0.0000000000000038
 31
0.0
  0
LINE
  5
30B
330
1E
100
AcDbEntity
  8
0
100
AcDbLine
 10
124.2099999999999
 20
2.0
 30
0.0
 11
126.142
 21
2.0
 31
0.0
  0
LINE
  5
30C
330
1E
100
AcDbEntity
  8
0
100
AcDbLine
 10
133.4999999999999
 20
15.0
 30
0.0
 11
133.4999999999999
 21
117.0
 31
0.0
  0
LINE
  5
30D
330
1E
100
AcDbEntity
  8
0
100
AcDbLine
 10
132.9
 20
15.0
 30
0.0
 11
139.1
 21
15.0
 31
0.0
  0
LINE
  5
30E
330
1E
100
AcDbEntity
  8
0
100
AcDbLine
 10
133.0
 20
117.0
 30
0.0
 11
133.4999999999999
 21
117.0
 31
0.0
  0
LINE
  5
30F
330
1E
100
AcDbEntity
  8
0
100
AcDbLine
 10
131.6999999999999
 20
117.0
 30
0.0
 11
133.0
 21
117.0
 31
0.0
  0
LINE
  5
310
330
1E
100
AcDbEntity
  8
0
100
AcDbLine
 10
129.4999999999999
 20
117.0
 30
0.0
 11
131.6999999999999
 21
117.0
 31
0.0
  0
LINE
  5
311
330
1E
100
AcDbEntity
  8
0
100
AcDbLine
 10
126.7
 20
117.0
 30
0.0
 11
129.4999999999999
 21
117.0
 31
0.0
  0
LINE
  5
312
330
1E
100
AcDbEntity
  8
0
100
AcDbLine
 10
128.0999999999999
 20
122.0
 30
0.0
 11
135.6999999999999
 21
122.0
 31
0.0
  0
LINE
  5
313
330
1E
100
AcDbEntity
  8
0
100
AcDbLine
 10
128.0999999999999
 20
119.0
 30
0.0
 11
135.6999999999999
 21
119.0
 31
0.0
  0
LINE
  5
314
330
1E
100
AcDbEntity
  8
0
100
AcDbLine
 10
123.5
 20
117.0
 30
0.0
 11
126.7
 21
117.0
 31
0.0
  0
LINE
  5
315
330
1E
100
AcDbEntity
  8
0
100
AcDbLine
 10
133.4999999999999
 20
117.0
 30
0.0
 11
133.4999999999999
 21
15.0
 31
0.0
  0
LINE
  5
316
330
1E
100
AcDbEntity
  8
0
100
AcDbLine
 10
133.4999999999999
 20
117.0
 30
0.0
 11
151.5
 21
119.0
 31
0.0
  0
LINE
  5
317
330
1E
100
AcDbEntity
  8
0
100
AcDbLine
 10
126.5
 20
15.0
 30
0.0
 11
132.9
 21
15.0
 31
0.0
  0
LINE
  5
318
330
1E
100
AcDbEntity
  8
0
100
AcDbLine
 10
135.5999999999999
 20
12.0
 30
0.0
 11
150.6999999999999
 21
12.0
 31
0.0
  0
LINE
  5
319
330
1E
100
AcDbEntity
  8
0
100
AcDbLine
 10
135.5999999999999
 20
12.0
 30
0.0
 11
139.1
 21
12.0
 31
0.0
  0
LINE
  5
31A
330
1E
100
AcDbEntity
  8
0
100
AcDbLine
 10
135.5999999999999
 20
11.0
 30
0.0
 11
151.0
 21
11.0
 31
0.0
  0
LINE
  5
31B
330
1E
100
AcDbEntity
  8
0
100
AcDbLine
 10
240.0
 20
2.99999999999999
 30
0.0
 11
240.0
 21
11.0
 31
0.0
  0
LINE
  5
31C
330
1E
100
AcDbEntity
  8
0
100
AcDbLine
 10
235.6999999999999
 20
2.99999999999999
 30
0.0
 11
238.8
 21
2.99999999999999
 31
0.0
  0
LINE
  5
31D
330
1E
100
AcDbEntity
  8
0
100
AcDbLine
 10
204.6999999999999
 20
2.99999999999999
 30
0.0
 11
215.0
 21
2.99999999999999
 31
0.0
  0
LINE
  5
31E
330
1E
100
AcDbEntity
  8
0
100
AcDbLine
 10
215.0
 20
2.99999999999999
 30
0.0
 11
223.9
 21
2.99999999999999
 31
0.0
  0
LINE
  5
31F
330
1E
100
AcDbEntity
  8
0
100
AcDbLine
 10
223.9
 20
2.99999999999999
 30
0.0
 11
230.6
 21
2.99999999999999
 31
0.0
  0
LINE
  5
320
330
1E
100
AcDbEntity
  8
0
100
AcDbLine
 10
230.6
 20
2.99999999999999
 30
0.0
 11
235.6999999999999
 21
2.99999999999999
 31
0.0
  0
LINE
  5
321
330
1E
100
AcDbEntity
  8
0
100
AcDbLine
 10
238.8
 20
2.99999999999999
 30
0.0
 11
240.0
 21
2.99999999999999
 31
0.0
  0
LINE
  5
322
330
1E
100
AcDbEntity
  8
0
100
AcDbLine
 10
192.9
 20
2.99999999999999
 30
0.0
 11
204.6999999999999
 21
2.99999999999999
 31
0.0
  0
LINE
  5
323
330
1E
100
AcDbEntity
  8
0
100
AcDbLine
 10
179.6999999999999
 20
2.99999999999999
 30
0.0
 11
192.9
 21
2.99999999999999
 31
0.0
  0
LINE
  5
324
330
1E
100
AcDbEntity
  8
0
100
AcDbLine
 10
165.8
 20
2.99999999999999
 30
0.0
 11
179.6999999999999
 21
2.99999999999999
 31
0.0
  0
LINE
  5
325
330
1E
100
AcDbEntity
  8
0
100
AcDbLine
 10
135.6999999999999
 20
122.0
 30
0.0
 11
142.1999999999999
 21
122.0
 31
0.0
  0
LINE
  5
326
330
1E
100
AcDbEntity
  8
0
100
AcDbLine
 10
135.6999999999999
 20
119.0
 30
0.0
 11
142.1999999999999
 21
119.0
 31
0.0
  0
LINE
  5
327
330
1E
100
AcDbEntity
  8
0
100
AcDbLine
 10
139.1
 20
15.0
 30
0.0
 11
144.9
 21
15.0
 31
0.0
  0
LINE
  5
328
330
1E
100
AcDbEntity
  8
0
100
AcDbLine
 10
142.1999999999999
 20
122.0
 30
0.0
 11
147.3
 21
122.0
 31
0.0
  0
LINE
  5
329
330
1E
100
AcDbEntity
  8
0
100
AcDbLine
 10
142.1999999999999
 20
119.0
 30
0.0
 11
147.3
 21
119.0
 31
0.0
  0
LINE
  5
32A
330
1E
100
AcDbEntity
  8
0
100
AcDbLine
 10
147.3
 20
122.0
 30
0.0
 11
150.4
 21
122.0
 31
0.0
  0
LINE
  5
32B
330
1E
100
AcDbEntity
  8
0
100
AcDbLine
 10
150.4
 20
122.0
 30
0.0
 11
151.5
 21
122.0
 31
0.0
  0
LINE
  5
32C
330
1E
100
AcDbEntity
  8
0
100
AcDbLine
 10
150.4
 20
119.0
 30
0.0
 11
151.5
 21
119.0
 31
0.0
  0
LINE
  5
32D
330
1E
100
AcDbEntity
  8
0
100
AcDbLine
 10
147.3
 20
119.0
 30
0.0
 11
150.4
 21
119.0
 31
0.0
  0
LINE
  5
32E
330
1E
100
AcDbEntity
  8
0
100
AcDbLine
 10
150.4
 20
15.0
 30
0.0
 11
155.3
 21
15.0
 31
0.0
  0
LINE
  5
32F
330
1E
100
AcDbEntity
  8
0
100
AcDbLine
 10
144.9
 20
15.0
 30
0.0
 11
150.4
 21
15.0
 31
0.0
  0
LINE
  5
330
330
1E
100
AcDbEntity
  8
0
100
AcDbLine
 10
144.9
 20
12.0
 30
0.0
 11
150.4
 21
12.0
 31
0.0
  0
LINE
  5
331
330
1E
100
AcDbEntity
  8
0
100
AcDbLine
 10
139.1
 20
12.0
 30
0.0
 11
144.9
 21
12.0
 31
0.0
  0
LINE
  5
332
330
1E
100
AcDbEntity
  8
0
100
AcDbLine
 10
150.6999999999999
 20
12.0
 30
0.0
 11
165.5
 21
12.0
 31
0.0
  0
LINE
  5
333
330
1E
100
AcDbEntity
  8
0
100
AcDbLine
 10
223.9
 20
11.0
 30
0.0
 11
230.6
 21
11.0
 31
0.0
  0
LINE
  5
334
330
1E
100
AcDbEntity
  8
0
100
AcDbLine
 10
230.6
 20
11.0
 30
0.0
 11
235.6999999999999
 21
11.0
 31
0.0
  0
LINE
  5
335
330
1E
100
AcDbEntity
  8
0
100
AcDbLine
 10
204.6999999999999
 20
11.0
 30
0.0
 11
215.0
 21
11.0
 31
0.0
  0
LINE
  5
336
330
1E
100
AcDbEntity
  8
0
100
AcDbLine
 10
215.0
 20
11.0
 30
0.0
 11
223.9
 21
11.0
 31
0.0
  0
LINE
  5
337
330
1E
100
AcDbEntity
  8
0
100
AcDbLine
 10
235.6999999999999
 20
11.0
 30
0.0
 11
238.8
 21
11.0
 31
0.0
  0
LINE
  5
338
330
1E
100
AcDbEntity
  8
0
100
AcDbLine
 10
240.0
 20
11.0
 30
0.0
 11
240.0
 21
2.99999999999999
 31
0.0
  0
LINE
  5
339
330
1E
100
AcDbEntity
  8
0
100
AcDbLine
 10
238.8
 20
11.0
 30
0.0
 11
240.0
 21
11.0
 31
0.0
  0
LINE
  5
33A
330
1E
100
AcDbEntity
  8
0
100
AcDbLine
 10
192.9
 20
11.0
 30
0.0
 11
204.6999999999999
 21
11.0
 31
0.0
  0
LINE
  5
33B
330
1E
100
AcDbEntity
  8
0
100
AcDbLine
 10
179.6999999999999
 20
11.0
 30
0.0
 11
192.9
 21
11.0
 31
0.0
  0
LINE
  5
33C
330
1E
100
AcDbEntity
  8
0
100
AcDbLine
 10
155.3
 20
15.0
 30
0.0
 11
159.6
 21
15.0
 31
0.0
  0
LINE
  5
33D
330
1E
100
AcDbEntity
  8
0
100
AcDbLine
 10
159.6
 20
15.0
 30
0.0
 11
163.3
 21
15.0
 31
0.0
  0
LINE
  5
33E
330
1E
100
AcDbEntity
  8
0
100
AcDbLine
 10
151.5
 20
119.0
 30
0.0
 11
151.5
 21
122.0
 31
0.0
  0
LINE
  5
33F
330
1E
100
AcDbEntity
  8
0
100
AcDbLine
 10
151.5
 20
122.0
 30
0.0
 11
151.5
 21
119.0
 31
0.0
  0
LINE
  5
340
330
1E
100
AcDbEntity
  8
0
100
AcDbLine
 10
163.3
 20
15.0
 30
0.0
 11
166.1
 21
15.0
 31
0.0
  0
LINE
  5
341
330
1E
100
AcDbEntity
  8
0
100
AcDbLine
 10
229.7
 20
12.0
 30
0.0
 11
234.6999999999999
 21
12.0
 31
0.0
  0
LINE
  5
342
330
1E
100
AcDbEntity
  8
0
100
AcDbLine
 10
234.6999999999999
 20
12.0
 30
0.0
 11
237.8
 21
12.0
 31
0.0
  0
LINE
  5
343
330
1E
100
AcDbEntity
  8
0
100
AcDbLine
 10
237.8
 20
12.0
 30
0.0
 11
239.0
 21
12.0
 31
0.0
  0
LINE
  5
344
330
1E
100
AcDbEntity
  8
0
100
AcDbLine
 10
204.0
 20
12.0
 30
0.0
 11
214.1999999999999
 21
12.0
 31
0.0
  0
LINE
  5
345
330
1E
100
AcDbEntity
  8
0
100
AcDbLine
 10
214.1999999999999
 20
12.0
 30
0.0
 11
223.0999999999999
 21
12.0
 31
0.0
  0
LINE
  5
346
330
1E
100
AcDbEntity
  8
0
100
AcDbLine
 10
223.0999999999999
 20
12.0
 30
0.0
 11
229.7
 21
12.0
 31
0.0
  0
LINE
  5
347
330
1E
100
AcDbEntity
  8
0
100
AcDbLine
 10
239.0
 20
12.0
 30
0.0
 11
240.0
 21
11.0
 31
0.0
  0
LINE
  5
348
330
1E
100
AcDbEntity
  8
0
100
AcDbLine
 10
192.3
 20
12.0
 30
0.0
 11
204.0
 21
12.0
 31
0.0
  0
LINE
  5
349
330
1E
100
AcDbEntity
  8
0
100
AcDbLine
 10
166.1
 20
12.0
 30
0.0
 11
168.1999999999999
 21
12.0
 31
0.0
  0
LINE
  5
34A
330
1E
100
AcDbEntity
  8
0
100
AcDbLine
 10
166.1
 20
15.0
 30
0.0
 11
168.1999999999999
 21
15.0
 31
0.0
  0
LINE
  5
34B
330
1E
100
AcDbEntity
  8
0
100
AcDbLine
 10
168.1999999999999
 20
15.0
 30
0.0
 11
169.5
 21
15.0
 31
0.0
  0
LINE
  5
34C
330
1E
100
AcDbEntity
  8
0
100
AcDbLine
 10
169.5
 20
15.0
 30
0.0
 11
170.0
 21
15.0
 31
0.0
  0
LINE
  5
34D
330
1E
100
AcDbEntity
  8
0
100
AcDbLine
 10
168.1999999999999
 20
12.0
 30
0.0
 11
169.5
 21
12.0
 31
0.0
  0
LINE
  5
34E
330
1E
100
AcDbEntity
  8
0
100
AcDbLine
 10
170.0
 20
15.0
 30
0.0
 11
170.0
 21
12.0
 31
0.0
  0
LINE
  5
34F
330
1E
100
AcDbEntity
  8
0
100
AcDbLine
 10
170.0
 20
12.0
 30
0.0
 11
170.0
 21
15.0
 31
0.0
  0
LINE
  5
350
330
1E
100
AcDbEntity
  8
0
100
AcDbLine
 10
169.5
 20
12.0
 30
0.0
 11
170.0
 21
12.0
 31
0.0
  0
LINE
  5
351
330
1E
100
AcDbEntity
  8
0
100
AcDbLine
 10
179.1999999999999
 20
12.0
 30
0.0
 11
192.3
 21
12.0
 31
0.0
  0
LINE
  5
352
330
1E
100
AcDbEntity
  8
0
100
AcDbLine
 10
165.5
 20
12.0
 30
0.0
 11
179.1999999999999
 21
12.0
 31
0.0
  0
LINE
  5
353
330
1E
100
AcDbEntity
  8
0
100
AcDbLine
 10
165.5
 20
12.0
 30
0.0
 11
166.1
 21
12.0
 31
0.0
  0
LINE
  5
354
330
1E
100
AcDbEntity
  8
0
100
AcDbLine
 10
165.8
 20
11.0
 30
0.0
 11
179.6999999999999
 21
11.0
 31
0.0
  0
LINE
  5
355
330
1E
100
AcDbEntity
  8
0
100
AcDbLine
 10
151.0
 20
11.0
 30
0.0
 11
165.8
 21
11.0
 31
0.0
  0
LINE
  5
356
330
1E
100
AcDbEntity
  8
0
100
AcDbLine
 10
151.0
 20
2.99999999999999
 30
0.0
 11
165.8
 21
2.99999999999999
 31
0.0
  0
LINE
  5
357
330
1E
100
AcDbEntity
  8
0
100
AcDbLine
 10
135.5999999999999
 20
3.0
 30
0.0
 11
151.0
 21
2.99999999999999
 31
0.0
  0
LINE
  5
358
330
1E
100
AcDbEntity
  8
0
100
AcDbLine
 10
123.693
 20
2.0
 30
0.0
 11
123.693
 21
-0.0000000000000038
 31
0.0
  0
LINE
  5
359
330
1E
100
AcDbEntity
  8
0
100
AcDbLine
 10
123.693
 20
2.0
 30
0.0
 11
124.2099999999999
 21
2.0
 31
0.0
  0
LINE
  5
35A
330
1E
100
AcDbEntity
  8
0
100
AcDbLine
 10
121.0
 20
2.0
 30
0.0
 11
121.0
 21
-0.0000000000000038
 31
0.0
  0
LINE
  5
35B
330
1E
100
AcDbEntity
  8
0
100
AcDbLine
 10
121.0
 20
-0.0000000000000036
 30
0.0
 11
121.0
 21
2.0
 31
0.0
  0
LINE
  5
35C
330
1E
100
AcDbEntity
  8
0
100
AcDbLine
 10
119.0
 20
-0.0000000000000035
 30
0.0
 11
119.0
 21
2.0
 31
0.0
  0
LINE
  5
35D
330
1E
100
AcDbEntity
  8
0
100
AcDbLine
 10
119.0
 20
-0.0000000000000035
 30
0.0
 11
121.0
 21
-0.0000000000000036
 31
0.0
  0
ENDSEC
  0
SECTION
  2
OBJECTS
  0
DICTIONARY
  5
C
330
0
100
AcDbDictionary
281
     1
  3
ACAD_GROUP
350
D
  3
ACAD_LAYOUT
350
19
  3
ACAD_MLINESTYLE
350
16
  3
ACAD_PLOTSETTINGS
350
18
  3
ACAD_PLOTSTYLENAME
350
E
  3
AcDbVariableDictionary
350
362
  0
DICTIONARY
  5
D
102
{ACAD_REACTORS
330
C
102
}
330
C
100
AcDbDictionary
281
     1
  0
DICTIONARY
  5
19
102
{ACAD_REACTORS
330
C
102
}
330
C
100
AcDbDictionary
281
     1
  3
Layout1
350
1D
  3
Model
350
21
  0
DICTIONARY
  5
16
102
{ACAD_REACTORS
330
C
102
}
330
C
100
AcDbDictionary
281
     1
  3
Standard
350
17
  0
DICTIONARY
  5
18
102
{ACAD_REACTORS
330
C
102
}
330
C
100
AcDbDictionary
281
     1
  0
ACDBDICTIONARYWDFLT
  5
E
102
{ACAD_REACTORS
330
C
102
}
330
C
100
AcDbDictionary
281
     1
  3
Normal
350
F
100
AcDbDictionaryWithDefault
340
F
  0
DICTIONARY
  5
362
102
{ACAD_REACTORS
330
C
102
}
330
C
100
AcDbDictionary
281
     1
  3
DIMASSOC
350
363
  0
LAYOUT
  5
1D
102
{ACAD_REACTORS
330
19
102
}
330
19
100
AcDbPlotSettings
  1

  2
hp deskjet 980c series
  4

  6

 40
0.0
 41
0.0
 42
0.0
 43
0.0
 44
0.0
 45
0.0
 46
0.0
 47
0.0
 48
0.0
 49
0.0
140
0.0
141
0.0
142
1.0
143
1.0
 70
   688
 72
     0
 73
     0
 74
     5
  7

 75
    16
147
1.0
148
0.0
149
0.0
100
AcDbLayout
  1
Layout1
 70
     1
 71
     1
 10
0.0
 20
0.0
 11
12.0
 21
9.0
 12
0.0
 22
0.0
 32
0.0
 14
1.000000000000000E+20
 24
1.000000000000000E+20
 34
1.000000000000000E+20
 15
-1.000000000000000E+20
 25
-1.000000000000000E+20
 35
-1.000000000000000E+20
146
0.0
 13
0.0
 23
0.0
 33
0.0
 16
1.0
 26
0.0
 36
0.0
 17
0.0
 27
1.0
 37
0.0
 76
     0
330
1A
  0
LAYOUT
  5
21
102
{ACAD_REACTORS
330
19
102
}
330
19
100
AcDbPlotSettings
  1

  2
hp deskjet 980c series
  4

  6

 40
0.0
 41
0.0
 42
0.0
 43
0.0
 44
0.0
 45
0.0
 46
0.0
 47
0.0
 48
0.0
 49
0.0
140
0.0
141
0.0
142
1.0
143
1.0
 70
  1712
 72
     0
 73
     0
 74
     0
  7

 75
     0
147
1.0
148
0.0
149
0.0
100
AcDbLayout
  1
Model
 70
     1
 71
     0
 10
0.0
 20
0.0
 11
12.0
 21
9.0
 12
0.0
 22
0.0
 32
0.0
 14
0.0
 24
0.0
 34
0.0
 15
0.0
 25
0.0
 35
0.0
146
0.0
 13
0.0
 23
0.0
 33
0.0
 16
1.0
 26
0.0
 36
0.0
 17
0.0
 27
1.0
 37
0.0
 76
     0
330
1E
  0
MLINESTYLE
  5
17
102
{ACAD_REACTORS
330
16
102
}
330
16
100
AcDbMlineStyle
  2
STANDARD
 70
     0
  3

 62
   256
 51
90.0
 52
90.0
 71
     2
 49
0.5
 62
   256
  6
BYLAYER
 49
-0.5
 62
   256
  6
BYLAYER
  0
ACDBPLACEHOLDER
  5
F
102
{ACAD_REACTORS
330
E
102
}
330
E
  0
DICTIONARYVAR
  5
363
102
{ACAD_REACTORS
330
362
102
}
330
362
100
DictionaryVariables
280
     0
  1
1
  0
ENDSEC
  0
EOF
