  0
SECTION
  2
HEADER
  9
$ACADVER
  1
AC1014
  9
$ACADMAINTVER
 70
     9
  9
$DWGCODEPAGE
  3
ANSI_1252
  9
$INSBASE
 10
0.0
 20
0.0
 30
0.0
  9
$EXTMIN
 10
-0.000000000000001
 20
0.143569999999982
 30
0.0
  9
$EXTMAX
 10
100.0
 20
185.85643
 30
0.0
  9
$LIMMIN
 10
0.0
 20
0.0
  9
$LIMMAX
 10
12.0
 20
9.0
  9
$ORTHOMODE
 70
     0
  9
$REGENMODE
 70
     1
  9
$FILLMODE
 70
     1
  9
$QTEXTMODE
 70
     0
  9
$MIRRTEXT
 70
     1
  9
$DRAGMODE
 70
     2
  9
$LTSCALE
 40
1.0
  9
$OSMODE
 70
    37
  9
$ATTMODE
 70
     1
  9
$TEXTSIZE
 40
0.2
  9
$TRACEWID
 40
0.05
  9
$TEXTSTYLE
  7
STANDARD
  9
$CLAYER
  8
0
  9
$CELTYPE
  6
CONTINUOUS
  9
$CECOLOR
 62
   256
  9
$CELTSCALE
 40
1.0
  9
$DELOBJ
 70
     1
  9
$DISPSILH
 70
     0
  9
$DIMSCALE
 40
1.0
  9
$DIMASZ
 40
0.18
  9
$DIMEXO
 40
0.0625
  9
$DIMDLI
 40
0.38
  9
$DIMRND
 40
0.0
  9
$DIMDLE
 40
0.0
  9
$DIMEXE
 40
0.18
  9
$DIMTP
 40
0.0
  9
$DIMTM
 40
0.0
  9
$DIMTXT
 40
0.18
  9
$DIMCEN
 40
0.09
  9
$DIMTSZ
 40
0.0
  9
$DIMTOL
 70
     0
  9
$DIMLIM
 70
     0
  9
$DIMTIH
 70
     1
  9
$DIMTOH
 70
     1
  9
$DIMSE1
 70
     0
  9
$DIMSE2
 70
     0
  9
$DIMTAD
 70
     0
  9
$DIMZIN
 70
     0
  9
$DIMBLK
  1

  9
$DIMASO
 70
     1
  9
$DIMSHO
 70
     1
  9
$DIMPOST
  1

  9
$DIMAPOST
  1

  9
$DIMALT
 70
     0
  9
$DIMALTD
 70
     2
  9
$DIMALTF
 40
25.4
  9
$DIMLFAC
 40
1.0
  9
$DIMTOFL
 70
     0
  9
$DIMTVP
 40
0.0
  9
$DIMTIX
 70
     0
  9
$DIMSOXD
 70
     0
  9
$DIMSAH
 70
     0
  9
$DIMBLK1
  1

  9
$DIMBLK2
  1

  9
$DIMSTYLE
  2
STANDARD
  9
$DIMCLRD
 70
     0
  9
$DIMCLRE
 70
     0
  9
$DIMCLRT
 70
     0
  9
$DIMTFAC
 40
1.0
  9
$DIMGAP
 40
0.09
  9
$DIMJUST
 70
     0
  9
$DIMSD1
 70
     0
  9
$DIMSD2
 70
     0
  9
$DIMTOLJ
 70
     1
  9
$DIMTZIN
 70
     0
  9
$DIMALTZ
 70
     0
  9
$DIMALTTZ
 70
     0
  9
$DIMFIT
 70
     3
  9
$DIMUPT
 70
     0
  9
$DIMUNIT
 70
     2
  9
$DIMDEC
 70
     4
  9
$DIMTDEC
 70
     4
  9
$DIMALTU
 70
     2
  9
$DIMALTTD
 70
     2
  9
$DIMTXSTY
  7
STANDARD
  9
$DIMAUNIT
 70
     0
  9
$LUNITS
 70
     2
  9
$LUPREC
 70
     4
  9
$SKETCHINC
 40
0.1
  9
$FILLETRAD
 40
0.0
  9
$AUNITS
 70
     0
  9
$AUPREC
 70
     0
  9
$MENU
  1
.
  9
$ELEVATION
 40
0.0
  9
$PELEVATION
 40
0.0
  9
$THICKNESS
 40
0.0
  9
$LIMCHECK
 70
     0
  9
$BLIPMODE
 70
     0
  9
$CHAMFERA
 40
0.0
  9
$CHAMFERB
 40
0.0
  9
$CHAMFERC
 40
0.0
  9
$CHAMFERD
 40
0.0
  9
$SKPOLY
 70
     0
  9
$TDCREATE
 40
2454697.459986064
  9
$TDUPDATE
 40
2454697.467759687
  9
$TDINDWG
 40
0.0077736227
  9
$TDUSRTIMER
 40
0.0077736227
  9
$USRTIMER
 70
     1
  9
$ANGBASE
 50
0.0
  9
$ANGDIR
 70
     0
  9
$PDMODE
 70
     0
  9
$PDSIZE
 40
0.0
  9
$PLINEWID
 40
0.0
  9
$COORDS
 70
     1
  9
$SPLFRAME
 70
     0
  9
$SPLINETYPE
 70
     6
  9
$SPLINESEGS
 70
     8
  9
$ATTDIA
 70
     0
  9
$ATTREQ
 70
     1
  9
$HANDLING
 70
 22529
  9
$HANDSEED
  5
860
  9
$SURFTAB1
 70
     6
  9
$SURFTAB2
 70
     6
  9
$SURFTYPE
 70
     6
  9
$SURFU
 70
     6
  9
$SURFV
 70
     6
  9
$UCSNAME
  2

  9
$UCSORG
 10
0.0
 20
0.0
 30
0.0
  9
$UCSXDIR
 10
1.0
 20
0.0
 30
0.0
  9
$UCSYDIR
 10
0.0
 20
1.0
 30
0.0
  9
$PUCSNAME
  2

  9
$PUCSORG
 10
0.0
 20
0.0
 30
0.0
  9
$PUCSXDIR
 10
1.0
 20
0.0
 30
0.0
  9
$PUCSYDIR
 10
0.0
 20
1.0
 30
0.0
  9
$USERI1
 70
     0
  9
$USERI2
 70
     0
  9
$USERI3
 70
     0
  9
$USERI4
 70
     0
  9
$USERI5
 70
     0
  9
$USERR1
 40
0.0
  9
$USERR2
 40
0.0
  9
$USERR3
 40
0.0
  9
$USERR4
 40
0.0
  9
$USERR5
 40
0.0
  9
$WORLDVIEW
 70
     1
  9
$SHADEDGE
 70
     3
  9
$SHADEDIF
 70
    70
  9
$TILEMODE
 70
     1
  9
$MAXACTVP
 70
    64
  9
$PINSBASE
 10
0.0
 20
0.0
 30
0.0
  9
$PLIMCHECK
 70
     0
  9
$PEXTMIN
 10
1.000000000000000E+20
 20
1.000000000000000E+20
 30
1.000000000000000E+20
  9
$PEXTMAX
 10
-1.000000000000000E+20
 20
-1.000000000000000E+20
 30
-1.000000000000000E+20
  9
$PLIMMIN
 10
0.0
 20
0.0
  9
$PLIMMAX
 10
12.0
 20
9.0
  9
$UNITMODE
 70
     0
  9
$VISRETAIN
 70
     1
  9
$PLINEGEN
 70
     0
  9
$PSLTSCALE
 70
     1
  9
$TREEDEPTH
 70
  3020
  9
$PICKSTYLE
 70
     1
  9
$CMLSTYLE
  2
STANDARD
  9
$CMLJUST
 70
     0
  9
$CMLSCALE
 40
1.0
  9
$PROXYGRAPHICS
 70
     1
  9
$MEASUREMENT
 70
     0
  0
ENDSEC
  0
SECTION
  2
CLASSES
  0
CLASS
  1
ACDBDICTIONARYWDFLT
  2
AcDbDictionaryWithDefault
  3
AutoCAD 2000
 90
        0
280
     0
281
     0
  0
CLASS
  1
ACDBPLACEHOLDER
  2
AcDbPlaceHolder
  3
AutoCAD 2000
 90
        0
280
     0
281
     0
  0
CLASS
  1
LAYOUT
  2
AcDbLayout
  3
AutoCAD 2000
 90
        0
280
     0
281
     0
  0
CLASS
  1
DICTIONARYVAR
  2
AcDbDictionaryVar
  3
AutoCAD 2000
 90
        0
280
     0
281
     0
  0
CLASS
  1
LONG_TRANSACTION
  2
AcDbLongTransaction
  3
AutoCAD 2000
 90
        0
280
     0
281
     0
  0
CLASS
  1
LWPOLYLINE
  2
AcDbPolyline
  3
AutoCAD 2000
 90
        0
280
     0
281
     1
  0
CLASS
  1
HATCH
  2
AcDbHatch
  3
AutoCAD 2000
 90
        0
280
     0
281
     1
  0
CLASS
  1
XRECORD
  2
AcDbXrecord
  3
AutoCAD 2000
 90
        0
280
     0
281
     0
  0
ENDSEC
  0
SECTION
  2
TABLES
  0
TABLE
  2
VPORT
  5
8
330
0
100
AcDbSymbolTable
 70
     4
  0
VPORT
  5
83B
330
8
100
AcDbSymbolTableRecord
100
AcDbViewportTableRecord
  2
*ACTIVE
 70
     0
 10
0.0
 20
0.0
 11
1.0
 21
1.0
 12
50.0
 22
93.0
 13
0.0
 23
0.0
 14
1.0
 24
1.0
 15
0.0
 25
0.0
 16
0.0
 26
0.0
 36
1.0
 17
0.0
 27
0.0
 37
0.0
 40
187.1377668542199
 41
2.078104993597951
 42
50.0
 43
0.0
 44
0.0
 50
0.0
 51
0.0
 71
     0
 72
   100
 73
     1
 74
     3
 75
     0
 76
     0
 77
     0
 78
     0
  0
ENDTAB
  0
TABLE
  2
LTYPE
  5
5
330
0
100
AcDbSymbolTable
 70
     1
  0
LTYPE
  5
13
330
5
100
AcDbSymbolTableRecord
100
AcDbLinetypeTableRecord
  2
BYBLOCK
 70
     0
  3

 72
    65
 73
     0
 40
0.0
  0
LTYPE
  5
14
330
5
100
AcDbSymbolTableRecord
100
AcDbLinetypeTableRecord
  2
BYLAYER
 70
     0
  3

 72
    65
 73
     0
 40
0.0
  0
LTYPE
  5
15
330
5
100
AcDbSymbolTableRecord
100
AcDbLinetypeTableRecord
  2
CONTINUOUS
 70
     0
  3
Solid line
 72
    65
 73
     0
 40
0.0
  0
ENDTAB
  0
TABLE
  2
LAYER
  5
2
330
0
100
AcDbSymbolTable
 70
     1
  0
LAYER
  5
10
330
2
100
AcDbSymbolTableRecord
100
AcDbLayerTableRecord
  2
0
 70
     0
 62
     7
  6
CONTINUOUS
  0
ENDTAB
  0
TABLE
  2
STYLE
  5
3
330
0
100
AcDbSymbolTable
 70
     1
  0
STYLE
  5
11
330
3
100
AcDbSymbolTableRecord
100
AcDbTextStyleTableRecord
  2
STANDARD
 70
     0
 40
0.0
 41
1.0
 50
0.0
 71
     0
 42
0.2
  3
txt
  4

  0
ENDTAB
  0
TABLE
  2
VIEW
  5
6
330
0
100
AcDbSymbolTable
 70
     0
  0
ENDTAB
  0
TABLE
  2
UCS
  5
7
330
0
100
AcDbSymbolTable
 70
     0
  0
ENDTAB
  0
TABLE
  2
APPID
  5
9
330
0
100
AcDbSymbolTable
 70
     1
  0
APPID
  5
12
330
9
100
AcDbSymbolTableRecord
100
AcDbRegAppTableRecord
  2
ACAD
 70
     0
  0
ENDTAB
  0
TABLE
  2
DIMSTYLE
  5
A
330
0
100
AcDbSymbolTable
 70
     1
  0
DIMSTYLE
105
7E8
330
A
100
AcDbSymbolTableRecord
100
AcDbDimStyleTableRecord
  2
STANDARD
 70
     0
  3

  4

  5

  6

  7

 40
1.0
 41
0.18
 42
0.0625
 43
0.38
 44
0.18
 45
0.0
 46
0.0
 47
0.0
 48
0.0
140
0.18
141
0.09
142
0.0
143
25.4
144
1.0
145
0.0
146
1.0
147
0.09
 71
     0
 72
     0
 73
     1
 74
     1
 75
     0
 76
     0
 77
     0
 78
     0
170
     0
171
     2
172
     0
173
     0
174
     0
175
     0
176
     0
177
     0
178
     0
270
     2
271
     4
272
     4
273
     2
274
     2
340
11
275
     0
280
     0
281
     0
282
     0
283
     1
284
     0
285
     0
286
     0
287
     3
288
     0
  0
ENDTAB
  0
TABLE
  2
BLOCK_RECORD
  5
1
330
0
100
AcDbSymbolTable
 70
     0
  0
BLOCK_RECORD
  5
1E
102
{ACAD_XDICTIONARY
360
85E
102
}
330
1
100
AcDbSymbolTableRecord
100
AcDbBlockTableRecord
  2
*MODEL_SPACE
  0
BLOCK_RECORD
  5
1A
102
{ACAD_XDICTIONARY
360
85C
102
}
330
1
100
AcDbSymbolTableRecord
100
AcDbBlockTableRecord
  2
*PAPER_SPACE
  0
ENDTAB
  0
ENDSEC
  0
SECTION
  2
BLOCKS
  0
BLOCK
  5
1F
330
1E
100
AcDbEntity
  8
0
100
AcDbBlockBegin
  2
*MODEL_SPACE
 70
     0
 10
0.0
 20
0.0
 30
0.0
  3
*MODEL_SPACE
  1

  0
ENDBLK
  5
20
330
1E
100
AcDbEntity
  8
0
100
AcDbBlockEnd
  0
BLOCK
  5
1B
330
1A
100
AcDbEntity
 67
     1
  8
0
100
AcDbBlockBegin
  2
*PAPER_SPACE
 70
     0
 10
0.0
 20
0.0
 30
0.0
  3
*PAPER_SPACE
  1

  0
ENDBLK
  5
1C
330
1A
100
AcDbEntity
 67
     1
  8
0
100
AcDbBlockEnd
  0
ENDSEC
  0
SECTION
  2
ENTITIES
  0
LINE
  5
22
330
1E
100
AcDbEntity
  8
0
100
AcDbLine
 10
-0.000000000000001
 20
146.7744299999999
 30
0.0
 11
-0.000000000000001
 21
144.72643
 31
0.0
  0
LINE
  5
23
330
1E
100
AcDbEntity
  8
0
100
AcDbLine
 10
-0.000000000000001
 20
146.7744299999999
 30
0.0
 11
1.8
 21
154.11643
 31
0.0
  0
LINE
  5
24
330
1E
100
AcDbEntity
  8
0
100
AcDbLine
 10
-0.000000000000001
 20
144.72643
 30
0.0
 11
-0.000000000000001
 21
146.7744299999999
 31
0.0
  0
LINE
  5
25
330
1E
100
AcDbEntity
  8
0
100
AcDbLine
 10
-0.000000000000001
 20
156.19543
 30
0.0
 11
1.8
 21
163.5364299999999
 31
0.0
  0
LINE
  5
26
330
1E
100
AcDbEntity
  8
0
100
AcDbLine
 10
-0.000000000000001
 20
156.19543
 30
0.0
 11
-0.000000000000001
 21
147.59343
 31
0.0
  0
LINE
  5
27
330
1E
100
AcDbEntity
  8
0
100
AcDbLine
 10
0.7517857142857491
 20
141.660397261905
 30
0.0
 11
1.8
 21
137.38543
 31
0.0
  0
LINE
  5
28
330
1E
100
AcDbEntity
  8
0
100
AcDbLine
 10
1.8
 20
154.11643
 30
0.0
 11
6.7
 21
161.05643
 31
0.0
  0
LINE
  5
29
330
1E
100
AcDbEntity
  8
0
100
AcDbLine
 10
1.8
 20
154.11643
 30
0.0
 11
6.7
 21
161.05643
 31
0.0
  0
LINE
  5
2A
330
1E
100
AcDbEntity
  8
0
100
AcDbLine
 10
0.7517857142857491
 20
141.660397261905
 30
0.0
 11
1.8
 21
137.38543
 31
0.0
  0
LINE
  5
2B
330
1E
100
AcDbEntity
  8
0
100
AcDbLine
 10
1.8
 20
137.38543
 30
0.0
 11
2.299999999999999
 21
135.3944299999999
 31
0.0
  0
LINE
  5
2C
330
1E
100
AcDbEntity
  8
0
100
AcDbLine
 10
1.8
 20
154.93543
 30
0.0
 11
6.7
 21
161.87643
 31
0.0
  0
LINE
  5
2E
330
1E
100
AcDbEntity
  8
0
100
AcDbLine
 10
37.07959999999999
 20
116.12443
 30
0.0
 11
37.6009
 21
116.44343
 31
0.0
  0
LINE
  5
2F
330
1E
100
AcDbEntity
  8
0
100
AcDbLine
 10
36.3192
 20
116.10043
 30
0.0
 11
37.07959999999999
 21
116.12443
 31
0.0
  0
LINE
  5
30
330
1E
100
AcDbEntity
  8
0
100
AcDbLine
 10
35.764
 20
116.39943
 30
0.0
 11
36.3192
 21
116.10043
 31
0.0
  0
LINE
  5
31
330
1E
100
AcDbEntity
  8
0
100
AcDbLine
 10
15.9688
 20
125.92643
 30
0.0
 11
16.725
 21
125.9784299999999
 31
0.0
  0
LINE
  5
32
330
1E
100
AcDbEntity
  8
0
100
AcDbLine
 10
15.359
 20
126.18843
 30
0.0
 11
15.9688
 21
125.92643
 31
0.0
  0
LINE
  5
33
330
1E
100
AcDbEntity
  8
0
100
AcDbLine
 10
15.2688
 20
126.62243
 30
0.0
 11
15.72499999999999
 21
126.97243
 31
0.0
  0
LINE
  5
34
330
1E
100
AcDbEntity
  8
0
100
AcDbLine
 10
15.2688
 20
126.62243
 30
0.0
 11
15.359
 21
126.18843
 31
0.0
  0
LINE
  5
36
330
1E
100
AcDbEntity
  8
0
100
AcDbLine
 10
2.299999999999999
 20
135.3944299999999
 30
0.0
 11
7.099999999999999
 21
128.56943
 31
0.0
  0
LINE
  5
37
330
1E
100
AcDbEntity
  8
0
100
AcDbLine
 10
6.7
 20
161.05643
 30
0.0
 11
14.69999999999999
 21
167.02243
 31
0.0
  0
LINE
  5
38
330
1E
100
AcDbEntity
  8
0
100
AcDbLine
 10
2.299999999999999
 20
135.3944299999999
 30
0.0
 11
7.099999999999999
 21
128.56943
 31
0.0
  0
LINE
  5
3B
330
1E
100
AcDbEntity
  8
0
100
AcDbLine
 10
10.3
 20
138.0614299999999
 30
0.0
 11
11.0
 21
138.2334299999999
 31
0.0
  0
LINE
  5
3D
330
1E
100
AcDbEntity
  8
0
100
AcDbLine
 10
10.0
 20
137.6604299999999
 30
0.0
 11
10.3
 21
137.2584299999999
 31
0.0
  0
LINE
  5
3E
330
1E
100
AcDbEntity
  8
0
100
AcDbLine
 10
10.0
 20
137.6604299999999
 30
0.0
 11
10.3
 21
138.0614299999999
 31
0.0
  0
LINE
  5
40
330
1E
100
AcDbEntity
  8
0
100
AcDbLine
 10
10.60769999999999
 20
133.67643
 30
0.0
 11
10.7816
 21
134.1014299999999
 31
0.0
  0
LINE
  5
41
330
1E
100
AcDbEntity
  8
0
100
AcDbLine
 10
10.60769999999999
 20
133.67643
 30
0.0
 11
11.0247
 21
133.31043
 31
0.0
  0
LINE
  5
45
330
1E
100
AcDbEntity
  8
0
100
AcDbLine
 10
10.7816
 20
134.1014299999999
 30
0.0
 11
11.4188
 21
134.3404299999999
 31
0.0
  0
LINE
  5
47
330
1E
100
AcDbEntity
  8
0
100
AcDbLine
 10
10.3
 20
137.2584299999999
 30
0.0
 11
11.0
 21
137.08643
 31
0.0
  0
LINE
  5
49
330
1E
100
AcDbEntity
  8
0
100
AcDbLine
 10
10.60769999999999
 20
141.64443
 30
0.0
 11
10.7816
 21
141.21843
 31
0.0
  0
LINE
  5
4A
330
1E
100
AcDbEntity
  8
0
100
AcDbLine
 10
10.60769999999999
 20
141.64443
 30
0.0
 11
11.0247
 21
142.00943
 31
0.0
  0
LINE
  5
4D
330
1E
100
AcDbEntity
  8
0
100
AcDbLine
 10
11.4188
 20
134.3404299999999
 30
0.0
 11
12.16029999999999
 21
134.24043
 31
0.0
  0
LINE
  5
4F
330
1E
100
AcDbEntity
  8
0
100
AcDbLine
 10
11.0247
 20
133.31043
 30
0.0
 11
11.76609999999999
 21
133.21043
 31
0.0
  0
LINE
  5
50
330
1E
100
AcDbEntity
  8
0
100
AcDbLine
 10
11.0
 20
137.08643
 30
0.0
 11
11.69999999999999
 21
137.2584299999999
 31
0.0
  0
LINE
  5
52
330
1E
100
AcDbEntity
  8
0
100
AcDbLine
 10
11.0
 20
138.2334299999999
 30
0.0
 11
11.69999999999999
 21
138.0614299999999
 31
0.0
  0
LINE
  5
54
330
1E
100
AcDbEntity
  8
0
100
AcDbLine
 10
12.16029999999999
 20
134.24043
 30
0.0
 11
12.5773
 21
133.8754299999999
 31
0.0
  0
LINE
  5
55
330
1E
100
AcDbEntity
  8
0
100
AcDbLine
 10
12.40339999999999
 20
133.44943
 30
0.0
 11
12.5773
 21
133.8754299999999
 31
0.0
  0
LINE
  5
56
330
1E
100
AcDbEntity
  8
0
100
AcDbLine
 10
11.76609999999999
 20
133.21043
 30
0.0
 11
12.40339999999999
 21
133.44943
 31
0.0
  0
LINE
  5
58
330
1E
100
AcDbEntity
  8
0
100
AcDbLine
 10
11.69999999999999
 20
137.2584299999999
 30
0.0
 11
12.0
 21
137.6604299999999
 31
0.0
  0
LINE
  5
5B
330
1E
100
AcDbEntity
  8
0
100
AcDbLine
 10
11.69999999999999
 20
138.0614299999999
 30
0.0
 11
12.0
 21
137.6604299999999
 31
0.0
  0
LINE
  5
5D
330
1E
100
AcDbEntity
  8
0
100
AcDbLine
 10
11.4188
 20
140.97943
 30
0.0
 11
12.16029999999999
 21
141.07943
 31
0.0
  0
LINE
  5
5E
330
1E
100
AcDbEntity
  8
0
100
AcDbLine
 10
12.16029999999999
 20
141.07943
 30
0.0
 11
12.5773
 21
141.44443
 31
0.0
  0
LINE
  5
5F
330
1E
100
AcDbEntity
  8
0
100
AcDbLine
 10
13.694
 20
129.47043
 30
0.0
 11
14.2492
 21
129.76943
 31
0.0
  0
LINE
  5
60
330
1E
100
AcDbEntity
  8
0
100
AcDbLine
 10
12.9336
 20
129.49443
 30
0.0
 11
13.694
 21
129.47043
 31
0.0
  0
LINE
  5
61
330
1E
100
AcDbEntity
  8
0
100
AcDbLine
 10
12.4123
 20
129.81343
 30
0.0
 11
12.4548
 21
130.24943
 31
0.0
  0
LINE
  5
62
330
1E
100
AcDbEntity
  8
0
100
AcDbLine
 10
12.4123
 20
129.81343
 30
0.0
 11
12.9336
 21
129.49443
 31
0.0
  0
LINE
  5
68
330
1E
100
AcDbEntity
  8
0
100
AcDbLine
 10
13.01
 20
130.54843
 30
0.0
 11
13.7704
 21
130.5234299999999
 31
0.0
  0
LINE
  5
6A
330
1E
100
AcDbEntity
  8
0
100
AcDbLine
 10
13.7704
 20
130.5234299999999
 30
0.0
 11
14.2917
 21
130.2054299999999
 31
0.0
  0
LINE
  5
6C
330
1E
100
AcDbEntity
  8
0
100
AcDbLine
 10
12.4548
 20
130.24943
 30
0.0
 11
13.01
 21
130.54843
 31
0.0
  0
LINE
  5
6E
330
1E
100
AcDbEntity
  8
0
100
AcDbLine
 10
12.40339999999999
 20
141.8704299999999
 30
0.0
 11
12.5773
 21
141.44443
 31
0.0
  0
LINE
  5
71
330
1E
100
AcDbEntity
  8
0
100
AcDbLine
 10
11.76609999999999
 20
142.10943
 30
0.0
 11
12.40339999999999
 21
141.8704299999999
 31
0.0
  0
LINE
  5
73
330
1E
100
AcDbEntity
  8
0
100
AcDbLine
 10
11.0247
 20
142.00943
 30
0.0
 11
11.76609999999999
 21
142.10943
 31
0.0
  0
LINE
  5
75
330
1E
100
AcDbEntity
  8
0
100
AcDbLine
 10
10.7816
 20
141.21843
 30
0.0
 11
11.4188
 21
140.97943
 31
0.0
  0
LINE
  5
76
330
1E
100
AcDbEntity
  8
0
100
AcDbLine
 10
13.01
 20
144.77143
 30
0.0
 11
13.7704
 21
144.79643
 31
0.0
  0
LINE
  5
79
330
1E
100
AcDbEntity
  8
0
100
AcDbLine
 10
15.72499999999999
 20
126.97243
 30
0.0
 11
16.4812
 21
127.02343
 31
0.0
  0
LINE
  5
7B
330
1E
100
AcDbEntity
  8
0
100
AcDbLine
 10
14.2492
 20
129.76943
 30
0.0
 11
14.2917
 21
130.2054299999999
 31
0.0
  0
LINE
  5
7C
330
1E
100
AcDbEntity
  8
0
100
AcDbLine
 10
13.7704
 20
144.79643
 30
0.0
 11
14.2917
 21
145.1144299999999
 31
0.0
  0
LINE
  5
7E
330
1E
100
AcDbEntity
  8
0
100
AcDbLine
 10
14.2492
 20
145.55043
 30
0.0
 11
14.2917
 21
145.1144299999999
 31
0.0
  0
LINE
  5
81
330
1E
100
AcDbEntity
  8
0
100
AcDbLine
 10
15.72499999999999
 20
148.34843
 30
0.0
 11
16.4812
 21
148.29643
 31
0.0
  0
LINE
  5
85
330
1E
100
AcDbEntity
  8
0
100
AcDbLine
 10
15.9688
 20
149.39343
 30
0.0
 11
16.725
 21
149.3414299999999
 31
0.0
  0
LINE
  5
87
330
1E
100
AcDbEntity
  8
0
100
AcDbLine
 10
15.359
 20
149.1314299999999
 30
0.0
 11
15.9688
 21
149.39343
 31
0.0
  0
LINE
  5
89
330
1E
100
AcDbEntity
  8
0
100
AcDbLine
 10
15.2688
 20
148.6974299999999
 30
0.0
 11
15.72499999999999
 21
148.34843
 31
0.0
  0
LINE
  5
8A
330
1E
100
AcDbEntity
  8
0
100
AcDbLine
 10
15.2688
 20
148.6974299999999
 30
0.0
 11
15.359
 21
149.1314299999999
 31
0.0
  0
LINE
  5
8C
330
1E
100
AcDbEntity
  8
0
100
AcDbLine
 10
13.694
 20
145.84943
 30
0.0
 11
14.2492
 21
145.55043
 31
0.0
  0
LINE
  5
8E
330
1E
100
AcDbEntity
  8
0
100
AcDbLine
 10
12.9336
 20
145.82543
 30
0.0
 11
13.694
 21
145.84943
 31
0.0
  0
LINE
  5
90
330
1E
100
AcDbEntity
  8
0
100
AcDbLine
 10
12.4123
 20
145.5074299999999
 30
0.0
 11
12.4548
 21
145.07043
 31
0.0
  0
LINE
  5
91
330
1E
100
AcDbEntity
  8
0
100
AcDbLine
 10
12.4123
 20
145.5074299999999
 30
0.0
 11
12.9336
 21
145.82543
 31
0.0
  0
LINE
  5
93
330
1E
100
AcDbEntity
  8
0
100
AcDbLine
 10
12.4548
 20
145.07043
 30
0.0
 11
13.01
 21
144.77143
 31
0.0
  0
LINE
  5
94
330
1E
100
AcDbEntity
  8
0
100
AcDbLine
 10
7.099999999999999
 20
128.56943
 30
0.0
 11
8.4
 21
126.92243
 31
0.0
  0
LINE
  5
95
330
1E
100
AcDbEntity
  8
0
100
AcDbLine
 10
8.4
 20
126.92243
 30
0.0
 11
16.1
 21
121.18643
 31
0.0
  0
LINE
  5
97
330
1E
100
AcDbEntity
  8
0
100
AcDbLine
 10
16.4812
 20
127.02343
 30
0.0
 11
17.09099999999999
 21
126.76243
 31
0.0
  0
LINE
  5
9C
330
1E
100
AcDbEntity
  8
0
100
AcDbLine
 10
17.09099999999999
 20
126.76243
 30
0.0
 11
17.1812
 21
126.32843
 31
0.0
  0
LINE
  5
9E
330
1E
100
AcDbEntity
  8
0
100
AcDbLine
 10
16.725
 20
125.9784299999999
 30
0.0
 11
17.1812
 21
126.32843
 31
0.0
  0
LINE
  5
A0
330
1E
100
AcDbEntity
  8
0
100
AcDbLine
 10
18.1569
 20
135.7734299999999
 30
0.0
 11
18.3947
 21
136.18843
 31
0.0
  0
LINE
  5
A1
330
1E
100
AcDbEntity
  8
0
100
AcDbLine
 10
18.1569
 20
135.7734299999999
 30
0.0
 11
18.5167
 21
135.38843
 31
0.0
  0
LINE
  5
A3
330
1E
100
AcDbEntity
  8
0
100
AcDbLine
 10
18.3947
 20
136.18843
 30
0.0
 11
19.06589999999999
 21
136.39543
 31
0.0
  0
LINE
  5
A5
330
1E
100
AcDbEntity
  8
0
100
AcDbLine
 10
18.1569
 20
138.96943
 30
0.0
 11
18.3947
 21
138.55443
 31
0.0
  0
LINE
  5
A6
330
1E
100
AcDbEntity
  8
0
100
AcDbLine
 10
18.1569
 20
138.96943
 30
0.0
 11
18.5167
 21
139.35443
 31
0.0
  0
LINE
  5
A8
330
1E
100
AcDbEntity
  8
0
100
AcDbLine
 10
19.06589999999999
 20
136.39543
 30
0.0
 11
19.7894
 21
136.2584299999999
 31
0.0
  0
LINE
  5
A9
330
1E
100
AcDbEntity
  8
0
100
AcDbLine
 10
18.5167
 20
135.38843
 30
0.0
 11
19.2402
 21
135.25243
 31
0.0
  0
LINE
  5
AB
330
1E
100
AcDbEntity
  8
0
100
AcDbLine
 10
19.1381
 20
123.33043
 30
0.0
 11
19.4815
 21
123.72043
 31
0.0
  0
LINE
  5
AC
330
1E
100
AcDbEntity
  8
0
100
AcDbLine
 10
19.1381
 20
123.33043
 30
0.0
 11
19.3582
 21
122.91243
 31
0.0
  0
LINE
  5
AE
330
1E
100
AcDbEntity
  8
0
100
AcDbLine
 10
19.1244
 20
132.62643
 30
0.0
 11
19.233
 21
133.05843
 31
0.0
  0
LINE
  5
AF
330
1E
100
AcDbEntity
  8
0
100
AcDbLine
 10
19.1244
 20
132.62643
 30
0.0
 11
19.5953
 21
132.28343
 31
0.0
  0
LINE
  5
B3
330
1E
100
AcDbEntity
  8
0
100
AcDbLine
 10
19.233
 20
133.05843
 30
0.0
 11
19.8315
 21
133.32843
 31
0.0
  0
LINE
  5
B5
330
1E
100
AcDbEntity
  8
0
100
AcDbLine
 10
19.06589999999999
 20
138.34843
 30
0.0
 11
19.7894
 21
138.48443
 31
0.0
  0
LINE
  5
B7
330
1E
100
AcDbEntity
  8
0
100
AcDbLine
 10
18.5167
 20
139.35443
 30
0.0
 11
19.2402
 21
139.49143
 31
0.0
  0
LINE
  5
B9
330
1E
100
AcDbEntity
  8
0
100
AcDbLine
 10
18.3947
 20
138.55443
 30
0.0
 11
19.06589999999999
 21
138.34843
 31
0.0
  0
LINE
  5
BA
330
1E
100
AcDbEntity
  8
0
100
AcDbLine
 10
16.4812
 20
148.29643
 30
0.0
 11
17.09099999999999
 21
148.55743
 31
0.0
  0
LINE
  5
BC
330
1E
100
AcDbEntity
  8
0
100
AcDbLine
 10
17.09099999999999
 20
148.55743
 30
0.0
 11
17.1812
 21
148.99143
 31
0.0
  0
LINE
  5
BF
330
1E
100
AcDbEntity
  8
0
100
AcDbLine
 10
16.725
 20
149.3414299999999
 30
0.0
 11
17.1812
 21
148.99143
 31
0.0
  0
LINE
  5
C2
330
1E
100
AcDbEntity
  8
0
100
AcDbLine
 10
19.1381
 20
151.9894299999999
 30
0.0
 11
19.4815
 21
151.59943
 31
0.0
  0
LINE
  5
C3
330
1E
100
AcDbEntity
  8
0
100
AcDbLine
 10
19.1381
 20
151.9894299999999
 30
0.0
 11
19.3582
 21
152.40743
 31
0.0
  0
LINE
  5
C6
330
1E
100
AcDbEntity
  8
0
100
AcDbLine
 10
19.1244
 20
142.11643
 30
0.0
 11
19.233
 21
141.6844299999999
 31
0.0
  0
LINE
  5
C7
330
1E
100
AcDbEntity
  8
0
100
AcDbLine
 10
19.1244
 20
142.11643
 30
0.0
 11
19.5953
 21
142.46043
 31
0.0
  0
LINE
  5
CA
330
1E
100
AcDbEntity
  8
0
100
AcDbLine
 10
19.4815
 20
123.72043
 30
0.0
 11
20.2105
 21
123.8464299999999
 31
0.0
  0
LINE
  5
CC
330
1E
100
AcDbEntity
  8
0
100
AcDbLine
 10
19.3582
 20
122.91243
 30
0.0
 11
20.038
 21
122.71543
 31
0.0
  0
LINE
  5
CD
330
1E
100
AcDbEntity
  8
0
100
AcDbLine
 10
19.5953
 20
132.28343
 30
0.0
 11
20.34909999999999
 21
132.2204299999999
 31
0.0
  0
LINE
  5
CE
330
1E
100
AcDbEntity
  8
0
100
AcDbLine
 10
19.7894
 20
136.2584299999999
 30
0.0
 11
20.1492
 21
135.87343
 31
0.0
  0
LINE
  5
CF
330
1E
100
AcDbEntity
  8
0
100
AcDbLine
 10
19.2402
 20
135.25243
 30
0.0
 11
19.9114
 21
135.4584299999999
 31
0.0
  0
LINE
  5
D1
330
1E
100
AcDbEntity
  8
0
100
AcDbLine
 10
19.8315
 20
133.32843
 30
0.0
 11
20.5853
 21
133.26643
 31
0.0
  0
LINE
  5
D3
330
1E
100
AcDbEntity
  8
0
100
AcDbLine
 10
19.7894
 20
138.48443
 30
0.0
 11
20.1492
 21
138.86943
 31
0.0
  0
LINE
  5
D5
330
1E
100
AcDbEntity
  8
0
100
AcDbLine
 10
19.2402
 20
139.49143
 30
0.0
 11
19.9114
 21
139.28443
 31
0.0
  0
LINE
  5
D7
330
1E
100
AcDbEntity
  8
0
100
AcDbLine
 10
20.2105
 20
123.8464299999999
 30
0.0
 11
20.8903
 21
123.64943
 31
0.0
  0
LINE
  5
D8
330
1E
100
AcDbEntity
  8
0
100
AcDbLine
 10
20.8903
 20
123.64943
 30
0.0
 11
21.1104
 21
123.23143
 31
0.0
  0
LINE
  5
D9
330
1E
100
AcDbEntity
  8
0
100
AcDbLine
 10
20.76709999999999
 20
122.84143
 30
0.0
 11
21.1104
 21
123.23143
 31
0.0
  0
LINE
  5
DA
330
1E
100
AcDbEntity
  8
0
100
AcDbLine
 10
20.038
 20
122.71543
 30
0.0
 11
20.76709999999999
 21
122.84143
 31
0.0
  0
LINE
  5
DC
330
1E
100
AcDbEntity
  8
0
100
AcDbLine
 10
20.5853
 20
133.26643
 30
0.0
 11
21.0562
 21
132.9234299999999
 31
0.0
  0
LINE
  5
DE
330
1E
100
AcDbEntity
  8
0
100
AcDbLine
 10
20.9476
 20
132.49043
 30
0.0
 11
21.0562
 21
132.9234299999999
 31
0.0
  0
LINE
  5
DF
330
1E
100
AcDbEntity
  8
0
100
AcDbLine
 10
20.34909999999999
 20
132.2204299999999
 30
0.0
 11
20.9476
 21
132.49043
 31
0.0
  0
LINE
  5
E0
330
1E
100
AcDbEntity
  8
0
100
AcDbLine
 10
19.9114
 20
135.4584299999999
 30
0.0
 11
20.1492
 21
135.87343
 31
0.0
  0
LINE
  5
E2
330
1E
100
AcDbEntity
  8
0
100
AcDbLine
 10
19.9114
 20
139.28443
 30
0.0
 11
20.1492
 21
138.86943
 31
0.0
  0
LINE
  5
E4
330
1E
100
AcDbEntity
  8
0
100
AcDbLine
 10
19.8315
 20
141.41443
 30
0.0
 11
20.5853
 21
141.4764299999999
 31
0.0
  0
LINE
  5
E6
330
1E
100
AcDbEntity
  8
0
100
AcDbLine
 10
20.5853
 20
141.4764299999999
 30
0.0
 11
21.0562
 21
141.82043
 31
0.0
  0
LINE
  5
E7
330
1E
100
AcDbEntity
  8
0
100
AcDbLine
 10
22.359
 20
129.34543
 30
0.0
 11
22.86659999999999
 21
129.67143
 31
0.0
  0
LINE
  5
E8
330
1E
100
AcDbEntity
  8
0
100
AcDbLine
 10
21.5978
 20
129.33243
 30
0.0
 11
22.359
 21
129.34543
 31
0.0
  0
LINE
  5
E9
330
1E
100
AcDbEntity
  8
0
100
AcDbLine
 10
21.0301
 20
129.62343
 30
0.0
 11
21.5978
 21
129.33243
 31
0.0
  0
LINE
  5
EA
330
1E
100
AcDbEntity
  8
0
100
AcDbLine
 10
21.5138
 20
130.38543
 30
0.0
 11
22.275
 21
130.39943
 31
0.0
  0
LINE
  5
F2
330
1E
100
AcDbEntity
  8
0
100
AcDbLine
 10
22.275
 20
130.39943
 30
0.0
 11
22.8427
 21
130.10843
 31
0.0
  0
LINE
  5
F4
330
1E
100
AcDbEntity
  8
0
100
AcDbLine
 10
22.8427
 20
130.10843
 30
0.0
 11
22.86659999999999
 21
129.67143
 31
0.0
  0
LINE
  5
F6
330
1E
100
AcDbEntity
  8
0
100
AcDbLine
 10
21.0061
 20
130.0594299999999
 30
0.0
 11
21.5138
 21
130.38543
 31
0.0
  0
LINE
  5
F7
330
1E
100
AcDbEntity
  8
0
100
AcDbLine
 10
21.0061
 20
130.0594299999999
 30
0.0
 11
21.0301
 21
129.62343
 31
0.0
  0
LINE
  5
F9
330
1E
100
AcDbEntity
  8
0
100
AcDbLine
 10
23.816
 20
126.8554299999999
 30
0.0
 11
24.4632
 21
126.62543
 31
0.0
  0
LINE
  5
FA
330
1E
100
AcDbEntity
  8
0
100
AcDbLine
 10
23.6602
 20
127.28343
 30
0.0
 11
24.06159999999999
 21
127.65443
 31
0.0
  0
LINE
  5
FB
330
1E
100
AcDbEntity
  8
0
100
AcDbLine
 10
23.6602
 20
127.28343
 30
0.0
 11
23.816
 21
126.8554299999999
 31
0.0
  0
LINE
  5
FD
330
1E
100
AcDbEntity
  8
0
100
AcDbLine
 10
25.0176
 20
119.95843
 30
0.0
 11
25.69729999999999
 21
120.15543
 31
0.0
  0
LINE
  5
FE
330
1E
100
AcDbEntity
  8
0
100
AcDbLine
 10
24.1652
 20
120.89243
 30
0.0
 11
24.845
 21
121.08943
 31
0.0
  0
LINE
  5
100
330
1E
100
AcDbEntity
  8
0
100
AcDbLine
 10
24.06159999999999
 20
127.65443
 30
0.0
 11
24.807
 21
127.74343
 31
0.0
  0
LINE
  5
101
330
1E
100
AcDbEntity
  8
0
100
AcDbLine
 10
24.807
 20
127.74343
 30
0.0
 11
25.4543
 21
127.5134299999999
 31
0.0
  0
LINE
  5
102
330
1E
100
AcDbEntity
  8
0
100
AcDbLine
 10
24.4632
 20
126.62543
 30
0.0
 11
25.2087
 21
126.71443
 31
0.0
  0
LINE
  5
107
330
1E
100
AcDbEntity
  8
0
100
AcDbLine
 10
25.4543
 20
127.5134299999999
 30
0.0
 11
25.60999999999999
 21
127.08543
 31
0.0
  0
LINE
  5
108
330
1E
100
AcDbEntity
  8
0
100
AcDbLine
 10
25.2087
 20
126.71443
 30
0.0
 11
25.60999999999999
 21
127.08543
 31
0.0
  0
LINE
  5
109
330
1E
100
AcDbEntity
  8
0
100
AcDbLine
 10
24.845
 20
121.08943
 30
0.0
 11
25.5741
 21
120.96343
 31
0.0
  0
LINE
  5
10B
330
1E
100
AcDbEntity
  8
0
100
AcDbLine
 10
25.5741
 20
120.96343
 30
0.0
 11
25.9175
 21
120.57343
 31
0.0
  0
LINE
  5
10C
330
1E
100
AcDbEntity
  8
0
100
AcDbLine
 10
25.69729999999999
 20
120.15543
 30
0.0
 11
25.9175
 21
120.57343
 31
0.0
  0
LINE
  5
10D
330
1E
100
AcDbEntity
  8
0
100
AcDbLine
 10
24.2885
 20
120.0844299999999
 30
0.0
 11
25.0176
 21
119.95843
 31
0.0
  0
LINE
  5
10E
330
1E
100
AcDbEntity
  8
0
100
AcDbLine
 10
23.94509999999999
 20
120.4744299999999
 30
0.0
 11
24.1652
 21
120.89243
 31
0.0
  0
LINE
  5
10F
330
1E
100
AcDbEntity
  8
0
100
AcDbLine
 10
23.94509999999999
 20
120.4744299999999
 30
0.0
 11
24.2885
 21
120.0844299999999
 31
0.0
  0
LINE
  5
113
330
1E
100
AcDbEntity
  8
0
100
AcDbLine
 10
26.3352
 20
137.48443
 30
0.0
 11
27.0352
 21
137.65643
 31
0.0
  0
LINE
  5
115
330
1E
100
AcDbEntity
  8
0
100
AcDbLine
 10
26.0352
 20
137.08343
 30
0.0
 11
26.3352
 21
136.68143
 31
0.0
  0
LINE
  5
116
330
1E
100
AcDbEntity
  8
0
100
AcDbLine
 10
26.0352
 20
137.08343
 30
0.0
 11
26.3352
 21
137.48443
 31
0.0
  0
LINE
  5
118
330
1E
100
AcDbEntity
  8
0
100
AcDbLine
 10
27.3975
 20
124.40743
 30
0.0
 11
28.1046
 21
124.24543
 31
0.0
  0
LINE
  5
11A
330
1E
100
AcDbEntity
  8
0
100
AcDbLine
 10
27.3975
 20
125.2184299999999
 30
0.0
 11
28.1046
 21
125.38043
 31
0.0
  0
LINE
  5
11B
330
1E
100
AcDbEntity
  8
0
100
AcDbLine
 10
27.1146
 20
124.81243
 30
0.0
 11
27.3975
 21
125.2184299999999
 31
0.0
  0
LINE
  5
11C
330
1E
100
AcDbEntity
  8
0
100
AcDbLine
 10
27.1146
 20
124.81243
 30
0.0
 11
27.3975
 21
124.40743
 31
0.0
  0
LINE
  5
11E
330
1E
100
AcDbEntity
  8
0
100
AcDbLine
 10
27.4805
 20
132.38243
 30
0.0
 11
27.523
 21
132.8184299999999
 31
0.0
  0
LINE
  5
11F
330
1E
100
AcDbEntity
  8
0
100
AcDbLine
 10
27.4805
 20
132.38243
 30
0.0
 11
28.0018
 21
132.06343
 31
0.0
  0
LINE
  5
121
330
1E
100
AcDbEntity
  8
0
100
AcDbLine
 10
27.523
 20
132.8184299999999
 30
0.0
 11
28.07809999999999
 21
133.11743
 31
0.0
  0
LINE
  5
123
330
1E
100
AcDbEntity
  8
0
100
AcDbLine
 10
27.0352
 20
136.50943
 30
0.0
 11
27.73519999999999
 21
136.68143
 31
0.0
  0
LINE
  5
125
330
1E
100
AcDbEntity
  8
0
100
AcDbLine
 10
27.0352
 20
137.65643
 30
0.0
 11
27.73519999999999
 21
137.48443
 31
0.0
  0
LINE
  5
127
330
1E
100
AcDbEntity
  8
0
100
AcDbLine
 10
26.3352
 20
136.68143
 30
0.0
 11
27.0352
 21
136.50943
 31
0.0
  0
LINE
  5
128
330
1E
100
AcDbEntity
  8
0
100
AcDbLine
 10
27.4805
 20
141.78443
 30
0.0
 11
27.523
 21
141.34843
 31
0.0
  0
LINE
  5
129
330
1E
100
AcDbEntity
  8
0
100
AcDbLine
 10
27.4805
 20
141.78443
 30
0.0
 11
28.0018
 21
142.10343
 31
0.0
  0
LINE
  5
12B
330
1E
100
AcDbEntity
  8
0
100
AcDbLine
 10
28.07809999999999
 20
133.11743
 30
0.0
 11
28.8385
 21
133.09243
 31
0.0
  0
LINE
  5
12D
330
1E
100
AcDbEntity
  8
0
100
AcDbLine
 10
28.0018
 20
132.06343
 30
0.0
 11
28.76219999999999
 21
132.03943
 31
0.0
  0
LINE
  5
12F
330
1E
100
AcDbEntity
  8
0
100
AcDbLine
 10
27.73519999999999
 20
136.68143
 30
0.0
 11
28.0352
 21
137.08343
 31
0.0
  0
LINE
  5
132
330
1E
100
AcDbEntity
  8
0
100
AcDbLine
 10
27.73519999999999
 20
137.48443
 30
0.0
 11
28.0352
 21
137.08343
 31
0.0
  0
LINE
  5
135
330
1E
100
AcDbEntity
  8
0
100
AcDbLine
 10
28.1046
 20
125.38043
 30
0.0
 11
28.8117
 21
125.2184299999999
 31
0.0
  0
LINE
  5
137
330
1E
100
AcDbEntity
  8
0
100
AcDbLine
 10
28.1046
 20
124.24543
 30
0.0
 11
28.8117
 21
124.40743
 31
0.0
  0
LINE
  5
139
330
1E
100
AcDbEntity
  8
0
100
AcDbLine
 10
30.7562
 20
117.73943
 30
0.0
 11
31.366
 21
118.00043
 31
0.0
  0
LINE
  5
13A
330
1E
100
AcDbEntity
  8
0
100
AcDbLine
 10
29.634
 20
118.57443
 30
0.0
 11
30.2438
 21
118.83543
 31
0.0
  0
LINE
  5
13E
330
1E
100
AcDbEntity
  8
0
100
AcDbLine
 10
30.2438
 20
118.83543
 30
0.0
 11
31.0
 21
118.78443
 31
0.0
  0
LINE
  5
13F
330
1E
100
AcDbEntity
  8
0
100
AcDbLine
 10
31.0
 20
118.78443
 30
0.0
 11
31.4562
 21
118.43443
 31
0.0
  0
LINE
  5
141
330
1E
100
AcDbEntity
  8
0
100
AcDbLine
 10
30.0
 20
117.79043
 30
0.0
 11
30.7562
 21
117.73943
 31
0.0
  0
LINE
  5
142
330
1E
100
AcDbEntity
  8
0
100
AcDbLine
 10
29.5438
 20
118.14043
 30
0.0
 11
29.634
 21
118.57443
 31
0.0
  0
LINE
  5
143
330
1E
100
AcDbEntity
  8
0
100
AcDbLine
 10
29.5438
 20
118.14043
 30
0.0
 11
30.0
 21
117.79043
 31
0.0
  0
LINE
  5
146
330
1E
100
AcDbEntity
  8
0
100
AcDbLine
 10
31.366
 20
118.00043
 30
0.0
 11
31.4562
 21
118.43443
 31
0.0
  0
LINE
  5
148
330
1E
100
AcDbEntity
  8
0
100
AcDbLine
 10
31.4202
 20
123.15143
 30
0.0
 11
32.06739999999999
 21
123.3824299999999
 31
0.0
  0
LINE
  5
14A
330
1E
100
AcDbEntity
  8
0
100
AcDbLine
 10
31.2644
 20
122.7244299999999
 30
0.0
 11
31.4202
 21
123.15143
 31
0.0
  0
LINE
  5
14B
330
1E
100
AcDbEntity
  8
0
100
AcDbLine
 10
31.2644
 20
122.7244299999999
 30
0.0
 11
31.6658
 21
122.35343
 31
0.0
  0
LINE
  5
150
330
1E
100
AcDbEntity
  8
0
100
AcDbLine
 10
28.8117
 20
125.2184299999999
 30
0.0
 11
29.0945
 21
124.81243
 31
0.0
  0
LINE
  5
152
330
1E
100
AcDbEntity
  8
0
100
AcDbLine
 10
28.8117
 20
124.40743
 30
0.0
 11
29.0945
 21
124.81243
 31
0.0
  0
LINE
  5
156
330
1E
100
AcDbEntity
  8
0
100
AcDbLine
 10
32.06739999999999
 20
123.3824299999999
 30
0.0
 11
32.8129
 21
123.29243
 31
0.0
  0
LINE
  5
158
330
1E
100
AcDbEntity
  8
0
100
AcDbLine
 10
31.6658
 20
122.35343
 30
0.0
 11
32.4112
 21
122.2634299999999
 31
0.0
  0
LINE
  5
15A
330
1E
100
AcDbEntity
  8
0
100
AcDbLine
 10
35.7215
 20
116.83543
 30
0.0
 11
35.764
 21
116.39943
 31
0.0
  0
LINE
  5
15B
330
1E
100
AcDbEntity
  8
0
100
AcDbLine
 10
35.7215
 20
116.83543
 30
0.0
 11
36.2428
 21
117.15443
 31
0.0
  0
LINE
  5
15E
330
1E
100
AcDbEntity
  8
0
100
AcDbLine
 10
32.8129
 20
123.29243
 30
0.0
 11
33.21419999999999
 21
122.9214299999999
 31
0.0
  0
LINE
  5
160
330
1E
100
AcDbEntity
  8
0
100
AcDbLine
 10
33.0585
 20
122.49343
 30
0.0
 11
33.21419999999999
 21
122.9214299999999
 31
0.0
  0
LINE
  5
161
330
1E
100
AcDbEntity
  8
0
100
AcDbLine
 10
32.4112
 20
122.2634299999999
 30
0.0
 11
33.0585
 21
122.49343
 31
0.0
  0
LINE
  5
162
330
1E
100
AcDbEntity
  8
0
100
AcDbLine
 10
33.0507
 20
128.17743
 30
0.0
 11
33.3941
 21
128.56643
 31
0.0
  0
LINE
  5
163
330
1E
100
AcDbEntity
  8
0
100
AcDbLine
 10
32.32169999999999
 20
128.05043
 30
0.0
 11
33.0507
 21
128.17743
 31
0.0
  0
LINE
  5
164
330
1E
100
AcDbEntity
  8
0
100
AcDbLine
 10
31.7652
 20
129.0554299999999
 30
0.0
 11
32.4942
 21
129.18243
 31
0.0
  0
LINE
  5
165
330
1E
100
AcDbEntity
  8
0
100
AcDbLine
 10
32.4942
 20
129.18243
 30
0.0
 11
33.174
 21
128.98543
 31
0.0
  0
LINE
  5
166
330
1E
100
AcDbEntity
  8
0
100
AcDbLine
 10
33.174
 20
128.98543
 30
0.0
 11
33.3941
 21
128.56643
 31
0.0
  0
LINE
  5
167
330
1E
100
AcDbEntity
  8
0
100
AcDbLine
 10
31.6419
 20
128.24743
 30
0.0
 11
32.32169999999999
 21
128.05043
 31
0.0
  0
LINE
  5
168
330
1E
100
AcDbEntity
  8
0
100
AcDbLine
 10
31.4218
 20
128.66543
 30
0.0
 11
31.7652
 21
129.0554299999999
 31
0.0
  0
LINE
  5
169
330
1E
100
AcDbEntity
  8
0
100
AcDbLine
 10
31.4218
 20
128.66543
 30
0.0
 11
31.6419
 21
128.24743
 31
0.0
  0
LINE
  5
16B
330
1E
100
AcDbEntity
  8
0
100
AcDbLine
 10
28.8385
 20
133.09243
 30
0.0
 11
29.3599
 21
132.7744299999999
 31
0.0
  0
LINE
  5
16D
330
1E
100
AcDbEntity
  8
0
100
AcDbLine
 10
29.31739999999999
 20
132.33843
 30
0.0
 11
29.3599
 21
132.7744299999999
 31
0.0
  0
LINE
  5
16E
330
1E
100
AcDbEntity
  8
0
100
AcDbLine
 10
28.76219999999999
 20
132.03943
 30
0.0
 11
29.31739999999999
 21
132.33843
 31
0.0
  0
LINE
  5
171
330
1E
100
AcDbEntity
  8
0
100
AcDbLine
 10
34.1143
 20
136.7874299999999
 30
0.0
 11
34.3522
 21
137.2024299999999
 31
0.0
  0
LINE
  5
172
330
1E
100
AcDbEntity
  8
0
100
AcDbLine
 10
34.1143
 20
136.7874299999999
 30
0.0
 11
34.4742
 21
136.40243
 31
0.0
  0
LINE
  5
174
330
1E
100
AcDbEntity
  8
0
100
AcDbLine
 10
35.19769999999999
 20
136.26643
 30
0.0
 11
35.86889999999999
 21
136.47243
 31
0.0
  0
LINE
  5
177
330
1E
100
AcDbEntity
  8
0
100
AcDbLine
 10
35.0234
 20
137.40843
 30
0.0
 11
35.74689999999999
 21
137.27243
 31
0.0
  0
LINE
  5
179
330
1E
100
AcDbEntity
  8
0
100
AcDbLine
 10
35.74689999999999
 20
137.27243
 30
0.0
 11
36.10669999999999
 21
136.8874299999999
 31
0.0
  0
LINE
  5
17B
330
1E
100
AcDbEntity
  8
0
100
AcDbLine
 10
34.4742
 20
136.40243
 30
0.0
 11
35.19769999999999
 21
136.26643
 31
0.0
  0
LINE
  5
17C
330
1E
100
AcDbEntity
  8
0
100
AcDbLine
 10
34.3522
 20
137.2024299999999
 30
0.0
 11
35.0234
 21
137.40843
 31
0.0
  0
LINE
  5
17F
330
1E
100
AcDbEntity
  8
0
100
AcDbLine
 10
36.2428
 20
117.15443
 30
0.0
 11
37.0032
 21
117.17843
 31
0.0
  0
LINE
  5
180
330
1E
100
AcDbEntity
  8
0
100
AcDbLine
 10
36.0074
 20
121.51743
 30
0.0
 11
36.5751
 21
121.80843
 31
0.0
  0
LINE
  5
181
330
1E
100
AcDbEntity
  8
0
100
AcDbLine
 10
35.98349999999999
 20
121.08043
 30
0.0
 11
36.0074
 21
121.51743
 31
0.0
  0
LINE
  5
182
330
1E
100
AcDbEntity
  8
0
100
AcDbLine
 10
35.98349999999999
 20
121.08043
 30
0.0
 11
36.4911
 21
120.7554299999999
 31
0.0
  0
LINE
  5
183
330
1E
100
AcDbEntity
  8
0
100
AcDbLine
 10
37.0032
 20
117.17843
 30
0.0
 11
37.5584
 21
116.87943
 31
0.0
  0
LINE
  5
184
330
1E
100
AcDbEntity
  8
0
100
AcDbLine
 10
36.5751
 20
121.80843
 30
0.0
 11
37.3363
 21
121.79443
 31
0.0
  0
LINE
  5
185
330
1E
100
AcDbEntity
  8
0
100
AcDbLine
 10
36.4911
 20
120.7554299999999
 30
0.0
 11
37.25229999999999
 21
120.74143
 31
0.0
  0
LINE
  5
186
330
1E
100
AcDbEntity
  8
0
100
AcDbLine
 10
36.4428
 20
132.4424299999999
 30
0.0
 11
37.204
 21
132.45643
 31
0.0
  0
LINE
  5
189
330
1E
100
AcDbEntity
  8
0
100
AcDbLine
 10
35.86889999999999
 20
136.47243
 30
0.0
 11
36.10669999999999
 21
136.8874299999999
 31
0.0
  0
LINE
  5
18C
330
1E
100
AcDbEntity
  8
0
100
AcDbLine
 10
36.3588
 20
133.4954299999999
 30
0.0
 11
37.11999999999999
 21
133.50943
 31
0.0
  0
LINE
  5
18E
330
1E
100
AcDbEntity
  8
0
100
AcDbLine
 10
37.11999999999999
 20
133.50943
 30
0.0
 11
37.68769999999999
 21
133.21843
 31
0.0
  0
LINE
  5
190
330
1E
100
AcDbEntity
  8
0
100
AcDbLine
 10
35.8751
 20
132.7334299999999
 30
0.0
 11
36.4428
 21
132.4424299999999
 31
0.0
  0
LINE
  5
191
330
1E
100
AcDbEntity
  8
0
100
AcDbLine
 10
35.85119999999999
 20
133.17043
 30
0.0
 11
36.3588
 21
133.4954299999999
 31
0.0
  0
LINE
  5
192
330
1E
100
AcDbEntity
  8
0
100
AcDbLine
 10
35.85119999999999
 20
133.17043
 30
0.0
 11
35.8751
 21
132.7334299999999
 31
0.0
  0
LINE
  5
194
330
1E
100
AcDbEntity
  8
0
100
AcDbLine
 10
36.3588
 20
140.26743
 30
0.0
 11
37.11999999999999
 21
140.25343
 31
0.0
  0
LINE
  5
195
330
1E
100
AcDbEntity
  8
0
100
AcDbLine
 10
37.5584
 20
116.87943
 30
0.0
 11
37.6009
 21
116.44343
 31
0.0
  0
LINE
  5
196
330
1E
100
AcDbEntity
  8
0
100
AcDbLine
 10
37.3363
 20
121.79443
 30
0.0
 11
37.844
 21
121.46943
 31
0.0
  0
LINE
  5
197
330
1E
100
AcDbEntity
  8
0
100
AcDbLine
 10
37.25229999999999
 20
120.74143
 30
0.0
 11
37.82
 21
121.03243
 31
0.0
  0
LINE
  5
198
330
1E
100
AcDbEntity
  8
0
100
AcDbLine
 10
37.204
 20
132.45643
 30
0.0
 11
37.7117
 21
132.78143
 31
0.0
  0
LINE
  5
199
330
1E
100
AcDbEntity
  8
0
100
AcDbLine
 10
37.11999999999999
 20
140.25343
 30
0.0
 11
37.68769999999999
 21
140.54443
 31
0.0
  0
LINE
  5
19A
330
1E
100
AcDbEntity
  8
0
100
AcDbLine
 10
35.85119999999999
 20
140.6516114545449
 30
0.0
 11
35.85119999999999
 21
140.59243
 31
0.0
  0
LINE
  5
19B
330
1E
100
AcDbEntity
  8
0
100
AcDbLine
 10
35.8751
 20
141.0294299999999
 30
0.0
 11
36.4428
 21
141.32043
 31
0.0
  0
LINE
  5
19D
330
1E
100
AcDbEntity
  8
0
100
AcDbLine
 10
35.85119999999999
 20
140.59243
 30
0.0
 11
36.3588
 21
140.26743
 31
0.0
  0
LINE
  5
19E
330
1E
100
AcDbEntity
  8
0
100
AcDbLine
 10
35.85119999999999
 20
140.59243
 30
0.0
 11
35.8751
 21
141.0294299999999
 31
0.0
  0
LINE
  5
19F
330
1E
100
AcDbEntity
  8
0
100
AcDbLine
 10
35.85119999999999
 20
140.59243
 30
0.0
 11
35.85119999999999
 21
140.6516114545449
 31
0.0
  0
LINE
  5
1A0
330
1E
100
AcDbEntity
  8
0
100
AcDbLine
 10
28.07809999999999
 20
141.04943
 30
0.0
 11
28.8385
 21
141.07343
 31
0.0
  0
LINE
  5
1A2
330
1E
100
AcDbEntity
  8
0
100
AcDbLine
 10
37.204
 20
141.30643
 30
0.0
 11
37.7117
 21
140.98143
 31
0.0
  0
LINE
  5
1A4
330
1E
100
AcDbEntity
  8
0
100
AcDbLine
 10
36.4428
 20
141.32043
 30
0.0
 11
37.204
 21
141.30643
 31
0.0
  0
LINE
  5
1A6
330
1E
100
AcDbEntity
  8
0
100
AcDbLine
 10
28.8385
 20
141.07343
 30
0.0
 11
29.3599
 21
141.39243
 31
0.0
  0
LINE
  5
1A7
330
1E
100
AcDbEntity
  8
0
100
AcDbLine
 10
27.523
 20
141.34843
 30
0.0
 11
28.07809999999999
 21
141.04943
 31
0.0
  0
LINE
  5
1A9
330
1E
100
AcDbEntity
  8
0
100
AcDbLine
 10
29.31739999999999
 20
141.82843
 30
0.0
 11
29.3599
 21
141.39243
 31
0.0
  0
LINE
  5
1AB
330
1E
100
AcDbEntity
  8
0
100
AcDbLine
 10
28.76219999999999
 20
142.12743
 30
0.0
 11
29.31739999999999
 21
141.82843
 31
0.0
  0
LINE
  5
1AC
330
1E
100
AcDbEntity
  8
0
100
AcDbLine
 10
28.0018
 20
142.10343
 30
0.0
 11
28.76219999999999
 21
142.12743
 31
0.0
  0
LINE
  5
1AF
330
1E
100
AcDbEntity
  8
0
100
AcDbLine
 10
20.9476
 20
142.25243
 30
0.0
 11
21.0562
 21
141.82043
 31
0.0
  0
LINE
  5
1B3
330
1E
100
AcDbEntity
  8
0
100
AcDbLine
 10
19.4815
 20
151.59943
 30
0.0
 11
20.2105
 21
151.47343
 31
0.0
  0
LINE
  5
1B4
330
1E
100
AcDbEntity
  8
0
100
AcDbLine
 10
20.2105
 20
151.47343
 30
0.0
 11
20.8903
 21
151.67043
 31
0.0
  0
LINE
  5
1B6
330
1E
100
AcDbEntity
  8
0
100
AcDbLine
 10
20.038
 20
152.60443
 30
0.0
 11
20.76709999999999
 21
152.47843
 31
0.0
  0
LINE
  5
1B8
330
1E
100
AcDbEntity
  8
0
100
AcDbLine
 10
19.3582
 20
152.40743
 30
0.0
 11
20.038
 21
152.60443
 31
0.0
  0
LINE
  5
1BB
330
1E
100
AcDbEntity
  8
0
100
AcDbLine
 10
21.0061
 20
144.8142524918029
 30
0.0
 11
21.0061
 21
144.68343
 31
0.0
  0
LINE
  5
1BC
330
1E
100
AcDbEntity
  8
0
100
AcDbLine
 10
21.5138
 20
144.3574299999999
 30
0.0
 11
22.275
 21
144.34443
 31
0.0
  0
LINE
  5
1BD
330
1E
100
AcDbEntity
  8
0
100
AcDbLine
 10
22.275
 20
144.34443
 30
0.0
 11
22.8427
 21
144.63543
 31
0.0
  0
LINE
  5
1BE
330
1E
100
AcDbEntity
  8
0
100
AcDbLine
 10
22.8427
 20
144.63543
 30
0.0
 11
22.86659999999999
 21
145.07143
 31
0.0
  0
LINE
  5
1BF
330
1E
100
AcDbEntity
  8
0
100
AcDbLine
 10
22.359
 20
145.39743
 30
0.0
 11
22.86659999999999
 21
145.07143
 31
0.0
  0
LINE
  5
1C0
330
1E
100
AcDbEntity
  8
0
100
AcDbLine
 10
21.5978
 20
145.41143
 30
0.0
 11
22.359
 21
145.39743
 31
0.0
  0
LINE
  5
1C1
330
1E
100
AcDbEntity
  8
0
100
AcDbLine
 10
21.0301
 20
145.12043
 30
0.0
 11
21.5978
 21
145.41143
 31
0.0
  0
LINE
  5
1C2
330
1E
100
AcDbEntity
  8
0
100
AcDbLine
 10
21.0061
 20
144.68343
 30
0.0
 11
21.5138
 21
144.3574299999999
 31
0.0
  0
LINE
  5
1C3
330
1E
100
AcDbEntity
  8
0
100
AcDbLine
 10
21.0061
 20
144.68343
 30
0.0
 11
21.0301
 21
145.12043
 31
0.0
  0
LINE
  5
1C4
330
1E
100
AcDbEntity
  8
0
100
AcDbLine
 10
21.0061
 20
144.68343
 30
0.0
 11
21.0061
 21
144.8142524918029
 31
0.0
  0
LINE
  5
1C5
330
1E
100
AcDbEntity
  8
0
100
AcDbLine
 10
24.06159999999999
 20
147.08843
 30
0.0
 11
24.807
 21
146.99943
 31
0.0
  0
LINE
  5
1C6
330
1E
100
AcDbEntity
  8
0
100
AcDbLine
 10
24.807
 20
146.99943
 30
0.0
 11
25.4543
 21
147.22943
 31
0.0
  0
LINE
  5
1C7
330
1E
100
AcDbEntity
  8
0
100
AcDbLine
 10
31.7652
 20
145.11043
 30
0.0
 11
32.4942
 21
144.98443
 31
0.0
  0
LINE
  5
1C8
330
1E
100
AcDbEntity
  8
0
100
AcDbLine
 10
32.4942
 20
144.98443
 30
0.0
 11
33.174
 21
145.18143
 31
0.0
  0
LINE
  5
1C9
330
1E
100
AcDbEntity
  8
0
100
AcDbLine
 10
33.174
 20
145.18143
 30
0.0
 11
33.3941
 21
145.59943
 31
0.0
  0
LINE
  5
1CA
330
1E
100
AcDbEntity
  8
0
100
AcDbLine
 10
33.0507
 20
145.98943
 30
0.0
 11
33.3941
 21
145.59943
 31
0.0
  0
LINE
  5
1CB
330
1E
100
AcDbEntity
  8
0
100
AcDbLine
 10
32.32169999999999
 20
146.11543
 30
0.0
 11
33.0507
 21
145.98943
 31
0.0
  0
LINE
  5
1CC
330
1E
100
AcDbEntity
  8
0
100
AcDbLine
 10
31.6419
 20
145.9184299999999
 30
0.0
 11
32.32169999999999
 21
146.11543
 31
0.0
  0
LINE
  5
1CD
330
1E
100
AcDbEntity
  8
0
100
AcDbLine
 10
31.4218
 20
145.5004299999999
 30
0.0
 11
31.7652
 21
145.11043
 31
0.0
  0
LINE
  5
1CE
330
1E
100
AcDbEntity
  8
0
100
AcDbLine
 10
31.4218
 20
145.5004299999999
 30
0.0
 11
31.6419
 21
145.9184299999999
 31
0.0
  0
LINE
  5
1CF
330
1E
100
AcDbEntity
  8
0
100
AcDbLine
 10
25.4543
 20
147.22943
 30
0.0
 11
25.60999999999999
 21
147.65743
 31
0.0
  0
LINE
  5
1D1
330
1E
100
AcDbEntity
  8
0
100
AcDbLine
 10
20.8903
 20
151.67043
 30
0.0
 11
21.1104
 21
152.08843
 31
0.0
  0
LINE
  5
1D2
330
1E
100
AcDbEntity
  8
0
100
AcDbLine
 10
20.76709999999999
 20
152.47843
 30
0.0
 11
21.1104
 21
152.08843
 31
0.0
  0
LINE
  5
1D6
330
1E
100
AcDbEntity
  8
0
100
AcDbLine
 10
25.2087
 20
148.02843
 30
0.0
 11
25.60999999999999
 21
147.65743
 31
0.0
  0
LINE
  5
1D8
330
1E
100
AcDbEntity
  8
0
100
AcDbLine
 10
24.1652
 20
154.42743
 30
0.0
 11
24.845
 21
154.23043
 31
0.0
  0
LINE
  5
1DB
330
1E
100
AcDbEntity
  8
0
100
AcDbLine
 10
24.2885
 20
155.23543
 30
0.0
 11
25.0176
 21
155.36143
 31
0.0
  0
LINE
  5
1DD
330
1E
100
AcDbEntity
  8
0
100
AcDbLine
 10
23.94509999999999
 20
154.8454299999999
 30
0.0
 11
24.1652
 21
154.42743
 31
0.0
  0
LINE
  5
1DE
330
1E
100
AcDbEntity
  8
0
100
AcDbLine
 10
23.94509999999999
 20
154.8454299999999
 30
0.0
 11
24.2885
 21
155.23543
 31
0.0
  0
LINE
  5
1E2
330
1E
100
AcDbEntity
  8
0
100
AcDbLine
 10
24.845
 20
154.23043
 30
0.0
 11
25.5741
 21
154.35643
 31
0.0
  0
LINE
  5
1E3
330
1E
100
AcDbEntity
  8
0
100
AcDbLine
 10
25.5741
 20
154.35643
 30
0.0
 11
25.9175
 21
154.74643
 31
0.0
  0
LINE
  5
1E5
330
1E
100
AcDbEntity
  8
0
100
AcDbLine
 10
25.69729999999999
 20
155.16443
 30
0.0
 11
25.9175
 21
154.74643
 31
0.0
  0
LINE
  5
1E7
330
1E
100
AcDbEntity
  8
0
100
AcDbLine
 10
25.0176
 20
155.36143
 30
0.0
 11
25.69729999999999
 21
155.16443
 31
0.0
  0
LINE
  5
1EA
330
1E
100
AcDbEntity
  8
0
100
AcDbLine
 10
27.3975
 20
149.5244299999999
 30
0.0
 11
28.1046
 21
149.36243
 31
0.0
  0
LINE
  5
1EB
330
1E
100
AcDbEntity
  8
0
100
AcDbLine
 10
28.1046
 20
149.36243
 30
0.0
 11
28.8117
 21
149.5244299999999
 31
0.0
  0
LINE
  5
1EC
330
1E
100
AcDbEntity
  8
0
100
AcDbLine
 10
28.8117
 20
149.5244299999999
 30
0.0
 11
29.0945
 21
149.93043
 31
0.0
  0
LINE
  5
1EF
330
1E
100
AcDbEntity
  8
0
100
AcDbLine
 10
28.8117
 20
150.3354299999999
 30
0.0
 11
29.0945
 21
149.93043
 31
0.0
  0
LINE
  5
1F2
330
1E
100
AcDbEntity
  8
0
100
AcDbLine
 10
29.634
 20
156.74543
 30
0.0
 11
30.2438
 21
156.48443
 31
0.0
  0
LINE
  5
1F3
330
1E
100
AcDbEntity
  8
0
100
AcDbLine
 10
30.2438
 20
156.48443
 30
0.0
 11
31.0
 21
156.5354299999999
 31
0.0
  0
LINE
  5
1F5
330
1E
100
AcDbEntity
  8
0
100
AcDbLine
 10
32.06739999999999
 20
151.36143
 30
0.0
 11
32.8129
 21
151.45043
 31
0.0
  0
LINE
  5
1F6
330
1E
100
AcDbEntity
  8
0
100
AcDbLine
 10
31.4202
 20
151.59143
 30
0.0
 11
32.06739999999999
 21
151.36143
 31
0.0
  0
LINE
  5
1F7
330
1E
100
AcDbEntity
  8
0
100
AcDbLine
 10
32.8129
 20
151.45043
 30
0.0
 11
33.21419999999999
 21
151.8214299999999
 31
0.0
  0
LINE
  5
1F8
330
1E
100
AcDbEntity
  8
0
100
AcDbLine
 10
33.0585
 20
152.24943
 30
0.0
 11
33.21419999999999
 21
151.8214299999999
 31
0.0
  0
LINE
  5
1F9
330
1E
100
AcDbEntity
  8
0
100
AcDbLine
 10
36.0074
 20
153.22543
 30
0.0
 11
36.5751
 21
152.9344299999999
 31
0.0
  0
LINE
  5
1FA
330
1E
100
AcDbEntity
  8
0
100
AcDbLine
 10
36.5751
 20
152.9344299999999
 30
0.0
 11
37.3363
 21
152.94843
 31
0.0
  0
LINE
  5
1FB
330
1E
100
AcDbEntity
  8
0
100
AcDbLine
 10
37.3363
 20
152.94843
 30
0.0
 11
37.844
 21
153.27443
 31
0.0
  0
LINE
  5
1FE
330
1E
100
AcDbEntity
  8
0
100
AcDbLine
 10
37.25229999999999
 20
154.0014299999999
 30
0.0
 11
37.82
 21
153.71043
 31
0.0
  0
LINE
  5
200
330
1E
100
AcDbEntity
  8
0
100
AcDbLine
 10
36.4911
 20
153.9884299999999
 30
0.0
 11
37.25229999999999
 21
154.0014299999999
 31
0.0
  0
LINE
  5
202
330
1E
100
AcDbEntity
  8
0
100
AcDbLine
 10
35.98349999999999
 20
153.6624299999999
 30
0.0
 11
36.0074
 21
153.22543
 31
0.0
  0
LINE
  5
203
330
1E
100
AcDbEntity
  8
0
100
AcDbLine
 10
35.98349999999999
 20
153.6624299999999
 30
0.0
 11
36.4911
 21
153.9884299999999
 31
0.0
  0
LINE
  5
204
330
1E
100
AcDbEntity
  8
0
100
AcDbLine
 10
32.4112
 20
152.47943
 30
0.0
 11
33.0585
 21
152.24943
 31
0.0
  0
LINE
  5
205
330
1E
100
AcDbEntity
  8
0
100
AcDbLine
 10
31.6658
 20
152.39043
 30
0.0
 11
32.4112
 21
152.47943
 31
0.0
  0
LINE
  5
206
330
1E
100
AcDbEntity
  8
0
100
AcDbLine
 10
31.2644
 20
152.0184299999999
 30
0.0
 11
31.4202
 21
151.59143
 31
0.0
  0
LINE
  5
207
330
1E
100
AcDbEntity
  8
0
100
AcDbLine
 10
31.2644
 20
152.0184299999999
 30
0.0
 11
31.6658
 21
152.39043
 31
0.0
  0
LINE
  5
20A
330
1E
100
AcDbEntity
  8
0
100
AcDbLine
 10
31.0
 20
156.5354299999999
 30
0.0
 11
31.4562
 21
156.88543
 31
0.0
  0
LINE
  5
20B
330
1E
100
AcDbEntity
  8
0
100
AcDbLine
 10
31.366
 20
157.31943
 30
0.0
 11
31.4562
 21
156.88543
 31
0.0
  0
LINE
  5
20F
330
1E
100
AcDbEntity
  8
0
100
AcDbLine
 10
30.7562
 20
157.58143
 30
0.0
 11
31.366
 21
157.31943
 31
0.0
  0
LINE
  5
211
330
1E
100
AcDbEntity
  8
0
100
AcDbLine
 10
30.0
 20
157.5294299999999
 30
0.0
 11
30.7562
 21
157.58143
 31
0.0
  0
LINE
  5
213
330
1E
100
AcDbEntity
  8
0
100
AcDbLine
 10
29.5438
 20
157.17943
 30
0.0
 11
29.634
 21
156.74543
 31
0.0
  0
LINE
  5
214
330
1E
100
AcDbEntity
  8
0
100
AcDbLine
 10
29.5438
 20
157.17943
 30
0.0
 11
30.0
 21
157.5294299999999
 31
0.0
  0
LINE
  5
216
330
1E
100
AcDbEntity
  8
0
100
AcDbLine
 10
28.1046
 20
150.49843
 30
0.0
 11
28.8117
 21
150.3354299999999
 31
0.0
  0
LINE
  5
218
330
1E
100
AcDbEntity
  8
0
100
AcDbLine
 10
27.3975
 20
150.3354299999999
 30
0.0
 11
28.1046
 21
150.49843
 31
0.0
  0
LINE
  5
21A
330
1E
100
AcDbEntity
  8
0
100
AcDbLine
 10
27.1146
 20
149.93043
 30
0.0
 11
27.3975
 21
149.5244299999999
 31
0.0
  0
LINE
  5
21B
330
1E
100
AcDbEntity
  8
0
100
AcDbLine
 10
27.1146
 20
149.93043
 30
0.0
 11
27.3975
 21
150.3354299999999
 31
0.0
  0
LINE
  5
21F
330
1E
100
AcDbEntity
  8
0
100
AcDbLine
 10
24.4632
 20
148.11743
 30
0.0
 11
25.2087
 21
148.02843
 31
0.0
  0
LINE
  5
221
330
1E
100
AcDbEntity
  8
0
100
AcDbLine
 10
23.816
 20
147.88743
 30
0.0
 11
24.4632
 21
148.11743
 31
0.0
  0
LINE
  5
223
330
1E
100
AcDbEntity
  8
0
100
AcDbLine
 10
23.6602
 20
147.46043
 30
0.0
 11
24.06159999999999
 21
147.08843
 31
0.0
  0
LINE
  5
224
330
1E
100
AcDbEntity
  8
0
100
AcDbLine
 10
23.6602
 20
147.46043
 30
0.0
 11
23.816
 21
147.88743
 31
0.0
  0
LINE
  5
225
330
1E
100
AcDbEntity
  8
0
100
AcDbLine
 10
20.34909999999999
 20
142.52243
 30
0.0
 11
20.9476
 21
142.25243
 31
0.0
  0
LINE
  5
227
330
1E
100
AcDbEntity
  8
0
100
AcDbLine
 10
19.5953
 20
142.46043
 30
0.0
 11
20.34909999999999
 21
142.52243
 31
0.0
  0
LINE
  5
229
330
1E
100
AcDbEntity
  8
0
100
AcDbLine
 10
19.233
 20
141.6844299999999
 30
0.0
 11
19.8315
 21
141.41443
 31
0.0
  0
LINE
  5
22B
330
1E
100
AcDbEntity
  8
0
100
AcDbLine
 10
36.2428
 20
158.16543
 30
0.0
 11
37.0032
 21
158.14143
 31
0.0
  0
LINE
  5
22C
330
1E
100
AcDbEntity
  8
0
100
AcDbLine
 10
37.0032
 20
158.14143
 30
0.0
 11
37.5584
 21
158.4404299999999
 31
0.0
  0
LINE
  5
22E
330
1E
100
AcDbEntity
  8
0
100
AcDbLine
 10
37.6516
 20
125.96243
 30
0.0
 11
38.2614
 21
126.22443
 31
0.0
  0
LINE
  5
22F
330
1E
100
AcDbEntity
  8
0
100
AcDbLine
 10
37.5614
 20
125.52943
 30
0.0
 11
37.6516
 21
125.96243
 31
0.0
  0
LINE
  5
230
330
1E
100
AcDbEntity
  8
0
100
AcDbLine
 10
37.5614
 20
125.52943
 30
0.0
 11
38.0176
 21
125.17943
 31
0.0
  0
LINE
  5
232
330
1E
100
AcDbEntity
  8
0
100
AcDbLine
 10
37.68769999999999
 20
133.21843
 30
0.0
 11
37.7117
 21
132.78143
 31
0.0
  0
LINE
  5
234
330
1E
100
AcDbEntity
  8
0
100
AcDbLine
 10
37.6516
 20
148.20343
 30
0.0
 11
38.2614
 21
147.9424299999999
 31
0.0
  0
LINE
  5
235
330
1E
100
AcDbEntity
  8
0
100
AcDbLine
 10
37.5614
 20
148.63743
 30
0.0
 11
37.6516
 21
148.20343
 31
0.0
  0
LINE
  5
236
330
1E
100
AcDbEntity
  8
0
100
AcDbLine
 10
37.5614
 20
148.63743
 30
0.0
 11
38.0176
 21
148.98743
 31
0.0
  0
LINE
  5
237
330
1E
100
AcDbEntity
  8
0
100
AcDbLine
 10
37.68769999999999
 20
140.54443
 30
0.0
 11
37.7117
 21
140.98143
 31
0.0
  0
LINE
  5
238
330
1E
100
AcDbEntity
  8
0
100
AcDbLine
 10
37.5584
 20
158.4404299999999
 30
0.0
 11
37.6009
 21
158.87643
 31
0.0
  0
LINE
  5
23E
330
1E
100
AcDbEntity
  8
0
100
AcDbLine
 10
37.07959999999999
 20
159.19543
 30
0.0
 11
37.6009
 21
158.87643
 31
0.0
  0
LINE
  5
243
330
1E
100
AcDbEntity
  8
0
100
AcDbLine
 10
36.3192
 20
159.21943
 30
0.0
 11
37.07959999999999
 21
159.19543
 31
0.0
  0
LINE
  5
245
330
1E
100
AcDbEntity
  8
0
100
AcDbLine
 10
35.764
 20
158.92043
 30
0.0
 11
36.3192
 21
159.21943
 31
0.0
  0
LINE
  5
247
330
1E
100
AcDbEntity
  8
0
100
AcDbLine
 10
35.7215
 20
158.48443
 30
0.0
 11
35.764
 21
158.92043
 31
0.0
  0
LINE
  5
248
330
1E
100
AcDbEntity
  8
0
100
AcDbLine
 10
35.7215
 20
158.48443
 30
0.0
 11
36.2428
 21
158.16543
 31
0.0
  0
LINE
  5
24A
330
1E
100
AcDbEntity
  8
0
100
AcDbLine
 10
16.1
 20
121.18643
 30
0.0
 11
26.1
 21
116.77043
 31
0.0
  0
LINE
  5
24B
330
1E
100
AcDbEntity
  8
0
100
AcDbLine
 10
26.1
 20
116.77043
 30
0.0
 11
37.7
 21
114.07443
 31
0.0
  0
LINE
  5
24D
330
1E
100
AcDbEntity
  8
0
100
AcDbLine
 10
37.844
 20
121.5289902816899
 30
0.0
 11
37.844
 21
121.46943
 31
0.0
  0
LINE
  5
24E
330
1E
100
AcDbEntity
  8
0
100
AcDbLine
 10
37.844
 20
121.46943
 30
0.0
 11
37.844
 21
121.5289902816899
 31
0.0
  0
LINE
  5
24F
330
1E
100
AcDbEntity
  8
0
100
AcDbLine
 10
37.82
 20
121.03243
 30
0.0
 11
37.844
 21
121.46943
 31
0.0
  0
LINE
  5
252
330
1E
100
AcDbEntity
  8
0
100
AcDbLine
 10
37.82
 20
153.71043
 30
0.0
 11
37.844
 21
153.27443
 31
0.0
  0
LINE
  5
256
330
1E
100
AcDbEntity
  8
0
100
AcDbLine
 10
37.7
 20
114.07443
 30
0.0
 11
48.5
 21
113.2183324390239
 31
0.0
  0
LINE
  5
257
330
1E
100
AcDbEntity
  8
0
100
AcDbLine
 10
38.0
 20
114.0506495121949
 30
0.0
 11
38.0
 21
112.11043
 31
0.0
  0
LINE
  5
258
330
1E
100
AcDbEntity
  8
0
100
AcDbLine
 10
38.0
 20
112.11043
 30
0.0
 11
38.0
 21
103.0224299999999
 31
0.0
  0
LINE
  5
259
330
1E
100
AcDbEntity
  8
0
100
AcDbLine
 10
38.0
 20
112.11043
 30
0.0
 11
38.0
 21
114.0506495121949
 31
0.0
  0
LINE
  5
25A
330
1E
100
AcDbEntity
  8
0
100
AcDbLine
 10
38.0
 20
103.0224299999999
 30
0.0
 11
38.0
 21
90.62993
 31
0.0
  0
LINE
  5
25B
330
1E
100
AcDbEntity
  8
0
100
AcDbLine
 10
38.0
 20
103.0224299999999
 30
0.0
 11
38.0
 21
112.11043
 31
0.0
  0
LINE
  5
25C
330
1E
100
AcDbEntity
  8
0
100
AcDbLine
 10
38.0
 20
90.62993
 30
0.0
 11
38.0
 21
77.34783
 31
0.0
  0
LINE
  5
25D
330
1E
100
AcDbEntity
  8
0
100
AcDbLine
 10
38.0
 20
90.62993
 30
0.0
 11
38.0
 21
103.0224299999999
 31
0.0
  0
LINE
  5
25E
330
1E
100
AcDbEntity
  8
0
100
AcDbLine
 10
38.0
 20
77.34783
 30
0.0
 11
38.0
 21
62.56793
 31
0.0
  0
LINE
  5
25F
330
1E
100
AcDbEntity
  8
0
100
AcDbLine
 10
38.0
 20
77.34783
 30
0.0
 11
38.0
 21
90.62993
 31
0.0
  0
LINE
  5
260
330
1E
100
AcDbEntity
  8
0
100
AcDbLine
 10
38.0
 20
62.56793
 30
0.0
 11
38.0
 21
45.48853
 31
0.0
  0
LINE
  5
261
330
1E
100
AcDbEntity
  8
0
100
AcDbLine
 10
38.0
 20
62.56793
 30
0.0
 11
38.0
 21
77.34783
 31
0.0
  0
LINE
  5
262
330
1E
100
AcDbEntity
  8
0
100
AcDbLine
 10
38.0
 20
45.48853
 30
0.0
 11
38.0
 21
31.75173
 31
0.0
  0
LINE
  5
263
330
1E
100
AcDbEntity
  8
0
100
AcDbLine
 10
38.0
 20
45.48853
 30
0.0
 11
38.0
 21
62.56793
 31
0.0
  0
LINE
  5
264
330
1E
100
AcDbEntity
  8
0
100
AcDbLine
 10
38.0
 20
31.75173
 30
0.0
 11
38.0
 21
17.48953
 31
0.0
  0
LINE
  5
265
330
1E
100
AcDbEntity
  8
0
100
AcDbLine
 10
38.0
 20
31.75173
 30
0.0
 11
38.0
 21
45.48853
 31
0.0
  0
LINE
  5
266
330
1E
100
AcDbEntity
  8
0
100
AcDbLine
 10
38.0
 20
17.48953
 30
0.0
 11
38.0
 21
13.67903
 31
0.0
  0
LINE
  5
267
330
1E
100
AcDbEntity
  8
0
100
AcDbLine
 10
38.0
 20
17.48953
 30
0.0
 11
38.0
 21
31.75173
 31
0.0
  0
LINE
  5
268
330
1E
100
AcDbEntity
  8
0
100
AcDbLine
 10
39.42309999999999
 20
5.19118999999998
 30
0.0
 11
40.5231
 21
3.973949999999979
 31
0.0
  0
LINE
  5
269
330
1E
100
AcDbEntity
  8
0
100
AcDbLine
 10
40.5231
 20
5.17442999999998
 30
0.0
 11
42.2154
 21
4.083569999999979
 31
0.0
  0
LINE
  5
26A
330
1E
100
AcDbEntity
  8
0
100
AcDbLine
 10
40.56578303374
 20
5.14691643019223
 30
0.0
 11
41.2
 21
4.43414999999998
 31
0.0
  0
LINE
  5
26B
330
1E
100
AcDbEntity
  8
0
100
AcDbLine
 10
40.5231
 20
3.973949999999979
 30
0.0
 11
42.2154
 21
2.883079999999979
 31
0.0
  0
LINE
  5
26C
330
1E
100
AcDbEntity
  8
0
100
AcDbLine
 10
41.2
 20
4.43414999999998
 30
0.0
 11
42.80759999999999
 21
3.419339999999979
 31
0.0
  0
LINE
  5
26D
330
1E
100
AcDbEntity
  8
0
100
AcDbLine
 10
41.2
 20
3.233749999999979
 30
0.0
 11
42.80759999999999
 21
2.218859999999979
 31
0.0
  0
LINE
  5
26E
330
1E
100
AcDbEntity
  8
0
100
AcDbLine
 10
40.5659504893479
 20
3.946328234760379
 30
0.0
 11
41.2
 21
3.233749999999979
 31
0.0
  0
LINE
  5
26F
330
1E
100
AcDbEntity
  8
0
100
AcDbLine
 10
40.5231
 20
2.773549999999979
 30
0.0
 11
42.2154
 21
1.68268999999998
 31
0.0
  0
LINE
  5
270
330
1E
100
AcDbEntity
  8
0
100
AcDbLine
 10
39.42309999999999
 20
3.990799999999979
 30
0.0
 11
40.5231
 21
2.773549999999979
 31
0.0
  0
LINE
  5
271
330
1E
100
AcDbEntity
  8
0
100
AcDbLine
 10
39.0
 20
10.14512999999999
 30
0.0
 11
39.42309999999999
 21
8.792529999999981
 31
0.0
  0
LINE
  5
272
330
1E
100
AcDbEntity
  8
0
100
AcDbLine
 10
39.0
 20
10.14512999999999
 30
0.0
 11
39.1877403622251
 21
10.74540218628719
 31
0.0
  0
LINE
  5
273
330
1E
100
AcDbEntity
  8
0
100
AcDbLine
 10
39.0
 20
8.94482999999998
 30
0.0
 11
39.42309999999999
 21
7.59212999999998
 31
0.0
  0
LINE
  5
274
330
1E
100
AcDbEntity
  8
0
100
AcDbLine
 10
39.0
 20
8.94482999999998
 30
0.0
 11
39.1877229623332
 21
9.545002184230938
 31
0.0
  0
LINE
  5
275
330
1E
100
AcDbEntity
  8
0
100
AcDbLine
 10
39.0
 20
7.744329999999981
 30
0.0
 11
39.42309999999999
 21
6.39167999999998
 31
0.0
  0
LINE
  5
276
330
1E
100
AcDbEntity
  8
0
100
AcDbLine
 10
39.0
 20
7.744329999999981
 30
0.0
 11
39.1877473016929
 21
8.344579999999981
 31
0.0
  0
LINE
  5
277
330
1E
100
AcDbEntity
  8
0
100
AcDbLine
 10
40.5231
 20
6.37482999999998
 30
0.0
 11
42.2154
 21
5.28399999999998
 31
0.0
  0
LINE
  5
278
330
1E
100
AcDbEntity
  8
0
100
AcDbLine
 10
41.2
 20
5.63462999999998
 30
0.0
 11
42.80759999999999
 21
4.61973999999998
 31
0.0
  0
LINE
  5
279
330
1E
100
AcDbEntity
  8
0
100
AcDbLine
 10
40.5659223171281
 20
6.34722740696515
 30
0.0
 11
41.2
 21
5.63462999999998
 31
0.0
  0
LINE
  5
27A
330
1E
100
AcDbEntity
  8
0
100
AcDbLine
 10
39.42309999999999
 20
9.992929999999981
 30
0.0
 11
40.5231
 21
8.77562999999998
 31
0.0
  0
LINE
  5
27B
330
1E
100
AcDbEntity
  8
0
100
AcDbLine
 10
39.42309999999999
 20
8.792529999999981
 30
0.0
 11
40.5231
 21
7.57522999999998
 31
0.0
  0
LINE
  5
27C
330
1E
100
AcDbEntity
  8
0
100
AcDbLine
 10
41.2
 20
6.835029999999981
 30
0.0
 11
42.80759999999999
 21
5.82016999999998
 31
0.0
  0
LINE
  5
27D
330
1E
100
AcDbEntity
  8
0
100
AcDbLine
 10
40.5231
 20
8.77562999999998
 30
0.0
 11
42.2154
 21
7.684829999999981
 31
0.0
  0
LINE
  5
27E
330
1E
100
AcDbEntity
  8
0
100
AcDbLine
 10
41.2
 20
8.03542999999998
 30
0.0
 11
42.80759999999999
 21
7.020599999999981
 31
0.0
  0
LINE
  5
27F
330
1E
100
AcDbEntity
  8
0
100
AcDbLine
 10
41.2
 20
9.23592999999998
 30
0.0
 11
42.80759999999999
 21
8.221029999999981
 31
0.0
  0
LINE
  5
280
330
1E
100
AcDbEntity
  8
0
100
AcDbLine
 10
40.87827825063679
 20
9.597478836122109
 30
0.0
 11
41.2
 21
9.23592999999998
 31
0.0
  0
LINE
  5
281
330
1E
100
AcDbEntity
  8
0
100
AcDbLine
 10
40.5659989008546
 20
8.747978802781888
 30
0.0
 11
41.2
 21
8.03542999999998
 31
0.0
  0
LINE
  5
282
330
1E
100
AcDbEntity
  8
0
100
AcDbLine
 10
40.5231
 20
7.57522999999998
 30
0.0
 11
42.2154
 21
6.48440999999998
 31
0.0
  0
LINE
  5
283
330
1E
100
AcDbEntity
  8
0
100
AcDbLine
 10
40.5659999585947
 20
7.54757761399616
 30
0.0
 11
41.2
 21
6.835029999999981
 31
0.0
  0
LINE
  5
284
330
1E
100
AcDbEntity
  8
0
100
AcDbLine
 10
39.42309999999999
 20
7.59212999999998
 30
0.0
 11
40.5231
 21
6.37482999999998
 31
0.0
  0
LINE
  5
285
330
1E
100
AcDbEntity
  8
0
100
AcDbLine
 10
39.42309999999999
 20
6.39167999999998
 30
0.0
 11
40.5231
 21
5.17442999999998
 31
0.0
  0
LINE
  5
286
330
1E
100
AcDbEntity
  8
0
100
AcDbLine
 10
39.0
 20
6.54392999999998
 30
0.0
 11
39.42309999999999
 21
5.19118999999998
 31
0.0
  0
LINE
  5
287
330
1E
100
AcDbEntity
  8
0
100
AcDbLine
 10
39.0
 20
6.54392999999998
 30
0.0
 11
39.187735132238
 21
7.14414109283455
 31
0.0
  0
LINE
  5
288
330
1E
100
AcDbEntity
  8
0
100
AcDbLine
 10
39.0
 20
5.34349999999998
 30
0.0
 11
39.42309999999999
 21
3.990799999999979
 31
0.0
  0
LINE
  5
289
330
1E
100
AcDbEntity
  8
0
100
AcDbLine
 10
39.0
 20
5.34349999999998
 30
0.0
 11
39.1877321908289
 21
5.943710562935669
 31
0.0
  0
LINE
  5
28A
330
1E
100
AcDbEntity
  8
0
100
AcDbLine
 10
44.92309999999999
 20
1.457929999999979
 30
0.0
 11
47.37689999999999
 21
0.9759399999999809
 31
0.0
  0
LINE
  5
28B
330
1E
100
AcDbEntity
  8
0
100
AcDbLine
 10
44.5
 20
0.879409999999982
 30
0.0
 11
47.1231
 21
0.346569999999982
 31
0.0
  0
LINE
  5
28C
330
1E
100
AcDbEntity
  8
0
100
AcDbLine
 10
42.2154
 20
7.684829999999981
 30
0.0
 11
44.5
 21
6.88158999999998
 31
0.0
  0
LINE
  5
28D
330
1E
100
AcDbEntity
  8
0
100
AcDbLine
 10
42.80759999999999
 20
7.020599999999981
 30
0.0
 11
44.92309999999999
 21
6.259669999999981
 31
0.0
  0
LINE
  5
28E
330
1E
100
AcDbEntity
  8
0
100
AcDbLine
 10
42.2154
 20
6.48440999999998
 30
0.0
 11
44.5
 21
5.68113999999998
 31
0.0
  0
LINE
  5
28F
330
1E
100
AcDbEntity
  8
0
100
AcDbLine
 10
42.80759999999999
 20
5.82016999999998
 30
0.0
 11
44.92309999999999
 21
5.05923999999998
 31
0.0
  0
LINE
  5
290
330
1E
100
AcDbEntity
  8
0
100
AcDbLine
 10
42.2154
 20
5.28399999999998
 30
0.0
 11
44.5
 21
4.48071999999998
 31
0.0
  0
LINE
  5
291
330
1E
100
AcDbEntity
  8
0
100
AcDbLine
 10
42.80759999999999
 20
4.61973999999998
 30
0.0
 11
44.92309999999999
 21
3.858809999999979
 31
0.0
  0
LINE
  5
292
330
1E
100
AcDbEntity
  8
0
100
AcDbLine
 10
42.2154
 20
4.083569999999979
 30
0.0
 11
44.5
 21
3.280289999999979
 31
0.0
  0
LINE
  5
293
330
1E
100
AcDbEntity
  8
0
100
AcDbLine
 10
42.80759999999999
 20
3.419339999999979
 30
0.0
 11
44.92309999999999
 21
2.65841999999998
 31
0.0
  0
LINE
  5
294
330
1E
100
AcDbEntity
  8
0
100
AcDbLine
 10
42.2154
 20
2.883079999999979
 30
0.0
 11
44.5
 21
2.079829999999979
 31
0.0
  0
LINE
  5
295
330
1E
100
AcDbEntity
  8
0
100
AcDbLine
 10
44.92309999999999
 20
7.46012999999998
 30
0.0
 11
47.37689999999999
 21
6.97814999999998
 31
0.0
  0
LINE
  5
296
330
1E
100
AcDbEntity
  8
0
100
AcDbLine
 10
44.5
 20
6.88158999999998
 30
0.0
 11
47.1231
 21
6.34871999999998
 31
0.0
  0
LINE
  5
297
330
1E
100
AcDbEntity
  8
0
100
AcDbLine
 10
44.92309999999999
 20
6.259669999999981
 30
0.0
 11
47.37689999999999
 21
5.777689999999981
 31
0.0
  0
LINE
  5
298
330
1E
100
AcDbEntity
  8
0
100
AcDbLine
 10
44.5
 20
5.68113999999998
 30
0.0
 11
47.1231
 21
5.14826999999998
 31
0.0
  0
LINE
  5
299
330
1E
100
AcDbEntity
  8
0
100
AcDbLine
 10
44.92309999999999
 20
5.05923999999998
 30
0.0
 11
47.37689999999999
 21
4.57727999999998
 31
0.0
  0
LINE
  5
29A
330
1E
100
AcDbEntity
  8
0
100
AcDbLine
 10
44.5
 20
4.48071999999998
 30
0.0
 11
47.1231
 21
3.947849999999979
 31
0.0
  0
LINE
  5
29B
330
1E
100
AcDbEntity
  8
0
100
AcDbLine
 10
44.92309999999999
 20
3.858809999999979
 30
0.0
 11
47.37689999999999
 21
3.376819999999979
 31
0.0
  0
LINE
  5
29C
330
1E
100
AcDbEntity
  8
0
100
AcDbLine
 10
44.5
 20
3.280289999999979
 30
0.0
 11
47.1231
 21
2.747459999999979
 31
0.0
  0
LINE
  5
29D
330
1E
100
AcDbEntity
  8
0
100
AcDbLine
 10
44.92309999999999
 20
2.65841999999998
 30
0.0
 11
47.37689999999999
 21
2.176419999999979
 31
0.0
  0
LINE
  5
29E
330
1E
100
AcDbEntity
  8
0
100
AcDbLine
 10
44.5
 20
2.079829999999979
 30
0.0
 11
47.1231
 21
1.54695999999998
 31
0.0
  0
LINE
  5
29F
330
1E
100
AcDbEntity
  8
0
100
AcDbLine
 10
42.80759999999999
 20
2.218859999999979
 30
0.0
 11
44.92309999999999
 21
1.457929999999979
 31
0.0
  0
LINE
  5
2A0
330
1E
100
AcDbEntity
  8
0
100
AcDbLine
 10
42.2154
 20
1.68268999999998
 30
0.0
 11
44.5
 21
0.879409999999982
 31
0.0
  0
LINE
  5
2A1
330
1E
100
AcDbEntity
  8
0
100
AcDbLine
 10
47.1231
 20
6.34871999999998
 30
0.0
 11
50.0
 21
6.14572999999998
 31
0.0
  0
LINE
  5
2A2
330
1E
100
AcDbEntity
  8
0
100
AcDbLine
 10
47.1231
 20
5.14826999999998
 30
0.0
 11
50.0
 21
4.94530999999998
 31
0.0
  0
LINE
  5
2A3
330
1E
100
AcDbEntity
  8
0
100
AcDbLine
 10
47.1231
 20
3.947849999999979
 30
0.0
 11
50.0
 21
3.744899999999979
 31
0.0
  0
LINE
  5
2A4
330
1E
100
AcDbEntity
  8
0
100
AcDbLine
 10
47.1231
 20
2.747459999999979
 30
0.0
 11
50.0
 21
2.54446999999998
 31
0.0
  0
LINE
  5
2A5
330
1E
100
AcDbEntity
  8
0
100
AcDbLine
 10
47.1231
 20
1.54695999999998
 30
0.0
 11
50.0
 21
1.34396999999998
 31
0.0
  0
LINE
  5
2A6
330
1E
100
AcDbEntity
  8
0
100
AcDbLine
 10
50.0
 20
0.823849999999982
 30
0.0
 11
52.6231
 21
1.010259999999979
 31
0.0
  0
LINE
  5
2A7
330
1E
100
AcDbEntity
  8
0
100
AcDbLine
 10
50.0
 20
0.143569999999982
 30
0.0
 11
52.8769
 21
0.363699999999982
 31
0.0
  0
LINE
  5
2A8
330
1E
100
AcDbEntity
  8
0
100
AcDbLine
 10
52.8769
 20
0.363699999999982
 30
0.0
 11
55.5
 21
0.9308399999999821
 31
0.0
  0
LINE
  5
2A9
330
1E
100
AcDbEntity
  8
0
100
AcDbLine
 10
50.0
 20
2.02434999999998
 30
0.0
 11
52.6231
 21
2.21074999999998
 31
0.0
  0
LINE
  5
2AA
330
1E
100
AcDbEntity
  8
0
100
AcDbLine
 10
50.0
 20
1.34396999999998
 30
0.0
 11
52.8769
 21
1.564119999999979
 31
0.0
  0
LINE
  5
2AB
330
1E
100
AcDbEntity
  8
0
100
AcDbLine
 10
50.0
 20
3.224729999999979
 30
0.0
 11
52.6231
 21
3.411139999999979
 31
0.0
  0
LINE
  5
2AC
330
1E
100
AcDbEntity
  8
0
100
AcDbLine
 10
50.0
 20
2.54446999999998
 30
0.0
 11
52.8769
 21
2.764569999999979
 31
0.0
  0
LINE
  5
2AD
330
1E
100
AcDbEntity
  8
0
100
AcDbLine
 10
47.37689999999999
 20
4.57727999999998
 30
0.0
 11
50.0
 21
4.42515999999998
 31
0.0
  0
LINE
  5
2AE
330
1E
100
AcDbEntity
  8
0
100
AcDbLine
 10
50.0
 20
4.42515999999998
 30
0.0
 11
52.6231
 21
4.611569999999979
 31
0.0
  0
LINE
  5
2AF
330
1E
100
AcDbEntity
  8
0
100
AcDbLine
 10
50.0
 20
3.744899999999979
 30
0.0
 11
52.8769
 21
3.965009999999979
 31
0.0
  0
LINE
  5
2B0
330
1E
100
AcDbEntity
  8
0
100
AcDbLine
 10
47.37689999999999
 20
6.97814999999998
 30
0.0
 11
50.0
 21
6.82602999999998
 31
0.0
  0
LINE
  5
2B1
330
1E
100
AcDbEntity
  8
0
100
AcDbLine
 10
50.0
 20
5.62559999999998
 30
0.0
 11
52.6231
 21
5.81199999999998
 31
0.0
  0
LINE
  5
2B2
330
1E
100
AcDbEntity
  8
0
100
AcDbLine
 10
50.0
 20
4.94530999999998
 30
0.0
 11
52.8769
 21
5.16543999999998
 31
0.0
  0
LINE
  5
2B3
330
1E
100
AcDbEntity
  8
0
100
AcDbLine
 10
50.0
 20
6.82602999999998
 30
0.0
 11
52.6231
 21
7.01242999999998
 31
0.0
  0
LINE
  5
2B4
330
1E
100
AcDbEntity
  8
0
100
AcDbLine
 10
50.0
 20
6.14572999999998
 30
0.0
 11
52.8769
 21
6.36586999999998
 31
0.0
  0
LINE
  5
2B5
330
1E
100
AcDbEntity
  8
0
100
AcDbLine
 10
52.6231
 20
7.01242999999998
 30
0.0
 11
55.0769
 21
7.54582999999998
 31
0.0
  0
LINE
  5
2B6
330
1E
100
AcDbEntity
  8
0
100
AcDbLine
 10
52.6231
 20
5.81199999999998
 30
0.0
 11
55.0769
 21
6.34540999999998
 31
0.0
  0
LINE
  5
2B7
330
1E
100
AcDbEntity
  8
0
100
AcDbLine
 10
47.37689999999999
 20
5.777689999999981
 30
0.0
 11
50.0
 21
5.62559999999998
 31
0.0
  0
LINE
  5
2B8
330
1E
100
AcDbEntity
  8
0
100
AcDbLine
 10
52.6231
 20
4.611569999999979
 30
0.0
 11
55.0769
 21
5.14499999999998
 31
0.0
  0
LINE
  5
2B9
330
1E
100
AcDbEntity
  8
0
100
AcDbLine
 10
52.6231
 20
3.411139999999979
 30
0.0
 11
55.0769
 21
3.94453999999998
 31
0.0
  0
LINE
  5
2BA
330
1E
100
AcDbEntity
  8
0
100
AcDbLine
 10
47.37689999999999
 20
3.376819999999979
 30
0.0
 11
50.0
 21
3.224729999999979
 31
0.0
  0
LINE
  5
2BB
330
1E
100
AcDbEntity
  8
0
100
AcDbLine
 10
52.6231
 20
2.21074999999998
 30
0.0
 11
55.0769
 21
2.744139999999979
 31
0.0
  0
LINE
  5
2BC
330
1E
100
AcDbEntity
  8
0
100
AcDbLine
 10
47.37689999999999
 20
2.176419999999979
 30
0.0
 11
50.0
 21
2.02434999999998
 31
0.0
  0
LINE
  5
2BD
330
1E
100
AcDbEntity
  8
0
100
AcDbLine
 10
52.8769
 20
6.36586999999998
 30
0.0
 11
55.5
 21
6.93302999999998
 31
0.0
  0
LINE
  5
2BE
330
1E
100
AcDbEntity
  8
0
100
AcDbLine
 10
52.8769
 20
5.16543999999998
 30
0.0
 11
55.5
 21
5.73257999999998
 31
0.0
  0
LINE
  5
2BF
330
1E
100
AcDbEntity
  8
0
100
AcDbLine
 10
52.8769
 20
3.965009999999979
 30
0.0
 11
55.5
 21
4.53215999999998
 31
0.0
  0
LINE
  5
2C0
330
1E
100
AcDbEntity
  8
0
100
AcDbLine
 10
52.8769
 20
2.764569999999979
 30
0.0
 11
55.5
 21
3.331759999999979
 31
0.0
  0
LINE
  5
2C1
330
1E
100
AcDbEntity
  8
0
100
AcDbLine
 10
52.8769
 20
1.564119999999979
 30
0.0
 11
55.5
 21
2.13126999999998
 31
0.0
  0
LINE
  5
2C2
330
1E
100
AcDbEntity
  8
0
100
AcDbLine
 10
52.6231
 20
1.010259999999979
 30
0.0
 11
55.0769
 21
1.54365999999998
 31
0.0
  0
LINE
  5
2C3
330
1E
100
AcDbEntity
  8
0
100
AcDbLine
 10
47.37689999999999
 20
0.9759399999999809
 30
0.0
 11
50.0
 21
0.823849999999982
 31
0.0
  0
LINE
  5
2C4
330
1E
100
AcDbEntity
  8
0
100
AcDbLine
 10
47.1231
 20
0.346569999999982
 30
0.0
 11
50.0
 21
0.143569999999982
 31
0.0
  0
LINE
  5
2C5
330
1E
100
AcDbEntity
  8
0
100
AcDbLine
 10
50.0
 20
7.30342999999998
 30
0.0
 11
53.02399999999999
 21
7.519429999999981
 31
0.0
  0
LINE
  5
2C6
330
1E
100
AcDbEntity
  8
0
100
AcDbLine
 10
55.5
 20
0.9308399999999821
 30
0.0
 11
57.78459999999999
 21
1.819879999999979
 31
0.0
  0
LINE
  5
2C7
330
1E
100
AcDbEntity
  8
0
100
AcDbLine
 10
55.5
 20
3.331759999999979
 30
0.0
 11
57.78459999999999
 21
4.220759999999979
 31
0.0
  0
LINE
  5
2C8
330
1E
100
AcDbEntity
  8
0
100
AcDbLine
 10
55.5
 20
2.13126999999998
 30
0.0
 11
57.78459999999999
 21
3.020279999999979
 31
0.0
  0
LINE
  5
2C9
330
1E
100
AcDbEntity
  8
0
100
AcDbLine
 10
55.0769
 20
2.744139999999979
 30
0.0
 11
57.1923
 21
3.590819999999979
 31
0.0
  0
LINE
  5
2CA
330
1E
100
AcDbEntity
  8
0
100
AcDbLine
 10
55.0769
 20
1.54365999999998
 30
0.0
 11
57.1923
 21
2.39033999999998
 31
0.0
  0
LINE
  5
2CB
330
1E
100
AcDbEntity
  8
0
100
AcDbLine
 10
57.78459999999999
 20
3.020279999999979
 30
0.0
 11
59.4769
 21
4.214119999999979
 31
0.0
  0
LINE
  5
2CC
330
1E
100
AcDbEntity
  8
0
100
AcDbLine
 10
57.78459999999999
 20
1.819879999999979
 30
0.0
 11
59.4769
 21
3.013629999999979
 31
0.0
  0
LINE
  5
2CD
330
1E
100
AcDbEntity
  8
0
100
AcDbLine
 10
57.1923
 20
2.39033999999998
 30
0.0
 11
58.79999999999999
 21
3.490959999999979
 31
0.0
  0
LINE
  5
2CE
330
1E
100
AcDbEntity
  8
0
100
AcDbLine
 10
55.0769
 20
3.94453999999998
 30
0.0
 11
57.1923
 21
4.791209999999979
 31
0.0
  0
LINE
  5
2CF
330
1E
100
AcDbEntity
  8
0
100
AcDbLine
 10
57.78459999999999
 20
4.220759999999979
 30
0.0
 11
59.4769
 21
5.414509999999981
 31
0.0
  0
LINE
  5
2D0
330
1E
100
AcDbEntity
  8
0
100
AcDbLine
 10
57.1923
 20
3.590819999999979
 30
0.0
 11
58.79999999999999
 21
4.69143999999998
 31
0.0
  0
LINE
  5
2D1
330
1E
100
AcDbEntity
  8
0
100
AcDbLine
 10
59.4769
 20
4.214119999999979
 30
0.0
 11
60.5769
 21
5.61996999999998
 31
0.0
  0
LINE
  5
2D2
330
1E
100
AcDbEntity
  8
0
100
AcDbLine
 10
58.79999999999999
 20
3.490959999999979
 30
0.0
 11
59.2182235238202
 21
4.031635615244069
 31
0.0
  0
LINE
  5
2D3
330
1E
100
AcDbEntity
  8
0
100
AcDbLine
 10
59.4769
 20
3.013629999999979
 30
0.0
 11
60.5769
 21
4.41947999999998
 31
0.0
  0
LINE
  5
2D4
330
1E
100
AcDbEntity
  8
0
100
AcDbLine
 10
55.5
 20
4.53215999999998
 30
0.0
 11
57.78459999999999
 21
5.42116999999998
 31
0.0
  0
LINE
  5
2D5
330
1E
100
AcDbEntity
  8
0
100
AcDbLine
 10
55.0769
 20
5.14499999999998
 30
0.0
 11
57.1923
 21
5.991679999999981
 31
0.0
  0
LINE
  5
2D6
330
1E
100
AcDbEntity
  8
0
100
AcDbLine
 10
57.78459999999999
 20
5.42116999999998
 30
0.0
 11
59.4769
 21
6.61491999999999
 31
0.0
  0
LINE
  5
2D7
330
1E
100
AcDbEntity
  8
0
100
AcDbLine
 10
57.1923
 20
4.791209999999979
 30
0.0
 11
58.79999999999999
 21
5.891829999999981
 31
0.0
  0
LINE
  5
2D8
330
1E
100
AcDbEntity
  8
0
100
AcDbLine
 10
59.4769
 20
5.414509999999981
 30
0.0
 11
60.5769
 21
6.82037999999998
 31
0.0
  0
LINE
  5
2D9
330
1E
100
AcDbEntity
  8
0
100
AcDbLine
 10
58.79999999999999
 20
4.69143999999998
 30
0.0
 11
59.2181287764097
 21
5.231972537280059
 31
0.0
  0
LINE
  5
2DA
330
1E
100
AcDbEntity
  8
0
100
AcDbLine
 10
55.5
 20
5.73257999999998
 30
0.0
 11
57.78459999999999
 21
6.621629999999981
 31
0.0
  0
LINE
  5
2DB
330
1E
100
AcDbEntity
  8
0
100
AcDbLine
 10
55.0769
 20
6.34540999999998
 30
0.0
 11
57.1923
 21
7.192129999999981
 31
0.0
  0
LINE
  5
2DC
330
1E
100
AcDbEntity
  8
0
100
AcDbLine
 10
57.1923
 20
5.991679999999981
 30
0.0
 11
58.79999999999999
 21
7.092279999999981
 31
0.0
  0
LINE
  5
2DD
330
1E
100
AcDbEntity
  8
0
100
AcDbLine
 10
55.5
 20
6.93302999999998
 30
0.0
 11
57.78459999999999
 21
7.822029999999981
 31
0.0
  0
LINE
  5
2DE
330
1E
100
AcDbEntity
  8
0
100
AcDbLine
 10
57.78459999999999
 20
6.621629999999981
 30
0.0
 11
59.4769
 21
7.81542999999998
 31
0.0
  0
LINE
  5
2DF
330
1E
100
AcDbEntity
  8
0
100
AcDbLine
 10
55.0769
 20
7.54582999999998
 30
0.0
 11
57.1923
 21
8.392529999999981
 31
0.0
  0
LINE
  5
2E0
330
1E
100
AcDbEntity
  8
0
100
AcDbLine
 10
57.78459999999999
 20
7.822029999999981
 30
0.0
 11
59.4769
 21
9.015729999999981
 31
0.0
  0
LINE
  5
2E1
330
1E
100
AcDbEntity
  8
0
100
AcDbLine
 10
57.1923
 20
7.192129999999981
 30
0.0
 11
58.79999999999999
 21
8.292729999999981
 31
0.0
  0
LINE
  5
2E2
330
1E
100
AcDbEntity
  8
0
100
AcDbLine
 10
59.4769
 20
7.81542999999998
 30
0.0
 11
60.5769
 21
9.22122999999998
 31
0.0
  0
LINE
  5
2E3
330
1E
100
AcDbEntity
  8
0
100
AcDbLine
 10
58.79999999999999
 20
7.092279999999981
 30
0.0
 11
59.2182519724935
 21
7.63297179800433
 31
0.0
  0
LINE
  5
2E4
330
1E
100
AcDbEntity
  8
0
100
AcDbLine
 10
59.4769
 20
6.61491999999999
 30
0.0
 11
60.5769
 21
8.02082999999998
 31
0.0
  0
LINE
  5
2E5
330
1E
100
AcDbEntity
  8
0
100
AcDbLine
 10
60.5769
 20
8.02082999999998
 30
0.0
 11
61.0
 21
9.545029999999981
 31
0.0
  0
LINE
  5
2E6
330
1E
100
AcDbEntity
  8
0
100
AcDbLine
 10
58.79999999999999
 20
5.891829999999981
 30
0.0
 11
59.2181978892023
 21
6.43243128950849
 31
0.0
  0
LINE
  5
2E7
330
1E
100
AcDbEntity
  8
0
100
AcDbLine
 10
60.5769
 20
6.82037999999998
 30
0.0
 11
61.0
 21
8.34462999999998
 31
0.0
  0
LINE
  5
2E8
330
1E
100
AcDbEntity
  8
0
100
AcDbLine
 10
60.5769
 20
5.61996999999998
 30
0.0
 11
61.0
 21
7.144169999999981
 31
0.0
  0
LINE
  5
2E9
330
1E
100
AcDbEntity
  8
0
100
AcDbLine
 10
60.83338922096371
 20
7.744401968929059
 30
0.0
 11
61.0
 21
7.144169999999981
 31
0.0
  0
LINE
  5
2EA
330
1E
100
AcDbEntity
  8
0
100
AcDbLine
 10
60.83337126403599
 20
6.543896969141269
 30
0.0
 11
61.0
 21
5.94361999999998
 31
0.0
  0
LINE
  5
2EB
330
1E
100
AcDbEntity
  8
0
100
AcDbLine
 10
60.5769
 20
4.41947999999998
 30
0.0
 11
61.0
 21
5.94361999999998
 31
0.0
  0
LINE
  5
2EC
330
1E
100
AcDbEntity
  8
0
100
AcDbLine
 10
53.02399999999999
 20
7.519429999999981
 30
0.0
 11
55.80799999999999
 21
8.09542999999998
 31
0.0
  0
LINE
  5
2ED
330
1E
100
AcDbEntity
  8
0
100
AcDbLine
 10
55.80799999999999
 20
8.09542999999998
 30
0.0
 11
58.256
 21
9.03142999999998
 31
0.0
  0
LINE
  5
2EE
330
1E
100
AcDbEntity
  8
0
100
AcDbLine
 10
46.976
 20
7.519429999999981
 30
0.0
 11
50.0
 21
7.30342999999998
 31
0.0
  0
LINE
  5
2EF
330
1E
100
AcDbEntity
  8
0
100
AcDbLine
 10
42.80759999999999
 20
8.221029999999981
 30
0.0
 11
44.92309999999999
 21
7.46012999999998
 31
0.0
  0
LINE
  5
2F0
330
1E
100
AcDbEntity
  8
0
100
AcDbLine
 10
57.1923
 20
8.392529999999981
 30
0.0
 11
57.9605661725272
 21
8.918470007142719
 31
0.0
  0
LINE
  5
2F1
330
1E
100
AcDbEntity
  8
0
100
AcDbLine
 10
59.4769
 20
9.015729999999981
 30
0.0
 11
60.5769
 21
10.42173
 31
0.0
  0
LINE
  5
2F2
330
1E
100
AcDbEntity
  8
0
100
AcDbLine
 10
58.79999999999999
 20
8.292729999999981
 30
0.0
 11
59.21805766524779
 21
8.83315002304924
 31
0.0
  0
LINE
  5
2F3
330
1E
100
AcDbEntity
  8
0
100
AcDbLine
 10
58.256
 20
9.03142999999998
 30
0.0
 11
60.128
 21
10.25543
 31
0.0
  0
LINE
  5
2F4
330
1E
100
AcDbEntity
  8
0
100
AcDbLine
 10
60.5769
 20
9.22122999999998
 30
0.0
 11
61.0
 21
10.74543
 31
0.0
  0
LINE
  5
2F5
330
1E
100
AcDbEntity
  8
0
100
AcDbLine
 10
60.83338607092479
 20
10.1452103103369
 30
0.0
 11
61.0
 21
9.545029999999981
 31
0.0
  0
LINE
  5
2F6
330
1E
100
AcDbEntity
  8
0
100
AcDbLine
 10
60.83338607092479
 20
8.94481031033689
 30
0.0
 11
61.0
 21
8.34462999999998
 31
0.0
  0
LINE
  5
2F7
330
1E
100
AcDbEntity
  8
0
100
AcDbLine
 10
60.128
 20
10.25543
 30
0.0
 11
61.28
 21
11.64743
 31
0.0
  0
LINE
  5
2F8
330
1E
100
AcDbEntity
  8
0
100
AcDbLine
 10
44.192
 20
8.09542999999998
 30
0.0
 11
46.976
 21
7.519429999999981
 31
0.0
  0
LINE
  5
2F9
330
1E
100
AcDbEntity
  8
0
100
AcDbLine
 10
41.744
 20
9.03142999999998
 30
0.0
 11
44.192
 21
8.09542999999998
 31
0.0
  0
LINE
  5
2FA
330
1E
100
AcDbEntity
  8
0
100
AcDbLine
 10
39.0183696913577
 20
11.28689995627609
 30
0.0
 11
39.42309999999999
 21
9.992929999999981
 31
0.0
  0
LINE
  5
2FB
330
1E
100
AcDbEntity
  8
0
100
AcDbLine
 10
60.5769
 20
10.42173
 30
0.0
 11
60.73401711500089
 21
10.9877006806261
 31
0.0
  0
LINE
  5
2FC
330
1E
100
AcDbEntity
  8
0
100
AcDbLine
 10
60.8828328601228
 20
11.16751970598169
 30
0.0
 11
61.0
 21
10.74543
 31
0.0
  0
LINE
  5
2FD
330
1E
100
AcDbEntity
  8
0
100
AcDbLine
 10
61.28
 20
11.64743
 30
0.0
 11
61.568
 21
12.14303
 31
0.0
  0
LINE
  5
2FE
330
1E
100
AcDbEntity
  8
0
100
AcDbLine
 10
61.568
 20
12.14303
 30
0.0
 11
62.0
 21
13.67903
 31
0.0
  0
LINE
  5
2FF
330
1E
100
AcDbEntity
  8
0
100
AcDbLine
 10
39.87199999999999
 20
10.25543
 30
0.0
 11
41.744
 21
9.03142999999998
 31
0.0
  0
LINE
  5
300
330
1E
100
AcDbEntity
  8
0
100
AcDbLine
 10
38.71999999999999
 20
11.64743
 30
0.0
 11
39.87199999999999
 21
10.25543
 31
0.0
  0
LINE
  5
301
330
1E
100
AcDbEntity
  8
0
100
AcDbLine
 10
62.0
 20
13.67903
 30
0.0
 11
62.0
 21
17.48953
 31
0.0
  0
LINE
  5
302
330
1E
100
AcDbEntity
  8
0
100
AcDbLine
 10
62.0
 20
17.48953
 30
0.0
 11
62.0
 21
13.67903
 31
0.0
  0
LINE
  5
303
330
1E
100
AcDbEntity
  8
0
100
AcDbLine
 10
62.0
 20
17.48953
 30
0.0
 11
62.0
 21
31.75173
 31
0.0
  0
LINE
  5
304
330
1E
100
AcDbEntity
  8
0
100
AcDbLine
 10
62.0
 20
31.75173
 30
0.0
 11
62.0
 21
45.48853
 31
0.0
  0
LINE
  5
305
330
1E
100
AcDbEntity
  8
0
100
AcDbLine
 10
62.0
 20
31.75173
 30
0.0
 11
62.0
 21
17.48953
 31
0.0
  0
LINE
  5
306
330
1E
100
AcDbEntity
  8
0
100
AcDbLine
 10
62.0
 20
77.34783
 30
0.0
 11
62.0
 21
90.62993
 31
0.0
  0
LINE
  5
307
330
1E
100
AcDbEntity
  8
0
100
AcDbLine
 10
62.0
 20
77.34783
 30
0.0
 11
62.0
 21
62.56793
 31
0.0
  0
LINE
  5
308
330
1E
100
AcDbEntity
  8
0
100
AcDbLine
 10
62.0
 20
62.56793
 30
0.0
 11
62.0
 21
77.34783
 31
0.0
  0
LINE
  5
309
330
1E
100
AcDbEntity
  8
0
100
AcDbLine
 10
62.0
 20
62.56793
 30
0.0
 11
62.0
 21
45.48853
 31
0.0
  0
LINE
  5
30A
330
1E
100
AcDbEntity
  8
0
100
AcDbLine
 10
62.0
 20
45.48853
 30
0.0
 11
62.0
 21
62.56793
 31
0.0
  0
LINE
  5
30B
330
1E
100
AcDbEntity
  8
0
100
AcDbLine
 10
62.0
 20
45.48853
 30
0.0
 11
62.0
 21
31.75173
 31
0.0
  0
LINE
  5
30C
330
1E
100
AcDbEntity
  8
0
100
AcDbLine
 10
62.0
 20
90.62993
 30
0.0
 11
62.0
 21
103.0224299999999
 31
0.0
  0
LINE
  5
30D
330
1E
100
AcDbEntity
  8
0
100
AcDbLine
 10
62.0
 20
90.62993
 30
0.0
 11
62.0
 21
77.34783
 31
0.0
  0
LINE
  5
30F
330
1E
100
AcDbEntity
  8
0
100
AcDbLine
 10
42.24289999999999
 20
115.73043
 30
0.0
 11
42.4168
 21
115.30443
 31
0.0
  0
LINE
  5
310
330
1E
100
AcDbEntity
  8
0
100
AcDbLine
 10
42.24289999999999
 20
115.73043
 30
0.0
 11
42.6599
 21
116.0954299999999
 31
0.0
  0
LINE
  5
312
330
1E
100
AcDbEntity
  8
0
100
AcDbLine
 10
41.7269
 20
119.66243
 30
0.0
 11
42.4807
 21
119.7244299999999
 31
0.0
  0
LINE
  5
313
330
1E
100
AcDbEntity
  8
0
100
AcDbLine
 10
41.1284
 20
119.93243
 30
0.0
 11
41.7269
 21
119.66243
 31
0.0
  0
LINE
  5
314
330
1E
100
AcDbEntity
  8
0
100
AcDbLine
 10
38.7738
 20
125.12743
 30
0.0
 11
39.3836
 21
125.38943
 31
0.0
  0
LINE
  5
316
330
1E
100
AcDbEntity
  8
0
100
AcDbLine
 10
38.2614
 20
126.22443
 30
0.0
 11
39.0176
 21
126.17243
 31
0.0
  0
LINE
  5
317
330
1E
100
AcDbEntity
  8
0
100
AcDbLine
 10
39.0176
 20
126.17243
 30
0.0
 11
39.47379999999999
 21
125.82243
 31
0.0
  0
LINE
  5
31B
330
1E
100
AcDbEntity
  8
0
100
AcDbLine
 10
39.3836
 20
125.38943
 30
0.0
 11
39.47379999999999
 21
125.82243
 31
0.0
  0
LINE
  5
31C
330
1E
100
AcDbEntity
  8
0
100
AcDbLine
 10
38.0176
 20
125.17943
 30
0.0
 11
38.7738
 21
125.12743
 31
0.0
  0
LINE
  5
31E
330
1E
100
AcDbEntity
  8
0
100
AcDbLine
 10
40.9305
 20
130.03943
 30
0.0
 11
41.21329999999999
 21
130.44443
 31
0.0
  0
LINE
  5
31F
330
1E
100
AcDbEntity
  8
0
100
AcDbLine
 10
40.22339999999999
 20
129.8764299999999
 30
0.0
 11
40.9305
 21
130.03943
 31
0.0
  0
LINE
  5
320
330
1E
100
AcDbEntity
  8
0
100
AcDbLine
 10
39.5163
 20
130.03943
 30
0.0
 11
40.22339999999999
 21
129.8764299999999
 31
0.0
  0
LINE
  5
321
330
1E
100
AcDbEntity
  8
0
100
AcDbLine
 10
39.5163
 20
130.85043
 30
0.0
 11
40.22339999999999
 21
131.01243
 31
0.0
  0
LINE
  5
326
330
1E
100
AcDbEntity
  8
0
100
AcDbLine
 10
40.22339999999999
 20
131.01243
 30
0.0
 11
40.9305
 21
130.85043
 31
0.0
  0
LINE
  5
329
330
1E
100
AcDbEntity
  8
0
100
AcDbLine
 10
40.9305
 20
130.85043
 30
0.0
 11
41.21329999999999
 21
130.44443
 31
0.0
  0
LINE
  5
32A
330
1E
100
AcDbEntity
  8
0
100
AcDbLine
 10
39.2334
 20
130.44443
 30
0.0
 11
39.5163
 21
130.85043
 31
0.0
  0
LINE
  5
32B
330
1E
100
AcDbEntity
  8
0
100
AcDbLine
 10
39.2334
 20
130.44443
 30
0.0
 11
39.5163
 21
130.03943
 31
0.0
  0
LINE
  5
32E
330
1E
100
AcDbEntity
  8
0
100
AcDbLine
 10
41.4907
 20
120.70743
 30
0.0
 11
42.2445
 21
120.77043
 31
0.0
  0
LINE
  5
32F
330
1E
100
AcDbEntity
  8
0
100
AcDbLine
 10
42.2445
 20
120.77043
 30
0.0
 11
42.843
 21
120.50043
 31
0.0
  0
LINE
  5
331
330
1E
100
AcDbEntity
  8
0
100
AcDbLine
 10
41.0198
 20
120.36443
 30
0.0
 11
41.1284
 21
119.93243
 31
0.0
  0
LINE
  5
332
330
1E
100
AcDbEntity
  8
0
100
AcDbLine
 10
41.0198
 20
120.36443
 30
0.0
 11
41.4907
 21
120.70743
 31
0.0
  0
LINE
  5
333
330
1E
100
AcDbEntity
  8
0
100
AcDbLine
 10
42.6599
 20
116.0954299999999
 30
0.0
 11
43.4014
 21
116.19543
 31
0.0
  0
LINE
  5
334
330
1E
100
AcDbEntity
  8
0
100
AcDbLine
 10
42.4168
 20
115.30443
 30
0.0
 11
43.0541
 21
115.06543
 31
0.0
  0
LINE
  5
335
330
1E
100
AcDbEntity
  8
0
100
AcDbLine
 10
42.843
 20
120.50043
 30
0.0
 11
42.9517
 21
120.0674299999999
 31
0.0
  0
LINE
  5
336
330
1E
100
AcDbEntity
  8
0
100
AcDbLine
 10
42.4807
 20
119.7244299999999
 30
0.0
 11
42.9517
 21
120.0674299999999
 31
0.0
  0
LINE
  5
337
330
1E
100
AcDbEntity
  8
0
100
AcDbLine
 10
48.5
 20
108.00543
 30
0.0
 11
48.5
 21
107.22243
 31
0.0
  0
LINE
  5
338
330
1E
100
AcDbEntity
  8
0
100
AcDbLine
 10
48.5
 20
108.00543
 30
0.0
 11
48.5
 21
109.64643
 31
0.0
  0
LINE
  5
339
330
1E
100
AcDbEntity
  8
0
100
AcDbLine
 10
48.5
 20
107.22243
 30
0.0
 11
48.5
 21
108.00543
 31
0.0
  0
LINE
  5
33A
330
1E
100
AcDbEntity
  8
0
100
AcDbLine
 10
48.5
 20
107.18343
 30
0.0
 11
48.5
 21
108.10843
 31
0.0
  0
LINE
  5
33B
330
1E
100
AcDbEntity
  8
0
100
AcDbLine
 10
48.5
 20
107.18343
 30
0.0
 11
51.5
 21
107.18343
 31
0.0
  0
LINE
  5
33C
330
1E
100
AcDbEntity
  8
0
100
AcDbLine
 10
48.5
 20
109.64643
 30
0.0
 11
48.5
 21
108.00543
 31
0.0
  0
LINE
  5
33D
330
1E
100
AcDbEntity
  8
0
100
AcDbLine
 10
48.5
 20
109.64643
 30
0.0
 11
48.5
 21
110.80643
 31
0.0
  0
LINE
  5
33E
330
1E
100
AcDbEntity
  8
0
100
AcDbLine
 10
48.5
 20
108.10843
 30
0.0
 11
48.5
 21
109.42743
 31
0.0
  0
LINE
  5
33F
330
1E
100
AcDbEntity
  8
0
100
AcDbLine
 10
48.5
 20
108.10843
 30
0.0
 11
48.5
 21
107.18343
 31
0.0
  0
LINE
  5
340
330
1E
100
AcDbEntity
  8
0
100
AcDbLine
 10
48.5
 20
109.42743
 30
0.0
 11
48.5
 21
110.74143
 31
0.0
  0
LINE
  5
341
330
1E
100
AcDbEntity
  8
0
100
AcDbLine
 10
48.5
 20
109.42743
 30
0.0
 11
48.5
 21
108.10843
 31
0.0
  0
LINE
  5
342
330
1E
100
AcDbEntity
  8
0
100
AcDbLine
 10
48.5
 20
114.843111818182
 30
0.0
 11
48.5
 21
112.6244299999999
 31
0.0
  0
LINE
  5
343
330
1E
100
AcDbEntity
  8
0
100
AcDbLine
 10
48.5
 20
112.12543
 30
0.0
 11
48.5
 21
110.80643
 31
0.0
  0
LINE
  5
344
330
1E
100
AcDbEntity
  8
0
100
AcDbLine
 10
48.5
 20
112.12543
 30
0.0
 11
48.5
 21
113.2183324390239
 31
0.0
  0
LINE
  5
345
330
1E
100
AcDbEntity
  8
0
100
AcDbLine
 10
48.5
 20
110.80643
 30
0.0
 11
48.5
 21
109.64643
 31
0.0
  0
LINE
  5
346
330
1E
100
AcDbEntity
  8
0
100
AcDbLine
 10
48.5
 20
110.80643
 30
0.0
 11
48.5
 21
112.12543
 31
0.0
  0
LINE
  5
347
330
1E
100
AcDbEntity
  8
0
100
AcDbLine
 10
48.5
 20
113.2183324390239
 30
0.0
 11
48.5
 21
112.12543
 31
0.0
  0
LINE
  5
348
330
1E
100
AcDbEntity
  8
0
100
AcDbLine
 10
48.5
 20
110.74143
 30
0.0
 11
48.5
 21
112.6244299999999
 31
0.0
  0
LINE
  5
349
330
1E
100
AcDbEntity
  8
0
100
AcDbLine
 10
48.5
 20
110.74143
 30
0.0
 11
48.5
 21
109.42743
 31
0.0
  0
LINE
  5
34A
330
1E
100
AcDbEntity
  8
0
100
AcDbLine
 10
48.5
 20
112.6244299999999
 30
0.0
 11
48.5
 21
114.843111818182
 31
0.0
  0
LINE
  5
34B
330
1E
100
AcDbEntity
  8
0
100
AcDbLine
 10
48.5
 20
112.6244299999999
 30
0.0
 11
48.5
 21
110.74143
 31
0.0
  0
LINE
  5
34C
330
1E
100
AcDbEntity
  8
0
100
AcDbLine
 10
43.4014
 20
116.19543
 30
0.0
 11
44.0386
 21
115.95643
 31
0.0
  0
LINE
  5
34E
330
1E
100
AcDbEntity
  8
0
100
AcDbLine
 10
44.0386
 20
115.95643
 30
0.0
 11
44.21249999999999
 21
115.53043
 31
0.0
  0
LINE
  5
34F
330
1E
100
AcDbEntity
  8
0
100
AcDbLine
 10
43.7955
 20
115.16543
 30
0.0
 11
44.21249999999999
 21
115.53043
 31
0.0
  0
LINE
  5
350
330
1E
100
AcDbEntity
  8
0
100
AcDbLine
 10
43.0541
 20
115.06543
 30
0.0
 11
43.7955
 21
115.16543
 31
0.0
  0
LINE
  5
352
330
1E
100
AcDbEntity
  8
0
100
AcDbLine
 10
45.8386
 20
123.54643
 30
0.0
 11
46.58
 21
123.64643
 31
0.0
  0
LINE
  5
353
330
1E
100
AcDbEntity
  8
0
100
AcDbLine
 10
45.4444
 20
124.57643
 30
0.0
 11
46.1859
 21
124.67643
 31
0.0
  0
LINE
  5
354
330
1E
100
AcDbEntity
  8
0
100
AcDbLine
 10
45.2013
 20
123.78543
 30
0.0
 11
45.8386
 21
123.54643
 31
0.0
  0
LINE
  5
355
330
1E
100
AcDbEntity
  8
0
100
AcDbLine
 10
45.0274
 20
124.21043
 30
0.0
 11
45.2013
 21
123.78543
 31
0.0
  0
LINE
  5
356
330
1E
100
AcDbEntity
  8
0
100
AcDbLine
 10
45.0274
 20
124.21043
 30
0.0
 11
45.4444
 21
124.57643
 31
0.0
  0
LINE
  5
359
330
1E
100
AcDbEntity
  8
0
100
AcDbLine
 10
46.305
 20
119.7284299999999
 30
0.0
 11
46.5429
 21
119.31343
 31
0.0
  0
LINE
  5
35B
330
1E
100
AcDbEntity
  8
0
100
AcDbLine
 10
46.305
 20
119.7284299999999
 30
0.0
 11
46.6649
 21
120.11343
 31
0.0
  0
LINE
  5
35D
330
1E
100
AcDbEntity
  8
0
100
AcDbLine
 10
46.5429
 20
119.31343
 30
0.0
 11
47.2141
 21
119.10743
 31
0.0
  0
LINE
  5
35F
330
1E
100
AcDbEntity
  8
0
100
AcDbLine
 10
46.1859
 20
124.67643
 30
0.0
 11
46.8231
 21
124.43743
 31
0.0
  0
LINE
  5
362
330
1E
100
AcDbEntity
  8
0
100
AcDbLine
 10
46.6649
 20
120.11343
 30
0.0
 11
47.38839999999999
 21
120.24943
 31
0.0
  0
LINE
  5
364
330
1E
100
AcDbEntity
  8
0
100
AcDbLine
 10
46.8231
 20
124.43743
 30
0.0
 11
46.99699999999999
 21
124.01143
 31
0.0
  0
LINE
  5
365
330
1E
100
AcDbEntity
  8
0
100
AcDbLine
 10
46.58
 20
123.64643
 30
0.0
 11
46.99699999999999
 21
124.01143
 31
0.0
  0
LINE
  5
368
330
1E
100
AcDbEntity
  8
0
100
AcDbLine
 10
45.9295
 20
128.5684299999999
 30
0.0
 11
46.4973
 21
128.8594299999999
 31
0.0
  0
LINE
  5
36A
330
1E
100
AcDbEntity
  8
0
100
AcDbLine
 10
46.4973
 20
128.8594299999999
 30
0.0
 11
47.2585
 21
128.8454299999999
 31
0.0
  0
LINE
  5
36C
330
1E
100
AcDbEntity
  8
0
100
AcDbLine
 10
46.4132
 20
127.80643
 30
0.0
 11
47.17439999999999
 21
127.79243
 31
0.0
  0
LINE
  5
36D
330
1E
100
AcDbEntity
  8
0
100
AcDbLine
 10
45.90559999999999
 20
128.13143
 30
0.0
 11
45.9295
 21
128.5684299999999
 31
0.0
  0
LINE
  5
36E
330
1E
100
AcDbEntity
  8
0
100
AcDbLine
 10
45.90559999999999
 20
128.13143
 30
0.0
 11
46.4132
 21
127.80643
 31
0.0
  0
LINE
  5
370
330
1E
100
AcDbEntity
  8
0
100
AcDbLine
 10
45.02909999999999
 20
134.11143
 30
0.0
 11
45.3725
 21
134.50143
 31
0.0
  0
LINE
  5
371
330
1E
100
AcDbEntity
  8
0
100
AcDbLine
 10
44.29999999999999
 20
133.98543
 30
0.0
 11
45.02909999999999
 21
134.11143
 31
0.0
  0
LINE
  5
372
330
1E
100
AcDbEntity
  8
0
100
AcDbLine
 10
43.62029999999999
 20
134.18243
 30
0.0
 11
44.29999999999999
 21
133.98543
 31
0.0
  0
LINE
  5
378
330
1E
100
AcDbEntity
  8
0
100
AcDbLine
 10
43.74349999999999
 20
134.99043
 30
0.0
 11
44.47259999999999
 21
135.11643
 31
0.0
  0
LINE
  5
37B
330
1E
100
AcDbEntity
  8
0
100
AcDbLine
 10
44.47259999999999
 20
135.11643
 30
0.0
 11
45.1524
 21
134.91943
 31
0.0
  0
LINE
  5
37D
330
1E
100
AcDbEntity
  8
0
100
AcDbLine
 10
45.1524
 20
134.91943
 30
0.0
 11
45.3725
 21
134.50143
 31
0.0
  0
LINE
  5
37F
330
1E
100
AcDbEntity
  8
0
100
AcDbLine
 10
43.4001
 20
134.60043
 30
0.0
 11
43.74349999999999
 21
134.99043
 31
0.0
  0
LINE
  5
380
330
1E
100
AcDbEntity
  8
0
100
AcDbLine
 10
43.4001
 20
134.60043
 30
0.0
 11
43.62029999999999
 21
134.18243
 31
0.0
  0
LINE
  5
384
330
1E
100
AcDbEntity
  8
0
100
AcDbLine
 10
47.2141
 20
119.10743
 30
0.0
 11
47.9376
 21
119.24343
 31
0.0
  0
LINE
  5
386
330
1E
100
AcDbEntity
  8
0
100
AcDbLine
 10
47.38839999999999
 20
120.24943
 30
0.0
 11
48.0596
 21
120.0434299999999
 31
0.0
  0
LINE
  5
38C
330
1E
100
AcDbEntity
  8
0
100
AcDbLine
 10
47.2585
 20
128.8454299999999
 30
0.0
 11
47.7661
 21
128.5204299999999
 31
0.0
  0
LINE
  5
38D
330
1E
100
AcDbEntity
  8
0
100
AcDbLine
 10
47.17439999999999
 20
127.79243
 30
0.0
 11
47.7421
 21
128.0834299999999
 31
0.0
  0
LINE
  5
38E
330
1E
100
AcDbEntity
  8
0
100
AcDbLine
 10
48.0596
 20
120.0434299999999
 30
0.0
 11
48.29740000000001
 21
119.62843
 31
0.0
  0
LINE
  5
38F
330
1E
100
AcDbEntity
  8
0
100
AcDbLine
 10
47.9376
 20
119.24343
 30
0.0
 11
48.29740000000001
 21
119.62843
 31
0.0
  0
LINE
  5
392
330
1E
100
AcDbEntity
  8
0
100
AcDbLine
 10
47.7421
 20
128.0834299999999
 30
0.0
 11
47.7661
 21
128.5204299999999
 31
0.0
  0
LINE
  5
393
330
1E
100
AcDbEntity
  8
0
100
AcDbLine
 10
48.4097
 20
132.35243
 30
0.0
 11
48.8267
 21
132.71743
 31
0.0
  0
LINE
  5
394
330
1E
100
AcDbEntity
  8
0
100
AcDbLine
 10
47.6682
 20
132.2524299999999
 30
0.0
 11
48.4097
 21
132.35243
 31
0.0
  0
LINE
  5
395
330
1E
100
AcDbEntity
  8
0
100
AcDbLine
 10
47.27399999999999
 20
133.28243
 30
0.0
 11
48.0155
 21
133.38243
 31
0.0
  0
LINE
  5
396
330
1E
100
AcDbEntity
  8
0
100
AcDbLine
 10
48.0155
 20
133.38243
 30
0.0
 11
48.6528
 21
133.1434299999999
 31
0.0
  0
LINE
  5
397
330
1E
100
AcDbEntity
  8
0
100
AcDbLine
 10
48.6528
 20
133.1434299999999
 30
0.0
 11
48.8267
 21
132.71743
 31
0.0
  0
LINE
  5
398
330
1E
100
AcDbEntity
  8
0
100
AcDbLine
 10
47.0309
 20
132.49143
 30
0.0
 11
47.6682
 21
132.2524299999999
 31
0.0
  0
LINE
  5
399
330
1E
100
AcDbEntity
  8
0
100
AcDbLine
 10
46.85699999999999
 20
132.9164299999999
 30
0.0
 11
47.0309
 21
132.49143
 31
0.0
  0
LINE
  5
39A
330
1E
100
AcDbEntity
  8
0
100
AcDbLine
 10
46.85699999999999
 20
132.9164299999999
 30
0.0
 11
47.27399999999999
 21
133.28243
 31
0.0
  0
LINE
  5
39E
330
1E
100
AcDbEntity
  8
0
100
AcDbLine
 10
49.29999999999999
 20
115.69243
 30
0.0
 11
50.0
 21
115.8644299999999
 31
0.0
  0
LINE
  5
39F
330
1E
100
AcDbEntity
  8
0
100
AcDbLine
 10
49.0
 20
115.29043
 30
0.0
 11
49.29999999999999
 21
114.88943
 31
0.0
  0
LINE
  5
3A1
330
1E
100
AcDbEntity
  8
0
100
AcDbLine
 10
49.0
 20
115.29043
 30
0.0
 11
49.29999999999999
 21
115.69243
 31
0.0
  0
LINE
  5
3A3
330
1E
100
AcDbEntity
  8
0
100
AcDbLine
 10
49.29999999999999
 20
114.88943
 30
0.0
 11
50.0
 21
114.71643
 31
0.0
  0
LINE
  5
3A5
330
1E
100
AcDbEntity
  8
0
100
AcDbLine
 10
43.0
 20
136.1254299999999
 30
0.0
 11
43.7
 21
136.2974299999999
 31
0.0
  0
LINE
  5
3A6
330
1E
100
AcDbEntity
  8
0
100
AcDbLine
 10
43.7
 20
136.2974299999999
 30
0.0
 11
44.0
 21
136.6994299999999
 31
0.0
  0
LINE
  5
3A7
330
1E
100
AcDbEntity
  8
0
100
AcDbLine
 10
42.29999999999999
 20
136.2974299999999
 30
0.0
 11
43.0
 21
136.1254299999999
 31
0.0
  0
LINE
  5
3AA
330
1E
100
AcDbEntity
  8
0
100
AcDbLine
 10
43.7
 20
137.10043
 30
0.0
 11
44.0
 21
136.6994299999999
 31
0.0
  0
LINE
  5
3AF
330
1E
100
AcDbEntity
  8
0
100
AcDbLine
 10
43.0
 20
137.27243
 30
0.0
 11
43.7
 21
137.10043
 31
0.0
  0
LINE
  5
3B1
330
1E
100
AcDbEntity
  8
0
100
AcDbLine
 10
42.29999999999999
 20
137.10043
 30
0.0
 11
43.0
 21
137.27243
 31
0.0
  0
LINE
  5
3B3
330
1E
100
AcDbEntity
  8
0
100
AcDbLine
 10
42.0
 20
136.6994299999999
 30
0.0
 11
42.29999999999999
 21
136.2974299999999
 31
0.0
  0
LINE
  5
3B4
330
1E
100
AcDbEntity
  8
0
100
AcDbLine
 10
42.0
 20
136.6994299999999
 30
0.0
 11
42.29999999999999
 21
137.10043
 31
0.0
  0
LINE
  5
3B7
330
1E
100
AcDbEntity
  8
0
100
AcDbLine
 10
38.2614
 20
147.9424299999999
 30
0.0
 11
39.0176
 21
147.99343
 31
0.0
  0
LINE
  5
3B8
330
1E
100
AcDbEntity
  8
0
100
AcDbLine
 10
39.0176
 20
147.99343
 30
0.0
 11
39.47379999999999
 21
148.34343
 31
0.0
  0
LINE
  5
3BA
330
1E
100
AcDbEntity
  8
0
100
AcDbLine
 10
38.7738
 20
149.03943
 30
0.0
 11
39.3836
 21
148.77743
 31
0.0
  0
LINE
  5
3BC
330
1E
100
AcDbEntity
  8
0
100
AcDbLine
 10
38.0176
 20
148.98743
 30
0.0
 11
38.7738
 21
149.03943
 31
0.0
  0
LINE
  5
3BF
330
1E
100
AcDbEntity
  8
0
100
AcDbLine
 10
39.5163
 20
142.9124299999999
 30
0.0
 11
40.22339999999999
 21
142.75043
 31
0.0
  0
LINE
  5
3C0
330
1E
100
AcDbEntity
  8
0
100
AcDbLine
 10
40.22339999999999
 20
142.75043
 30
0.0
 11
40.9305
 21
142.9124299999999
 31
0.0
  0
LINE
  5
3C1
330
1E
100
AcDbEntity
  8
0
100
AcDbLine
 10
40.9305
 20
142.9124299999999
 30
0.0
 11
41.21329999999999
 21
143.31843
 31
0.0
  0
LINE
  5
3C3
330
1E
100
AcDbEntity
  8
0
100
AcDbLine
 10
40.9305
 20
143.72343
 30
0.0
 11
41.21329999999999
 21
143.31843
 31
0.0
  0
LINE
  5
3C9
330
1E
100
AcDbEntity
  8
0
100
AcDbLine
 10
39.3836
 20
148.77743
 30
0.0
 11
39.47379999999999
 21
148.34343
 31
0.0
  0
LINE
  5
3CE
330
1E
100
AcDbEntity
  8
0
100
AcDbLine
 10
40.22339999999999
 20
143.88643
 30
0.0
 11
40.9305
 21
143.72343
 31
0.0
  0
LINE
  5
3D0
330
1E
100
AcDbEntity
  8
0
100
AcDbLine
 10
39.5163
 20
143.72343
 30
0.0
 11
40.22339999999999
 21
143.88643
 31
0.0
  0
LINE
  5
3D2
330
1E
100
AcDbEntity
  8
0
100
AcDbLine
 10
39.2334
 20
143.31843
 30
0.0
 11
39.5163
 21
142.9124299999999
 31
0.0
  0
LINE
  5
3D3
330
1E
100
AcDbEntity
  8
0
100
AcDbLine
 10
39.2334
 20
143.31843
 30
0.0
 11
39.5163
 21
143.72343
 31
0.0
  0
LINE
  5
3D5
330
1E
100
AcDbEntity
  8
0
100
AcDbLine
 10
41.4907
 20
154.0354299999999
 30
0.0
 11
42.2445
 21
153.97343
 31
0.0
  0
LINE
  5
3D6
330
1E
100
AcDbEntity
  8
0
100
AcDbLine
 10
42.2445
 20
153.97343
 30
0.0
 11
42.843
 21
154.24343
 31
0.0
  0
LINE
  5
3D8
330
1E
100
AcDbEntity
  8
0
100
AcDbLine
 10
43.74349999999999
 20
138.4074299999999
 30
0.0
 11
44.47259999999999
 21
138.2814299999999
 31
0.0
  0
LINE
  5
3D9
330
1E
100
AcDbEntity
  8
0
100
AcDbLine
 10
44.47259999999999
 20
138.2814299999999
 30
0.0
 11
45.1524
 21
138.4784299999999
 31
0.0
  0
LINE
  5
3DD
330
1E
100
AcDbEntity
  8
0
100
AcDbLine
 10
44.29999999999999
 20
139.41243
 30
0.0
 11
45.02909999999999
 21
139.28643
 31
0.0
  0
LINE
  5
3DF
330
1E
100
AcDbEntity
  8
0
100
AcDbLine
 10
43.62029999999999
 20
139.21543
 30
0.0
 11
44.29999999999999
 21
139.41243
 31
0.0
  0
LINE
  5
3E1
330
1E
100
AcDbEntity
  8
0
100
AcDbLine
 10
43.4001
 20
138.7974299999999
 30
0.0
 11
43.74349999999999
 21
138.4074299999999
 31
0.0
  0
LINE
  5
3E2
330
1E
100
AcDbEntity
  8
0
100
AcDbLine
 10
43.4001
 20
138.7974299999999
 30
0.0
 11
43.62029999999999
 21
139.21543
 31
0.0
  0
LINE
  5
3E4
330
1E
100
AcDbEntity
  8
0
100
AcDbLine
 10
42.843
 20
154.24343
 30
0.0
 11
42.9517
 21
154.67543
 31
0.0
  0
LINE
  5
3E5
330
1E
100
AcDbEntity
  8
0
100
AcDbLine
 10
41.0198
 20
154.37843
 30
0.0
 11
41.1284
 21
154.8114299999999
 31
0.0
  0
LINE
  5
3E6
330
1E
100
AcDbEntity
  8
0
100
AcDbLine
 10
41.0198
 20
154.37843
 30
0.0
 11
41.4907
 21
154.0354299999999
 31
0.0
  0
LINE
  5
3E9
330
1E
100
AcDbEntity
  8
0
100
AcDbLine
 10
45.9295
 20
145.19443
 30
0.0
 11
46.4973
 21
144.90343
 31
0.0
  0
LINE
  5
3EA
330
1E
100
AcDbEntity
  8
0
100
AcDbLine
 10
46.4973
 20
144.90343
 30
0.0
 11
47.2585
 21
144.9174299999999
 31
0.0
  0
LINE
  5
3EC
330
1E
100
AcDbEntity
  8
0
100
AcDbLine
 10
46.4132
 20
145.95643
 30
0.0
 11
47.17439999999999
 21
145.97043
 31
0.0
  0
LINE
  5
3ED
330
1E
100
AcDbEntity
  8
0
100
AcDbLine
 10
45.90559999999999
 20
145.63143
 30
0.0
 11
45.9295
 21
145.19443
 31
0.0
  0
LINE
  5
3EE
330
1E
100
AcDbEntity
  8
0
100
AcDbLine
 10
45.90559999999999
 20
145.63143
 30
0.0
 11
46.4132
 21
145.95643
 31
0.0
  0
LINE
  5
3F1
330
1E
100
AcDbEntity
  8
0
100
AcDbLine
 10
45.1524
 20
138.4784299999999
 30
0.0
 11
45.3725
 21
138.89643
 31
0.0
  0
LINE
  5
3F2
330
1E
100
AcDbEntity
  8
0
100
AcDbLine
 10
45.02909999999999
 20
139.28643
 30
0.0
 11
45.3725
 21
138.89643
 31
0.0
  0
LINE
  5
3F4
330
1E
100
AcDbEntity
  8
0
100
AcDbLine
 10
45.4444
 20
149.59043
 30
0.0
 11
46.1859
 21
149.4904299999999
 31
0.0
  0
LINE
  5
3F5
330
1E
100
AcDbEntity
  8
0
100
AcDbLine
 10
46.1859
 20
149.4904299999999
 30
0.0
 11
46.8231
 21
149.72943
 31
0.0
  0
LINE
  5
3F6
330
1E
100
AcDbEntity
  8
0
100
AcDbLine
 10
47.27399999999999
 20
140.11643
 30
0.0
 11
48.0155
 21
140.01643
 31
0.0
  0
LINE
  5
3F7
330
1E
100
AcDbEntity
  8
0
100
AcDbLine
 10
48.0155
 20
140.01643
 30
0.0
 11
48.6528
 21
140.25543
 31
0.0
  0
LINE
  5
3F8
330
1E
100
AcDbEntity
  8
0
100
AcDbLine
 10
47.2585
 20
144.9174299999999
 30
0.0
 11
47.7661
 21
145.24243
 31
0.0
  0
LINE
  5
3FA
330
1E
100
AcDbEntity
  8
0
100
AcDbLine
 10
47.17439999999999
 20
145.97043
 30
0.0
 11
47.7421
 21
145.67943
 31
0.0
  0
LINE
  5
3FF
330
1E
100
AcDbEntity
  8
0
100
AcDbLine
 10
47.7421
 20
145.67943
 30
0.0
 11
47.7661
 21
145.24243
 31
0.0
  0
LINE
  5
402
330
1E
100
AcDbEntity
  8
0
100
AcDbLine
 10
47.6682
 20
141.14543
 30
0.0
 11
48.4097
 21
141.04643
 31
0.0
  0
LINE
  5
404
330
1E
100
AcDbEntity
  8
0
100
AcDbLine
 10
47.0309
 20
140.90643
 30
0.0
 11
47.6682
 21
141.14543
 31
0.0
  0
LINE
  5
405
330
1E
100
AcDbEntity
  8
0
100
AcDbLine
 10
46.85699999999999
 20
140.48143
 30
0.0
 11
47.0309
 21
140.90643
 31
0.0
  0
LINE
  5
406
330
1E
100
AcDbEntity
  8
0
100
AcDbLine
 10
46.85699999999999
 20
140.48143
 30
0.0
 11
47.27399999999999
 21
140.11643
 31
0.0
  0
LINE
  5
407
330
1E
100
AcDbEntity
  8
0
100
AcDbLine
 10
46.8231
 20
149.72943
 30
0.0
 11
46.99699999999999
 21
150.1544299999999
 31
0.0
  0
LINE
  5
40A
330
1E
100
AcDbEntity
  8
0
100
AcDbLine
 10
46.58
 20
150.52043
 30
0.0
 11
46.99699999999999
 21
150.1544299999999
 31
0.0
  0
LINE
  5
40C
330
1E
100
AcDbEntity
  8
0
100
AcDbLine
 10
45.8386
 20
150.62043
 30
0.0
 11
46.58
 21
150.52043
 31
0.0
  0
LINE
  5
40E
330
1E
100
AcDbEntity
  8
0
100
AcDbLine
 10
45.2013
 20
150.38043
 30
0.0
 11
45.8386
 21
150.62043
 31
0.0
  0
LINE
  5
40F
330
1E
100
AcDbEntity
  8
0
100
AcDbLine
 10
45.0274
 20
149.9554299999999
 30
0.0
 11
45.2013
 21
150.38043
 31
0.0
  0
LINE
  5
410
330
1E
100
AcDbEntity
  8
0
100
AcDbLine
 10
45.0274
 20
149.9554299999999
 30
0.0
 11
45.4444
 21
149.59043
 31
0.0
  0
LINE
  5
411
330
1E
100
AcDbEntity
  8
0
100
AcDbLine
 10
41.1284
 20
154.8114299999999
 30
0.0
 11
41.7269
 21
155.08143
 31
0.0
  0
LINE
  5
412
330
1E
100
AcDbEntity
  8
0
100
AcDbLine
 10
46.6649
 20
154.62943
 30
0.0
 11
47.38839999999999
 21
154.49343
 31
0.0
  0
LINE
  5
414
330
1E
100
AcDbEntity
  8
0
100
AcDbLine
 10
47.38839999999999
 20
154.49343
 30
0.0
 11
48.0596
 21
154.69943
 31
0.0
  0
LINE
  5
415
330
1E
100
AcDbEntity
  8
0
100
AcDbLine
 10
48.6528
 20
140.25543
 30
0.0
 11
48.8267
 21
140.68043
 31
0.0
  0
LINE
  5
416
330
1E
100
AcDbEntity
  8
0
100
AcDbLine
 10
48.4097
 20
141.04643
 30
0.0
 11
48.8267
 21
140.68043
 31
0.0
  0
LINE
  5
417
330
1E
100
AcDbEntity
  8
0
100
AcDbLine
 10
48.0596
 20
154.69943
 30
0.0
 11
48.29740000000001
 21
155.1144299999999
 31
0.0
  0
LINE
  5
418
330
1E
100
AcDbEntity
  8
0
100
AcDbLine
 10
42.4807
 20
155.0184299999999
 30
0.0
 11
42.9517
 21
154.67543
 31
0.0
  0
LINE
  5
419
330
1E
100
AcDbEntity
  8
0
100
AcDbLine
 10
41.7269
 20
155.08143
 30
0.0
 11
42.4807
 21
155.0184299999999
 31
0.0
  0
LINE
  5
41C
330
1E
100
AcDbEntity
  8
0
100
AcDbLine
 10
42.6599
 20
159.22443
 30
0.0
 11
43.4014
 21
159.12443
 31
0.0
  0
LINE
  5
41D
330
1E
100
AcDbEntity
  8
0
100
AcDbLine
 10
43.4014
 20
159.12443
 30
0.0
 11
44.0386
 21
159.3634299999999
 31
0.0
  0
LINE
  5
41E
330
1E
100
AcDbEntity
  8
0
100
AcDbLine
 10
44.0386
 20
159.3634299999999
 30
0.0
 11
44.21249999999999
 21
159.78943
 31
0.0
  0
LINE
  5
420
330
1E
100
AcDbEntity
  8
0
100
AcDbLine
 10
47.9376
 20
155.49943
 30
0.0
 11
48.29740000000001
 21
155.1144299999999
 31
0.0
  0
LINE
  5
426
330
1E
100
AcDbEntity
  8
0
100
AcDbLine
 10
47.2141
 20
155.63643
 30
0.0
 11
47.9376
 21
155.49943
 31
0.0
  0
LINE
  5
428
330
1E
100
AcDbEntity
  8
0
100
AcDbLine
 10
46.5429
 20
155.42943
 30
0.0
 11
47.2141
 21
155.63643
 31
0.0
  0
LINE
  5
429
330
1E
100
AcDbEntity
  8
0
100
AcDbLine
 10
46.305
 20
155.01443
 30
0.0
 11
46.5429
 21
155.42943
 31
0.0
  0
LINE
  5
42B
330
1E
100
AcDbEntity
  8
0
100
AcDbLine
 10
46.305
 20
155.01443
 30
0.0
 11
46.6649
 21
154.62943
 31
0.0
  0
LINE
  5
42F
330
1E
100
AcDbEntity
  8
0
100
AcDbLine
 10
49.29999999999999
 20
136.9364299999999
 30
0.0
 11
50.0
 21
137.1084299999999
 31
0.0
  0
LINE
  5
431
330
1E
100
AcDbEntity
  8
0
100
AcDbLine
 10
49.0
 20
136.5354299999999
 30
0.0
 11
49.29999999999999
 21
136.1334299999999
 31
0.0
  0
LINE
  5
432
330
1E
100
AcDbEntity
  8
0
100
AcDbLine
 10
49.0
 20
136.5354299999999
 30
0.0
 11
49.29999999999999
 21
136.9364299999999
 31
0.0
  0
LINE
  5
434
330
1E
100
AcDbEntity
  8
0
100
AcDbLine
 10
50.0
 20
114.71643
 30
0.0
 11
50.7
 21
114.88943
 31
0.0
  0
LINE
  5
437
330
1E
100
AcDbEntity
  8
0
100
AcDbLine
 10
50.0
 20
115.8644299999999
 30
0.0
 11
50.7
 21
115.69243
 31
0.0
  0
LINE
  5
43D
330
1E
100
AcDbEntity
  8
0
100
AcDbLine
 10
50.0
 20
135.96143
 30
0.0
 11
50.7
 21
136.1334299999999
 31
0.0
  0
LINE
  5
43F
330
1E
100
AcDbEntity
  8
0
100
AcDbLine
 10
50.0
 20
137.1084299999999
 30
0.0
 11
50.7
 21
136.9364299999999
 31
0.0
  0
LINE
  5
441
330
1E
100
AcDbEntity
  8
0
100
AcDbLine
 10
49.29999999999999
 20
136.1334299999999
 30
0.0
 11
50.0
 21
135.96143
 31
0.0
  0
LINE
  5
443
330
1E
100
AcDbEntity
  8
0
100
AcDbLine
 10
42.4168
 20
160.0154299999999
 30
0.0
 11
43.0541
 21
160.25443
 31
0.0
  0
LINE
  5
445
330
1E
100
AcDbEntity
  8
0
100
AcDbLine
 10
42.24289999999999
 20
159.5904299999999
 30
0.0
 11
42.4168
 21
160.0154299999999
 31
0.0
  0
LINE
  5
446
330
1E
100
AcDbEntity
  8
0
100
AcDbLine
 10
42.24289999999999
 20
159.5904299999999
 30
0.0
 11
42.6599
 21
159.22443
 31
0.0
  0
LINE
  5
448
330
1E
100
AcDbEntity
  8
0
100
AcDbLine
 10
49.29999999999999
 20
159.62843
 30
0.0
 11
50.0
 21
159.45543
 31
0.0
  0
LINE
  5
44A
330
1E
100
AcDbEntity
  8
0
100
AcDbLine
 10
50.0
 20
159.45543
 30
0.0
 11
50.7
 21
159.62843
 31
0.0
  0
LINE
  5
44C
330
1E
100
AcDbEntity
  8
0
100
AcDbLine
 10
50.7
 20
115.69243
 30
0.0
 11
51.0
 21
115.29043
 31
0.0
  0
LINE
  5
44D
330
1E
100
AcDbEntity
  8
0
100
AcDbLine
 10
50.7
 20
114.88943
 30
0.0
 11
51.0
 21
115.29043
 31
0.0
  0
LINE
  5
44F
330
1E
100
AcDbEntity
  8
0
100
AcDbLine
 10
50.7
 20
136.1334299999999
 30
0.0
 11
51.0
 21
136.5354299999999
 31
0.0
  0
LINE
  5
451
330
1E
100
AcDbEntity
  8
0
100
AcDbLine
 10
51.5
 20
107.18343
 30
0.0
 11
51.5
 21
108.10843
 31
0.0
  0
LINE
  5
452
330
1E
100
AcDbEntity
  8
0
100
AcDbLine
 10
51.5
 20
108.10843
 30
0.0
 11
51.5
 21
107.18343
 31
0.0
  0
LINE
  5
453
330
1E
100
AcDbEntity
  8
0
100
AcDbLine
 10
51.5
 20
108.10843
 30
0.0
 11
51.5
 21
109.42743
 31
0.0
  0
LINE
  5
454
330
1E
100
AcDbEntity
  8
0
100
AcDbLine
 10
51.5
 20
109.42743
 30
0.0
 11
51.5
 21
108.10843
 31
0.0
  0
LINE
  5
455
330
1E
100
AcDbEntity
  8
0
100
AcDbLine
 10
51.5
 20
109.42743
 30
0.0
 11
51.5
 21
110.74143
 31
0.0
  0
LINE
  5
456
330
1E
100
AcDbEntity
  8
0
100
AcDbLine
 10
51.5
 20
110.74143
 30
0.0
 11
51.5
 21
109.42743
 31
0.0
  0
LINE
  5
457
330
1E
100
AcDbEntity
  8
0
100
AcDbLine
 10
51.5
 20
110.74143
 30
0.0
 11
51.5
 21
112.6244299999999
 31
0.0
  0
LINE
  5
458
330
1E
100
AcDbEntity
  8
0
100
AcDbLine
 10
51.5
 20
112.6244299999999
 30
0.0
 11
51.5
 21
110.74143
 31
0.0
  0
LINE
  5
459
330
1E
100
AcDbEntity
  8
0
100
AcDbLine
 10
51.5
 20
112.6244299999999
 30
0.0
 11
51.5
 21
114.843111818182
 31
0.0
  0
LINE
  5
45A
330
1E
100
AcDbEntity
  8
0
100
AcDbLine
 10
51.5
 20
114.843111818182
 30
0.0
 11
51.5
 21
112.6244299999999
 31
0.0
  0
LINE
  5
45B
330
1E
100
AcDbEntity
  8
0
100
AcDbLine
 10
51.5
 20
113.2183324390239
 30
0.0
 11
62.3
 21
114.07443
 31
0.0
  0
LINE
  5
45E
330
1E
100
AcDbEntity
  8
0
100
AcDbLine
 10
52.6116
 20
120.24943
 30
0.0
 11
53.3351
 21
120.11343
 31
0.0
  0
LINE
  5
461
330
1E
100
AcDbEntity
  8
0
100
AcDbLine
 10
51.9404
 20
120.0434299999999
 30
0.0
 11
52.6116
 21
120.24943
 31
0.0
  0
LINE
  5
462
330
1E
100
AcDbEntity
  8
0
100
AcDbLine
 10
51.70259999999999
 20
119.62843
 30
0.0
 11
52.0624
 21
119.24343
 31
0.0
  0
LINE
  5
464
330
1E
100
AcDbEntity
  8
0
100
AcDbLine
 10
51.70259999999999
 20
119.62843
 30
0.0
 11
51.9404
 21
120.0434299999999
 31
0.0
  0
LINE
  5
465
330
1E
100
AcDbEntity
  8
0
100
AcDbLine
 10
52.0624
 20
119.24343
 30
0.0
 11
52.7859
 21
119.10743
 31
0.0
  0
LINE
  5
46B
330
1E
100
AcDbEntity
  8
0
100
AcDbLine
 10
52.0302
 20
132.53243
 30
0.0
 11
52.7717
 21
132.43243
 31
0.0
  0
LINE
  5
46D
330
1E
100
AcDbEntity
  8
0
100
AcDbLine
 10
53.3351
 20
120.11343
 30
0.0
 11
53.695
 21
119.7284299999999
 31
0.0
  0
LINE
  5
46F
330
1E
100
AcDbEntity
  8
0
100
AcDbLine
 10
52.7859
 20
119.10743
 30
0.0
 11
53.4571
 21
119.31343
 31
0.0
  0
LINE
  5
472
330
1E
100
AcDbEntity
  8
0
100
AcDbLine
 10
53.4571
 20
119.31343
 30
0.0
 11
53.695
 21
119.7284299999999
 31
0.0
  0
LINE
  5
473
330
1E
100
AcDbEntity
  8
0
100
AcDbLine
 10
53.8141
 20
124.67643
 30
0.0
 11
54.5556
 21
124.57643
 31
0.0
  0
LINE
  5
474
330
1E
100
AcDbEntity
  8
0
100
AcDbLine
 10
53.1769
 20
124.43743
 30
0.0
 11
53.8141
 21
124.67643
 31
0.0
  0
LINE
  5
475
330
1E
100
AcDbEntity
  8
0
100
AcDbLine
 10
53.003
 20
124.01143
 30
0.0
 11
53.42
 21
123.64643
 31
0.0
  0
LINE
  5
476
330
1E
100
AcDbEntity
  8
0
100
AcDbLine
 10
53.003
 20
124.01143
 30
0.0
 11
53.1769
 21
124.43743
 31
0.0
  0
LINE
  5
477
330
1E
100
AcDbEntity
  8
0
100
AcDbLine
 10
53.42
 20
123.64643
 30
0.0
 11
54.1614
 21
123.54643
 31
0.0
  0
LINE
  5
478
330
1E
100
AcDbEntity
  8
0
100
AcDbLine
 10
54.1614
 20
123.54643
 30
0.0
 11
54.7987
 21
123.78543
 31
0.0
  0
LINE
  5
479
330
1E
100
AcDbEntity
  8
0
100
AcDbLine
 10
52.86229999999999
 20
128.62843
 30
0.0
 11
52.8863
 21
128.1914299999999
 31
0.0
  0
LINE
  5
47A
330
1E
100
AcDbEntity
  8
0
100
AcDbLine
 10
52.86229999999999
 20
128.62843
 30
0.0
 11
53.36999999999999
 21
128.9544299999999
 31
0.0
  0
LINE
  5
47B
330
1E
100
AcDbEntity
  8
0
100
AcDbLine
 10
52.8863
 20
128.1914299999999
 30
0.0
 11
53.45399999999999
 21
127.9004299999999
 31
0.0
  0
LINE
  5
47C
330
1E
100
AcDbEntity
  8
0
100
AcDbLine
 10
53.45399999999999
 20
127.9004299999999
 30
0.0
 11
54.21520000000001
 21
127.91443
 31
0.0
  0
LINE
  5
47E
330
1E
100
AcDbEntity
  8
0
100
AcDbLine
 10
56.5986
 20
116.19543
 30
0.0
 11
57.3401
 21
116.0954299999999
 31
0.0
  0
LINE
  5
47F
330
1E
100
AcDbEntity
  8
0
100
AcDbLine
 10
55.9614
 20
115.95643
 30
0.0
 11
56.5986
 21
116.19543
 31
0.0
  0
LINE
  5
480
330
1E
100
AcDbEntity
  8
0
100
AcDbLine
 10
55.7875
 20
115.53043
 30
0.0
 11
56.2045
 21
115.16543
 31
0.0
  0
LINE
  5
481
330
1E
100
AcDbEntity
  8
0
100
AcDbLine
 10
55.7875
 20
115.53043
 30
0.0
 11
55.9614
 21
115.95643
 31
0.0
  0
LINE
  5
483
330
1E
100
AcDbEntity
  8
0
100
AcDbLine
 10
56.2045
 20
115.16543
 30
0.0
 11
56.9459
 21
115.06543
 31
0.0
  0
LINE
  5
484
330
1E
100
AcDbEntity
  8
0
100
AcDbLine
 10
56.9459
 20
115.06543
 30
0.0
 11
57.5832
 21
115.30443
 31
0.0
  0
LINE
  5
485
330
1E
100
AcDbEntity
  8
0
100
AcDbLine
 10
54.5556
 20
124.57643
 30
0.0
 11
54.9726
 21
124.21043
 31
0.0
  0
LINE
  5
486
330
1E
100
AcDbEntity
  8
0
100
AcDbLine
 10
54.7987
 20
123.78543
 30
0.0
 11
54.9726
 21
124.21043
 31
0.0
  0
LINE
  5
487
330
1E
100
AcDbEntity
  8
0
100
AcDbLine
 10
54.21520000000001
 20
127.91443
 30
0.0
 11
54.7228
 21
128.2394299999999
 31
0.0
  0
LINE
  5
488
330
1E
100
AcDbEntity
  8
0
100
AcDbLine
 10
54.1312
 20
128.96743
 30
0.0
 11
54.6989
 21
128.67643
 31
0.0
  0
LINE
  5
489
330
1E
100
AcDbEntity
  8
0
100
AcDbLine
 10
53.36999999999999
 20
128.9544299999999
 30
0.0
 11
54.1312
 21
128.96743
 31
0.0
  0
LINE
  5
48A
330
1E
100
AcDbEntity
  8
0
100
AcDbLine
 10
54.6989
 20
128.67643
 30
0.0
 11
54.7228
 21
128.2394299999999
 31
0.0
  0
LINE
  5
48B
330
1E
100
AcDbEntity
  8
0
100
AcDbLine
 10
52.7717
 20
132.43243
 30
0.0
 11
53.409
 21
132.67143
 31
0.0
  0
LINE
  5
491
330
1E
100
AcDbEntity
  8
0
100
AcDbLine
 10
54.8476
 20
134.91943
 30
0.0
 11
55.5274
 21
135.11643
 31
0.0
  0
LINE
  5
493
330
1E
100
AcDbEntity
  8
0
100
AcDbLine
 10
54.62749999999999
 20
134.50143
 30
0.0
 11
54.9709
 21
134.11143
 31
0.0
  0
LINE
  5
494
330
1E
100
AcDbEntity
  8
0
100
AcDbLine
 10
54.62749999999999
 20
134.50143
 30
0.0
 11
54.8476
 21
134.91943
 31
0.0
  0
LINE
  5
496
330
1E
100
AcDbEntity
  8
0
100
AcDbLine
 10
54.9709
 20
134.11143
 30
0.0
 11
55.7
 21
133.98543
 31
0.0
  0
LINE
  5
497
330
1E
100
AcDbEntity
  8
0
100
AcDbLine
 10
55.7
 20
133.98543
 30
0.0
 11
56.3797
 21
134.18243
 31
0.0
  0
LINE
  5
499
330
1E
100
AcDbEntity
  8
0
100
AcDbLine
 10
56.3797
 20
134.18243
 30
0.0
 11
56.5999
 21
134.60043
 31
0.0
  0
LINE
  5
49E
330
1E
100
AcDbEntity
  8
0
100
AcDbLine
 10
55.5274
 20
135.11643
 30
0.0
 11
56.2565
 21
134.99043
 31
0.0
  0
LINE
  5
4A0
330
1E
100
AcDbEntity
  8
0
100
AcDbLine
 10
56.2565
 20
134.99043
 30
0.0
 11
56.5999
 21
134.60043
 31
0.0
  0
LINE
  5
4A3
330
1E
100
AcDbEntity
  8
0
100
AcDbLine
 10
53.1658
 20
133.46243
 30
0.0
 11
53.5828
 21
133.09743
 31
0.0
  0
LINE
  5
4A5
330
1E
100
AcDbEntity
  8
0
100
AcDbLine
 10
52.4244
 20
133.56243
 30
0.0
 11
53.1658
 21
133.46243
 31
0.0
  0
LINE
  5
4A6
330
1E
100
AcDbEntity
  8
0
100
AcDbLine
 10
51.7871
 20
133.3234299999999
 30
0.0
 11
52.4244
 21
133.56243
 31
0.0
  0
LINE
  5
4A8
330
1E
100
AcDbEntity
  8
0
100
AcDbLine
 10
51.61319999999999
 20
132.8984299999999
 30
0.0
 11
52.0302
 21
132.53243
 31
0.0
  0
LINE
  5
4A9
330
1E
100
AcDbEntity
  8
0
100
AcDbLine
 10
51.61319999999999
 20
132.8984299999999
 30
0.0
 11
51.7871
 21
133.3234299999999
 31
0.0
  0
LINE
  5
4AB
330
1E
100
AcDbEntity
  8
0
100
AcDbLine
 10
53.409
 20
132.67143
 30
0.0
 11
53.5828
 21
133.09743
 31
0.0
  0
LINE
  5
4AD
330
1E
100
AcDbEntity
  8
0
100
AcDbLine
 10
56.29999999999999
 20
136.2974299999999
 30
0.0
 11
57.0
 21
136.1254299999999
 31
0.0
  0
LINE
  5
4AE
330
1E
100
AcDbEntity
  8
0
100
AcDbLine
 10
57.3401
 20
116.0954299999999
 30
0.0
 11
57.7571
 21
115.73043
 31
0.0
  0
LINE
  5
4B1
330
1E
100
AcDbEntity
  8
0
100
AcDbLine
 10
57.5832
 20
115.30443
 30
0.0
 11
57.7571
 21
115.73043
 31
0.0
  0
LINE
  5
4B2
330
1E
100
AcDbEntity
  8
0
100
AcDbLine
 10
57.157
 20
120.50043
 30
0.0
 11
57.75549999999999
 21
120.77043
 31
0.0
  0
LINE
  5
4B3
330
1E
100
AcDbEntity
  8
0
100
AcDbLine
 10
57.0483
 20
120.0674299999999
 30
0.0
 11
57.5193
 21
119.7244299999999
 31
0.0
  0
LINE
  5
4B4
330
1E
100
AcDbEntity
  8
0
100
AcDbLine
 10
57.0483
 20
120.0674299999999
 30
0.0
 11
57.157
 21
120.50043
 31
0.0
  0
LINE
  5
4B5
330
1E
100
AcDbEntity
  8
0
100
AcDbLine
 10
58.5093
 20
120.70743
 30
0.0
 11
58.9802
 21
120.36443
 31
0.0
  0
LINE
  5
4B8
330
1E
100
AcDbEntity
  8
0
100
AcDbLine
 10
58.3783
 20
130.52543
 30
0.0
 11
59.0854
 21
130.68743
 31
0.0
  0
LINE
  5
4BA
330
1E
100
AcDbEntity
  8
0
100
AcDbLine
 10
58.0954
 20
130.1204299999999
 30
0.0
 11
58.3783
 21
129.71443
 31
0.0
  0
LINE
  5
4BB
330
1E
100
AcDbEntity
  8
0
100
AcDbLine
 10
58.0954
 20
130.1204299999999
 30
0.0
 11
58.3783
 21
130.52543
 31
0.0
  0
LINE
  5
4BD
330
1E
100
AcDbEntity
  8
0
100
AcDbLine
 10
58.3783
 20
129.71443
 30
0.0
 11
59.0854
 21
129.55243
 31
0.0
  0
LINE
  5
4BF
330
1E
100
AcDbEntity
  8
0
100
AcDbLine
 10
57.75549999999999
 20
120.77043
 30
0.0
 11
58.5093
 21
120.70743
 31
0.0
  0
LINE
  5
4C1
330
1E
100
AcDbEntity
  8
0
100
AcDbLine
 10
57.5193
 20
119.7244299999999
 30
0.0
 11
58.2731
 21
119.66243
 31
0.0
  0
LINE
  5
4C2
330
1E
100
AcDbEntity
  8
0
100
AcDbLine
 10
58.2731
 20
119.66243
 30
0.0
 11
58.8716
 21
119.93243
 31
0.0
  0
LINE
  5
4C3
330
1E
100
AcDbEntity
  8
0
100
AcDbLine
 10
59.0854
 20
129.55243
 30
0.0
 11
59.7925
 21
129.71443
 31
0.0
  0
LINE
  5
4C5
330
1E
100
AcDbEntity
  8
0
100
AcDbLine
 10
60.5262
 20
125.82243
 30
0.0
 11
60.6164
 21
125.38943
 31
0.0
  0
LINE
  5
4C6
330
1E
100
AcDbEntity
  8
0
100
AcDbLine
 10
60.5262
 20
125.82243
 30
0.0
 11
60.9824
 21
126.17243
 31
0.0
  0
LINE
  5
4C9
330
1E
100
AcDbEntity
  8
0
100
AcDbLine
 10
61.7386
 20
126.22443
 30
0.0
 11
62.3484
 21
125.96243
 31
0.0
  0
LINE
  5
4CA
330
1E
100
AcDbEntity
  8
0
100
AcDbLine
 10
60.9824
 20
126.17243
 30
0.0
 11
61.7386
 21
126.22443
 31
0.0
  0
LINE
  5
4CC
330
1E
100
AcDbEntity
  8
0
100
AcDbLine
 10
60.6164
 20
125.38943
 30
0.0
 11
61.2262
 21
125.12743
 31
0.0
  0
LINE
  5
4CD
330
1E
100
AcDbEntity
  8
0
100
AcDbLine
 10
61.2262
 20
125.12743
 30
0.0
 11
61.9824
 21
125.17943
 31
0.0
  0
LINE
  5
4CE
330
1E
100
AcDbEntity
  8
0
100
AcDbLine
 10
61.9824
 20
125.17943
 30
0.0
 11
62.4386
 21
125.52943
 31
0.0
  0
LINE
  5
4D1
330
1E
100
AcDbEntity
  8
0
100
AcDbLine
 10
59.7925
 20
129.71443
 30
0.0
 11
60.0753
 21
130.1204299999999
 31
0.0
  0
LINE
  5
4D3
330
1E
100
AcDbEntity
  8
0
100
AcDbLine
 10
59.0854
 20
130.68743
 30
0.0
 11
59.7925
 21
130.52543
 31
0.0
  0
LINE
  5
4D5
330
1E
100
AcDbEntity
  8
0
100
AcDbLine
 10
59.7925
 20
130.52543
 30
0.0
 11
60.0753
 21
130.1204299999999
 31
0.0
  0
LINE
  5
4D6
330
1E
100
AcDbEntity
  8
0
100
AcDbLine
 10
58.8716
 20
119.93243
 30
0.0
 11
58.9802
 21
120.36443
 31
0.0
  0
LINE
  5
4D7
330
1E
100
AcDbEntity
  8
0
100
AcDbLine
 10
57.7
 20
136.2974299999999
 30
0.0
 11
58.0
 21
136.6994299999999
 31
0.0
  0
LINE
  5
4D8
330
1E
100
AcDbEntity
  8
0
100
AcDbLine
 10
57.0
 20
136.1254299999999
 30
0.0
 11
57.7
 21
136.2974299999999
 31
0.0
  0
LINE
  5
4D9
330
1E
100
AcDbEntity
  8
0
100
AcDbLine
 10
51.7871
 20
140.07543
 30
0.0
 11
52.4244
 21
139.83543
 31
0.0
  0
LINE
  5
4DC
330
1E
100
AcDbEntity
  8
0
100
AcDbLine
 10
51.61319999999999
 20
140.5004299999999
 30
0.0
 11
52.0302
 21
140.86543
 31
0.0
  0
LINE
  5
4DD
330
1E
100
AcDbEntity
  8
0
100
AcDbLine
 10
51.61319999999999
 20
140.5004299999999
 30
0.0
 11
51.7871
 21
140.07543
 31
0.0
  0
LINE
  5
4DF
330
1E
100
AcDbEntity
  8
0
100
AcDbLine
 10
52.4244
 20
139.83543
 30
0.0
 11
53.1658
 21
139.9354299999999
 31
0.0
  0
LINE
  5
4E0
330
1E
100
AcDbEntity
  8
0
100
AcDbLine
 10
52.0302
 20
140.86543
 30
0.0
 11
52.7717
 21
140.9654299999999
 31
0.0
  0
LINE
  5
4E2
330
1E
100
AcDbEntity
  8
0
100
AcDbLine
 10
51.9404
 20
154.69943
 30
0.0
 11
52.6116
 21
154.49343
 31
0.0
  0
LINE
  5
4E5
330
1E
100
AcDbEntity
  8
0
100
AcDbLine
 10
52.6116
 20
154.49343
 30
0.0
 11
53.3351
 21
154.62943
 31
0.0
  0
LINE
  5
4E6
330
1E
100
AcDbEntity
  8
0
100
AcDbLine
 10
52.86229999999999
 20
145.13443
 30
0.0
 11
52.8863
 21
145.5714299999999
 31
0.0
  0
LINE
  5
4E7
330
1E
100
AcDbEntity
  8
0
100
AcDbLine
 10
52.86229999999999
 20
145.13443
 30
0.0
 11
53.36999999999999
 21
144.80843
 31
0.0
  0
LINE
  5
4E8
330
1E
100
AcDbEntity
  8
0
100
AcDbLine
 10
52.8863
 20
145.5714299999999
 30
0.0
 11
53.45399999999999
 21
145.86243
 31
0.0
  0
LINE
  5
4E9
330
1E
100
AcDbEntity
  8
0
100
AcDbLine
 10
52.7717
 20
140.9654299999999
 30
0.0
 11
53.409
 21
140.72643
 31
0.0
  0
LINE
  5
4EB
330
1E
100
AcDbEntity
  8
0
100
AcDbLine
 10
53.1658
 20
139.9354299999999
 30
0.0
 11
53.5828
 21
140.30143
 31
0.0
  0
LINE
  5
4EC
330
1E
100
AcDbEntity
  8
0
100
AcDbLine
 10
53.36999999999999
 20
144.80843
 30
0.0
 11
54.1312
 21
144.79543
 31
0.0
  0
LINE
  5
4ED
330
1E
100
AcDbEntity
  8
0
100
AcDbLine
 10
53.45399999999999
 20
145.86243
 30
0.0
 11
54.21520000000001
 21
145.84843
 31
0.0
  0
LINE
  5
4F0
330
1E
100
AcDbEntity
  8
0
100
AcDbLine
 10
54.8476
 20
138.4784299999999
 30
0.0
 11
55.5274
 21
138.2814299999999
 31
0.0
  0
LINE
  5
4F1
330
1E
100
AcDbEntity
  8
0
100
AcDbLine
 10
54.62749999999999
 20
138.89643
 30
0.0
 11
54.9709
 21
139.28643
 31
0.0
  0
LINE
  5
4F2
330
1E
100
AcDbEntity
  8
0
100
AcDbLine
 10
54.62749999999999
 20
138.89643
 30
0.0
 11
54.8476
 21
138.4784299999999
 31
0.0
  0
LINE
  5
4F5
330
1E
100
AcDbEntity
  8
0
100
AcDbLine
 10
56.0
 20
136.6994299999999
 30
0.0
 11
56.29999999999999
 21
137.10043
 31
0.0
  0
LINE
  5
4F6
330
1E
100
AcDbEntity
  8
0
100
AcDbLine
 10
56.0
 20
136.6994299999999
 30
0.0
 11
56.29999999999999
 21
136.2974299999999
 31
0.0
  0
LINE
  5
4F8
330
1E
100
AcDbEntity
  8
0
100
AcDbLine
 10
55.5274
 20
138.2814299999999
 30
0.0
 11
56.2565
 21
138.4074299999999
 31
0.0
  0
LINE
  5
4F9
330
1E
100
AcDbEntity
  8
0
100
AcDbLine
 10
54.9709
 20
139.28643
 30
0.0
 11
55.7
 21
139.41243
 31
0.0
  0
LINE
  5
4FC
330
1E
100
AcDbEntity
  8
0
100
AcDbLine
 10
54.1312
 20
144.79543
 30
0.0
 11
54.6989
 21
145.08643
 31
0.0
  0
LINE
  5
4FE
330
1E
100
AcDbEntity
  8
0
100
AcDbLine
 10
54.21520000000001
 20
145.84843
 30
0.0
 11
54.7228
 21
145.52243
 31
0.0
  0
LINE
  5
500
330
1E
100
AcDbEntity
  8
0
100
AcDbLine
 10
54.6989
 20
145.08643
 30
0.0
 11
54.7228
 21
145.52243
 31
0.0
  0
LINE
  5
503
330
1E
100
AcDbEntity
  8
0
100
AcDbLine
 10
55.7
 20
139.41243
 30
0.0
 11
56.3797
 21
139.21543
 31
0.0
  0
LINE
  5
506
330
1E
100
AcDbEntity
  8
0
100
AcDbLine
 10
56.29999999999999
 20
137.10043
 30
0.0
 11
57.0
 21
137.27243
 31
0.0
  0
LINE
  5
509
330
1E
100
AcDbEntity
  8
0
100
AcDbLine
 10
57.0
 20
137.27243
 30
0.0
 11
57.7
 21
137.10043
 31
0.0
  0
LINE
  5
50E
330
1E
100
AcDbEntity
  8
0
100
AcDbLine
 10
56.3797
 20
139.21543
 30
0.0
 11
56.5999
 21
138.7974299999999
 31
0.0
  0
LINE
  5
510
330
1E
100
AcDbEntity
  8
0
100
AcDbLine
 10
56.2565
 20
138.4074299999999
 30
0.0
 11
56.5999
 21
138.7974299999999
 31
0.0
  0
LINE
  5
511
330
1E
100
AcDbEntity
  8
0
100
AcDbLine
 10
54.5556
 20
149.59043
 30
0.0
 11
54.9726
 21
149.9554299999999
 31
0.0
  0
LINE
  5
512
330
1E
100
AcDbEntity
  8
0
100
AcDbLine
 10
53.8141
 20
149.4904299999999
 30
0.0
 11
54.5556
 21
149.59043
 31
0.0
  0
LINE
  5
513
330
1E
100
AcDbEntity
  8
0
100
AcDbLine
 10
53.1769
 20
149.72943
 30
0.0
 11
53.8141
 21
149.4904299999999
 31
0.0
  0
LINE
  5
514
330
1E
100
AcDbEntity
  8
0
100
AcDbLine
 10
53.003
 20
150.1544299999999
 30
0.0
 11
53.42
 21
150.52043
 31
0.0
  0
LINE
  5
515
330
1E
100
AcDbEntity
  8
0
100
AcDbLine
 10
53.003
 20
150.1544299999999
 30
0.0
 11
53.1769
 21
149.72943
 31
0.0
  0
LINE
  5
518
330
1E
100
AcDbEntity
  8
0
100
AcDbLine
 10
53.42
 20
150.52043
 30
0.0
 11
54.1614
 21
150.62043
 31
0.0
  0
LINE
  5
51A
330
1E
100
AcDbEntity
  8
0
100
AcDbLine
 10
54.1614
 20
150.62043
 30
0.0
 11
54.7987
 21
150.38043
 31
0.0
  0
LINE
  5
51C
330
1E
100
AcDbEntity
  8
0
100
AcDbLine
 10
54.7987
 20
150.38043
 30
0.0
 11
54.9726
 21
149.9554299999999
 31
0.0
  0
LINE
  5
520
330
1E
100
AcDbEntity
  8
0
100
AcDbLine
 10
57.7
 20
137.10043
 30
0.0
 11
58.0
 21
136.6994299999999
 31
0.0
  0
LINE
  5
522
330
1E
100
AcDbEntity
  8
0
100
AcDbLine
 10
58.3783
 20
143.23743
 30
0.0
 11
59.0854
 21
143.07543
 31
0.0
  0
LINE
  5
524
330
1E
100
AcDbEntity
  8
0
100
AcDbLine
 10
58.0954
 20
143.64243
 30
0.0
 11
58.3783
 21
144.04843
 31
0.0
  0
LINE
  5
525
330
1E
100
AcDbEntity
  8
0
100
AcDbLine
 10
58.0954
 20
143.64243
 30
0.0
 11
58.3783
 21
143.23743
 31
0.0
  0
LINE
  5
527
330
1E
100
AcDbEntity
  8
0
100
AcDbLine
 10
59.0854
 20
143.07543
 30
0.0
 11
59.7925
 21
143.23743
 31
0.0
  0
LINE
  5
528
330
1E
100
AcDbEntity
  8
0
100
AcDbLine
 10
58.3783
 20
144.04843
 30
0.0
 11
59.0854
 21
144.21043
 31
0.0
  0
LINE
  5
52A
330
1E
100
AcDbEntity
  8
0
100
AcDbLine
 10
59.0854
 20
144.21043
 30
0.0
 11
59.7925
 21
144.04843
 31
0.0
  0
LINE
  5
52B
330
1E
100
AcDbEntity
  8
0
100
AcDbLine
 10
59.7925
 20
144.04843
 30
0.0
 11
60.0753
 21
143.64243
 31
0.0
  0
LINE
  5
52F
330
1E
100
AcDbEntity
  8
0
100
AcDbLine
 10
59.7925
 20
143.23743
 30
0.0
 11
60.0753
 21
143.64243
 31
0.0
  0
LINE
  5
532
330
1E
100
AcDbEntity
  8
0
100
AcDbLine
 10
60.5262
 20
148.34343
 30
0.0
 11
60.6164
 21
148.77743
 31
0.0
  0
LINE
  5
533
330
1E
100
AcDbEntity
  8
0
100
AcDbLine
 10
60.5262
 20
148.34343
 30
0.0
 11
60.9824
 21
147.99343
 31
0.0
  0
LINE
  5
536
330
1E
100
AcDbEntity
  8
0
100
AcDbLine
 10
61.9741
 20
141.2334299999999
 30
0.0
 11
62.4818
 21
141.5594299999999
 31
0.0
  0
LINE
  5
537
330
1E
100
AcDbEntity
  8
0
100
AcDbLine
 10
61.9741
 20
141.2334299999999
 30
0.0
 11
61.9981
 21
140.79743
 31
0.0
  0
LINE
  5
539
330
1E
100
AcDbEntity
  8
0
100
AcDbLine
 10
61.7386
 20
147.9424299999999
 30
0.0
 11
62.3484
 21
148.20343
 31
0.0
  0
LINE
  5
53A
330
1E
100
AcDbEntity
  8
0
100
AcDbLine
 10
60.9824
 20
147.99343
 30
0.0
 11
61.7386
 21
147.9424299999999
 31
0.0
  0
LINE
  5
53B
330
1E
100
AcDbEntity
  8
0
100
AcDbLine
 10
60.6164
 20
148.77743
 30
0.0
 11
61.2262
 21
149.03943
 31
0.0
  0
LINE
  5
53F
330
1E
100
AcDbEntity
  8
0
100
AcDbLine
 10
61.2262
 20
149.03943
 30
0.0
 11
61.9824
 21
148.98743
 31
0.0
  0
LINE
  5
541
330
1E
100
AcDbEntity
  8
0
100
AcDbLine
 10
61.9981
 20
140.79743
 30
0.0
 11
62.5658
 21
140.50543
 31
0.0
  0
LINE
  5
542
330
1E
100
AcDbEntity
  8
0
100
AcDbLine
 10
61.9824
 20
148.98743
 30
0.0
 11
62.4386
 21
148.63743
 31
0.0
  0
LINE
  5
544
330
1E
100
AcDbEntity
  8
0
100
AcDbLine
 10
58.5093
 20
154.0354299999999
 30
0.0
 11
58.9802
 21
154.37843
 31
0.0
  0
LINE
  5
545
330
1E
100
AcDbEntity
  8
0
100
AcDbLine
 10
57.75549999999999
 20
153.97343
 30
0.0
 11
58.5093
 21
154.0354299999999
 31
0.0
  0
LINE
  5
546
330
1E
100
AcDbEntity
  8
0
100
AcDbLine
 10
57.157
 20
154.24343
 30
0.0
 11
57.75549999999999
 21
153.97343
 31
0.0
  0
LINE
  5
547
330
1E
100
AcDbEntity
  8
0
100
AcDbLine
 10
57.0483
 20
154.67543
 30
0.0
 11
57.5193
 21
155.0184299999999
 31
0.0
  0
LINE
  5
548
330
1E
100
AcDbEntity
  8
0
100
AcDbLine
 10
57.0483
 20
154.67543
 30
0.0
 11
57.157
 21
154.24343
 31
0.0
  0
LINE
  5
549
330
1E
100
AcDbEntity
  8
0
100
AcDbLine
 10
57.5193
 20
155.0184299999999
 30
0.0
 11
58.2731
 21
155.08143
 31
0.0
  0
LINE
  5
54A
330
1E
100
AcDbEntity
  8
0
100
AcDbLine
 10
58.2731
 20
155.08143
 30
0.0
 11
58.8716
 21
154.8114299999999
 31
0.0
  0
LINE
  5
54C
330
1E
100
AcDbEntity
  8
0
100
AcDbLine
 10
58.8716
 20
154.8114299999999
 30
0.0
 11
58.9802
 21
154.37843
 31
0.0
  0
LINE
  5
54E
330
1E
100
AcDbEntity
  8
0
100
AcDbLine
 10
53.3351
 20
154.62943
 30
0.0
 11
53.695
 21
155.01443
 31
0.0
  0
LINE
  5
554
330
1E
100
AcDbEntity
  8
0
100
AcDbLine
 10
53.4571
 20
155.42943
 30
0.0
 11
53.695
 21
155.01443
 31
0.0
  0
LINE
  5
555
330
1E
100
AcDbEntity
  8
0
100
AcDbLine
 10
57.3401
 20
159.22443
 30
0.0
 11
57.7571
 21
159.5904299999999
 31
0.0
  0
LINE
  5
556
330
1E
100
AcDbEntity
  8
0
100
AcDbLine
 10
56.5986
 20
159.12443
 30
0.0
 11
57.3401
 21
159.22443
 31
0.0
  0
LINE
  5
558
330
1E
100
AcDbEntity
  8
0
100
AcDbLine
 10
55.9614
 20
159.3634299999999
 30
0.0
 11
56.5986
 21
159.12443
 31
0.0
  0
LINE
  5
55A
330
1E
100
AcDbEntity
  8
0
100
AcDbLine
 10
52.7859
 20
155.63643
 30
0.0
 11
53.4571
 21
155.42943
 31
0.0
  0
LINE
  5
55C
330
1E
100
AcDbEntity
  8
0
100
AcDbLine
 10
52.0624
 20
155.49943
 30
0.0
 11
52.7859
 21
155.63643
 31
0.0
  0
LINE
  5
55E
330
1E
100
AcDbEntity
  8
0
100
AcDbLine
 10
51.70259999999999
 20
155.1144299999999
 30
0.0
 11
52.0624
 21
155.49943
 31
0.0
  0
LINE
  5
55F
330
1E
100
AcDbEntity
  8
0
100
AcDbLine
 10
51.70259999999999
 20
155.1144299999999
 30
0.0
 11
51.9404
 21
154.69943
 31
0.0
  0
LINE
  5
562
330
1E
100
AcDbEntity
  8
0
100
AcDbLine
 10
50.7
 20
136.9364299999999
 30
0.0
 11
51.0
 21
136.5354299999999
 31
0.0
  0
LINE
  5
564
330
1E
100
AcDbEntity
  8
0
100
AcDbLine
 10
55.7875
 20
159.78943
 30
0.0
 11
56.2045
 21
160.15443
 31
0.0
  0
LINE
  5
565
330
1E
100
AcDbEntity
  8
0
100
AcDbLine
 10
55.7875
 20
159.78943
 30
0.0
 11
55.9614
 21
159.3634299999999
 31
0.0
  0
LINE
  5
567
330
1E
100
AcDbEntity
  8
0
100
AcDbLine
 10
57.5832
 20
160.0154299999999
 30
0.0
 11
57.7571
 21
159.5904299999999
 31
0.0
  0
LINE
  5
56A
330
1E
100
AcDbEntity
  8
0
100
AcDbLine
 10
50.7
 20
159.62843
 30
0.0
 11
51.0
 21
160.0294299999999
 31
0.0
  0
LINE
  5
573
330
1E
100
AcDbEntity
  8
0
100
AcDbLine
 10
43.7955
 20
160.15443
 30
0.0
 11
44.21249999999999
 21
159.78943
 31
0.0
  0
LINE
  5
575
330
1E
100
AcDbEntity
  8
0
100
AcDbLine
 10
43.0541
 20
160.25443
 30
0.0
 11
43.7955
 21
160.15443
 31
0.0
  0
LINE
  5
57A
330
1E
100
AcDbEntity
  8
0
100
AcDbLine
 10
56.2045
 20
160.15443
 30
0.0
 11
56.9459
 21
160.25443
 31
0.0
  0
LINE
  5
57C
330
1E
100
AcDbEntity
  8
0
100
AcDbLine
 10
56.9459
 20
160.25443
 30
0.0
 11
57.5832
 21
160.0154299999999
 31
0.0
  0
LINE
  5
57E
330
1E
100
AcDbEntity
  8
0
100
AcDbLine
 10
50.7
 20
160.43143
 30
0.0
 11
51.0
 21
160.0294299999999
 31
0.0
  0
LINE
  5
587
330
1E
100
AcDbEntity
  8
0
100
AcDbLine
 10
50.0
 20
160.60343
 30
0.0
 11
50.7
 21
160.43143
 31
0.0
  0
LINE
  5
58A
330
1E
100
AcDbEntity
  8
0
100
AcDbLine
 10
49.29999999999999
 20
160.43143
 30
0.0
 11
50.0
 21
160.60343
 31
0.0
  0
LINE
  5
58D
330
1E
100
AcDbEntity
  8
0
100
AcDbLine
 10
49.0
 20
160.0294299999999
 30
0.0
 11
49.29999999999999
 21
160.43143
 31
0.0
  0
LINE
  5
58E
330
1E
100
AcDbEntity
  8
0
100
AcDbLine
 10
49.0
 20
160.0294299999999
 30
0.0
 11
49.29999999999999
 21
159.62843
 31
0.0
  0
LINE
  5
590
330
1E
100
AcDbEntity
  8
0
100
AcDbLine
 10
62.0
 20
112.11043
 30
0.0
 11
62.0
 21
114.0506495121949
 31
0.0
  0
LINE
  5
591
330
1E
100
AcDbEntity
  8
0
100
AcDbLine
 10
62.0
 20
112.11043
 30
0.0
 11
62.0
 21
103.0224299999999
 31
0.0
  0
LINE
  5
592
330
1E
100
AcDbEntity
  8
0
100
AcDbLine
 10
62.0
 20
103.0224299999999
 30
0.0
 11
62.0
 21
112.11043
 31
0.0
  0
LINE
  5
593
330
1E
100
AcDbEntity
  8
0
100
AcDbLine
 10
62.0
 20
103.0224299999999
 30
0.0
 11
62.0
 21
90.62993
 31
0.0
  0
LINE
  5
594
330
1E
100
AcDbEntity
  8
0
100
AcDbLine
 10
62.3
 20
114.07443
 30
0.0
 11
73.9
 21
116.77043
 31
0.0
  0
LINE
  5
595
330
1E
100
AcDbEntity
  8
0
100
AcDbLine
 10
62.15600000000001
 20
121.5289902816899
 30
0.0
 11
62.15600000000001
 21
121.46943
 31
0.0
  0
LINE
  5
596
330
1E
100
AcDbEntity
  8
0
100
AcDbLine
 10
62.15600000000001
 20
121.46943
 30
0.0
 11
62.17999999999999
 21
121.03243
 31
0.0
  0
LINE
  5
597
330
1E
100
AcDbEntity
  8
0
100
AcDbLine
 10
62.15600000000001
 20
121.46943
 30
0.0
 11
62.6637
 21
121.79443
 31
0.0
  0
LINE
  5
598
330
1E
100
AcDbEntity
  8
0
100
AcDbLine
 10
62.15600000000001
 20
121.46943
 30
0.0
 11
62.15600000000001
 21
121.5289902816899
 31
0.0
  0
LINE
  5
599
330
1E
100
AcDbEntity
  8
0
100
AcDbLine
 10
62.17999999999999
 20
121.03243
 30
0.0
 11
62.7477
 21
120.74143
 31
0.0
  0
LINE
  5
59B
330
1E
100
AcDbEntity
  8
0
100
AcDbLine
 10
62.4416
 20
116.87943
 30
0.0
 11
62.9968
 21
117.17843
 31
0.0
  0
LINE
  5
59C
330
1E
100
AcDbEntity
  8
0
100
AcDbLine
 10
62.3991
 20
116.44343
 30
0.0
 11
62.9204
 21
116.12443
 31
0.0
  0
LINE
  5
59D
330
1E
100
AcDbEntity
  8
0
100
AcDbLine
 10
62.3991
 20
116.44343
 30
0.0
 11
62.4416
 21
116.87943
 31
0.0
  0
LINE
  5
59F
330
1E
100
AcDbEntity
  8
0
100
AcDbLine
 10
62.9968
 20
117.17843
 30
0.0
 11
63.7572
 21
117.15443
 31
0.0
  0
LINE
  5
5A0
330
1E
100
AcDbEntity
  8
0
100
AcDbLine
 10
62.9204
 20
116.12443
 30
0.0
 11
63.68079999999999
 21
116.10043
 31
0.0
  0
LINE
  5
5A1
330
1E
100
AcDbEntity
  8
0
100
AcDbLine
 10
62.7477
 20
120.74143
 30
0.0
 11
63.50889999999999
 21
120.7554299999999
 31
0.0
  0
LINE
  5
5A2
330
1E
100
AcDbEntity
  8
0
100
AcDbLine
 10
63.4249
 20
121.80843
 30
0.0
 11
63.9926
 21
121.51743
 31
0.0
  0
LINE
  5
5A3
330
1E
100
AcDbEntity
  8
0
100
AcDbLine
 10
62.6637
 20
121.79443
 30
0.0
 11
63.4249
 21
121.80843
 31
0.0
  0
LINE
  5
5A4
330
1E
100
AcDbEntity
  8
0
100
AcDbLine
 10
63.50889999999999
 20
120.7554299999999
 30
0.0
 11
64.0165
 21
121.08043
 31
0.0
  0
LINE
  5
5A5
330
1E
100
AcDbEntity
  8
0
100
AcDbLine
 10
62.3484
 20
125.96243
 30
0.0
 11
62.4386
 21
125.52943
 31
0.0
  0
LINE
  5
5A8
330
1E
100
AcDbEntity
  8
0
100
AcDbLine
 10
62.2453
 20
133.24943
 30
0.0
 11
62.8131
 21
133.54043
 31
0.0
  0
LINE
  5
5AA
330
1E
100
AcDbEntity
  8
0
100
AcDbLine
 10
62.2214
 20
132.81343
 30
0.0
 11
62.72899999999999
 21
132.48743
 31
0.0
  0
LINE
  5
5AB
330
1E
100
AcDbEntity
  8
0
100
AcDbLine
 10
62.2214
 20
132.81343
 30
0.0
 11
62.2453
 21
133.24943
 31
0.0
  0
LINE
  5
5AF
330
1E
100
AcDbEntity
  8
0
100
AcDbLine
 10
62.8131
 20
133.54043
 30
0.0
 11
63.5743
 21
133.52743
 31
0.0
  0
LINE
  5
5B1
330
1E
100
AcDbEntity
  8
0
100
AcDbLine
 10
62.72899999999999
 20
132.48743
 30
0.0
 11
63.4902
 21
132.47343
 31
0.0
  0
LINE
  5
5B2
330
1E
100
AcDbEntity
  8
0
100
AcDbLine
 10
63.4902
 20
132.47343
 30
0.0
 11
64.05800000000001
 21
132.7644299999999
 31
0.0
  0
LINE
  5
5B3
330
1E
100
AcDbEntity
  8
0
100
AcDbLine
 10
63.7572
 20
117.15443
 30
0.0
 11
64.27849999999999
 21
116.83543
 31
0.0
  0
LINE
  5
5B4
330
1E
100
AcDbEntity
  8
0
100
AcDbLine
 10
63.68079999999999
 20
116.10043
 30
0.0
 11
64.236
 21
116.39943
 31
0.0
  0
LINE
  5
5B6
330
1E
100
AcDbEntity
  8
0
100
AcDbLine
 10
66.7858
 20
122.9214299999999
 30
0.0
 11
66.9415
 21
122.49343
 31
0.0
  0
LINE
  5
5B7
330
1E
100
AcDbEntity
  8
0
100
AcDbLine
 10
66.7858
 20
122.9214299999999
 30
0.0
 11
67.1871
 21
123.29243
 31
0.0
  0
LINE
  5
5BA
330
1E
100
AcDbEntity
  8
0
100
AcDbLine
 10
67.9326
 20
123.3824299999999
 30
0.0
 11
68.57980000000001
 21
123.15143
 31
0.0
  0
LINE
  5
5BC
330
1E
100
AcDbEntity
  8
0
100
AcDbLine
 10
67.1871
 20
123.29243
 30
0.0
 11
67.9326
 21
123.3824299999999
 31
0.0
  0
LINE
  5
5BE
330
1E
100
AcDbEntity
  8
0
100
AcDbLine
 10
66.9415
 20
122.49343
 30
0.0
 11
67.58880000000001
 21
122.2634299999999
 31
0.0
  0
LINE
  5
5BF
330
1E
100
AcDbEntity
  8
0
100
AcDbLine
 10
67.58880000000001
 20
122.2634299999999
 30
0.0
 11
68.3342
 21
122.35343
 31
0.0
  0
LINE
  5
5C0
330
1E
100
AcDbEntity
  8
0
100
AcDbLine
 10
68.3342
 20
122.35343
 30
0.0
 11
68.73560000000001
 21
122.7244299999999
 31
0.0
  0
LINE
  5
5C1
330
1E
100
AcDbEntity
  8
0
100
AcDbLine
 10
66.826
 20
128.98543
 30
0.0
 11
67.50579999999999
 21
129.18243
 31
0.0
  0
LINE
  5
5C2
330
1E
100
AcDbEntity
  8
0
100
AcDbLine
 10
66.6059
 20
128.56643
 30
0.0
 11
66.9492
 21
128.17743
 31
0.0
  0
LINE
  5
5C3
330
1E
100
AcDbEntity
  8
0
100
AcDbLine
 10
66.6059
 20
128.56643
 30
0.0
 11
66.826
 21
128.98543
 31
0.0
  0
LINE
  5
5C4
330
1E
100
AcDbEntity
  8
0
100
AcDbLine
 10
66.9492
 20
128.17743
 30
0.0
 11
67.6783
 21
128.05043
 31
0.0
  0
LINE
  5
5C5
330
1E
100
AcDbEntity
  8
0
100
AcDbLine
 10
67.6783
 20
128.05043
 30
0.0
 11
68.35809999999999
 21
128.24743
 31
0.0
  0
LINE
  5
5C7
330
1E
100
AcDbEntity
  8
0
100
AcDbLine
 10
68.5438
 20
118.43443
 30
0.0
 11
68.634
 21
118.00043
 31
0.0
  0
LINE
  5
5C8
330
1E
100
AcDbEntity
  8
0
100
AcDbLine
 10
68.5438
 20
118.43443
 30
0.0
 11
69.0
 21
118.78443
 31
0.0
  0
LINE
  5
5CA
330
1E
100
AcDbEntity
  8
0
100
AcDbLine
 10
68.634
 20
118.00043
 30
0.0
 11
69.24379999999999
 21
117.73943
 31
0.0
  0
LINE
  5
5CB
330
1E
100
AcDbEntity
  8
0
100
AcDbLine
 10
69.24379999999999
 20
117.73943
 30
0.0
 11
70.0
 21
117.79043
 31
0.0
  0
LINE
  5
5CD
330
1E
100
AcDbEntity
  8
0
100
AcDbLine
 10
70.0
 20
117.79043
 30
0.0
 11
70.45619999999999
 21
118.14043
 31
0.0
  0
LINE
  5
5D1
330
1E
100
AcDbEntity
  8
0
100
AcDbLine
 10
69.75620000000001
 20
118.83543
 30
0.0
 11
70.36599999999999
 21
118.57443
 31
0.0
  0
LINE
  5
5D2
330
1E
100
AcDbEntity
  8
0
100
AcDbLine
 10
69.0
 20
118.78443
 30
0.0
 11
69.75620000000001
 21
118.83543
 31
0.0
  0
LINE
  5
5D4
330
1E
100
AcDbEntity
  8
0
100
AcDbLine
 10
70.36599999999999
 20
118.57443
 30
0.0
 11
70.45619999999999
 21
118.14043
 31
0.0
  0
LINE
  5
5DA
330
1E
100
AcDbEntity
  8
0
100
AcDbLine
 10
71.8954
 20
125.38043
 30
0.0
 11
72.6025
 21
125.2184299999999
 31
0.0
  0
LINE
  5
5DC
330
1E
100
AcDbEntity
  8
0
100
AcDbLine
 10
71.18829999999999
 20
125.2184299999999
 30
0.0
 11
71.8954
 21
125.38043
 31
0.0
  0
LINE
  5
5DE
330
1E
100
AcDbEntity
  8
0
100
AcDbLine
 10
70.9055
 20
124.81243
 30
0.0
 11
71.18829999999999
 21
124.40743
 31
0.0
  0
LINE
  5
5DF
330
1E
100
AcDbEntity
  8
0
100
AcDbLine
 10
70.9055
 20
124.81243
 30
0.0
 11
71.18829999999999
 21
125.2184299999999
 31
0.0
  0
LINE
  5
5E1
330
1E
100
AcDbEntity
  8
0
100
AcDbLine
 10
71.18829999999999
 20
124.40743
 30
0.0
 11
71.8954
 21
124.24543
 31
0.0
  0
LINE
  5
5E2
330
1E
100
AcDbEntity
  8
0
100
AcDbLine
 10
71.8954
 20
124.24543
 30
0.0
 11
72.6025
 21
124.40743
 31
0.0
  0
LINE
  5
5E5
330
1E
100
AcDbEntity
  8
0
100
AcDbLine
 10
68.57980000000001
 20
123.15143
 30
0.0
 11
68.73560000000001
 21
122.7244299999999
 31
0.0
  0
LINE
  5
5E7
330
1E
100
AcDbEntity
  8
0
100
AcDbLine
 10
68.35809999999999
 20
128.24743
 30
0.0
 11
68.5782
 21
128.66543
 31
0.0
  0
LINE
  5
5E8
330
1E
100
AcDbEntity
  8
0
100
AcDbLine
 10
71.2378
 20
132.03943
 30
0.0
 11
71.99819999999999
 21
132.06343
 31
0.0
  0
LINE
  5
5E9
330
1E
100
AcDbEntity
  8
0
100
AcDbLine
 10
70.68259999999999
 20
132.33843
 30
0.0
 11
71.2378
 21
132.03943
 31
0.0
  0
LINE
  5
5EA
330
1E
100
AcDbEntity
  8
0
100
AcDbLine
 10
71.99819999999999
 20
132.06343
 30
0.0
 11
72.51949999999999
 21
132.38243
 31
0.0
  0
LINE
  5
5EB
330
1E
100
AcDbEntity
  8
0
100
AcDbLine
 10
67.50579999999999
 20
129.18243
 30
0.0
 11
68.2348
 21
129.0554299999999
 31
0.0
  0
LINE
  5
5EC
330
1E
100
AcDbEntity
  8
0
100
AcDbLine
 10
68.2348
 20
129.0554299999999
 30
0.0
 11
68.5782
 21
128.66543
 31
0.0
  0
LINE
  5
5EE
330
1E
100
AcDbEntity
  8
0
100
AcDbLine
 10
64.236
 20
116.39943
 30
0.0
 11
64.27849999999999
 21
116.83543
 31
0.0
  0
LINE
  5
5EF
330
1E
100
AcDbEntity
  8
0
100
AcDbLine
 10
63.9926
 20
121.51743
 30
0.0
 11
64.0165
 21
121.08043
 31
0.0
  0
LINE
  5
5F1
330
1E
100
AcDbEntity
  8
0
100
AcDbLine
 10
71.16150000000001
 20
133.09243
 30
0.0
 11
71.9219
 21
133.11743
 31
0.0
  0
LINE
  5
5F3
330
1E
100
AcDbEntity
  8
0
100
AcDbLine
 10
70.6401
 20
132.7744299999999
 30
0.0
 11
70.68259999999999
 21
132.33843
 31
0.0
  0
LINE
  5
5F4
330
1E
100
AcDbEntity
  8
0
100
AcDbLine
 10
70.6401
 20
132.7744299999999
 30
0.0
 11
71.16150000000001
 21
133.09243
 31
0.0
  0
LINE
  5
5F7
330
1E
100
AcDbEntity
  8
0
100
AcDbLine
 10
71.9219
 20
133.11743
 30
0.0
 11
72.477
 21
132.8184299999999
 31
0.0
  0
LINE
  5
5FA
330
1E
100
AcDbEntity
  8
0
100
AcDbLine
 10
64.05800000000001
 20
132.7644299999999
 30
0.0
 11
64.08190000000001
 21
133.20143
 31
0.0
  0
LINE
  5
5FB
330
1E
100
AcDbEntity
  8
0
100
AcDbLine
 10
63.5743
 20
133.52743
 30
0.0
 11
64.08190000000001
 21
133.20143
 31
0.0
  0
LINE
  5
5FD
330
1E
100
AcDbEntity
  8
0
100
AcDbLine
 10
64.2531
 20
136.34843
 30
0.0
 11
64.9766
 21
136.21143
 31
0.0
  0
LINE
  5
5FE
330
1E
100
AcDbEntity
  8
0
100
AcDbLine
 10
63.89330000000001
 20
136.73343
 30
0.0
 11
64.1311
 21
137.1484299999999
 31
0.0
  0
LINE
  5
5FF
330
1E
100
AcDbEntity
  8
0
100
AcDbLine
 10
63.89330000000001
 20
136.73343
 30
0.0
 11
64.2531
 21
136.34843
 31
0.0
  0
LINE
  5
602
330
1E
100
AcDbEntity
  8
0
100
AcDbLine
 10
65.6478
 20
136.41843
 30
0.0
 11
65.8857
 21
136.8334299999999
 31
0.0
  0
LINE
  5
603
330
1E
100
AcDbEntity
  8
0
100
AcDbLine
 10
64.9766
 20
136.21143
 30
0.0
 11
65.6478
 21
136.41843
 31
0.0
  0
LINE
  5
604
330
1E
100
AcDbEntity
  8
0
100
AcDbLine
 10
72.26479999999999
 20
136.68143
 30
0.0
 11
72.96479999999999
 21
136.50943
 31
0.0
  0
LINE
  5
605
330
1E
100
AcDbEntity
  8
0
100
AcDbLine
 10
64.1311
 20
137.1484299999999
 30
0.0
 11
64.8023
 21
137.35443
 31
0.0
  0
LINE
  5
60B
330
1E
100
AcDbEntity
  8
0
100
AcDbLine
 10
64.8023
 20
137.35443
 30
0.0
 11
65.5258
 21
137.21843
 31
0.0
  0
LINE
  5
60E
330
1E
100
AcDbEntity
  8
0
100
AcDbLine
 10
65.5258
 20
137.21843
 30
0.0
 11
65.8857
 21
136.8334299999999
 31
0.0
  0
LINE
  5
610
330
1E
100
AcDbEntity
  8
0
100
AcDbLine
 10
71.9648
 20
137.08343
 30
0.0
 11
72.26479999999999
 21
137.48443
 31
0.0
  0
LINE
  5
611
330
1E
100
AcDbEntity
  8
0
100
AcDbLine
 10
71.9648
 20
137.08343
 30
0.0
 11
72.26479999999999
 21
136.68143
 31
0.0
  0
LINE
  5
613
330
1E
100
AcDbEntity
  8
0
100
AcDbLine
 10
72.6025
 20
124.40743
 30
0.0
 11
72.88540000000001
 21
124.81243
 31
0.0
  0
LINE
  5
616
330
1E
100
AcDbEntity
  8
0
100
AcDbLine
 10
72.6025
 20
125.2184299999999
 30
0.0
 11
72.88540000000001
 21
124.81243
 31
0.0
  0
LINE
  5
618
330
1E
100
AcDbEntity
  8
0
100
AcDbLine
 10
72.477
 20
132.8184299999999
 30
0.0
 11
72.51949999999999
 21
132.38243
 31
0.0
  0
LINE
  5
61A
330
1E
100
AcDbEntity
  8
0
100
AcDbLine
 10
72.26479999999999
 20
137.48443
 30
0.0
 11
72.96479999999999
 21
137.65643
 31
0.0
  0
LINE
  5
61F
330
1E
100
AcDbEntity
  8
0
100
AcDbLine
 10
72.96479999999999
 20
137.65643
 30
0.0
 11
73.6648
 21
137.48443
 31
0.0
  0
LINE
  5
621
330
1E
100
AcDbEntity
  8
0
100
AcDbLine
 10
73.9
 20
116.77043
 30
0.0
 11
83.9
 21
121.18643
 31
0.0
  0
LINE
  5
622
330
1E
100
AcDbEntity
  8
0
100
AcDbLine
 10
74.9824
 20
119.95843
 30
0.0
 11
75.7115
 21
120.0844299999999
 31
0.0
  0
LINE
  5
623
330
1E
100
AcDbEntity
  8
0
100
AcDbLine
 10
74.08249999999999
 20
120.57343
 30
0.0
 11
74.3027
 21
120.15543
 31
0.0
  0
LINE
  5
624
330
1E
100
AcDbEntity
  8
0
100
AcDbLine
 10
74.08249999999999
 20
120.57343
 30
0.0
 11
74.4259
 21
120.96343
 31
0.0
  0
LINE
  5
626
330
1E
100
AcDbEntity
  8
0
100
AcDbLine
 10
74.5457
 20
127.5134299999999
 30
0.0
 11
75.193
 21
127.74343
 31
0.0
  0
LINE
  5
627
330
1E
100
AcDbEntity
  8
0
100
AcDbLine
 10
74.39
 20
127.08543
 30
0.0
 11
74.79130000000001
 21
126.71443
 31
0.0
  0
LINE
  5
628
330
1E
100
AcDbEntity
  8
0
100
AcDbLine
 10
74.39
 20
127.08543
 30
0.0
 11
74.5457
 21
127.5134299999999
 31
0.0
  0
LINE
  5
62A
330
1E
100
AcDbEntity
  8
0
100
AcDbLine
 10
74.79130000000001
 20
126.71443
 30
0.0
 11
75.53679999999999
 21
126.62543
 31
0.0
  0
LINE
  5
62C
330
1E
100
AcDbEntity
  8
0
100
AcDbLine
 10
75.193
 20
127.74343
 30
0.0
 11
75.9384
 21
127.65443
 31
0.0
  0
LINE
  5
62D
330
1E
100
AcDbEntity
  8
0
100
AcDbLine
 10
75.53679999999999
 20
126.62543
 30
0.0
 11
76.184
 21
126.8554299999999
 31
0.0
  0
LINE
  5
62F
330
1E
100
AcDbEntity
  8
0
100
AcDbLine
 10
75.155
 20
121.08943
 30
0.0
 11
75.8348
 21
120.89243
 31
0.0
  0
LINE
  5
631
330
1E
100
AcDbEntity
  8
0
100
AcDbLine
 10
74.4259
 20
120.96343
 30
0.0
 11
75.155
 21
121.08943
 31
0.0
  0
LINE
  5
632
330
1E
100
AcDbEntity
  8
0
100
AcDbLine
 10
74.3027
 20
120.15543
 30
0.0
 11
74.9824
 21
119.95843
 31
0.0
  0
LINE
  5
633
330
1E
100
AcDbEntity
  8
0
100
AcDbLine
 10
75.7115
 20
120.0844299999999
 30
0.0
 11
76.0549
 21
120.4744299999999
 31
0.0
  0
LINE
  5
634
330
1E
100
AcDbEntity
  8
0
100
AcDbLine
 10
75.9384
 20
127.65443
 30
0.0
 11
76.3398
 21
127.28343
 31
0.0
  0
LINE
  5
635
330
1E
100
AcDbEntity
  8
0
100
AcDbLine
 10
79.78950000000001
 20
123.8464299999999
 30
0.0
 11
80.51849999999999
 21
123.72043
 31
0.0
  0
LINE
  5
636
330
1E
100
AcDbEntity
  8
0
100
AcDbLine
 10
79.1097
 20
123.64943
 30
0.0
 11
79.78950000000001
 21
123.8464299999999
 31
0.0
  0
LINE
  5
637
330
1E
100
AcDbEntity
  8
0
100
AcDbLine
 10
78.8895
 20
123.23143
 30
0.0
 11
79.2329
 21
122.84143
 31
0.0
  0
LINE
  5
638
330
1E
100
AcDbEntity
  8
0
100
AcDbLine
 10
78.8895
 20
123.23143
 30
0.0
 11
79.1097
 21
123.64943
 31
0.0
  0
LINE
  5
639
330
1E
100
AcDbEntity
  8
0
100
AcDbLine
 10
79.2329
 20
122.84143
 30
0.0
 11
79.962
 21
122.71543
 31
0.0
  0
LINE
  5
63A
330
1E
100
AcDbEntity
  8
0
100
AcDbLine
 10
79.962
 20
122.71543
 30
0.0
 11
80.6418
 21
122.91243
 31
0.0
  0
LINE
  5
63C
330
1E
100
AcDbEntity
  8
0
100
AcDbLine
 10
77.1573
 20
130.10843
 30
0.0
 11
77.72499999999999
 21
130.39943
 31
0.0
  0
LINE
  5
63E
330
1E
100
AcDbEntity
  8
0
100
AcDbLine
 10
77.13339999999999
 20
129.67143
 30
0.0
 11
77.641
 21
129.34543
 31
0.0
  0
LINE
  5
63F
330
1E
100
AcDbEntity
  8
0
100
AcDbLine
 10
77.13339999999999
 20
129.67143
 30
0.0
 11
77.1573
 21
130.10843
 31
0.0
  0
LINE
  5
642
330
1E
100
AcDbEntity
  8
0
100
AcDbLine
 10
77.72499999999999
 20
130.39943
 30
0.0
 11
78.4862
 21
130.38543
 31
0.0
  0
LINE
  5
644
330
1E
100
AcDbEntity
  8
0
100
AcDbLine
 10
77.641
 20
129.34543
 30
0.0
 11
78.40219999999999
 21
129.33243
 31
0.0
  0
LINE
  5
645
330
1E
100
AcDbEntity
  8
0
100
AcDbLine
 10
78.40219999999999
 20
129.33243
 30
0.0
 11
78.96989999999999
 21
129.62343
 31
0.0
  0
LINE
  5
647
330
1E
100
AcDbEntity
  8
0
100
AcDbLine
 10
78.94379999999999
 20
132.9234299999999
 30
0.0
 11
79.0524
 21
132.49043
 31
0.0
  0
LINE
  5
648
330
1E
100
AcDbEntity
  8
0
100
AcDbLine
 10
78.94379999999999
 20
132.9234299999999
 30
0.0
 11
79.41469999999999
 21
133.26643
 31
0.0
  0
LINE
  5
64C
330
1E
100
AcDbEntity
  8
0
100
AcDbLine
 10
79.41469999999999
 20
133.26643
 30
0.0
 11
80.16849999999999
 21
133.32843
 31
0.0
  0
LINE
  5
64E
330
1E
100
AcDbEntity
  8
0
100
AcDbLine
 10
79.0524
 20
132.49043
 30
0.0
 11
79.6509
 21
132.2204299999999
 31
0.0
  0
LINE
  5
64F
330
1E
100
AcDbEntity
  8
0
100
AcDbLine
 10
79.6509
 20
132.2204299999999
 30
0.0
 11
80.4047
 21
132.28343
 31
0.0
  0
LINE
  5
651
330
1E
100
AcDbEntity
  8
0
100
AcDbLine
 10
78.96989999999999
 20
129.62343
 30
0.0
 11
78.9939
 21
130.0594299999999
 31
0.0
  0
LINE
  5
652
330
1E
100
AcDbEntity
  8
0
100
AcDbLine
 10
78.4862
 20
130.38543
 30
0.0
 11
78.9939
 21
130.0594299999999
 31
0.0
  0
LINE
  5
654
330
1E
100
AcDbEntity
  8
0
100
AcDbLine
 10
76.184
 20
126.8554299999999
 30
0.0
 11
76.3398
 21
127.28343
 31
0.0
  0
LINE
  5
657
330
1E
100
AcDbEntity
  8
0
100
AcDbLine
 10
75.8348
 20
120.89243
 30
0.0
 11
76.0549
 21
120.4744299999999
 31
0.0
  0
LINE
  5
659
330
1E
100
AcDbEntity
  8
0
100
AcDbLine
 10
79.8508
 20
135.87343
 30
0.0
 11
80.0886
 21
135.4584299999999
 31
0.0
  0
LINE
  5
65A
330
1E
100
AcDbEntity
  8
0
100
AcDbLine
 10
79.8508
 20
135.87343
 30
0.0
 11
80.2106
 21
136.2584299999999
 31
0.0
  0
LINE
  5
65B
330
1E
100
AcDbEntity
  8
0
100
AcDbLine
 10
80.0886
 20
135.4584299999999
 30
0.0
 11
80.75979999999999
 21
135.25243
 31
0.0
  0
LINE
  5
65F
330
1E
100
AcDbEntity
  8
0
100
AcDbLine
 10
73.6648
 20
137.48443
 30
0.0
 11
73.9648
 21
137.08343
 31
0.0
  0
LINE
  5
661
330
1E
100
AcDbEntity
  8
0
100
AcDbLine
 10
73.6648
 20
136.68143
 30
0.0
 11
73.9648
 21
137.08343
 31
0.0
  0
LINE
  5
662
330
1E
100
AcDbEntity
  8
0
100
AcDbLine
 10
72.96479999999999
 20
136.50943
 30
0.0
 11
73.6648
 21
136.68143
 31
0.0
  0
LINE
  5
663
330
1E
100
AcDbEntity
  8
0
100
AcDbLine
 10
79.8508
 20
138.86943
 30
0.0
 11
80.0886
 21
139.28443
 31
0.0
  0
LINE
  5
664
330
1E
100
AcDbEntity
  8
0
100
AcDbLine
 10
79.8508
 20
138.86943
 30
0.0
 11
80.2106
 21
138.48443
 31
0.0
  0
LINE
  5
669
330
1E
100
AcDbEntity
  8
0
100
AcDbLine
 10
80.6418
 20
122.91243
 30
0.0
 11
80.8619
 21
123.33043
 31
0.0
  0
LINE
  5
66A
330
1E
100
AcDbEntity
  8
0
100
AcDbLine
 10
80.51849999999999
 20
123.72043
 30
0.0
 11
80.8619
 21
123.33043
 31
0.0
  0
LINE
  5
66D
330
1E
100
AcDbEntity
  8
0
100
AcDbLine
 10
80.4047
 20
132.28343
 30
0.0
 11
80.87560000000001
 21
132.62643
 31
0.0
  0
LINE
  5
670
330
1E
100
AcDbEntity
  8
0
100
AcDbLine
 10
80.767
 20
133.05843
 30
0.0
 11
80.87560000000001
 21
132.62643
 31
0.0
  0
LINE
  5
672
330
1E
100
AcDbEntity
  8
0
100
AcDbLine
 10
80.16849999999999
 20
133.32843
 30
0.0
 11
80.767
 21
133.05843
 31
0.0
  0
LINE
  5
674
330
1E
100
AcDbEntity
  8
0
100
AcDbLine
 10
80.2106
 20
136.2584299999999
 30
0.0
 11
80.9341
 21
136.39543
 31
0.0
  0
LINE
  5
675
330
1E
100
AcDbEntity
  8
0
100
AcDbLine
 10
80.75979999999999
 20
135.25243
 30
0.0
 11
81.48329999999999
 21
135.38843
 31
0.0
  0
LINE
  5
676
330
1E
100
AcDbEntity
  8
0
100
AcDbLine
 10
80.9341
 20
136.39543
 30
0.0
 11
81.60529999999999
 21
136.18843
 31
0.0
  0
LINE
  5
677
330
1E
100
AcDbEntity
  8
0
100
AcDbLine
 10
80.2106
 20
138.48443
 30
0.0
 11
80.9341
 21
138.34843
 31
0.0
  0
LINE
  5
678
330
1E
100
AcDbEntity
  8
0
100
AcDbLine
 10
80.0886
 20
139.28443
 30
0.0
 11
80.75979999999999
 21
139.49143
 31
0.0
  0
LINE
  5
67A
330
1E
100
AcDbEntity
  8
0
100
AcDbLine
 10
62.5658
 20
140.50543
 30
0.0
 11
63.32699999999999
 21
140.5194299999999
 31
0.0
  0
LINE
  5
67C
330
1E
100
AcDbEntity
  8
0
100
AcDbLine
 10
63.32699999999999
 20
140.5194299999999
 30
0.0
 11
63.8346
 21
140.84543
 31
0.0
  0
LINE
  5
67F
330
1E
100
AcDbEntity
  8
0
100
AcDbLine
 10
80.75979999999999
 20
139.49143
 30
0.0
 11
81.48329999999999
 21
139.35443
 31
0.0
  0
LINE
  5
681
330
1E
100
AcDbEntity
  8
0
100
AcDbLine
 10
83.9
 20
121.18643
 30
0.0
 11
91.6
 21
126.92243
 31
0.0
  0
LINE
  5
684
330
1E
100
AcDbEntity
  8
0
100
AcDbLine
 10
82.90899999999998
 20
126.76243
 30
0.0
 11
83.51879999999999
 21
127.02343
 31
0.0
  0
LINE
  5
686
330
1E
100
AcDbEntity
  8
0
100
AcDbLine
 10
82.81879999999999
 20
126.32843
 30
0.0
 11
83.275
 21
125.9784299999999
 31
0.0
  0
LINE
  5
687
330
1E
100
AcDbEntity
  8
0
100
AcDbLine
 10
82.81879999999999
 20
126.32843
 30
0.0
 11
82.90899999999998
 21
126.76243
 31
0.0
  0
LINE
  5
68B
330
1E
100
AcDbEntity
  8
0
100
AcDbLine
 10
83.51879999999999
 20
127.02343
 30
0.0
 11
84.275
 21
126.97243
 31
0.0
  0
LINE
  5
68D
330
1E
100
AcDbEntity
  8
0
100
AcDbLine
 10
83.275
 20
125.9784299999999
 30
0.0
 11
84.03119999999999
 21
125.92643
 31
0.0
  0
LINE
  5
68E
330
1E
100
AcDbEntity
  8
0
100
AcDbLine
 10
84.03119999999999
 20
125.92643
 30
0.0
 11
84.641
 21
126.18843
 31
0.0
  0
LINE
  5
691
330
1E
100
AcDbEntity
  8
0
100
AcDbLine
 10
84.641
 20
126.18843
 30
0.0
 11
84.73119999999999
 21
126.62243
 31
0.0
  0
LINE
  5
692
330
1E
100
AcDbEntity
  8
0
100
AcDbLine
 10
84.275
 20
126.97243
 30
0.0
 11
84.73119999999999
 21
126.62243
 31
0.0
  0
LINE
  5
694
330
1E
100
AcDbEntity
  8
0
100
AcDbLine
 10
85.70829999999999
 20
130.2054299999999
 30
0.0
 11
85.75079999999999
 21
129.76943
 31
0.0
  0
LINE
  5
695
330
1E
100
AcDbEntity
  8
0
100
AcDbLine
 10
85.70829999999999
 20
130.2054299999999
 30
0.0
 11
86.2296
 21
130.5234299999999
 31
0.0
  0
LINE
  5
698
330
1E
100
AcDbEntity
  8
0
100
AcDbLine
 10
86.2296
 20
130.5234299999999
 30
0.0
 11
86.98999999999999
 21
130.54843
 31
0.0
  0
LINE
  5
69A
330
1E
100
AcDbEntity
  8
0
100
AcDbLine
 10
85.75079999999999
 20
129.76943
 30
0.0
 11
86.30599999999999
 21
129.47043
 31
0.0
  0
LINE
  5
69B
330
1E
100
AcDbEntity
  8
0
100
AcDbLine
 10
86.30599999999999
 20
129.47043
 30
0.0
 11
87.0664
 21
129.49443
 31
0.0
  0
LINE
  5
69D
330
1E
100
AcDbEntity
  8
0
100
AcDbLine
 10
87.0664
 20
129.49443
 30
0.0
 11
87.5877
 21
129.81343
 31
0.0
  0
LINE
  5
6A0
330
1E
100
AcDbEntity
  8
0
100
AcDbLine
 10
87.54519999999999
 20
130.24943
 30
0.0
 11
87.5877
 21
129.81343
 31
0.0
  0
LINE
  5
6A2
330
1E
100
AcDbEntity
  8
0
100
AcDbLine
 10
86.98999999999999
 20
130.54843
 30
0.0
 11
87.54519999999999
 21
130.24943
 31
0.0
  0
LINE
  5
6A4
330
1E
100
AcDbEntity
  8
0
100
AcDbLine
 10
81.48329999999999
 20
135.38843
 30
0.0
 11
81.84310000000001
 21
135.7734299999999
 31
0.0
  0
LINE
  5
6A5
330
1E
100
AcDbEntity
  8
0
100
AcDbLine
 10
81.84310000000001
 20
136.091505804598
 30
0.0
 11
81.84310000000001
 21
135.7734299999999
 31
0.0
  0
LINE
  5
6A6
330
1E
100
AcDbEntity
  8
0
100
AcDbLine
 10
81.84310000000001
 20
135.7734299999999
 30
0.0
 11
81.84310000000001
 21
136.091505804598
 31
0.0
  0
LINE
  5
6A7
330
1E
100
AcDbEntity
  8
0
100
AcDbLine
 10
81.60529999999999
 20
136.18843
 30
0.0
 11
81.84310000000001
 21
135.7734299999999
 31
0.0
  0
LINE
  5
6A8
330
1E
100
AcDbEntity
  8
0
100
AcDbLine
 10
87.42270000000001
 20
133.8754299999999
 30
0.0
 11
87.5966
 21
133.44943
 31
0.0
  0
LINE
  5
6A9
330
1E
100
AcDbEntity
  8
0
100
AcDbLine
 10
87.42270000000001
 20
133.8754299999999
 30
0.0
 11
87.8397
 21
134.24043
 31
0.0
  0
LINE
  5
6AA
330
1E
100
AcDbEntity
  8
0
100
AcDbLine
 10
87.8397
 20
134.24043
 30
0.0
 11
88.58119999999999
 21
134.3404299999999
 31
0.0
  0
LINE
  5
6AB
330
1E
100
AcDbEntity
  8
0
100
AcDbLine
 10
87.5966
 20
133.44943
 30
0.0
 11
88.23390000000001
 21
133.21043
 31
0.0
  0
LINE
  5
6AC
330
1E
100
AcDbEntity
  8
0
100
AcDbLine
 10
88.23390000000001
 20
133.21043
 30
0.0
 11
88.97530000000001
 21
133.31043
 31
0.0
  0
LINE
  5
6AD
330
1E
100
AcDbEntity
  8
0
100
AcDbLine
 10
88.3
 20
137.2584299999999
 30
0.0
 11
89.0
 21
137.08643
 31
0.0
  0
LINE
  5
6AE
330
1E
100
AcDbEntity
  8
0
100
AcDbLine
 10
88.0
 20
137.6604299999999
 30
0.0
 11
88.3
 21
138.0614299999999
 31
0.0
  0
LINE
  5
6AF
330
1E
100
AcDbEntity
  8
0
100
AcDbLine
 10
88.0
 20
137.6604299999999
 30
0.0
 11
88.3
 21
137.2584299999999
 31
0.0
  0
LINE
  5
6B1
330
1E
100
AcDbEntity
  8
0
100
AcDbLine
 10
88.97530000000001
 20
133.31043
 30
0.0
 11
89.3923
 21
133.67643
 31
0.0
  0
LINE
  5
6B3
330
1E
100
AcDbEntity
  8
0
100
AcDbLine
 10
88.58119999999999
 20
134.3404299999999
 30
0.0
 11
89.21840000000001
 21
134.1014299999999
 31
0.0
  0
LINE
  5
6B5
330
1E
100
AcDbEntity
  8
0
100
AcDbLine
 10
88.3
 20
138.0614299999999
 30
0.0
 11
89.0
 21
138.2334299999999
 31
0.0
  0
LINE
  5
6B8
330
1E
100
AcDbEntity
  8
0
100
AcDbLine
 10
89.0
 20
138.2334299999999
 30
0.0
 11
89.7
 21
138.0614299999999
 31
0.0
  0
LINE
  5
6BB
330
1E
100
AcDbEntity
  8
0
100
AcDbLine
 10
91.6
 20
126.92243
 30
0.0
 11
92.9
 21
128.56943
 31
0.0
  0
LINE
  5
6BC
330
1E
100
AcDbEntity
  8
0
100
AcDbLine
 10
92.9
 20
128.56943
 30
0.0
 11
97.70000000000001
 21
135.3944299999999
 31
0.0
  0
LINE
  5
6BD
330
1E
100
AcDbEntity
  8
0
100
AcDbLine
 10
97.70000000000001
 20
135.3944299999999
 30
0.0
 11
98.2
 21
137.38543
 31
0.0
  0
LINE
  5
6C0
330
1E
100
AcDbEntity
  8
0
100
AcDbLine
 10
89.21840000000001
 20
134.1014299999999
 30
0.0
 11
89.3923
 21
133.67643
 31
0.0
  0
LINE
  5
6C2
330
1E
100
AcDbEntity
  8
0
100
AcDbLine
 10
98.2
 20
137.38543
 30
0.0
 11
99.2482142857141
 21
141.6603972619039
 31
0.0
  0
LINE
  5
6C5
330
1E
100
AcDbEntity
  8
0
100
AcDbLine
 10
89.7
 20
138.0614299999999
 30
0.0
 11
90.0
 21
137.6604299999999
 31
0.0
  0
LINE
  5
6C7
330
1E
100
AcDbEntity
  8
0
100
AcDbLine
 10
89.7
 20
137.2584299999999
 30
0.0
 11
90.0
 21
137.6604299999999
 31
0.0
  0
LINE
  5
6C8
330
1E
100
AcDbEntity
  8
0
100
AcDbLine
 10
89.0
 20
137.08643
 30
0.0
 11
89.7
 21
137.2584299999999
 31
0.0
  0
LINE
  5
6CF
330
1E
100
AcDbEntity
  8
0
100
AcDbLine
 10
81.48329999999999
 20
139.35443
 30
0.0
 11
81.84310000000001
 21
138.96943
 31
0.0
  0
LINE
  5
6D1
330
1E
100
AcDbEntity
  8
0
100
AcDbLine
 10
81.60529999999999
 20
138.55443
 30
0.0
 11
81.84310000000001
 21
138.96943
 31
0.0
  0
LINE
  5
6D2
330
1E
100
AcDbEntity
  8
0
100
AcDbLine
 10
80.9341
 20
138.34843
 30
0.0
 11
81.60529999999999
 21
138.55443
 31
0.0
  0
LINE
  5
6D3
330
1E
100
AcDbEntity
  8
0
100
AcDbLine
 10
63.8107
 20
141.2814299999999
 30
0.0
 11
63.8346
 21
140.84543
 31
0.0
  0
LINE
  5
6D5
330
1E
100
AcDbEntity
  8
0
100
AcDbLine
 10
71.16150000000001
 20
141.07343
 30
0.0
 11
71.9219
 21
141.04943
 31
0.0
  0
LINE
  5
6D6
330
1E
100
AcDbEntity
  8
0
100
AcDbLine
 10
70.6401
 20
141.39243
 30
0.0
 11
70.68259999999999
 21
141.82843
 31
0.0
  0
LINE
  5
6D7
330
1E
100
AcDbEntity
  8
0
100
AcDbLine
 10
70.6401
 20
141.39243
 30
0.0
 11
71.16150000000001
 21
141.07343
 31
0.0
  0
LINE
  5
6D8
330
1E
100
AcDbEntity
  8
0
100
AcDbLine
 10
72.477
 20
141.34843
 30
0.0
 11
72.51949999999999
 21
141.78443
 31
0.0
  0
LINE
  5
6D9
330
1E
100
AcDbEntity
  8
0
100
AcDbLine
 10
71.9219
 20
141.04943
 30
0.0
 11
72.477
 21
141.34843
 31
0.0
  0
LINE
  5
6DA
330
1E
100
AcDbEntity
  8
0
100
AcDbLine
 10
80.16849999999999
 20
141.41443
 30
0.0
 11
80.767
 21
141.6844299999999
 31
0.0
  0
LINE
  5
6DB
330
1E
100
AcDbEntity
  8
0
100
AcDbLine
 10
62.4818
 20
141.5594299999999
 30
0.0
 11
63.243
 21
141.57343
 31
0.0
  0
LINE
  5
6DD
330
1E
100
AcDbEntity
  8
0
100
AcDbLine
 10
63.243
 20
141.57343
 30
0.0
 11
63.8107
 21
141.2814299999999
 31
0.0
  0
LINE
  5
6DF
330
1E
100
AcDbEntity
  8
0
100
AcDbLine
 10
79.41469999999999
 20
141.4764299999999
 30
0.0
 11
80.16849999999999
 21
141.41443
 31
0.0
  0
LINE
  5
6E1
330
1E
100
AcDbEntity
  8
0
100
AcDbLine
 10
70.68259999999999
 20
141.82843
 30
0.0
 11
71.2378
 21
142.12743
 31
0.0
  0
LINE
  5
6E2
330
1E
100
AcDbEntity
  8
0
100
AcDbLine
 10
78.94379999999999
 20
141.82043
 30
0.0
 11
79.0524
 21
142.25243
 31
0.0
  0
LINE
  5
6E3
330
1E
100
AcDbEntity
  8
0
100
AcDbLine
 10
78.94379999999999
 20
141.82043
 30
0.0
 11
79.41469999999999
 21
141.4764299999999
 31
0.0
  0
LINE
  5
6E5
330
1E
100
AcDbEntity
  8
0
100
AcDbLine
 10
80.767
 20
141.6844299999999
 30
0.0
 11
80.87560000000001
 21
142.11643
 31
0.0
  0
LINE
  5
6E6
330
1E
100
AcDbEntity
  8
0
100
AcDbLine
 10
87.42270000000001
 20
141.44443
 30
0.0
 11
87.5966
 21
141.8704299999999
 31
0.0
  0
LINE
  5
6E7
330
1E
100
AcDbEntity
  8
0
100
AcDbLine
 10
87.42270000000001
 20
141.44443
 30
0.0
 11
87.8397
 21
141.07943
 31
0.0
  0
LINE
  5
6E8
330
1E
100
AcDbEntity
  8
0
100
AcDbLine
 10
87.8397
 20
141.07943
 30
0.0
 11
88.58119999999999
 21
140.97943
 31
0.0
  0
LINE
  5
6E9
330
1E
100
AcDbEntity
  8
0
100
AcDbLine
 10
87.5966
 20
141.8704299999999
 30
0.0
 11
88.23390000000001
 21
142.10943
 31
0.0
  0
LINE
  5
6EC
330
1E
100
AcDbEntity
  8
0
100
AcDbLine
 10
71.2378
 20
142.12743
 30
0.0
 11
71.99819999999999
 21
142.10343
 31
0.0
  0
LINE
  5
6ED
330
1E
100
AcDbEntity
  8
0
100
AcDbLine
 10
71.99819999999999
 20
142.10343
 30
0.0
 11
72.51949999999999
 21
141.78443
 31
0.0
  0
LINE
  5
6F0
330
1E
100
AcDbEntity
  8
0
100
AcDbLine
 10
79.0524
 20
142.25243
 30
0.0
 11
79.6509
 21
142.52243
 31
0.0
  0
LINE
  5
6F5
330
1E
100
AcDbEntity
  8
0
100
AcDbLine
 10
79.6509
 20
142.52243
 30
0.0
 11
80.4047
 21
142.46043
 31
0.0
  0
LINE
  5
6F9
330
1E
100
AcDbEntity
  8
0
100
AcDbLine
 10
80.4047
 20
142.46043
 30
0.0
 11
80.87560000000001
 21
142.11643
 31
0.0
  0
LINE
  5
6FB
330
1E
100
AcDbEntity
  8
0
100
AcDbLine
 10
67.50579999999999
 20
144.98443
 30
0.0
 11
68.2348
 21
145.11043
 31
0.0
  0
LINE
  5
6FC
330
1E
100
AcDbEntity
  8
0
100
AcDbLine
 10
77.72499999999999
 20
144.34443
 30
0.0
 11
78.4862
 21
144.3574299999999
 31
0.0
  0
LINE
  5
6FD
330
1E
100
AcDbEntity
  8
0
100
AcDbLine
 10
77.1573
 20
144.63543
 30
0.0
 11
77.72499999999999
 21
144.34443
 31
0.0
  0
LINE
  5
6FE
330
1E
100
AcDbEntity
  8
0
100
AcDbLine
 10
68.2348
 20
145.11043
 30
0.0
 11
68.5782
 21
145.5004299999999
 31
0.0
  0
LINE
  5
6FF
330
1E
100
AcDbEntity
  8
0
100
AcDbLine
 10
77.13339999999999
 20
145.07143
 30
0.0
 11
77.641
 21
145.39743
 31
0.0
  0
LINE
  5
700
330
1E
100
AcDbEntity
  8
0
100
AcDbLine
 10
77.13339999999999
 20
145.07143
 30
0.0
 11
77.1573
 21
144.63543
 31
0.0
  0
LINE
  5
701
330
1E
100
AcDbEntity
  8
0
100
AcDbLine
 10
78.9939
 20
144.8142524918029
 30
0.0
 11
78.9939
 21
144.68343
 31
0.0
  0
LINE
  5
702
330
1E
100
AcDbEntity
  8
0
100
AcDbLine
 10
78.9939
 20
144.68343
 30
0.0
 11
78.9939
 21
144.8142524918029
 31
0.0
  0
LINE
  5
703
330
1E
100
AcDbEntity
  8
0
100
AcDbLine
 10
78.4862
 20
144.3574299999999
 30
0.0
 11
78.9939
 21
144.68343
 31
0.0
  0
LINE
  5
704
330
1E
100
AcDbEntity
  8
0
100
AcDbLine
 10
66.826
 20
145.18143
 30
0.0
 11
67.50579999999999
 21
144.98443
 31
0.0
  0
LINE
  5
705
330
1E
100
AcDbEntity
  8
0
100
AcDbLine
 10
77.641
 20
145.39743
 30
0.0
 11
78.40219999999999
 21
145.41143
 31
0.0
  0
LINE
  5
706
330
1E
100
AcDbEntity
  8
0
100
AcDbLine
 10
66.6059
 20
145.59943
 30
0.0
 11
66.9492
 21
145.98943
 31
0.0
  0
LINE
  5
707
330
1E
100
AcDbEntity
  8
0
100
AcDbLine
 10
66.6059
 20
145.59943
 30
0.0
 11
66.826
 21
145.18143
 31
0.0
  0
LINE
  5
708
330
1E
100
AcDbEntity
  8
0
100
AcDbLine
 10
78.40219999999999
 20
145.41143
 30
0.0
 11
78.96989999999999
 21
145.12043
 31
0.0
  0
LINE
  5
709
330
1E
100
AcDbEntity
  8
0
100
AcDbLine
 10
78.96989999999999
 20
145.12043
 30
0.0
 11
78.9939
 21
144.68343
 31
0.0
  0
LINE
  5
70A
330
1E
100
AcDbEntity
  8
0
100
AcDbLine
 10
85.70829999999999
 20
145.1144299999999
 30
0.0
 11
85.75079999999999
 21
145.55043
 31
0.0
  0
LINE
  5
70B
330
1E
100
AcDbEntity
  8
0
100
AcDbLine
 10
85.70829999999999
 20
145.1144299999999
 30
0.0
 11
86.2296
 21
144.79643
 31
0.0
  0
LINE
  5
70C
330
1E
100
AcDbEntity
  8
0
100
AcDbLine
 10
86.2296
 20
144.79643
 30
0.0
 11
86.98999999999999
 21
144.77143
 31
0.0
  0
LINE
  5
70D
330
1E
100
AcDbEntity
  8
0
100
AcDbLine
 10
85.75079999999999
 20
145.55043
 30
0.0
 11
86.30599999999999
 21
145.84943
 31
0.0
  0
LINE
  5
70E
330
1E
100
AcDbEntity
  8
0
100
AcDbLine
 10
66.9492
 20
145.98943
 30
0.0
 11
67.6783
 21
146.11543
 31
0.0
  0
LINE
  5
70F
330
1E
100
AcDbEntity
  8
0
100
AcDbLine
 10
67.6783
 20
146.11543
 30
0.0
 11
68.35809999999999
 21
145.9184299999999
 31
0.0
  0
LINE
  5
710
330
1E
100
AcDbEntity
  8
0
100
AcDbLine
 10
68.35809999999999
 20
145.9184299999999
 30
0.0
 11
68.5782
 21
145.5004299999999
 31
0.0
  0
LINE
  5
711
330
1E
100
AcDbEntity
  8
0
100
AcDbLine
 10
75.193
 20
146.99943
 30
0.0
 11
75.9384
 21
147.08843
 31
0.0
  0
LINE
  5
712
330
1E
100
AcDbEntity
  8
0
100
AcDbLine
 10
74.5457
 20
147.22943
 30
0.0
 11
75.193
 21
146.99943
 31
0.0
  0
LINE
  5
713
330
1E
100
AcDbEntity
  8
0
100
AcDbLine
 10
75.9384
 20
147.08843
 30
0.0
 11
76.3398
 21
147.46043
 31
0.0
  0
LINE
  5
715
330
1E
100
AcDbEntity
  8
0
100
AcDbLine
 10
86.30599999999999
 20
145.84943
 30
0.0
 11
87.0664
 21
145.82543
 31
0.0
  0
LINE
  5
71A
330
1E
100
AcDbEntity
  8
0
100
AcDbLine
 10
87.0664
 20
145.82543
 30
0.0
 11
87.5877
 21
145.5074299999999
 31
0.0
  0
LINE
  5
71C
330
1E
100
AcDbEntity
  8
0
100
AcDbLine
 10
87.54519999999999
 20
145.07043
 30
0.0
 11
87.5877
 21
145.5074299999999
 31
0.0
  0
LINE
  5
71D
330
1E
100
AcDbEntity
  8
0
100
AcDbLine
 10
86.98999999999999
 20
144.77143
 30
0.0
 11
87.54519999999999
 21
145.07043
 31
0.0
  0
LINE
  5
720
330
1E
100
AcDbEntity
  8
0
100
AcDbLine
 10
88.23390000000001
 20
142.10943
 30
0.0
 11
88.97530000000001
 21
142.00943
 31
0.0
  0
LINE
  5
722
330
1E
100
AcDbEntity
  8
0
100
AcDbLine
 10
88.97530000000001
 20
142.00943
 30
0.0
 11
89.3923
 21
141.64443
 31
0.0
  0
LINE
  5
726
330
1E
100
AcDbEntity
  8
0
100
AcDbLine
 10
89.21840000000001
 20
141.21843
 30
0.0
 11
89.3923
 21
141.64443
 31
0.0
  0
LINE
  5
727
330
1E
100
AcDbEntity
  8
0
100
AcDbLine
 10
88.58119999999999
 20
140.97943
 30
0.0
 11
89.21840000000001
 21
141.21843
 31
0.0
  0
LINE
  5
728
330
1E
100
AcDbEntity
  8
0
100
AcDbLine
 10
100.0
 20
144.72643
 30
0.0
 11
100.0
 21
146.7744299999999
 31
0.0
  0
LINE
  5
729
330
1E
100
AcDbEntity
  8
0
100
AcDbLine
 10
100.0
 20
146.7744299999999
 30
0.0
 11
100.0
 21
144.72643
 31
0.0
  0
LINE
  5
72A
330
1E
100
AcDbEntity
  8
0
100
AcDbLine
 10
99.89959817475991
 20
147.1839578893959
 30
0.0
 11
100.0
 21
147.59343
 31
0.0
  0
LINE
  5
72B
330
1E
100
AcDbEntity
  8
0
100
AcDbLine
 10
74.39
 20
147.65743
 30
0.0
 11
74.79130000000001
 21
148.02843
 31
0.0
  0
LINE
  5
72C
330
1E
100
AcDbEntity
  8
0
100
AcDbLine
 10
74.39
 20
147.65743
 30
0.0
 11
74.5457
 21
147.22943
 31
0.0
  0
LINE
  5
72E
330
1E
100
AcDbEntity
  8
0
100
AcDbLine
 10
62.3484
 20
148.20343
 30
0.0
 11
62.4386
 21
148.63743
 31
0.0
  0
LINE
  5
732
330
1E
100
AcDbEntity
  8
0
100
AcDbLine
 10
74.79130000000001
 20
148.02843
 30
0.0
 11
75.53679999999999
 21
148.11743
 31
0.0
  0
LINE
  5
734
330
1E
100
AcDbEntity
  8
0
100
AcDbLine
 10
75.53679999999999
 20
148.11743
 30
0.0
 11
76.184
 21
147.88743
 31
0.0
  0
LINE
  5
736
330
1E
100
AcDbEntity
  8
0
100
AcDbLine
 10
76.184
 20
147.88743
 30
0.0
 11
76.3398
 21
147.46043
 31
0.0
  0
LINE
  5
738
330
1E
100
AcDbEntity
  8
0
100
AcDbLine
 10
82.90899999999998
 20
148.55743
 30
0.0
 11
83.51879999999999
 21
148.29643
 31
0.0
  0
LINE
  5
739
330
1E
100
AcDbEntity
  8
0
100
AcDbLine
 10
71.8954
 20
149.36243
 30
0.0
 11
72.6025
 21
149.5244299999999
 31
0.0
  0
LINE
  5
73B
330
1E
100
AcDbEntity
  8
0
100
AcDbLine
 10
82.81879999999999
 20
148.99143
 30
0.0
 11
83.275
 21
149.3414299999999
 31
0.0
  0
LINE
  5
73C
330
1E
100
AcDbEntity
  8
0
100
AcDbLine
 10
82.81879999999999
 20
148.99143
 30
0.0
 11
82.90899999999998
 21
148.55743
 31
0.0
  0
LINE
  5
73E
330
1E
100
AcDbEntity
  8
0
100
AcDbLine
 10
83.51879999999999
 20
148.29643
 30
0.0
 11
84.275
 21
148.34843
 31
0.0
  0
LINE
  5
73F
330
1E
100
AcDbEntity
  8
0
100
AcDbLine
 10
83.275
 20
149.3414299999999
 30
0.0
 11
84.03119999999999
 21
149.39343
 31
0.0
  0
LINE
  5
741
330
1E
100
AcDbEntity
  8
0
100
AcDbLine
 10
71.18829999999999
 20
149.5244299999999
 30
0.0
 11
71.8954
 21
149.36243
 31
0.0
  0
LINE
  5
744
330
1E
100
AcDbEntity
  8
0
100
AcDbLine
 10
70.9055
 20
149.93043
 30
0.0
 11
71.18829999999999
 21
150.3354299999999
 31
0.0
  0
LINE
  5
745
330
1E
100
AcDbEntity
  8
0
100
AcDbLine
 10
70.9055
 20
149.93043
 30
0.0
 11
71.18829999999999
 21
149.5244299999999
 31
0.0
  0
LINE
  5
747
330
1E
100
AcDbEntity
  8
0
100
AcDbLine
 10
72.6025
 20
149.5244299999999
 30
0.0
 11
72.88540000000001
 21
149.93043
 31
0.0
  0
LINE
  5
749
330
1E
100
AcDbEntity
  8
0
100
AcDbLine
 10
71.18829999999999
 20
150.3354299999999
 30
0.0
 11
71.8954
 21
150.49843
 31
0.0
  0
LINE
  5
74A
330
1E
100
AcDbEntity
  8
0
100
AcDbLine
 10
66.7858
 20
151.8214299999999
 30
0.0
 11
66.9415
 21
152.24943
 31
0.0
  0
LINE
  5
74B
330
1E
100
AcDbEntity
  8
0
100
AcDbLine
 10
66.7858
 20
151.8214299999999
 30
0.0
 11
67.1871
 21
151.45043
 31
0.0
  0
LINE
  5
74C
330
1E
100
AcDbEntity
  8
0
100
AcDbLine
 10
67.9326
 20
151.36143
 30
0.0
 11
68.57980000000001
 21
151.59143
 31
0.0
  0
LINE
  5
74D
330
1E
100
AcDbEntity
  8
0
100
AcDbLine
 10
67.1871
 20
151.45043
 30
0.0
 11
67.9326
 21
151.36143
 31
0.0
  0
LINE
  5
74E
330
1E
100
AcDbEntity
  8
0
100
AcDbLine
 10
66.9415
 20
152.24943
 30
0.0
 11
67.58880000000001
 21
152.47943
 31
0.0
  0
LINE
  5
74F
330
1E
100
AcDbEntity
  8
0
100
AcDbLine
 10
63.4249
 20
152.9344299999999
 30
0.0
 11
63.9926
 21
153.22543
 31
0.0
  0
LINE
  5
750
330
1E
100
AcDbEntity
  8
0
100
AcDbLine
 10
62.6637
 20
152.94843
 30
0.0
 11
63.4249
 21
152.9344299999999
 31
0.0
  0
LINE
  5
751
330
1E
100
AcDbEntity
  8
0
100
AcDbLine
 10
62.15600000000001
 20
153.27443
 30
0.0
 11
62.17999999999999
 21
153.71043
 31
0.0
  0
LINE
  5
752
330
1E
100
AcDbEntity
  8
0
100
AcDbLine
 10
62.15600000000001
 20
153.27443
 30
0.0
 11
62.6637
 21
152.94843
 31
0.0
  0
LINE
  5
753
330
1E
100
AcDbEntity
  8
0
100
AcDbLine
 10
62.17999999999999
 20
153.71043
 30
0.0
 11
62.7477
 21
154.0014299999999
 31
0.0
  0
LINE
  5
756
330
1E
100
AcDbEntity
  8
0
100
AcDbLine
 10
62.7477
 20
154.0014299999999
 30
0.0
 11
63.50889999999999
 21
153.9884299999999
 31
0.0
  0
LINE
  5
758
330
1E
100
AcDbEntity
  8
0
100
AcDbLine
 10
63.50889999999999
 20
153.9884299999999
 30
0.0
 11
64.0165
 21
153.6624299999999
 31
0.0
  0
LINE
  5
75A
330
1E
100
AcDbEntity
  8
0
100
AcDbLine
 10
63.9926
 20
153.22543
 30
0.0
 11
64.0165
 21
153.6624299999999
 31
0.0
  0
LINE
  5
75B
330
1E
100
AcDbEntity
  8
0
100
AcDbLine
 10
67.58880000000001
 20
152.47943
 30
0.0
 11
68.3342
 21
152.39043
 31
0.0
  0
LINE
  5
75C
330
1E
100
AcDbEntity
  8
0
100
AcDbLine
 10
68.3342
 20
152.39043
 30
0.0
 11
68.73560000000001
 21
152.0184299999999
 31
0.0
  0
LINE
  5
75D
330
1E
100
AcDbEntity
  8
0
100
AcDbLine
 10
68.73560000000001
 20
152.1519727455619
 30
0.0
 11
68.73560000000001
 21
152.0184299999999
 31
0.0
  0
LINE
  5
75E
330
1E
100
AcDbEntity
  8
0
100
AcDbLine
 10
68.73560000000001
 20
152.0184299999999
 30
0.0
 11
68.73560000000001
 21
152.1519727455619
 31
0.0
  0
LINE
  5
75F
330
1E
100
AcDbEntity
  8
0
100
AcDbLine
 10
68.57980000000001
 20
151.59143
 30
0.0
 11
68.73560000000001
 21
152.0184299999999
 31
0.0
  0
LINE
  5
762
330
1E
100
AcDbEntity
  8
0
100
AcDbLine
 10
71.8954
 20
150.49843
 30
0.0
 11
72.6025
 21
150.3354299999999
 31
0.0
  0
LINE
  5
765
330
1E
100
AcDbEntity
  8
0
100
AcDbLine
 10
72.6025
 20
150.3354299999999
 30
0.0
 11
72.88540000000001
 21
149.93043
 31
0.0
  0
LINE
  5
768
330
1E
100
AcDbEntity
  8
0
100
AcDbLine
 10
74.08249999999999
 20
154.74643
 30
0.0
 11
74.3027
 21
155.16443
 31
0.0
  0
LINE
  5
769
330
1E
100
AcDbEntity
  8
0
100
AcDbLine
 10
74.08249999999999
 20
154.74643
 30
0.0
 11
74.4259
 21
154.35643
 31
0.0
  0
LINE
  5
76A
330
1E
100
AcDbEntity
  8
0
100
AcDbLine
 10
75.155
 20
154.23043
 30
0.0
 11
75.8348
 21
154.42743
 31
0.0
  0
LINE
  5
76B
330
1E
100
AcDbEntity
  8
0
100
AcDbLine
 10
74.4259
 20
154.35643
 30
0.0
 11
75.155
 21
154.23043
 31
0.0
  0
LINE
  5
76C
330
1E
100
AcDbEntity
  8
0
100
AcDbLine
 10
74.3027
 20
155.16443
 30
0.0
 11
74.9824
 21
155.36143
 31
0.0
  0
LINE
  5
76F
330
1E
100
AcDbEntity
  8
0
100
AcDbLine
 10
69.75620000000001
 20
156.48443
 30
0.0
 11
70.36599999999999
 21
156.74543
 31
0.0
  0
LINE
  5
770
330
1E
100
AcDbEntity
  8
0
100
AcDbLine
 10
69.0
 20
156.5354299999999
 30
0.0
 11
69.75620000000001
 21
156.48443
 31
0.0
  0
LINE
  5
771
330
1E
100
AcDbEntity
  8
0
100
AcDbLine
 10
68.5438
 20
156.88543
 30
0.0
 11
68.634
 21
157.31943
 31
0.0
  0
LINE
  5
772
330
1E
100
AcDbEntity
  8
0
100
AcDbLine
 10
68.5438
 20
156.88543
 30
0.0
 11
69.0
 21
156.5354299999999
 31
0.0
  0
LINE
  5
774
330
1E
100
AcDbEntity
  8
0
100
AcDbLine
 10
70.36599999999999
 20
156.74543
 30
0.0
 11
70.45619999999999
 21
157.17943
 31
0.0
  0
LINE
  5
776
330
1E
100
AcDbEntity
  8
0
100
AcDbLine
 10
68.634
 20
157.31943
 30
0.0
 11
69.24379999999999
 21
157.58143
 31
0.0
  0
LINE
  5
778
330
1E
100
AcDbEntity
  8
0
100
AcDbLine
 10
63.7572
 20
158.16543
 30
0.0
 11
64.27849999999999
 21
158.48443
 31
0.0
  0
LINE
  5
779
330
1E
100
AcDbEntity
  8
0
100
AcDbLine
 10
62.9968
 20
158.14143
 30
0.0
 11
63.7572
 21
158.16543
 31
0.0
  0
LINE
  5
77A
330
1E
100
AcDbEntity
  8
0
100
AcDbLine
 10
62.4416
 20
158.4404299999999
 30
0.0
 11
62.9968
 21
158.14143
 31
0.0
  0
LINE
  5
77D
330
1E
100
AcDbEntity
  8
0
100
AcDbLine
 10
62.3991
 20
158.87643
 30
0.0
 11
62.9204
 21
159.19543
 31
0.0
  0
LINE
  5
77E
330
1E
100
AcDbEntity
  8
0
100
AcDbLine
 10
62.3991
 20
158.87643
 30
0.0
 11
62.4416
 21
158.4404299999999
 31
0.0
  0
LINE
  5
780
330
1E
100
AcDbEntity
  8
0
100
AcDbLine
 10
62.9204
 20
159.19543
 30
0.0
 11
63.68079999999999
 21
159.21943
 31
0.0
  0
LINE
  5
786
330
1E
100
AcDbEntity
  8
0
100
AcDbLine
 10
63.68079999999999
 20
159.21943
 30
0.0
 11
64.236
 21
158.92043
 31
0.0
  0
LINE
  5
78A
330
1E
100
AcDbEntity
  8
0
100
AcDbLine
 10
64.236
 20
158.92043
 30
0.0
 11
64.27849999999999
 21
158.48443
 31
0.0
  0
LINE
  5
78E
330
1E
100
AcDbEntity
  8
0
100
AcDbLine
 10
69.24379999999999
 20
157.58143
 30
0.0
 11
70.0
 21
157.5294299999999
 31
0.0
  0
LINE
  5
792
330
1E
100
AcDbEntity
  8
0
100
AcDbLine
 10
70.0
 20
157.5294299999999
 30
0.0
 11
70.45619999999999
 21
157.17943
 31
0.0
  0
LINE
  5
796
330
1E
100
AcDbEntity
  8
0
100
AcDbLine
 10
74.9824
 20
155.36143
 30
0.0
 11
75.7115
 21
155.23543
 31
0.0
  0
LINE
  5
798
330
1E
100
AcDbEntity
  8
0
100
AcDbLine
 10
75.7115
 20
155.23543
 30
0.0
 11
76.0549
 21
154.8454299999999
 31
0.0
  0
LINE
  5
79A
330
1E
100
AcDbEntity
  8
0
100
AcDbLine
 10
79.1097
 20
151.67043
 30
0.0
 11
79.78950000000001
 21
151.47343
 31
0.0
  0
LINE
  5
79B
330
1E
100
AcDbEntity
  8
0
100
AcDbLine
 10
78.8895
 20
152.08843
 30
0.0
 11
79.2329
 21
152.47843
 31
0.0
  0
LINE
  5
79C
330
1E
100
AcDbEntity
  8
0
100
AcDbLine
 10
78.8895
 20
152.08843
 30
0.0
 11
79.1097
 21
151.67043
 31
0.0
  0
LINE
  5
79D
330
1E
100
AcDbEntity
  8
0
100
AcDbLine
 10
79.78950000000001
 20
151.47343
 30
0.0
 11
80.51849999999999
 21
151.59943
 31
0.0
  0
LINE
  5
79E
330
1E
100
AcDbEntity
  8
0
100
AcDbLine
 10
79.2329
 20
152.47843
 30
0.0
 11
79.962
 21
152.60443
 31
0.0
  0
LINE
  5
7A2
330
1E
100
AcDbEntity
  8
0
100
AcDbLine
 10
79.962
 20
152.60443
 30
0.0
 11
80.6418
 21
152.40743
 31
0.0
  0
LINE
  5
7A7
330
1E
100
AcDbEntity
  8
0
100
AcDbLine
 10
80.6418
 20
152.40743
 30
0.0
 11
80.8619
 21
151.9894299999999
 31
0.0
  0
LINE
  5
7A9
330
1E
100
AcDbEntity
  8
0
100
AcDbLine
 10
80.51849999999999
 20
151.59943
 30
0.0
 11
80.8619
 21
151.9894299999999
 31
0.0
  0
LINE
  5
7AC
330
1E
100
AcDbEntity
  8
0
100
AcDbLine
 10
75.8348
 20
154.42743
 30
0.0
 11
76.0549
 21
154.8454299999999
 31
0.0
  0
LINE
  5
7AF
330
1E
100
AcDbEntity
  8
0
100
AcDbLine
 10
84.03119999999999
 20
149.39343
 30
0.0
 11
84.641
 21
149.1314299999999
 31
0.0
  0
LINE
  5
7B3
330
1E
100
AcDbEntity
  8
0
100
AcDbLine
 10
93.3
 20
161.05643
 30
0.0
 11
98.2
 21
154.11643
 31
0.0
  0
LINE
  5
7B4
330
1E
100
AcDbEntity
  8
0
100
AcDbLine
 10
98.2
 20
154.11643
 30
0.0
 11
100.0
 21
146.7744299999999
 31
0.0
  0
LINE
  5
7B6
330
1E
100
AcDbEntity
  8
0
100
AcDbLine
 10
84.641
 20
149.1314299999999
 30
0.0
 11
84.73119999999999
 21
148.6974299999999
 31
0.0
  0
LINE
  5
7B8
330
1E
100
AcDbEntity
  8
0
100
AcDbLine
 10
84.275
 20
148.34843
 30
0.0
 11
84.73119999999999
 21
148.6974299999999
 31
0.0
  0
LINE
  5
7B9
330
1E
100
AcDbEntity
  8
0
100
AcDbLine
 10
93.3
 20
161.87643
 30
0.0
 11
98.2
 21
154.93543
 31
0.0
  0
LINE
  5
7BA
330
1E
100
AcDbEntity
  8
0
100
AcDbLine
 10
100.0
 20
156.19543
 30
0.0
 11
100.0
 21
147.59343
 31
0.0
  0
LINE
  5
7BB
330
1E
100
AcDbEntity
  8
0
100
AcDbLine
 10
98.2
 20
154.93543
 30
0.0
 11
100.0
 21
147.59343
 31
0.0
  0
LINE
  5
7BC
330
1E
100
AcDbEntity
  8
0
100
AcDbLine
 10
100.0
 20
147.59343
 30
0.0
 11
100.0
 21
156.19543
 31
0.0
  0
LINE
  5
7BD
330
1E
100
AcDbEntity
  8
0
100
AcDbLine
 10
62.0
 20
114.0506495121949
 30
0.0
 11
62.0
 21
112.11043
 31
0.0
  0
LINE
  5
7BE
330
1E
100
AcDbEntity
  8
0
100
AcDbLine
 10
38.43199999999999
 20
12.14303
 30
0.0
 11
38.71999999999999
 21
11.64743
 31
0.0
  0
LINE
  5
7BF
330
1E
100
AcDbEntity
  8
0
100
AcDbLine
 10
38.0
 20
13.67903
 30
0.0
 11
38.43199999999999
 21
12.14303
 31
0.0
  0
LINE
  5
7C0
330
1E
100
AcDbEntity
  8
0
100
AcDbLine
 10
38.0
 20
13.67903
 30
0.0
 11
38.0
 21
17.48953
 31
0.0
  0
LINE
  5
7C4
330
1E
100
AcDbEntity
  8
0
100
AcDbLine
 10
98.2
 20
163.5364299999999
 30
0.0
 11
100.0
 21
156.19543
 31
0.0
  0
LINE
  5
7C5
330
1E
100
AcDbEntity
  8
0
100
AcDbLine
 10
6.7
 20
161.87643
 30
0.0
 11
14.69999999999999
 21
167.84143
 31
0.0
  0
LINE
  5
7C6
330
1E
100
AcDbEntity
  8
0
100
AcDbLine
 10
1.8
 20
154.93543
 30
0.0
 11
6.7
 21
161.87643
 31
0.0
  0
LINE
  5
7C7
330
1E
100
AcDbEntity
  8
0
100
AcDbLine
 10
2.299999999999999
 20
164.2984299999999
 30
0.0
 11
7.099999999999999
 21
171.12443
 31
0.0
  0
LINE
  5
7C8
330
1E
100
AcDbEntity
  8
0
100
AcDbLine
 10
14.69999999999999
 20
167.02243
 30
0.0
 11
25.1
 21
171.61043
 31
0.0
  0
LINE
  5
7C9
330
1E
100
AcDbEntity
  8
0
100
AcDbLine
 10
85.29999999999999
 20
167.02243
 30
0.0
 11
93.3
 21
161.05643
 31
0.0
  0
LINE
  5
7CA
330
1E
100
AcDbEntity
  8
0
100
AcDbLine
 10
85.29999999999999
 20
167.84143
 30
0.0
 11
93.3
 21
161.87643
 31
0.0
  0
LINE
  5
7CB
330
1E
100
AcDbEntity
  8
0
100
AcDbLine
 10
92.9
 20
171.12443
 30
0.0
 11
97.70000000000001
 21
164.2984299999999
 31
0.0
  0
LINE
  5
7CC
330
1E
100
AcDbEntity
  8
0
100
AcDbLine
 10
97.70000000000001
 20
164.2984299999999
 30
0.0
 11
98.2
 21
163.5364299999999
 31
0.0
  0
LINE
  5
7CD
330
1E
100
AcDbEntity
  8
0
100
AcDbLine
 10
14.69999999999999
 20
167.84143
 30
0.0
 11
25.1
 21
172.4294299999999
 31
0.0
  0
LINE
  5
7CE
330
1E
100
AcDbEntity
  8
0
100
AcDbLine
 10
25.1
 20
171.61043
 30
0.0
 11
37.2
 21
174.42143
 31
0.0
  0
LINE
  5
7CF
330
1E
100
AcDbEntity
  8
0
100
AcDbLine
 10
25.1
 20
172.4294299999999
 30
0.0
 11
37.2
 21
175.24043
 31
0.0
  0
LINE
  5
7D0
330
1E
100
AcDbEntity
  8
0
100
AcDbLine
 10
37.2
 20
174.42143
 30
0.0
 11
50.0
 21
175.4534299999999
 31
0.0
  0
LINE
  5
7D1
330
1E
100
AcDbEntity
  8
0
100
AcDbLine
 10
62.8
 20
174.42143
 30
0.0
 11
74.90000000000001
 21
171.61043
 31
0.0
  0
LINE
  5
7D2
330
1E
100
AcDbEntity
  8
0
100
AcDbLine
 10
50.0
 20
175.4534299999999
 30
0.0
 11
62.8
 21
174.42143
 31
0.0
  0
LINE
  5
7D3
330
1E
100
AcDbEntity
  8
0
100
AcDbLine
 10
74.90000000000001
 20
171.61043
 30
0.0
 11
85.29999999999999
 21
167.02243
 31
0.0
  0
LINE
  5
7D4
330
1E
100
AcDbEntity
  8
0
100
AcDbLine
 10
74.90000000000001
 20
172.4294299999999
 30
0.0
 11
85.29999999999999
 21
167.84143
 31
0.0
  0
LINE
  5
7D5
330
1E
100
AcDbEntity
  8
0
100
AcDbLine
 10
62.8
 20
175.24043
 30
0.0
 11
74.90000000000001
 21
172.4294299999999
 31
0.0
  0
LINE
  5
7D6
330
1E
100
AcDbEntity
  8
0
100
AcDbLine
 10
72.9
 20
182.30043
 30
0.0
 11
74.59999999999999
 21
181.62043
 31
0.0
  0
LINE
  5
7D7
330
1E
100
AcDbEntity
  8
0
100
AcDbLine
 10
74.59999999999999
 20
181.62043
 30
0.0
 11
85.0
 21
177.0894299999999
 31
0.0
  0
LINE
  5
7D8
330
1E
100
AcDbEntity
  8
0
100
AcDbLine
 10
85.0
 20
177.0894299999999
 30
0.0
 11
92.9
 21
171.12443
 31
0.0
  0
LINE
  5
7D9
330
1E
100
AcDbEntity
  8
0
100
AcDbLine
 10
50.0
 20
176.27243
 30
0.0
 11
62.8
 21
175.24043
 31
0.0
  0
LINE
  5
7DA
330
1E
100
AcDbEntity
  8
0
100
AcDbLine
 10
37.2
 20
175.24043
 30
0.0
 11
50.0
 21
176.27243
 31
0.0
  0
LINE
  5
7DB
330
1E
100
AcDbEntity
  8
0
100
AcDbLine
 10
61.79999999999999
 20
184.8814299999999
 30
0.0
 11
72.9
 21
182.30043
 31
0.0
  0
LINE
  5
7DC
330
1E
100
AcDbEntity
  8
0
100
AcDbLine
 10
27.1
 20
182.30043
 30
0.0
 11
38.2
 21
184.8814299999999
 31
0.0
  0
LINE
  5
7DD
330
1E
100
AcDbEntity
  8
0
100
AcDbLine
 10
25.4
 20
181.62043
 30
0.0
 11
27.1
 21
182.30043
 31
0.0
  0
LINE
  5
7DE
330
1E
100
AcDbEntity
  8
0
100
AcDbLine
 10
50.0
 20
185.85643
 30
0.0
 11
61.79999999999999
 21
184.8814299999999
 31
0.0
  0
LINE
  5
7DF
330
1E
100
AcDbEntity
  8
0
100
AcDbLine
 10
38.2
 20
184.8814299999999
 30
0.0
 11
50.0
 21
185.85643
 31
0.0
  0
LINE
  5
7E0
330
1E
100
AcDbEntity
  8
0
100
AcDbLine
 10
15.0
 20
177.0894299999999
 30
0.0
 11
25.4
 21
181.62043
 31
0.0
  0
LINE
  5
7E1
330
1E
100
AcDbEntity
  8
0
100
AcDbLine
 10
7.099999999999999
 20
171.12443
 30
0.0
 11
15.0
 21
177.0894299999999
 31
0.0
  0
LINE
  5
7E2
330
1E
100
AcDbEntity
  8
0
100
AcDbLine
 10
2.299999999999999
 20
164.2984299999999
 30
0.0
 11
7.099999999999999
 21
171.12443
 31
0.0
  0
LINE
  5
7E3
330
1E
100
AcDbEntity
  8
0
100
AcDbLine
 10
1.8
 20
163.5364299999999
 30
0.0
 11
2.299999999999999
 21
164.2984299999999
 31
0.0
  0
LINE
  5
7E4
330
1E
100
AcDbEntity
  8
0
100
AcDbLine
 10
-0.000000000000001
 20
147.59343
 30
0.0
 11
0.100401825240074
 21
147.1839578893959
 31
0.0
  0
LINE
  5
7E5
330
1E
100
AcDbEntity
  8
0
100
AcDbLine
 10
-0.000000000000001
 20
147.59343
 30
0.0
 11
-0.000000000000001
 21
156.19543
 31
0.0
  0
LINE
  5
7E6
330
1E
100
AcDbEntity
  8
0
100
AcDbLine
 10
-0.000000000000001
 20
147.59343
 30
0.0
 11
0.100401825240074
 21
147.1839578893959
 31
0.0
  0
LINE
  5
7E7
330
1E
100
AcDbEntity
  8
0
100
AcDbLine
 10
-0.000000000000001
 20
147.59343
 30
0.0
 11
1.8
 21
154.93543
 31
0.0
  0
LINE
  5
7EC
330
1E
100
AcDbEntity
  8
0
100
AcDbLine
 10
-0.000000000000001
 20
144.72643
 30
0.0
 11
0.7517857142857491
 21
141.660397261905
 31
0.0
  0
LINE
  5
7ED
330
1E
100
AcDbEntity
  8
0
100
AcDbLine
 10
100.0
 20
144.72643
 30
0.0
 11
99.2482142857141
 21
141.6603972619039
 31
0.0
  0
LINE
  5
7EE
330
1E
100
AcDbEntity
  8
0
100
AcDbLine
 10
53.5828
 20
140.30143
 30
0.0
 11
53.409
 21
140.72643
 31
0.0
  0
ENDSEC
  0
SECTION
  2
OBJECTS
  0
DICTIONARY
  5
C
330
0
100
AcDbDictionary
  3
ACAD_GROUP
350
D
  3
ACAD_LAYOUT
350
19
  3
ACAD_MLINESTYLE
350
16
  3
ACAD_PLOTSETTINGS
350
18
  3
ACAD_PLOTSTYLENAME
350
E
  3
ACDBHEADERROUNDTRIPXREC
350
83C
  3
ACDBVARIABLEDICTIONARY
350
7EF
  0
DICTIONARY
  5
85E
330
1E
100
AcDbDictionary
280
     1
  3
ACAD_LAYOUTSELFREF
360
85F
  0
DICTIONARY
  5
85C
330
1A
100
AcDbDictionary
280
     1
  3
ACAD_LAYOUTSELFREF
360
85D
  0
DICTIONARY
  5
D
102
{ACAD_REACTORS
330
C
102
}
330
C
100
AcDbDictionary
  0
DICTIONARY
  5
19
102
{ACAD_REACTORS
330
C
102
}
330
C
100
AcDbDictionary
  0
DICTIONARY
  5
16
102
{ACAD_REACTORS
330
C
102
}
330
C
100
AcDbDictionary
  3
STANDARD
350
17
  0
DICTIONARY
  5
18
102
{ACAD_REACTORS
330
C
102
}
330
C
100
AcDbDictionary
  0
ACDBDICTIONARYWDFLT
  5
E
102
{ACAD_REACTORS
330
C
102
}
330
C
100
AcDbDictionary
281
     1
  3
Normal
350
F
100
AcDbDictionaryWithDefault
340
F
  0
DICTIONARY
  5
83C
102
{ACAD_REACTORS
330
C
102
}
330
C
100
AcDbDictionary
  3
CEPSNTYPE
350
846
  3
FINGERPRINTGUID
350
847
  3
HYPERLINKBASE
350
83F
  3
INSUNITS
350
845
  3
LAYOUTDICT
350
841
  3
LWETCUNION
350
844
  3
PLOTSETDICT
350
842
  3
PLOTSTYLNAMDICT
350
843
  3
PSVPSCALE
350
849
  3
PUCSBASE
350
84C
  3
PUCSORGBACK
350
852
  3
PUCSORGBOTTOM
350
84E
  3
PUCSORGFRONT
350
851
  3
PUCSORGLEFT
350
84F
  3
PUCSORGRIGHT
350
850
  3
PUCSORGTOP
350
84D
  3
PUCSORTHOREF
350
84A
  3
PUCSORTHOVIEW
350
84B
  3
STYLESHEET
350
840
  3
TSTACKALIGN
350
83D
  3
TSTACKSIZE
350
83E
  3
UCSBASE
350
855
  3
UCSORGBACK
350
85B
  3
UCSORGBOTTOM
350
857
  3
UCSORGFRONT
350
85A
  3
UCSORGLEFT
350
858
  3
UCSORGRIGHT
350
859
  3
UCSORGTOP
350
856
  3
UCSORTHOREF
350
853
  3
UCSORTHOVIEW
350
854
  3
VERSIONGUID
350
848
  0
DICTIONARY
  5
7EF
102
{ACAD_REACTORS
330
C
102
}
330
C
100
AcDbDictionary
  3
DIMASSOC
350
7F0
  0
XRECORD
  5
85F
102
{ACAD_REACTORS
330
85E
102
}
330
85E
100
AcDbXrecord
340
1E
  0
XRECORD
  5
85D
102
{ACAD_REACTORS
330
85C
102
}
330
85C
100
AcDbXrecord
340
1A
  0
MLINESTYLE
  5
17
102
{ACAD_REACTORS
330
16
102
}
330
16
100
AcDbMlineStyle
  2
STANDARD
 70
     0
  3

 62
   256
 51
90.0
 52
90.0
 71
     2
 49
0.5
 62
   256
  6
BYLAYER
 49
-0.5
 62
   256
  6
BYLAYER
  0
ACDBPLACEHOLDER
  5
F
102
{ACAD_REACTORS
330
E
102
}
330
E
100
AcDbPlaceHolder
280
     0
  0
XRECORD
  5
846
102
{ACAD_REACTORS
330
83C
102
}
330
83C
100
AcDbXrecord
 90
        0
  0
XRECORD
  5
847
102
{ACAD_REACTORS
330
83C
102
}
330
83C
100
AcDbXrecord
  1
{3A905F7A-0D7B-479D-A924-0329A3DEC961}
  0
XRECORD
  5
83F
102
{ACAD_REACTORS
330
83C
102
}
330
83C
100
AcDbXrecord
  1

  0
XRECORD
  5
845
102
{ACAD_REACTORS
330
83C
102
}
330
83C
100
AcDbXrecord
 90
        0
  0
XRECORD
  5
841
102
{ACAD_REACTORS
330
83C
102
}
330
83C
100
AcDbXrecord
340
19
  0
XRECORD
  5
844
102
{ACAD_REACTORS
330
83C
102
}
330
83C
100
AcDbXrecord
 90
    10781
  0
XRECORD
  5
842
102
{ACAD_REACTORS
330
83C
102
}
330
83C
100
AcDbXrecord
340
18
  0
XRECORD
  5
843
102
{ACAD_REACTORS
330
83C
102
}
330
83C
100
AcDbXrecord
340
E
  0
XRECORD
  5
849
102
{ACAD_REACTORS
330
83C
102
}
330
83C
100
AcDbXrecord
 40
0.0
  0
XRECORD
  5
84C
102
{ACAD_REACTORS
330
83C
102
}
330
83C
100
AcDbXrecord
340
0
  0
XRECORD
  5
852
102
{ACAD_REACTORS
330
83C
102
}
330
83C
100
AcDbXrecord
 10
0.0
 20
0.0
 30
0.0
  0
XRECORD
  5
84E
102
{ACAD_REACTORS
330
83C
102
}
330
83C
100
AcDbXrecord
 10
0.0
 20
0.0
 30
0.0
  0
XRECORD
  5
851
102
{ACAD_REACTORS
330
83C
102
}
330
83C
100
AcDbXrecord
 10
0.0
 20
0.0
 30
0.0
  0
XRECORD
  5
84F
102
{ACAD_REACTORS
330
83C
102
}
330
83C
100
AcDbXrecord
 10
0.0
 20
0.0
 30
0.0
  0
XRECORD
  5
850
102
{ACAD_REACTORS
330
83C
102
}
330
83C
100
AcDbXrecord
 10
0.0
 20
0.0
 30
0.0
  0
XRECORD
  5
84D
102
{ACAD_REACTORS
330
83C
102
}
330
83C
100
AcDbXrecord
 10
0.0
 20
0.0
 30
0.0
  0
XRECORD
  5
84A
102
{ACAD_REACTORS
330
83C
102
}
330
83C
100
AcDbXrecord
340
0
  0
XRECORD
  5
84B
102
{ACAD_REACTORS
330
83C
102
}
330
83C
100
AcDbXrecord
 70
     0
  0
XRECORD
  5
840
102
{ACAD_REACTORS
330
83C
102
}
330
83C
100
AcDbXrecord
  1

  0
XRECORD
  5
83D
102
{ACAD_REACTORS
330
83C
102
}
330
83C
100
AcDbXrecord
 90
        1
  0
XRECORD
  5
83E
102
{ACAD_REACTORS
330
83C
102
}
330
83C
100
AcDbXrecord
 90
       70
  0
XRECORD
  5
855
102
{ACAD_REACTORS
330
83C
102
}
330
83C
100
AcDbXrecord
340
0
  0
XRECORD
  5
85B
102
{ACAD_REACTORS
330
83C
102
}
330
83C
100
AcDbXrecord
 10
0.0
 20
0.0
 30
0.0
  0
XRECORD
  5
857
102
{ACAD_REACTORS
330
83C
102
}
330
83C
100
AcDbXrecord
 10
0.0
 20
0.0
 30
0.0
  0
XRECORD
  5
85A
102
{ACAD_REACTORS
330
83C
102
}
330
83C
100
AcDbXrecord
 10
0.0
 20
0.0
 30
0.0
  0
XRECORD
  5
858
102
{ACAD_REACTORS
330
83C
102
}
330
83C
100
AcDbXrecord
 10
0.0
 20
0.0
 30
0.0
  0
XRECORD
  5
859
102
{ACAD_REACTORS
330
83C
102
}
330
83C
100
AcDbXrecord
 10
0.0
 20
0.0
 30
0.0
  0
XRECORD
  5
856
102
{ACAD_REACTORS
330
83C
102
}
330
83C
100
AcDbXrecord
 10
0.0
 20
0.0
 30
0.0
  0
XRECORD
  5
853
102
{ACAD_REACTORS
330
83C
102
}
330
83C
100
AcDbXrecord
340
0
  0
XRECORD
  5
854
102
{ACAD_REACTORS
330
83C
102
}
330
83C
100
AcDbXrecord
 70
     1
  0
XRECORD
  5
848
102
{ACAD_REACTORS
330
83C
102
}
330
83C
100
AcDbXrecord
  1
{DB9D579B-73FC-41A0-A0A5-16C3DA46DF7C}
  0
DICTIONARYVAR
  5
7F0
102
{ACAD_REACTORS
330
7EF
102
}
330
7EF
100
DictionaryVariables
280
     0
  1
1
  0
ENDSEC
  0
EOF
