  0
SECTION
  2
HEADER
  9
$ACADVER
  1
AC1014
  9
$ACADMAINTVER
 70
     9
  9
$DWGCODEPAGE
  3
ANSI_1252
  9
$INSBASE
 10
0.0
 20
0.0
 30
0.0
  9
$EXTMIN
 10
-0.0000000000000004
 20
-0.0000000000000024
 30
0.0
  9
$EXTMAX
 10
100.0
 20
79.0
 30
0.0
  9
$LIMMIN
 10
0.0
 20
0.0
  9
$LIMMAX
 10
12.0
 20
9.0
  9
$ORTHOMODE
 70
     0
  9
$REGENMODE
 70
     1
  9
$FILLMODE
 70
     1
  9
$QTEXTMODE
 70
     0
  9
$MIRRTEXT
 70
     1
  9
$DRAGMODE
 70
     2
  9
$LTSCALE
 40
1.0
  9
$OSMODE
 70
    37
  9
$ATTMODE
 70
     1
  9
$TEXTSIZE
 40
0.2
  9
$TRACEWID
 40
0.05
  9
$TEXTSTYLE
  7
STANDARD
  9
$CLAYER
  8
0
  9
$CELTYPE
  6
CONTINUOUS
  9
$CECOLOR
 62
   256
  9
$CELTSCALE
 40
1.0
  9
$DELOBJ
 70
     1
  9
$DISPSILH
 70
     0
  9
$DIMSCALE
 40
1.0
  9
$DIMASZ
 40
0.18
  9
$DIMEXO
 40
0.0625
  9
$DIMDLI
 40
0.38
  9
$DIMRND
 40
0.0
  9
$DIMDLE
 40
0.0
  9
$DIMEXE
 40
0.18
  9
$DIMTP
 40
0.0
  9
$DIMTM
 40
0.0
  9
$DIMTXT
 40
0.18
  9
$DIMCEN
 40
0.09
  9
$DIMTSZ
 40
0.0
  9
$DIMTOL
 70
     0
  9
$DIMLIM
 70
     0
  9
$DIMTIH
 70
     1
  9
$DIMTOH
 70
     1
  9
$DIMSE1
 70
     0
  9
$DIMSE2
 70
     0
  9
$DIMTAD
 70
     0
  9
$DIMZIN
 70
     0
  9
$DIMBLK
  1

  9
$DIMASO
 70
     1
  9
$DIMSHO
 70
     1
  9
$DIMPOST
  1

  9
$DIMAPOST
  1

  9
$DIMALT
 70
     0
  9
$DIMALTD
 70
     2
  9
$DIMALTF
 40
25.4
  9
$DIMLFAC
 40
1.0
  9
$DIMTOFL
 70
     0
  9
$DIMTVP
 40
0.0
  9
$DIMTIX
 70
     0
  9
$DIMSOXD
 70
     0
  9
$DIMSAH
 70
     0
  9
$DIMBLK1
  1

  9
$DIMBLK2
  1

  9
$DIMSTYLE
  2
STANDARD
  9
$DIMCLRD
 70
     0
  9
$DIMCLRE
 70
     0
  9
$DIMCLRT
 70
     0
  9
$DIMTFAC
 40
1.0
  9
$DIMGAP
 40
0.09
  9
$DIMJUST
 70
     0
  9
$DIMSD1
 70
     0
  9
$DIMSD2
 70
     0
  9
$DIMTOLJ
 70
     1
  9
$DIMTZIN
 70
     0
  9
$DIMALTZ
 70
     0
  9
$DIMALTTZ
 70
     0
  9
$DIMFIT
 70
     3
  9
$DIMUPT
 70
     0
  9
$DIMUNIT
 70
     2
  9
$DIMDEC
 70
     4
  9
$DIMTDEC
 70
     4
  9
$DIMALTU
 70
     2
  9
$DIMALTTD
 70
     2
  9
$DIMTXSTY
  7
STANDARD
  9
$DIMAUNIT
 70
     0
  9
$LUNITS
 70
     2
  9
$LUPREC
 70
     4
  9
$SKETCHINC
 40
0.1
  9
$FILLETRAD
 40
0.0
  9
$AUNITS
 70
     0
  9
$AUPREC
 70
     0
  9
$MENU
  1
.
  9
$ELEVATION
 40
0.0
  9
$PELEVATION
 40
0.0
  9
$THICKNESS
 40
0.0
  9
$LIMCHECK
 70
     0
  9
$BLIPMODE
 70
     0
  9
$CHAMFERA
 40
0.0
  9
$CHAMFERB
 40
0.0
  9
$CHAMFERC
 40
0.0
  9
$CHAMFERD
 40
0.0
  9
$SKPOLY
 70
     0
  9
$TDCREATE
 40
2454697.410590451
  9
$TDUPDATE
 40
2454697.412581018
  9
$TDINDWG
 40
0.0019905671
  9
$TDUSRTIMER
 40
0.0019905671
  9
$USRTIMER
 70
     1
  9
$ANGBASE
 50
0.0
  9
$ANGDIR
 70
     0
  9
$PDMODE
 70
     0
  9
$PDSIZE
 40
0.0
  9
$PLINEWID
 40
0.0
  9
$COORDS
 70
     1
  9
$SPLFRAME
 70
     0
  9
$SPLINETYPE
 70
     6
  9
$SPLINESEGS
 70
     8
  9
$ATTDIA
 70
     0
  9
$ATTREQ
 70
     1
  9
$HANDLING
 70
 22529
  9
$HANDSEED
  5
585
  9
$SURFTAB1
 70
     6
  9
$SURFTAB2
 70
     6
  9
$SURFTYPE
 70
     6
  9
$SURFU
 70
     6
  9
$SURFV
 70
     6
  9
$UCSNAME
  2

  9
$UCSORG
 10
0.0
 20
0.0
 30
0.0
  9
$UCSXDIR
 10
1.0
 20
0.0
 30
0.0
  9
$UCSYDIR
 10
0.0
 20
1.0
 30
0.0
  9
$PUCSNAME
  2

  9
$PUCSORG
 10
0.0
 20
0.0
 30
0.0
  9
$PUCSXDIR
 10
1.0
 20
0.0
 30
0.0
  9
$PUCSYDIR
 10
0.0
 20
1.0
 30
0.0
  9
$USERI1
 70
     0
  9
$USERI2
 70
     0
  9
$USERI3
 70
     0
  9
$USERI4
 70
     0
  9
$USERI5
 70
     0
  9
$USERR1
 40
0.0
  9
$USERR2
 40
0.0
  9
$USERR3
 40
0.0
  9
$USERR4
 40
0.0
  9
$USERR5
 40
0.0
  9
$WORLDVIEW
 70
     1
  9
$SHADEDGE
 70
     3
  9
$SHADEDIF
 70
    70
  9
$TILEMODE
 70
     1
  9
$MAXACTVP
 70
    64
  9
$PINSBASE
 10
0.0
 20
0.0
 30
0.0
  9
$PLIMCHECK
 70
     0
  9
$PEXTMIN
 10
1.000000000000000E+20
 20
1.000000000000000E+20
 30
1.000000000000000E+20
  9
$PEXTMAX
 10
-1.000000000000000E+20
 20
-1.000000000000000E+20
 30
-1.000000000000000E+20
  9
$PLIMMIN
 10
0.0
 20
0.0
  9
$PLIMMAX
 10
12.0
 20
9.0
  9
$UNITMODE
 70
     0
  9
$VISRETAIN
 70
     1
  9
$PLINEGEN
 70
     0
  9
$PSLTSCALE
 70
     1
  9
$TREEDEPTH
 70
  3020
  9
$PICKSTYLE
 70
     1
  9
$CMLSTYLE
  2
STANDARD
  9
$CMLJUST
 70
     0
  9
$CMLSCALE
 40
1.0
  9
$PROXYGRAPHICS
 70
     1
  9
$MEASUREMENT
 70
     0
  0
ENDSEC
  0
SECTION
  2
CLASSES
  0
CLASS
  1
ACDBDICTIONARYWDFLT
  2
AcDbDictionaryWithDefault
  3
AutoCAD 2000
 90
        0
280
     0
281
     0
  0
CLASS
  1
ACDBPLACEHOLDER
  2
AcDbPlaceHolder
  3
AutoCAD 2000
 90
        0
280
     0
281
     0
  0
CLASS
  1
LAYOUT
  2
AcDbLayout
  3
AutoCAD 2000
 90
        0
280
     0
281
     0
  0
CLASS
  1
DICTIONARYVAR
  2
AcDbDictionaryVar
  3
AutoCAD 2000
 90
        0
280
     0
281
     0
  0
CLASS
  1
LONG_TRANSACTION
  2
AcDbLongTransaction
  3
AutoCAD 2000
 90
        0
280
     0
281
     0
  0
CLASS
  1
LWPOLYLINE
  2
AcDbPolyline
  3
AutoCAD 2000
 90
        0
280
     0
281
     1
  0
CLASS
  1
HATCH
  2
AcDbHatch
  3
AutoCAD 2000
 90
        0
280
     0
281
     1
  0
CLASS
  1
XRECORD
  2
AcDbXrecord
  3
AutoCAD 2000
 90
        0
280
     0
281
     0
  0
ENDSEC
  0
SECTION
  2
TABLES
  0
TABLE
  2
VPORT
  5
8
330
0
100
AcDbSymbolTable
 70
     2
  0
VPORT
  5
560
330
8
100
AcDbSymbolTableRecord
100
AcDbViewportTableRecord
  2
*ACTIVE
 70
     0
 10
0.0
 20
0.0
 11
1.0
 21
1.0
 12
50.0
 22
39.5
 13
0.0
 23
0.0
 14
1.0
 24
1.0
 15
0.0
 25
0.0
 16
0.0
 26
0.0
 36
1.0
 17
0.0
 27
0.0
 37
0.0
 40
79.60613810741688
 41
2.078104993597951
 42
50.0
 43
0.0
 44
0.0
 50
0.0
 51
0.0
 71
     0
 72
   100
 73
     1
 74
     3
 75
     0
 76
     0
 77
     0
 78
     0
  0
ENDTAB
  0
TABLE
  2
LTYPE
  5
5
330
0
100
AcDbSymbolTable
 70
     1
  0
LTYPE
  5
13
330
5
100
AcDbSymbolTableRecord
100
AcDbLinetypeTableRecord
  2
BYBLOCK
 70
     0
  3

 72
    65
 73
     0
 40
0.0
  0
LTYPE
  5
14
330
5
100
AcDbSymbolTableRecord
100
AcDbLinetypeTableRecord
  2
BYLAYER
 70
     0
  3

 72
    65
 73
     0
 40
0.0
  0
LTYPE
  5
15
330
5
100
AcDbSymbolTableRecord
100
AcDbLinetypeTableRecord
  2
CONTINUOUS
 70
     0
  3
Solid line
 72
    65
 73
     0
 40
0.0
  0
ENDTAB
  0
TABLE
  2
LAYER
  5
2
330
0
100
AcDbSymbolTable
 70
     1
  0
LAYER
  5
10
330
2
100
AcDbSymbolTableRecord
100
AcDbLayerTableRecord
  2
0
 70
     0
 62
     7
  6
CONTINUOUS
  0
ENDTAB
  0
TABLE
  2
STYLE
  5
3
330
0
100
AcDbSymbolTable
 70
     1
  0
STYLE
  5
11
330
3
100
AcDbSymbolTableRecord
100
AcDbTextStyleTableRecord
  2
STANDARD
 70
     0
 40
0.0
 41
1.0
 50
0.0
 71
     0
 42
0.2
  3
txt
  4

  0
ENDTAB
  0
TABLE
  2
VIEW
  5
6
330
0
100
AcDbSymbolTable
 70
     0
  0
ENDTAB
  0
TABLE
  2
UCS
  5
7
330
0
100
AcDbSymbolTable
 70
     0
  0
ENDTAB
  0
TABLE
  2
APPID
  5
9
330
0
100
AcDbSymbolTable
 70
     1
  0
APPID
  5
12
330
9
100
AcDbSymbolTableRecord
100
AcDbRegAppTableRecord
  2
ACAD
 70
     0
  0
ENDTAB
  0
TABLE
  2
DIMSTYLE
  5
A
330
0
100
AcDbSymbolTable
 70
     1
  0
DIMSTYLE
105
55A
330
A
100
AcDbSymbolTableRecord
100
AcDbDimStyleTableRecord
  2
STANDARD
 70
     0
  3

  4

  5

  6

  7

 40
1.0
 41
0.18
 42
0.0625
 43
0.38
 44
0.18
 45
0.0
 46
0.0
 47
0.0
 48
0.0
140
0.18
141
0.09
142
0.0
143
25.4
144
1.0
145
0.0
146
1.0
147
0.09
 71
     0
 72
     0
 73
     1
 74
     1
 75
     0
 76
     0
 77
     0
 78
     0
170
     0
171
     2
172
     0
173
     0
174
     0
175
     0
176
     0
177
     0
178
     0
270
     2
271
     4
272
     4
273
     2
274
     2
340
11
275
     0
280
     0
281
     0
282
     0
283
     1
284
     0
285
     0
286
     0
287
     3
288
     0
  0
ENDTAB
  0
TABLE
  2
BLOCK_RECORD
  5
1
330
0
100
AcDbSymbolTable
 70
     0
  0
BLOCK_RECORD
  5
1E
102
{ACAD_XDICTIONARY
360
583
102
}
330
1
100
AcDbSymbolTableRecord
100
AcDbBlockTableRecord
  2
*MODEL_SPACE
  0
BLOCK_RECORD
  5
1A
102
{ACAD_XDICTIONARY
360
581
102
}
330
1
100
AcDbSymbolTableRecord
100
AcDbBlockTableRecord
  2
*PAPER_SPACE
  0
ENDTAB
  0
ENDSEC
  0
SECTION
  2
BLOCKS
  0
BLOCK
  5
1F
330
1E
100
AcDbEntity
  8
0
100
AcDbBlockBegin
  2
*MODEL_SPACE
 70
     0
 10
0.0
 20
0.0
 30
0.0
  3
*MODEL_SPACE
  1

  0
ENDBLK
  5
20
330
1E
100
AcDbEntity
  8
0
100
AcDbBlockEnd
  0
BLOCK
  5
1B
330
1A
100
AcDbEntity
 67
     1
  8
0
100
AcDbBlockBegin
  2
*PAPER_SPACE
 70
     0
 10
0.0
 20
0.0
 30
0.0
  3
*PAPER_SPACE
  1

  0
ENDBLK
  5
1C
330
1A
100
AcDbEntity
 67
     1
  8
0
100
AcDbBlockEnd
  0
ENDSEC
  0
SECTION
  2
ENTITIES
  0
LINE
  5
22
330
1E
100
AcDbEntity
  8
0
100
AcDbLine
 10
-0.0000000000000004
 20
13.0
 30
0.0
 11
-0.0000000000000003
 21
15.5
 31
0.0
  0
LINE
  5
23
330
1E
100
AcDbEntity
  8
0
100
AcDbLine
 10
-0.0000000000000004
 20
13.0
 30
0.0
 11
0.499999999999999
 21
10.5
 31
0.0
  0
LINE
  5
24
330
1E
100
AcDbEntity
  8
0
100
AcDbLine
 10
-0.0000000000000003
 20
15.5
 30
0.0
 11
1.8
 21
15.5
 31
0.0
  0
LINE
  5
25
330
1E
100
AcDbEntity
  8
0
100
AcDbLine
 10
-0.0000000000000003
 20
15.5
 30
0.0
 11
1.0
 21
16.0
 31
0.0
  0
LINE
  5
26
330
1E
100
AcDbEntity
  8
0
100
AcDbLine
 10
-0.0000000000000004
 20
13.0
 30
0.0
 11
0.499999999999999
 21
10.5
 31
0.0
  0
LINE
  5
27
330
1E
100
AcDbEntity
  8
0
100
AcDbLine
 10
-0.0000000000000003
 20
15.5
 30
0.0
 11
1.0
 21
16.0
 31
0.0
  0
LINE
  5
28
330
1E
100
AcDbEntity
  8
0
100
AcDbLine
 10
-0.0000000000000003
 20
15.5
 30
0.0
 11
1.8
 21
15.5
 31
0.0
  0
LINE
  5
29
330
1E
100
AcDbEntity
  8
0
100
AcDbLine
 10
-0.0000000000000003
 20
16.5
 30
0.0
 11
1.8
 21
16.5
 31
0.0
  0
LINE
  5
2A
330
1E
100
AcDbEntity
  8
0
100
AcDbLine
 10
-0.0000000000000002
 20
16.5
 30
0.0
 11
0.0000000000000004
 21
27.0
 31
0.0
  0
LINE
  5
2B
330
1E
100
AcDbEntity
  8
0
100
AcDbLine
 10
-0.0000000000000002
 20
16.5
 30
0.0
 11
1.0
 21
16.0
 31
0.0
  0
LINE
  5
2C
330
1E
100
AcDbEntity
  8
0
100
AcDbLine
 10
-0.0000000000000002
 20
16.5
 30
0.0
 11
1.8
 21
16.5
 31
0.0
  0
LINE
  5
2D
330
1E
100
AcDbEntity
  8
0
100
AcDbLine
 10
0.499999999999999
 20
10.5
 30
0.0
 11
2.0
 21
8.0
 31
0.0
  0
LINE
  5
2E
330
1E
100
AcDbEntity
  8
0
100
AcDbLine
 10
0.0000000000000004
 20
27.0
 30
0.0
 11
0.500000000000001
 21
28.0
 31
0.0
  0
LINE
  5
2F
330
1E
100
AcDbEntity
  8
0
100
AcDbLine
 10
1.8
 20
15.5
 30
0.0
 11
6.7
 21
15.5
 31
0.0
  0
LINE
  5
30
330
1E
100
AcDbEntity
  8
0
100
AcDbLine
 10
1.8
 20
15.5
 30
0.0
 11
6.7
 21
15.5
 31
0.0
  0
LINE
  5
31
330
1E
100
AcDbEntity
  8
0
100
AcDbLine
 10
2.0
 20
8.0
 30
0.0
 11
4.5
 21
6.5
 31
0.0
  0
LINE
  5
32
330
1E
100
AcDbEntity
  8
0
100
AcDbLine
 10
1.8
 20
16.5
 30
0.0
 11
6.7
 21
16.5
 31
0.0
  0
LINE
  5
33
330
1E
100
AcDbEntity
  8
0
100
AcDbLine
 10
6.7
 20
15.5
 30
0.0
 11
14.69999999999999
 21
15.5
 31
0.0
  0
LINE
  5
34
330
1E
100
AcDbEntity
  8
0
100
AcDbLine
 10
4.5
 20
6.5
 30
0.0
 11
7.0
 21
6.0
 31
0.0
  0
LINE
  5
35
330
1E
100
AcDbEntity
  8
0
100
AcDbLine
 10
7.0
 20
6.0
 30
0.0
 11
8.5
 21
5.5
 31
0.0
  0
LINE
  5
36
330
1E
100
AcDbEntity
  8
0
100
AcDbLine
 10
10.0
 20
4.372939999999999
 30
0.0
 11
10.3
 21
4.372939999999999
 31
0.0
  0
LINE
  5
37
330
1E
100
AcDbEntity
  8
0
100
AcDbLine
 10
10.0
 20
4.372939999999999
 30
0.0
 11
10.0
 21
5.41379310344828
 31
0.0
  0
LINE
  5
38
330
1E
100
AcDbEntity
  8
0
100
AcDbLine
 10
10.3
 20
4.372939999999999
 30
0.0
 11
11.0
 21
4.372939999999999
 31
0.0
  0
LINE
  5
3A
330
1E
100
AcDbEntity
  8
0
100
AcDbLine
 10
10.60769999999999
 20
4.372939999999999
 30
0.0
 11
10.7816
 21
4.372939999999999
 31
0.0
  0
LINE
  5
3B
330
1E
100
AcDbEntity
  8
0
100
AcDbLine
 10
10.60769999999999
 20
4.372939999999999
 30
0.0
 11
11.0247
 21
4.372939999999999
 31
0.0
  0
LINE
  5
3D
330
1E
100
AcDbEntity
  8
0
100
AcDbLine
 10
11.69999999999999
 20
4.372939999999999
 30
0.0
 11
12.0
 21
4.372939999999999
 31
0.0
  0
LINE
  5
3E
330
1E
100
AcDbEntity
  8
0
100
AcDbLine
 10
11.0
 20
4.372939999999999
 30
0.0
 11
11.69999999999999
 21
4.372939999999999
 31
0.0
  0
LINE
  5
3F
330
1E
100
AcDbEntity
  8
0
100
AcDbLine
 10
11.4188
 20
4.372939999999999
 30
0.0
 11
12.16029999999999
 21
4.372939999999999
 31
0.0
  0
LINE
  5
40
330
1E
100
AcDbEntity
  8
0
100
AcDbLine
 10
12.16029999999999
 20
4.372939999999999
 30
0.0
 11
12.5773
 21
4.372939999999999
 31
0.0
  0
LINE
  5
41
330
1E
100
AcDbEntity
  8
0
100
AcDbLine
 10
12.40339999999999
 20
4.372939999999999
 30
0.0
 11
12.5773
 21
4.372939999999999
 31
0.0
  0
LINE
  5
43
330
1E
100
AcDbEntity
  8
0
100
AcDbLine
 10
11.76609999999999
 20
4.372939999999999
 30
0.0
 11
12.40339999999999
 21
4.372939999999999
 31
0.0
  0
LINE
  5
45
330
1E
100
AcDbEntity
  8
0
100
AcDbLine
 10
11.0247
 20
4.372939999999999
 30
0.0
 11
11.76609999999999
 21
4.372939999999999
 31
0.0
  0
LINE
  5
47
330
1E
100
AcDbEntity
  8
0
100
AcDbLine
 10
10.7816
 20
4.372939999999999
 30
0.0
 11
11.4188
 21
4.372939999999999
 31
0.0
  0
LINE
  5
49
330
1E
100
AcDbEntity
  8
0
100
AcDbLine
 10
10.0
 20
5.41379310344828
 30
0.0
 11
10.0
 21
4.372939999999999
 31
0.0
  0
LINE
  5
4F
330
1E
100
AcDbEntity
  8
0
100
AcDbLine
 10
12.4123
 20
4.372939999999999
 30
0.0
 11
12.9336
 21
4.372939999999999
 31
0.0
  0
LINE
  5
51
330
1E
100
AcDbEntity
  8
0
100
AcDbLine
 10
13.01
 20
4.372939999999999
 30
0.0
 11
13.7704
 21
4.372939999999999
 31
0.0
  0
LINE
  5
52
330
1E
100
AcDbEntity
  8
0
100
AcDbLine
 10
14.2917
 20
4.372939999999999
 30
0.0
 11
14.2917
 21
5.265480874316939
 31
0.0
  0
LINE
  5
53
330
1E
100
AcDbEntity
  8
0
100
AcDbLine
 10
13.7704
 20
4.372939999999999
 30
0.0
 11
14.2917
 21
4.372939999999999
 31
0.0
  0
LINE
  5
55
330
1E
100
AcDbEntity
  8
0
100
AcDbLine
 10
13.694
 20
4.372939999999999
 30
0.0
 11
14.2492
 21
4.372939999999999
 31
0.0
  0
LINE
  5
57
330
1E
100
AcDbEntity
  8
0
100
AcDbLine
 10
14.2917
 20
5.265480874316939
 30
0.0
 11
14.2917
 21
4.372939999999999
 31
0.0
  0
LINE
  5
5B
330
1E
100
AcDbEntity
  8
0
100
AcDbLine
 10
12.9336
 20
4.372939999999999
 30
0.0
 11
13.694
 21
4.372939999999999
 31
0.0
  0
LINE
  5
5D
330
1E
100
AcDbEntity
  8
0
100
AcDbLine
 10
12.4548
 20
4.372939999999999
 30
0.0
 11
13.01
 21
4.372939999999999
 31
0.0
  0
LINE
  5
5E
330
1E
100
AcDbEntity
  8
0
100
AcDbLine
 10
8.5
 20
5.5
 30
0.0
 11
10.0
 21
5.40909090909091
 31
0.0
  0
LINE
  5
5F
330
1E
100
AcDbEntity
  8
0
100
AcDbLine
 10
18.1569
 20
4.020909999999999
 30
0.0
 11
18.3947
 21
4.020909999999999
 31
0.0
  0
LINE
  5
60
330
1E
100
AcDbEntity
  8
0
100
AcDbLine
 10
18.1569
 20
4.020909999999999
 30
0.0
 11
18.5167
 21
4.020909999999999
 31
0.0
  0
LINE
  5
61
330
1E
100
AcDbEntity
  8
0
100
AcDbLine
 10
18.1569
 20
4.020909999999999
 30
0.0
 11
18.1569
 21
4.94500574712644
 31
0.0
  0
LINE
  5
62
330
1E
100
AcDbEntity
  8
0
100
AcDbLine
 10
18.1569
 20
4.020909999999999
 30
0.0
 11
18.1569
 21
4.914733333333329
 31
0.0
  0
LINE
  5
63
330
1E
100
AcDbEntity
  8
0
100
AcDbLine
 10
19.06589999999999
 20
4.020909999999999
 30
0.0
 11
19.7894
 21
4.020909999999999
 31
0.0
  0
LINE
  5
64
330
1E
100
AcDbEntity
  8
0
100
AcDbLine
 10
18.5167
 20
4.020909999999999
 30
0.0
 11
19.2402
 21
4.020909999999999
 31
0.0
  0
LINE
  5
66
330
1E
100
AcDbEntity
  8
0
100
AcDbLine
 10
18.3947
 20
4.020909999999999
 30
0.0
 11
19.06589999999999
 21
4.020909999999999
 31
0.0
  0
LINE
  5
67
330
1E
100
AcDbEntity
  8
0
100
AcDbLine
 10
15.359
 20
4.372939999999999
 30
0.0
 11
15.9688
 21
4.372939999999999
 31
0.0
  0
LINE
  5
69
330
1E
100
AcDbEntity
  8
0
100
AcDbLine
 10
15.2688
 20
4.372939999999999
 30
0.0
 11
15.359
 21
4.372939999999999
 31
0.0
  0
LINE
  5
6A
330
1E
100
AcDbEntity
  8
0
100
AcDbLine
 10
15.2688
 20
4.372939999999999
 30
0.0
 11
15.2688
 21
5.41769014084507
 31
0.0
  0
LINE
  5
6B
330
1E
100
AcDbEntity
  8
0
100
AcDbLine
 10
15.2688
 20
4.372939999999999
 30
0.0
 11
15.2688
 21
5.0897696969697
 31
0.0
  0
LINE
  5
6C
330
1E
100
AcDbEntity
  8
0
100
AcDbLine
 10
15.72499999999999
 20
4.372939999999999
 30
0.0
 11
16.4812
 21
4.372939999999999
 31
0.0
  0
LINE
  5
6D
330
1E
100
AcDbEntity
  8
0
100
AcDbLine
 10
16.4812
 20
4.372939999999999
 30
0.0
 11
17.09099999999999
 21
4.372939999999999
 31
0.0
  0
LINE
  5
6E
330
1E
100
AcDbEntity
  8
0
100
AcDbLine
 10
19.1381
 20
4.372939999999999
 30
0.0
 11
19.4815
 21
4.372939999999999
 31
0.0
  0
LINE
  5
6F
330
1E
100
AcDbEntity
  8
0
100
AcDbLine
 10
19.1381
 20
4.372939999999999
 30
0.0
 11
19.3582
 21
4.372939999999999
 31
0.0
  0
LINE
  5
70
330
1E
100
AcDbEntity
  8
0
100
AcDbLine
 10
19.1381
 20
4.372939999999999
 30
0.0
 11
19.1381
 21
5.5
 31
0.0
  0
LINE
  5
71
330
1E
100
AcDbEntity
  8
0
100
AcDbLine
 10
17.1812
 20
4.372939999999999
 30
0.0
 11
17.1812
 21
5.330703296703299
 31
0.0
  0
LINE
  5
72
330
1E
100
AcDbEntity
  8
0
100
AcDbLine
 10
17.09099999999999
 20
4.372939999999999
 30
0.0
 11
17.1812
 21
4.372939999999999
 31
0.0
  0
LINE
  5
73
330
1E
100
AcDbEntity
  8
0
100
AcDbLine
 10
16.725
 20
4.372939999999999
 30
0.0
 11
17.1812
 21
4.372939999999999
 31
0.0
  0
LINE
  5
75
330
1E
100
AcDbEntity
  8
0
100
AcDbLine
 10
15.9688
 20
4.372939999999999
 30
0.0
 11
16.725
 21
4.372939999999999
 31
0.0
  0
LINE
  5
77
330
1E
100
AcDbEntity
  8
0
100
AcDbLine
 10
15.359
 20
4.372939999999999
 30
0.0
 11
15.72499999999999
 21
4.372939999999999
 31
0.0
  0
LINE
  5
78
330
1E
100
AcDbEntity
  8
0
100
AcDbLine
 10
19.1244
 20
4.020909999999999
 30
0.0
 11
19.233
 21
4.020909999999999
 31
0.0
  0
LINE
  5
79
330
1E
100
AcDbEntity
  8
0
100
AcDbLine
 10
19.1244
 20
4.020909999999999
 30
0.0
 11
19.5953
 21
4.020909999999999
 31
0.0
  0
LINE
  5
7B
330
1E
100
AcDbEntity
  8
0
100
AcDbLine
 10
19.7894
 20
4.020909999999999
 30
0.0
 11
20.1492
 21
4.020909999999999
 31
0.0
  0
LINE
  5
7C
330
1E
100
AcDbEntity
  8
0
100
AcDbLine
 10
19.9114
 20
4.020909999999999
 30
0.0
 11
20.1492
 21
4.020909999999999
 31
0.0
  0
LINE
  5
7D
330
1E
100
AcDbEntity
  8
0
100
AcDbLine
 10
19.2402
 20
4.020909999999999
 30
0.0
 11
19.9114
 21
4.020909999999999
 31
0.0
  0
LINE
  5
7E
330
1E
100
AcDbEntity
  8
0
100
AcDbLine
 10
19.8315
 20
4.020909999999999
 30
0.0
 11
20.5853
 21
4.020909999999999
 31
0.0
  0
LINE
  5
7F
330
1E
100
AcDbEntity
  8
0
100
AcDbLine
 10
24.06159999999999
 20
4.020909999999999
 30
0.0
 11
24.807
 21
4.020909999999999
 31
0.0
  0
LINE
  5
80
330
1E
100
AcDbEntity
  8
0
100
AcDbLine
 10
24.807
 20
4.020909999999999
 30
0.0
 11
25.4543
 21
4.020909999999999
 31
0.0
  0
LINE
  5
81
330
1E
100
AcDbEntity
  8
0
100
AcDbLine
 10
25.4543
 20
4.020909999999999
 30
0.0
 11
25.60999999999999
 21
4.020909999999999
 31
0.0
  0
LINE
  5
82
330
1E
100
AcDbEntity
  8
0
100
AcDbLine
 10
25.2087
 20
4.020909999999999
 30
0.0
 11
25.60999999999999
 21
4.020909999999999
 31
0.0
  0
LINE
  5
84
330
1E
100
AcDbEntity
  8
0
100
AcDbLine
 10
24.4632
 20
4.020909999999999
 30
0.0
 11
25.2087
 21
4.020909999999999
 31
0.0
  0
LINE
  5
86
330
1E
100
AcDbEntity
  8
0
100
AcDbLine
 10
23.816
 20
4.020909999999999
 30
0.0
 11
24.4632
 21
4.020909999999999
 31
0.0
  0
LINE
  5
88
330
1E
100
AcDbEntity
  8
0
100
AcDbLine
 10
21.5138
 20
4.020909999999999
 30
0.0
 11
22.275
 21
4.020909999999999
 31
0.0
  0
LINE
  5
89
330
1E
100
AcDbEntity
  8
0
100
AcDbLine
 10
22.275
 20
4.020909999999999
 30
0.0
 11
22.8427
 21
4.020909999999999
 31
0.0
  0
LINE
  5
8A
330
1E
100
AcDbEntity
  8
0
100
AcDbLine
 10
22.86659999999999
 20
4.020909999999999
 30
0.0
 11
22.86659999999999
 21
4.8826338028169
 31
0.0
  0
LINE
  5
8B
330
1E
100
AcDbEntity
  8
0
100
AcDbLine
 10
22.359
 20
4.020909999999999
 30
0.0
 11
22.86659999999999
 21
4.020909999999999
 31
0.0
  0
LINE
  5
8D
330
1E
100
AcDbEntity
  8
0
100
AcDbLine
 10
21.5978
 20
4.020909999999999
 30
0.0
 11
22.359
 21
4.020909999999999
 31
0.0
  0
LINE
  5
8F
330
1E
100
AcDbEntity
  8
0
100
AcDbLine
 10
21.0301
 20
4.020909999999999
 30
0.0
 11
21.5978
 21
4.020909999999999
 31
0.0
  0
LINE
  5
91
330
1E
100
AcDbEntity
  8
0
100
AcDbLine
 10
21.0061
 20
4.020909999999999
 30
0.0
 11
21.5138
 21
4.020909999999999
 31
0.0
  0
LINE
  5
93
330
1E
100
AcDbEntity
  8
0
100
AcDbLine
 10
23.6602
 20
4.020909999999999
 30
0.0
 11
24.06159999999999
 21
4.020909999999999
 31
0.0
  0
LINE
  5
94
330
1E
100
AcDbEntity
  8
0
100
AcDbLine
 10
23.6602
 20
4.020909999999999
 30
0.0
 11
23.816
 21
4.020909999999999
 31
0.0
  0
LINE
  5
95
330
1E
100
AcDbEntity
  8
0
100
AcDbLine
 10
23.6602
 20
4.020909999999999
 30
0.0
 11
23.6602
 21
4.97471428571429
 31
0.0
  0
LINE
  5
96
330
1E
100
AcDbEntity
  8
0
100
AcDbLine
 10
23.6602
 20
4.020909999999999
 30
0.0
 11
23.6602
 21
4.581199999999999
 31
0.0
  0
LINE
  5
97
330
1E
100
AcDbEntity
  8
0
100
AcDbLine
 10
23.6602
 20
4.020909999999999
 30
0.0
 11
23.6602
 21
4.581199999999999
 31
0.0
  0
LINE
  5
98
330
1E
100
AcDbEntity
  8
0
100
AcDbLine
 10
20.5853
 20
4.020909999999999
 30
0.0
 11
21.0562
 21
4.020909999999999
 31
0.0
  0
LINE
  5
99
330
1E
100
AcDbEntity
  8
0
100
AcDbLine
 10
20.9476
 20
4.020909999999999
 30
0.0
 11
21.0562
 21
4.020909999999999
 31
0.0
  0
LINE
  5
9A
330
1E
100
AcDbEntity
  8
0
100
AcDbLine
 10
20.9476
 20
4.020909999999999
 30
0.0
 11
20.9476
 21
4.372939999999999
 31
0.0
  0
LINE
  5
9B
330
1E
100
AcDbEntity
  8
0
100
AcDbLine
 10
20.34909999999999
 20
4.020909999999999
 30
0.0
 11
20.9476
 21
4.020909999999999
 31
0.0
  0
LINE
  5
9D
330
1E
100
AcDbEntity
  8
0
100
AcDbLine
 10
19.4815
 20
4.372939999999999
 30
0.0
 11
20.2105
 21
4.372939999999999
 31
0.0
  0
LINE
  5
9E
330
1E
100
AcDbEntity
  8
0
100
AcDbLine
 10
19.3582
 20
4.372939999999999
 30
0.0
 11
20.038
 21
4.372939999999999
 31
0.0
  0
LINE
  5
A0
330
1E
100
AcDbEntity
  8
0
100
AcDbLine
 10
20.2105
 20
4.372939999999999
 30
0.0
 11
20.8903
 21
4.372939999999999
 31
0.0
  0
LINE
  5
A1
330
1E
100
AcDbEntity
  8
0
100
AcDbLine
 10
20.8903
 20
4.372939999999999
 30
0.0
 11
21.1104
 21
4.372939999999999
 31
0.0
  0
LINE
  5
A2
330
1E
100
AcDbEntity
  8
0
100
AcDbLine
 10
20.76709999999999
 20
4.372939999999999
 30
0.0
 11
21.1104
 21
4.372939999999999
 31
0.0
  0
LINE
  5
A4
330
1E
100
AcDbEntity
  8
0
100
AcDbLine
 10
20.038
 20
4.372939999999999
 30
0.0
 11
20.76709999999999
 21
4.372939999999999
 31
0.0
  0
LINE
  5
A6
330
1E
100
AcDbEntity
  8
0
100
AcDbLine
 10
24.1652
 20
4.372939999999999
 30
0.0
 11
24.845
 21
4.372939999999999
 31
0.0
  0
LINE
  5
A7
330
1E
100
AcDbEntity
  8
0
100
AcDbLine
 10
24.845
 20
4.372939999999999
 30
0.0
 11
25.5741
 21
4.372939999999999
 31
0.0
  0
LINE
  5
A8
330
1E
100
AcDbEntity
  8
0
100
AcDbLine
 10
25.0176
 20
4.372939999999999
 30
0.0
 11
25.69729999999999
 21
4.372939999999999
 31
0.0
  0
LINE
  5
AA
330
1E
100
AcDbEntity
  8
0
100
AcDbLine
 10
24.2885
 20
4.372939999999999
 30
0.0
 11
25.0176
 21
4.372939999999999
 31
0.0
  0
LINE
  5
AC
330
1E
100
AcDbEntity
  8
0
100
AcDbLine
 10
23.94509999999999
 20
4.372939999999999
 30
0.0
 11
24.1652
 21
4.372939999999999
 31
0.0
  0
LINE
  5
AD
330
1E
100
AcDbEntity
  8
0
100
AcDbLine
 10
23.94509999999999
 20
4.372939999999999
 30
0.0
 11
24.2885
 21
4.372939999999999
 31
0.0
  0
LINE
  5
AE
330
1E
100
AcDbEntity
  8
0
100
AcDbLine
 10
23.94509999999999
 20
4.372939999999999
 30
0.0
 11
23.94509999999999
 21
5.5
 31
0.0
  0
LINE
  5
AF
330
1E
100
AcDbEntity
  8
0
100
AcDbLine
 10
21.1104
 20
4.372939999999999
 30
0.0
 11
21.1104
 21
5.46462068965517
 31
0.0
  0
LINE
  5
B2
330
1E
100
AcDbEntity
  8
0
100
AcDbLine
 10
25.5741
 20
4.372939999999999
 30
0.0
 11
25.9175
 21
4.372939999999999
 31
0.0
  0
LINE
  5
B5
330
1E
100
AcDbEntity
  8
0
100
AcDbLine
 10
20.9476
 20
4.372939999999999
 30
0.0
 11
20.9476
 21
4.020909999999999
 31
0.0
  0
LINE
  5
B8
330
1E
100
AcDbEntity
  8
0
100
AcDbLine
 10
19.5953
 20
4.020909999999999
 30
0.0
 11
20.34909999999999
 21
4.020909999999999
 31
0.0
  0
LINE
  5
BA
330
1E
100
AcDbEntity
  8
0
100
AcDbLine
 10
19.233
 20
4.020909999999999
 30
0.0
 11
19.8315
 21
4.020909999999999
 31
0.0
  0
LINE
  5
BB
330
1E
100
AcDbEntity
  8
0
100
AcDbLine
 10
15.2688
 20
5.0897696969697
 30
0.0
 11
15.2688
 21
4.372939999999999
 31
0.0
  0
LINE
  5
BC
330
1E
100
AcDbEntity
  8
0
100
AcDbLine
 10
17.1812
 20
5.330703296703299
 30
0.0
 11
17.1812
 21
4.372939999999999
 31
0.0
  0
LINE
  5
C0
330
1E
100
AcDbEntity
  8
0
100
AcDbLine
 10
15.2688
 20
5.41769014084507
 30
0.0
 11
15.2688
 21
4.372939999999999
 31
0.0
  0
LINE
  5
C1
330
1E
100
AcDbEntity
  8
0
100
AcDbLine
 10
14.69999999999999
 20
15.5
 30
0.0
 11
25.1
 21
15.5
 31
0.0
  0
LINE
  5
C2
330
1E
100
AcDbEntity
  8
0
100
AcDbLine
 10
18.1569
 20
4.914733333333329
 30
0.0
 11
18.1569
 21
4.020909999999999
 31
0.0
  0
LINE
  5
C4
330
1E
100
AcDbEntity
  8
0
100
AcDbLine
 10
18.1569
 20
4.94500574712644
 30
0.0
 11
18.1569
 21
4.020909999999999
 31
0.0
  0
LINE
  5
C5
330
1E
100
AcDbEntity
  8
0
100
AcDbLine
 10
22.86659999999999
 20
4.8826338028169
 30
0.0
 11
22.86659999999999
 21
4.020909999999999
 31
0.0
  0
LINE
  5
C7
330
1E
100
AcDbEntity
  8
0
100
AcDbLine
 10
21.1104
 20
5.46462068965517
 30
0.0
 11
21.1104
 21
4.372939999999999
 31
0.0
  0
LINE
  5
CD
330
1E
100
AcDbEntity
  8
0
100
AcDbLine
 10
23.94509999999999
 20
5.5
 30
0.0
 11
23.94509999999999
 21
4.372939999999999
 31
0.0
  0
LINE
  5
D1
330
1E
100
AcDbEntity
  8
0
100
AcDbLine
 10
25.1
 20
15.5
 30
0.0
 11
37.2
 21
15.5
 31
0.0
  0
LINE
  5
D2
330
1E
100
AcDbEntity
  8
0
100
AcDbLine
 10
17.1812
 20
4.973866666666669
 30
0.0
 11
18.1569
 21
4.914733333333329
 31
0.0
  0
LINE
  5
D3
330
1E
100
AcDbEntity
  8
0
100
AcDbLine
 10
22.86659999999999
 20
4.629296969696969
 30
0.0
 11
23.6602
 21
4.581199999999999
 31
0.0
  0
LINE
  5
D4
330
1E
100
AcDbEntity
  8
0
100
AcDbLine
 10
14.2917
 20
5.148987878787879
 30
0.0
 11
15.2688
 21
5.0897696969697
 31
0.0
  0
LINE
  5
D5
330
1E
100
AcDbEntity
  8
0
100
AcDbLine
 10
14.2917
 20
5.148987878787879
 30
0.0
 11
15.2688
 21
5.0897696969697
 31
0.0
  0
LINE
  5
D6
330
1E
100
AcDbEntity
  8
0
100
AcDbLine
 10
15.4
 20
16.0
 30
0.0
 11
25.6
 21
16.0
 31
0.0
  0
LINE
  5
D7
330
1E
100
AcDbEntity
  8
0
100
AcDbLine
 10
27.0352
 20
3.668869
 30
0.0
 11
27.73519999999999
 21
3.668869
 31
0.0
  0
LINE
  5
D9
330
1E
100
AcDbEntity
  8
0
100
AcDbLine
 10
26.0352
 20
3.668869
 30
0.0
 11
26.3352
 21
3.668869
 31
0.0
  0
LINE
  5
DA
330
1E
100
AcDbEntity
  8
0
100
AcDbLine
 10
26.0352
 20
3.668869
 30
0.0
 11
26.0352
 21
4.46638961038961
 31
0.0
  0
LINE
  5
DB
330
1E
100
AcDbEntity
  8
0
100
AcDbLine
 10
26.3352
 20
3.668869
 30
0.0
 11
27.0352
 21
3.668869
 31
0.0
  0
LINE
  5
DD
330
1E
100
AcDbEntity
  8
0
100
AcDbLine
 10
27.73519999999999
 20
3.668869
 30
0.0
 11
28.0352
 21
3.668869
 31
0.0
  0
LINE
  5
DE
330
1E
100
AcDbEntity
  8
0
100
AcDbLine
 10
28.07809999999999
 20
3.668869
 30
0.0
 11
28.8385
 21
3.668869
 31
0.0
  0
LINE
  5
DF
330
1E
100
AcDbEntity
  8
0
100
AcDbLine
 10
32.4942
 20
3.668869
 30
0.0
 11
33.174
 21
3.668869
 31
0.0
  0
LINE
  5
E0
330
1E
100
AcDbEntity
  8
0
100
AcDbLine
 10
33.3941
 20
3.668869
 30
0.0
 11
33.3941
 21
4.448391509433959
 31
0.0
  0
LINE
  5
E1
330
1E
100
AcDbEntity
  8
0
100
AcDbLine
 10
33.174
 20
3.668869
 30
0.0
 11
33.3941
 21
3.668869
 31
0.0
  0
LINE
  5
E2
330
1E
100
AcDbEntity
  8
0
100
AcDbLine
 10
33.0507
 20
3.668869
 30
0.0
 11
33.3941
 21
3.668869
 31
0.0
  0
LINE
  5
E4
330
1E
100
AcDbEntity
  8
0
100
AcDbLine
 10
32.32169999999999
 20
3.668869
 30
0.0
 11
33.0507
 21
3.668869
 31
0.0
  0
LINE
  5
E5
330
1E
100
AcDbEntity
  8
0
100
AcDbLine
 10
32.32169999999999
 20
3.668869
 30
0.0
 11
32.4942
 21
3.668869
 31
0.0
  0
LINE
  5
E7
330
1E
100
AcDbEntity
  8
0
100
AcDbLine
 10
31.6419
 20
3.668869
 30
0.0
 11
32.32169999999999
 21
3.668869
 31
0.0
  0
LINE
  5
E9
330
1E
100
AcDbEntity
  8
0
100
AcDbLine
 10
31.4218
 20
3.668869
 30
0.0
 11
31.6419
 21
3.668869
 31
0.0
  0
LINE
  5
EA
330
1E
100
AcDbEntity
  8
0
100
AcDbLine
 10
31.4218
 20
3.668869
 30
0.0
 11
31.4218
 21
4.020909999999999
 31
0.0
  0
LINE
  5
EB
330
1E
100
AcDbEntity
  8
0
100
AcDbLine
 10
29.3599
 20
3.668869
 30
0.0
 11
29.3599
 21
4.38766558441558
 31
0.0
  0
LINE
  5
EC
330
1E
100
AcDbEntity
  8
0
100
AcDbLine
 10
28.8385
 20
3.668869
 30
0.0
 11
29.3599
 21
3.668869
 31
0.0
  0
LINE
  5
EE
330
1E
100
AcDbEntity
  8
0
100
AcDbLine
 10
28.76219999999999
 20
3.668869
 30
0.0
 11
29.31739999999999
 21
3.668869
 31
0.0
  0
LINE
  5
F0
330
1E
100
AcDbEntity
  8
0
100
AcDbLine
 10
28.0018
 20
3.668869
 30
0.0
 11
28.76219999999999
 21
3.668869
 31
0.0
  0
LINE
  5
F2
330
1E
100
AcDbEntity
  8
0
100
AcDbLine
 10
27.4805
 20
3.668869
 30
0.0
 11
28.0018
 21
3.668869
 31
0.0
  0
LINE
  5
F4
330
1E
100
AcDbEntity
  8
0
100
AcDbLine
 10
27.3975
 20
4.020909999999999
 30
0.0
 11
28.1046
 21
4.020909999999999
 31
0.0
  0
LINE
  5
F6
330
1E
100
AcDbEntity
  8
0
100
AcDbLine
 10
27.1146
 20
4.020909999999999
 30
0.0
 11
27.3975
 21
4.020909999999999
 31
0.0
  0
LINE
  5
F7
330
1E
100
AcDbEntity
  8
0
100
AcDbLine
 10
27.1146
 20
4.020909999999999
 30
0.0
 11
27.1146
 21
4.947017241379309
 31
0.0
  0
LINE
  5
F8
330
1E
100
AcDbEntity
  8
0
100
AcDbLine
 10
25.60999999999999
 20
4.020909999999999
 30
0.0
 11
25.60999999999999
 21
4.372939999999999
 31
0.0
  0
LINE
  5
F9
330
1E
100
AcDbEntity
  8
0
100
AcDbLine
 10
31.4202
 20
4.020909999999999
 30
0.0
 11
32.06739999999999
 21
4.020909999999999
 31
0.0
  0
LINE
  5
FA
330
1E
100
AcDbEntity
  8
0
100
AcDbLine
 10
31.2644
 20
4.020909999999999
 30
0.0
 11
31.4202
 21
4.020909999999999
 31
0.0
  0
LINE
  5
FB
330
1E
100
AcDbEntity
  8
0
100
AcDbLine
 10
31.2644
 20
4.020909999999999
 30
0.0
 11
31.6658
 21
4.020909999999999
 31
0.0
  0
LINE
  5
FC
330
1E
100
AcDbEntity
  8
0
100
AcDbLine
 10
31.2644
 20
4.020909999999999
 30
0.0
 11
31.2644
 21
4.372939999999999
 31
0.0
  0
LINE
  5
FD
330
1E
100
AcDbEntity
  8
0
100
AcDbLine
 10
31.2644
 20
4.020909999999999
 30
0.0
 11
31.4218
 21
4.020909999999999
 31
0.0
  0
LINE
  5
FE
330
1E
100
AcDbEntity
  8
0
100
AcDbLine
 10
31.2644
 20
4.020909999999999
 30
0.0
 11
31.2644
 21
4.29118666666667
 31
0.0
  0
LINE
  5
FF
330
1E
100
AcDbEntity
  8
0
100
AcDbLine
 10
32.06739999999999
 20
4.020909999999999
 30
0.0
 11
32.8129
 21
4.020909999999999
 31
0.0
  0
LINE
  5
100
330
1E
100
AcDbEntity
  8
0
100
AcDbLine
 10
32.8129
 20
4.020909999999999
 30
0.0
 11
33.21419999999999
 21
4.020909999999999
 31
0.0
  0
LINE
  5
101
330
1E
100
AcDbEntity
  8
0
100
AcDbLine
 10
32.4112
 20
4.020909999999999
 30
0.0
 11
33.0585
 21
4.020909999999999
 31
0.0
  0
LINE
  5
103
330
1E
100
AcDbEntity
  8
0
100
AcDbLine
 10
31.6658
 20
4.020909999999999
 30
0.0
 11
32.4112
 21
4.020909999999999
 31
0.0
  0
LINE
  5
105
330
1E
100
AcDbEntity
  8
0
100
AcDbLine
 10
33.21419999999999
 20
4.020909999999999
 30
0.0
 11
33.21419999999999
 21
4.75951479289941
 31
0.0
  0
LINE
  5
106
330
1E
100
AcDbEntity
  8
0
100
AcDbLine
 10
33.0585
 20
4.020909999999999
 30
0.0
 11
33.21419999999999
 21
4.020909999999999
 31
0.0
  0
LINE
  5
10B
330
1E
100
AcDbEntity
  8
0
100
AcDbLine
 10
31.4218
 20
4.020909999999999
 30
0.0
 11
31.4218
 21
3.668869
 31
0.0
  0
LINE
  5
10C
330
1E
100
AcDbEntity
  8
0
100
AcDbLine
 10
29.0945
 20
4.020909999999999
 30
0.0
 11
29.0945
 21
4.77633620689655
 31
0.0
  0
LINE
  5
10D
330
1E
100
AcDbEntity
  8
0
100
AcDbLine
 10
28.8117
 20
4.020909999999999
 30
0.0
 11
29.0945
 21
4.020909999999999
 31
0.0
  0
LINE
  5
10F
330
1E
100
AcDbEntity
  8
0
100
AcDbLine
 10
28.1046
 20
4.020909999999999
 30
0.0
 11
28.8117
 21
4.020909999999999
 31
0.0
  0
LINE
  5
111
330
1E
100
AcDbEntity
  8
0
100
AcDbLine
 10
31.2644
 20
4.29118666666667
 30
0.0
 11
31.2644
 21
4.020909999999999
 31
0.0
  0
LINE
  5
114
330
1E
100
AcDbEntity
  8
0
100
AcDbLine
 10
27.523
 20
3.668869
 30
0.0
 11
28.07809999999999
 21
3.668869
 31
0.0
  0
LINE
  5
115
330
1E
100
AcDbEntity
  8
0
100
AcDbLine
 10
34.4742
 20
3.422442999999999
 30
0.0
 11
35.0234
 21
3.422442999999999
 31
0.0
  0
LINE
  5
116
330
1E
100
AcDbEntity
  8
0
100
AcDbLine
 10
34.1143
 20
3.422442999999999
 30
0.0
 11
34.3522
 21
3.422442999999999
 31
0.0
  0
LINE
  5
117
330
1E
100
AcDbEntity
  8
0
100
AcDbLine
 10
34.1143
 20
3.422442999999999
 30
0.0
 11
34.4742
 21
3.422442999999999
 31
0.0
  0
LINE
  5
118
330
1E
100
AcDbEntity
  8
0
100
AcDbLine
 10
34.1143
 20
3.422442999999999
 30
0.0
 11
34.1143
 21
4.204081168831169
 31
0.0
  0
LINE
  5
119
330
1E
100
AcDbEntity
  8
0
100
AcDbLine
 10
34.1143
 20
4.204081168831169
 30
0.0
 11
34.1143
 21
3.422442999999999
 31
0.0
  0
LINE
  5
11B
330
1E
100
AcDbEntity
  8
0
100
AcDbLine
 10
34.3522
 20
3.422442999999999
 30
0.0
 11
35.0234
 21
3.422442999999999
 31
0.0
  0
LINE
  5
11D
330
1E
100
AcDbEntity
  8
0
100
AcDbLine
 10
33.3941
 20
4.220196666666669
 30
0.0
 11
34.1143
 21
4.19619
 31
0.0
  0
LINE
  5
11E
330
1E
100
AcDbEntity
  8
0
100
AcDbLine
 10
25.9175
 20
4.372939999999999
 30
0.0
 11
25.9175
 21
5.19127218934911
 31
0.0
  0
LINE
  5
11F
330
1E
100
AcDbEntity
  8
0
100
AcDbLine
 10
25.69729999999999
 20
4.372939999999999
 30
0.0
 11
25.9175
 21
4.372939999999999
 31
0.0
  0
LINE
  5
121
330
1E
100
AcDbEntity
  8
0
100
AcDbLine
 10
25.9175
 20
5.19127218934911
 30
0.0
 11
25.9175
 21
4.372939999999999
 31
0.0
  0
LINE
  5
123
330
1E
100
AcDbEntity
  8
0
100
AcDbLine
 10
25.60999999999999
 20
4.372939999999999
 30
0.0
 11
25.60999999999999
 21
4.020909999999999
 31
0.0
  0
LINE
  5
124
330
1E
100
AcDbEntity
  8
0
100
AcDbLine
 10
25.60999999999999
 20
4.372939999999999
 30
0.0
 11
25.69729999999999
 21
4.372939999999999
 31
0.0
  0
LINE
  5
125
330
1E
100
AcDbEntity
  8
0
100
AcDbLine
 10
25.60999999999999
 20
4.372939999999999
 30
0.0
 11
25.9175
 21
4.372939999999999
 31
0.0
  0
LINE
  5
126
330
1E
100
AcDbEntity
  8
0
100
AcDbLine
 10
29.634
 20
4.372939999999999
 30
0.0
 11
30.2438
 21
4.372939999999999
 31
0.0
  0
LINE
  5
127
330
1E
100
AcDbEntity
  8
0
100
AcDbLine
 10
31.2644
 20
4.372939999999999
 30
0.0
 11
31.2644
 21
4.020909999999999
 31
0.0
  0
LINE
  5
128
330
1E
100
AcDbEntity
  8
0
100
AcDbLine
 10
30.2438
 20
4.372939999999999
 30
0.0
 11
31.0
 21
4.372939999999999
 31
0.0
  0
LINE
  5
129
330
1E
100
AcDbEntity
  8
0
100
AcDbLine
 10
31.0
 20
4.372939999999999
 30
0.0
 11
31.4562
 21
4.372939999999999
 31
0.0
  0
LINE
  5
12A
330
1E
100
AcDbEntity
  8
0
100
AcDbLine
 10
31.4562
 20
4.372939999999999
 30
0.0
 11
31.4562
 21
5.35519718309859
 31
0.0
  0
LINE
  5
12B
330
1E
100
AcDbEntity
  8
0
100
AcDbLine
 10
31.366
 20
4.372939999999999
 30
0.0
 11
31.4562
 21
4.372939999999999
 31
0.0
  0
LINE
  5
12D
330
1E
100
AcDbEntity
  8
0
100
AcDbLine
 10
30.7562
 20
4.372939999999999
 30
0.0
 11
31.366
 21
4.372939999999999
 31
0.0
  0
LINE
  5
12F
330
1E
100
AcDbEntity
  8
0
100
AcDbLine
 10
30.0
 20
4.372939999999999
 30
0.0
 11
30.7562
 21
4.372939999999999
 31
0.0
  0
LINE
  5
131
330
1E
100
AcDbEntity
  8
0
100
AcDbLine
 10
29.5438
 20
4.372939999999999
 30
0.0
 11
29.634
 21
4.372939999999999
 31
0.0
  0
LINE
  5
132
330
1E
100
AcDbEntity
  8
0
100
AcDbLine
 10
29.5438
 20
4.372939999999999
 30
0.0
 11
30.0
 21
4.372939999999999
 31
0.0
  0
LINE
  5
133
330
1E
100
AcDbEntity
  8
0
100
AcDbLine
 10
29.5438
 20
4.372939999999999
 30
0.0
 11
29.5438
 21
5.482463414634139
 31
0.0
  0
LINE
  5
134
330
1E
100
AcDbEntity
  8
0
100
AcDbLine
 10
29.3599
 20
4.38766558441558
 30
0.0
 11
29.3599
 21
3.668869
 31
0.0
  0
LINE
  5
137
330
1E
100
AcDbEntity
  8
0
100
AcDbLine
 10
26.0352
 20
4.46638961038961
 30
0.0
 11
26.0352
 21
3.668869
 31
0.0
  0
LINE
  5
138
330
1E
100
AcDbEntity
  8
0
100
AcDbLine
 10
33.21419999999999
 20
4.75951479289941
 30
0.0
 11
33.21419999999999
 21
4.020909999999999
 31
0.0
  0
LINE
  5
13A
330
1E
100
AcDbEntity
  8
0
100
AcDbLine
 10
33.3941
 20
4.448391509433959
 30
0.0
 11
33.3941
 21
3.668869
 31
0.0
  0
LINE
  5
13D
330
1E
100
AcDbEntity
  8
0
100
AcDbLine
 10
29.0945
 20
4.77633620689655
 30
0.0
 11
29.0945
 21
4.020909999999999
 31
0.0
  0
LINE
  5
13F
330
1E
100
AcDbEntity
  8
0
100
AcDbLine
 10
31.4562
 20
5.35519718309859
 30
0.0
 11
31.4562
 21
4.372939999999999
 31
0.0
  0
LINE
  5
146
330
1E
100
AcDbEntity
  8
0
100
AcDbLine
 10
25.9175
 20
4.46941666666667
 30
0.0
 11
26.0352
 21
4.46549333333333
 31
0.0
  0
LINE
  5
147
330
1E
100
AcDbEntity
  8
0
100
AcDbLine
 10
29.3599
 20
4.354669999999999
 30
0.0
 11
31.2644
 21
4.29118666666667
 31
0.0
  0
LINE
  5
148
330
1E
100
AcDbEntity
  8
0
100
AcDbLine
 10
25.6
 20
16.0
 30
0.0
 11
37.4
 21
16.0
 31
0.0
  0
LINE
  5
149
330
1E
100
AcDbEntity
  8
0
100
AcDbLine
 10
14.69999999999999
 20
16.5
 30
0.0
 11
25.1
 21
16.5
 31
0.0
  0
LINE
  5
14A
330
1E
100
AcDbEntity
  8
0
100
AcDbLine
 10
25.1
 20
16.5
 30
0.0
 11
37.2
 21
16.5
 31
0.0
  0
LINE
  5
14B
330
1E
100
AcDbEntity
  8
0
100
AcDbLine
 10
7.599999999999999
 20
16.0
 30
0.0
 11
15.4
 21
16.0
 31
0.0
  0
LINE
  5
14C
330
1E
100
AcDbEntity
  8
0
100
AcDbLine
 10
6.7
 20
16.5
 30
0.0
 11
14.69999999999999
 21
16.5
 31
0.0
  0
LINE
  5
14D
330
1E
100
AcDbEntity
  8
0
100
AcDbLine
 10
2.799999999999999
 20
16.0
 30
0.0
 11
7.599999999999999
 21
16.0
 31
0.0
  0
LINE
  5
14E
330
1E
100
AcDbEntity
  8
0
100
AcDbLine
 10
1.8
 20
16.5
 30
0.0
 11
6.7
 21
16.5
 31
0.0
  0
LINE
  5
14F
330
1E
100
AcDbEntity
  8
0
100
AcDbLine
 10
1.0
 20
16.0
 30
0.0
 11
2.799999999999999
 21
16.0
 31
0.0
  0
LINE
  5
150
330
1E
100
AcDbEntity
  8
0
100
AcDbLine
 10
0.5
 20
28.0
 30
0.0
 11
2.299999999999999
 21
28.0
 31
0.0
  0
LINE
  5
151
330
1E
100
AcDbEntity
  8
0
100
AcDbLine
 10
0.5
 20
28.0
 30
0.0
 11
1.5
 21
28.5
 31
0.0
  0
LINE
  5
152
330
1E
100
AcDbEntity
  8
0
100
AcDbLine
 10
1.5
 20
28.5
 30
0.0
 11
30.5
 21
38.0
 31
0.0
  0
LINE
  5
153
330
1E
100
AcDbEntity
  8
0
100
AcDbLine
 10
2.299999999999999
 20
28.0
 30
0.0
 11
7.099999999999999
 21
28.0
 31
0.0
  0
LINE
  5
154
330
1E
100
AcDbEntity
  8
0
100
AcDbLine
 10
15.0
 20
28.0
 30
0.0
 11
25.4
 21
28.0
 31
0.0
  0
LINE
  5
155
330
1E
100
AcDbEntity
  8
0
100
AcDbLine
 10
25.4
 20
28.0
 30
0.0
 11
37.29999999999999
 21
28.0
 31
0.0
  0
LINE
  5
156
330
1E
100
AcDbEntity
  8
0
100
AcDbLine
 10
7.099999999999999
 20
28.0
 30
0.0
 11
15.0
 21
28.0
 31
0.0
  0
LINE
  5
157
330
1E
100
AcDbEntity
  8
0
100
AcDbLine
 10
2.299999999999999
 20
28.0
 30
0.0
 11
7.099999999999999
 21
28.0
 31
0.0
  0
LINE
  5
158
330
1E
100
AcDbEntity
  8
0
100
AcDbLine
 10
33.6
 20
41.0
 30
0.0
 11
35.29999999999999
 21
41.0
 31
0.0
  0
LINE
  5
159
330
1E
100
AcDbEntity
  8
0
100
AcDbLine
 10
33.0
 20
41.0
 30
0.0
 11
33.6
 21
41.0
 31
0.0
  0
LINE
  5
15A
330
1E
100
AcDbEntity
  8
0
100
AcDbLine
 10
32.0
 20
39.0
 30
0.0
 11
33.0
 21
41.0
 31
0.0
  0
LINE
  5
15B
330
1E
100
AcDbEntity
  8
0
100
AcDbLine
 10
30.5
 20
38.0
 30
0.0
 11
32.0
 21
39.0
 31
0.0
  0
LINE
  5
15C
330
1E
100
AcDbEntity
  8
0
100
AcDbLine
 10
1.5
 20
28.5
 30
0.0
 11
30.5
 21
38.0
 31
0.0
  0
LINE
  5
15D
330
1E
100
AcDbEntity
  8
0
100
AcDbLine
 10
0.500000000000001
 20
28.0
 30
0.0
 11
1.5
 21
28.5
 31
0.0
  0
LINE
  5
15E
330
1E
100
AcDbEntity
  8
0
100
AcDbLine
 10
0.500000000000001
 20
28.0
 30
0.0
 11
2.299999999999999
 21
28.0
 31
0.0
  0
LINE
  5
15F
330
1E
100
AcDbEntity
  8
0
100
AcDbLine
 10
0.0000000000000004
 20
27.0
 30
0.0
 11
0.500000000000001
 21
28.0
 31
0.0
  0
LINE
  5
160
330
1E
100
AcDbEntity
  8
0
100
AcDbLine
 10
-0.0000000000000002
 20
16.5
 30
0.0
 11
1.0
 21
16.0
 31
0.0
  0
LINE
  5
161
330
1E
100
AcDbEntity
  8
0
100
AcDbLine
 10
35.0
 20
61.0
 30
0.0
 11
37.0
 21
62.0
 31
0.0
  0
LINE
  5
162
330
1E
100
AcDbEntity
  8
0
100
AcDbLine
 10
35.0
 20
61.0
 30
0.0
 11
35.0
 21
54.0
 31
0.0
  0
LINE
  5
163
330
1E
100
AcDbEntity
  8
0
100
AcDbLine
 10
35.0
 20
61.0
 30
0.0
 11
35.5
 21
61.0
 31
0.0
  0
LINE
  5
164
330
1E
100
AcDbEntity
  8
0
100
AcDbLine
 10
35.0
 20
54.0
 30
0.0
 11
36.0
 21
53.5
 31
0.0
  0
LINE
  5
165
330
1E
100
AcDbEntity
  8
0
100
AcDbLine
 10
35.0
 20
54.0
 30
0.0
 11
35.0
 21
61.0
 31
0.0
  0
LINE
  5
166
330
1E
100
AcDbEntity
  8
0
100
AcDbLine
 10
35.0
 20
54.0
 30
0.0
 11
35.5
 21
54.0
 31
0.0
  0
LINE
  5
167
330
1E
100
AcDbEntity
  8
0
100
AcDbLine
 10
35.0
 20
53.0
 30
0.0
 11
36.0
 21
53.5
 31
0.0
  0
LINE
  5
168
330
1E
100
AcDbEntity
  8
0
100
AcDbLine
 10
35.0
 20
53.0
 30
0.0
 11
35.0
 21
41.0
 31
0.0
  0
LINE
  5
169
330
1E
100
AcDbEntity
  8
0
100
AcDbLine
 10
35.0
 20
53.0
 30
0.0
 11
35.5
 21
53.0
 31
0.0
  0
LINE
  5
16B
330
1E
100
AcDbEntity
  8
0
100
AcDbLine
 10
35.0234
 20
3.422442999999999
 30
0.0
 11
35.74689999999999
 21
3.422442999999999
 31
0.0
  0
LINE
  5
16D
330
1E
100
AcDbEntity
  8
0
100
AcDbLine
 10
35.7215
 20
5.5
 30
0.0
 11
35.7215
 21
4.372939999999999
 31
0.0
  0
LINE
  5
16F
330
1E
100
AcDbEntity
  8
0
100
AcDbLine
 10
35.74689999999999
 20
3.422442999999999
 30
0.0
 11
35.86889999999999
 21
3.422442999999999
 31
0.0
  0
LINE
  5
170
330
1E
100
AcDbEntity
  8
0
100
AcDbLine
 10
35.74689999999999
 20
3.422442999999999
 30
0.0
 11
36.10669999999999
 21
3.422442999999999
 31
0.0
  0
LINE
  5
173
330
1E
100
AcDbEntity
  8
0
100
AcDbLine
 10
35.86889999999999
 20
3.422442999999999
 30
0.0
 11
36.10669999999999
 21
3.422442999999999
 31
0.0
  0
LINE
  5
174
330
1E
100
AcDbEntity
  8
0
100
AcDbLine
 10
36.0074
 20
4.020909999999999
 30
0.0
 11
36.5751
 21
4.020909999999999
 31
0.0
  0
LINE
  5
175
330
1E
100
AcDbEntity
  8
0
100
AcDbLine
 10
35.98349999999999
 20
4.372939999999999
 30
0.0
 11
35.98349999999999
 21
4.020909999999999
 31
0.0
  0
LINE
  5
176
330
1E
100
AcDbEntity
  8
0
100
AcDbLine
 10
35.98349999999999
 20
4.020909999999999
 30
0.0
 11
36.4911
 21
4.020909999999999
 31
0.0
  0
LINE
  5
177
330
1E
100
AcDbEntity
  8
0
100
AcDbLine
 10
35.98349999999999
 20
4.020909999999999
 30
0.0
 11
35.98349999999999
 21
4.372939999999999
 31
0.0
  0
LINE
  5
179
330
1E
100
AcDbEntity
  8
0
100
AcDbLine
 10
35.8751
 20
3.422442999999999
 30
0.0
 11
36.4428
 21
3.422442999999999
 31
0.0
  0
LINE
  5
17B
330
1E
100
AcDbEntity
  8
0
100
AcDbLine
 10
35.85119999999999
 20
3.422442999999999
 30
0.0
 11
36.3588
 21
3.422442999999999
 31
0.0
  0
LINE
  5
17D
330
1E
100
AcDbEntity
  8
0
100
AcDbLine
 10
36.2428
 20
4.372939999999999
 30
0.0
 11
37.0032
 21
4.372939999999999
 31
0.0
  0
LINE
  5
17E
330
1E
100
AcDbEntity
  8
0
100
AcDbLine
 10
36.3588
 20
3.422442999999999
 30
0.0
 11
37.11999999999999
 21
3.422442999999999
 31
0.0
  0
LINE
  5
17F
330
1E
100
AcDbEntity
  8
0
100
AcDbLine
 10
36.5751
 20
4.020909999999999
 30
0.0
 11
37.3363
 21
4.020909999999999
 31
0.0
  0
LINE
  5
181
330
1E
100
AcDbEntity
  8
0
100
AcDbLine
 10
36.4911
 20
4.020909999999999
 30
0.0
 11
37.25229999999999
 21
4.020909999999999
 31
0.0
  0
LINE
  5
184
330
1E
100
AcDbEntity
  8
0
100
AcDbLine
 10
36.4428
 20
3.422442999999999
 30
0.0
 11
37.204
 21
3.422442999999999
 31
0.0
  0
LINE
  5
186
330
1E
100
AcDbEntity
  8
0
100
AcDbLine
 10
37.11999999999999
 20
3.422442999999999
 30
0.0
 11
37.68769999999999
 21
3.422442999999999
 31
0.0
  0
LINE
  5
187
330
1E
100
AcDbEntity
  8
0
100
AcDbLine
 10
37.3363
 20
4.020909999999999
 30
0.0
 11
37.844
 21
4.020909999999999
 31
0.0
  0
LINE
  5
189
330
1E
100
AcDbEntity
  8
0
100
AcDbLine
 10
37.25229999999999
 20
4.020909999999999
 30
0.0
 11
37.82
 21
4.020909999999999
 31
0.0
  0
LINE
  5
18C
330
1E
100
AcDbEntity
  8
0
100
AcDbLine
 10
37.204
 20
3.422442999999999
 30
0.0
 11
37.7117
 21
3.422442999999999
 31
0.0
  0
LINE
  5
18E
330
1E
100
AcDbEntity
  8
0
100
AcDbLine
 10
37.0032
 20
4.372939999999999
 30
0.0
 11
37.5584
 21
4.372939999999999
 31
0.0
  0
LINE
  5
18F
330
1E
100
AcDbEntity
  8
0
100
AcDbLine
 10
37.07959999999999
 20
4.372939999999999
 30
0.0
 11
37.6009
 21
4.372939999999999
 31
0.0
  0
LINE
  5
191
330
1E
100
AcDbEntity
  8
0
100
AcDbLine
 10
36.3192
 20
4.372939999999999
 30
0.0
 11
37.07959999999999
 21
4.372939999999999
 31
0.0
  0
LINE
  5
196
330
1E
100
AcDbEntity
  8
0
100
AcDbLine
 10
35.764
 20
4.372939999999999
 30
0.0
 11
36.3192
 21
4.372939999999999
 31
0.0
  0
LINE
  5
198
330
1E
100
AcDbEntity
  8
0
100
AcDbLine
 10
35.7215
 20
4.372939999999999
 30
0.0
 11
36.2428
 21
4.372939999999999
 31
0.0
  0
LINE
  5
199
330
1E
100
AcDbEntity
  8
0
100
AcDbLine
 10
35.7215
 20
4.372939999999999
 30
0.0
 11
35.7215
 21
5.5
 31
0.0
  0
LINE
  5
19A
330
1E
100
AcDbEntity
  8
0
100
AcDbLine
 10
37.2
 20
15.5
 30
0.0
 11
50.0
 21
15.5
 31
0.0
  0
LINE
  5
19B
330
1E
100
AcDbEntity
  8
0
100
AcDbLine
 10
41.21329999999999
 20
3.422442999999999
 30
0.0
 11
41.21329999999999
 21
4.020909999999999
 31
0.0
  0
LINE
  5
19C
330
1E
100
AcDbEntity
  8
0
100
AcDbLine
 10
40.9305
 20
3.422442999999999
 30
0.0
 11
41.21329999999999
 21
3.422442999999999
 31
0.0
  0
LINE
  5
19E
330
1E
100
AcDbEntity
  8
0
100
AcDbLine
 10
40.22339999999999
 20
3.422442999999999
 30
0.0
 11
40.9305
 21
3.422442999999999
 31
0.0
  0
LINE
  5
1A0
330
1E
100
AcDbEntity
  8
0
100
AcDbLine
 10
39.5163
 20
3.422442999999999
 30
0.0
 11
40.22339999999999
 21
3.422442999999999
 31
0.0
  0
LINE
  5
1A2
330
1E
100
AcDbEntity
  8
0
100
AcDbLine
 10
39.2334
 20
3.422442999999999
 30
0.0
 11
39.5163
 21
3.422442999999999
 31
0.0
  0
LINE
  5
1A3
330
1E
100
AcDbEntity
  8
0
100
AcDbLine
 10
39.2334
 20
3.422442999999999
 30
0.0
 11
39.2334
 21
3.668869
 31
0.0
  0
LINE
  5
1A4
330
1E
100
AcDbEntity
  8
0
100
AcDbLine
 10
37.7117
 20
3.422442999999999
 30
0.0
 11
37.7117
 21
3.668869
 31
0.0
  0
LINE
  5
1A5
330
1E
100
AcDbEntity
  8
0
100
AcDbLine
 10
37.6516
 20
3.668869
 30
0.0
 11
38.2614
 21
3.668869
 31
0.0
  0
LINE
  5
1A6
330
1E
100
AcDbEntity
  8
0
100
AcDbLine
 10
37.5614
 20
3.668869
 30
0.0
 11
37.6516
 21
3.668869
 31
0.0
  0
LINE
  5
1A7
330
1E
100
AcDbEntity
  8
0
100
AcDbLine
 10
37.5614
 20
3.668869
 30
0.0
 11
38.0176
 21
3.668869
 31
0.0
  0
LINE
  5
1A8
330
1E
100
AcDbEntity
  8
0
100
AcDbLine
 10
37.5614
 20
3.668869
 30
0.0
 11
37.5614
 21
4.020909999999999
 31
0.0
  0
LINE
  5
1A9
330
1E
100
AcDbEntity
  8
0
100
AcDbLine
 10
38.2614
 20
3.668869
 30
0.0
 11
39.0176
 21
3.668869
 31
0.0
  0
LINE
  5
1AA
330
1E
100
AcDbEntity
  8
0
100
AcDbLine
 10
39.0176
 20
3.668869
 30
0.0
 11
39.47379999999999
 21
3.668869
 31
0.0
  0
LINE
  5
1AB
330
1E
100
AcDbEntity
  8
0
100
AcDbLine
 10
39.0176
 20
3.668869
 30
0.0
 11
39.2334
 21
3.668869
 31
0.0
  0
LINE
  5
1AC
330
1E
100
AcDbEntity
  8
0
100
AcDbLine
 10
39.47379999999999
 20
3.668869
 30
0.0
 11
39.47379999999999
 21
4.404397959183669
 31
0.0
  0
LINE
  5
1AD
330
1E
100
AcDbEntity
  8
0
100
AcDbLine
 10
39.3836
 20
3.668869
 30
0.0
 11
39.47379999999999
 21
3.668869
 31
0.0
  0
LINE
  5
1AF
330
1E
100
AcDbEntity
  8
0
100
AcDbLine
 10
38.7738
 20
3.668869
 30
0.0
 11
39.3836
 21
3.668869
 31
0.0
  0
LINE
  5
1B1
330
1E
100
AcDbEntity
  8
0
100
AcDbLine
 10
38.7738
 20
3.668869
 30
0.0
 11
39.2334
 21
3.668869
 31
0.0
  0
LINE
  5
1B2
330
1E
100
AcDbEntity
  8
0
100
AcDbLine
 10
38.0176
 20
3.668869
 30
0.0
 11
38.7738
 21
3.668869
 31
0.0
  0
LINE
  5
1B4
330
1E
100
AcDbEntity
  8
0
100
AcDbLine
 10
39.2334
 20
3.668869
 30
0.0
 11
39.2334
 21
3.422442999999999
 31
0.0
  0
LINE
  5
1B5
330
1E
100
AcDbEntity
  8
0
100
AcDbLine
 10
37.7117
 20
3.668869
 30
0.0
 11
37.7117
 21
3.422442999999999
 31
0.0
  0
LINE
  5
1B6
330
1E
100
AcDbEntity
  8
0
100
AcDbLine
 10
37.7117
 20
3.668869
 30
0.0
 11
38.0176
 21
3.668869
 31
0.0
  0
LINE
  5
1B7
330
1E
100
AcDbEntity
  8
0
100
AcDbLine
 10
37.7117
 20
3.668869
 30
0.0
 11
38.2614
 21
3.668869
 31
0.0
  0
LINE
  5
1B9
330
1E
100
AcDbEntity
  8
0
100
AcDbLine
 10
42.0
 20
4.0
 30
0.0
 11
42.0
 21
3.2
 31
0.0
  0
LINE
  5
1BA
330
1E
100
AcDbEntity
  8
0
100
AcDbLine
 10
42.0
 20
3.2
 30
0.0
 11
42.29999999999999
 21
3.2
 31
0.0
  0
LINE
  5
1BB
330
1E
100
AcDbEntity
  8
0
100
AcDbLine
 10
42.0
 20
3.2
 30
0.0
 11
42.0
 21
4.0
 31
0.0
  0
LINE
  5
1BD
330
1E
100
AcDbEntity
  8
0
100
AcDbLine
 10
43.0
 20
3.2
 30
0.0
 11
43.7
 21
3.2
 31
0.0
  0
LINE
  5
1BF
330
1E
100
AcDbEntity
  8
0
100
AcDbLine
 10
42.29999999999999
 20
3.2
 30
0.0
 11
43.0
 21
3.2
 31
0.0
  0
LINE
  5
1C2
330
1E
100
AcDbEntity
  8
0
100
AcDbLine
 10
43.7
 20
3.2
 30
0.0
 11
44.0
 21
3.2
 31
0.0
  0
LINE
  5
1C3
330
1E
100
AcDbEntity
  8
0
100
AcDbLine
 10
43.74349999999999
 20
3.2
 30
0.0
 11
44.47259999999999
 21
3.2
 31
0.0
  0
LINE
  5
1C4
330
1E
100
AcDbEntity
  8
0
100
AcDbLine
 10
44.47259999999999
 20
3.2
 30
0.0
 11
45.1524
 21
3.2
 31
0.0
  0
LINE
  5
1C5
330
1E
100
AcDbEntity
  8
0
100
AcDbLine
 10
44.29999999999999
 20
3.2
 30
0.0
 11
45.02909999999999
 21
3.2
 31
0.0
  0
LINE
  5
1C9
330
1E
100
AcDbEntity
  8
0
100
AcDbLine
 10
43.62029999999999
 20
3.2
 30
0.0
 11
44.29999999999999
 21
3.2
 31
0.0
  0
LINE
  5
1CB
330
1E
100
AcDbEntity
  8
0
100
AcDbLine
 10
43.4001
 20
3.2
 30
0.0
 11
43.74349999999999
 21
3.2
 31
0.0
  0
LINE
  5
1CC
330
1E
100
AcDbEntity
  8
0
100
AcDbLine
 10
43.4001
 20
3.2
 30
0.0
 11
43.62029999999999
 21
3.2
 31
0.0
  0
LINE
  5
1CE
330
1E
100
AcDbEntity
  8
0
100
AcDbLine
 10
42.9
 20
4.0
 30
0.0
 11
45.0
 21
4.0
 31
0.0
  0
LINE
  5
1CF
330
1E
100
AcDbEntity
  8
0
100
AcDbLine
 10
45.3725
 20
3.2
 30
0.0
 11
45.3725
 21
3.668869
 31
0.0
  0
LINE
  5
1D0
330
1E
100
AcDbEntity
  8
0
100
AcDbLine
 10
45.1524
 20
3.2
 30
0.0
 11
45.3725
 21
3.2
 31
0.0
  0
LINE
  5
1D1
330
1E
100
AcDbEntity
  8
0
100
AcDbLine
 10
45.02909999999999
 20
3.2
 30
0.0
 11
45.3725
 21
3.2
 31
0.0
  0
LINE
  5
1D3
330
1E
100
AcDbEntity
  8
0
100
AcDbLine
 10
47.27399999999999
 20
3.2
 30
0.0
 11
48.0155
 21
3.2
 31
0.0
  0
LINE
  5
1D4
330
1E
100
AcDbEntity
  8
0
100
AcDbLine
 10
48.0155
 20
3.2
 30
0.0
 11
48.6528
 21
3.2
 31
0.0
  0
LINE
  5
1D5
330
1E
100
AcDbEntity
  8
0
100
AcDbLine
 10
48.4097
 20
3.2
 30
0.0
 11
48.8267
 21
3.2
 31
0.0
  0
LINE
  5
1D6
330
1E
100
AcDbEntity
  8
0
100
AcDbLine
 10
48.4097
 20
3.2
 30
0.0
 11
48.4097
 21
4.0
 31
0.0
  0
LINE
  5
1D7
330
1E
100
AcDbEntity
  8
0
100
AcDbLine
 10
47.6682
 20
3.2
 30
0.0
 11
48.4097
 21
3.2
 31
0.0
  0
LINE
  5
1D9
330
1E
100
AcDbEntity
  8
0
100
AcDbLine
 10
47.0309
 20
3.2
 30
0.0
 11
47.6682
 21
3.2
 31
0.0
  0
LINE
  5
1DB
330
1E
100
AcDbEntity
  8
0
100
AcDbLine
 10
46.85699999999999
 20
3.2
 30
0.0
 11
47.0309
 21
3.2
 31
0.0
  0
LINE
  5
1DC
330
1E
100
AcDbEntity
  8
0
100
AcDbLine
 10
46.85699999999999
 20
3.2
 30
0.0
 11
47.27399999999999
 21
3.2
 31
0.0
  0
LINE
  5
1DD
330
1E
100
AcDbEntity
  8
0
100
AcDbLine
 10
46.85699999999999
 20
3.2
 30
0.0
 11
46.85699999999999
 21
3.422442999999999
 31
0.0
  0
LINE
  5
1DE
330
1E
100
AcDbEntity
  8
0
100
AcDbLine
 10
48.4116142512776
 20
3.2
 30
0.0
 11
48.5
 21
2.0
 31
0.0
  0
LINE
  5
1DF
330
1E
100
AcDbEntity
  8
0
100
AcDbLine
 10
45.3725
 20
3.668869
 30
0.0
 11
45.3725
 21
3.2
 31
0.0
  0
LINE
  5
1E0
330
1E
100
AcDbEntity
  8
0
100
AcDbLine
 10
45.3725
 20
3.668869
 30
0.0
 11
45.8386
 21
3.668869
 31
0.0
  0
LINE
  5
1E1
330
1E
100
AcDbEntity
  8
0
100
AcDbLine
 10
45.3725
 20
3.668869
 30
0.0
 11
45.4444
 21
3.668869
 31
0.0
  0
LINE
  5
1E3
330
1E
100
AcDbEntity
  8
0
100
AcDbLine
 10
45.4444
 20
3.668869
 30
0.0
 11
46.1859
 21
3.668869
 31
0.0
  0
LINE
  5
1E4
330
1E
100
AcDbEntity
  8
0
100
AcDbLine
 10
45.4444
 20
3.668869
 30
0.0
 11
45.90559999999999
 21
3.668869
 31
0.0
  0
LINE
  5
1E5
330
1E
100
AcDbEntity
  8
0
100
AcDbLine
 10
45.90559999999999
 20
3.668869
 30
0.0
 11
45.90559999999999
 21
3.422442999999999
 31
0.0
  0
LINE
  5
1E6
330
1E
100
AcDbEntity
  8
0
100
AcDbLine
 10
45.9295
 20
3.422442999999999
 30
0.0
 11
46.4973
 21
3.422442999999999
 31
0.0
  0
LINE
  5
1E7
330
1E
100
AcDbEntity
  8
0
100
AcDbLine
 10
46.4973
 20
3.422442999999999
 30
0.0
 11
47.2585
 21
3.422442999999999
 31
0.0
  0
LINE
  5
1E8
330
1E
100
AcDbEntity
  8
0
100
AcDbLine
 10
46.4973
 20
3.422442999999999
 30
0.0
 11
46.85699999999999
 21
3.422442999999999
 31
0.0
  0
LINE
  5
1EA
330
1E
100
AcDbEntity
  8
0
100
AcDbLine
 10
46.4132
 20
3.422442999999999
 30
0.0
 11
47.17439999999999
 21
3.422442999999999
 31
0.0
  0
LINE
  5
1EC
330
1E
100
AcDbEntity
  8
0
100
AcDbLine
 10
46.4132
 20
3.422442999999999
 30
0.0
 11
46.85699999999999
 21
3.422442999999999
 31
0.0
  0
LINE
  5
1ED
330
1E
100
AcDbEntity
  8
0
100
AcDbLine
 10
45.90559999999999
 20
3.422442999999999
 30
0.0
 11
46.4132
 21
3.422442999999999
 31
0.0
  0
LINE
  5
1EE
330
1E
100
AcDbEntity
  8
0
100
AcDbLine
 10
45.90559999999999
 20
3.422442999999999
 30
0.0
 11
45.90559999999999
 21
3.668869
 31
0.0
  0
LINE
  5
1EF
330
1E
100
AcDbEntity
  8
0
100
AcDbLine
 10
46.1859
 20
3.668869
 30
0.0
 11
46.8231
 21
3.668869
 31
0.0
  0
LINE
  5
1F0
330
1E
100
AcDbEntity
  8
0
100
AcDbLine
 10
47.2585
 20
3.422442999999999
 30
0.0
 11
47.7661
 21
3.422442999999999
 31
0.0
  0
LINE
  5
1F1
330
1E
100
AcDbEntity
  8
0
100
AcDbLine
 10
47.17439999999999
 20
3.422442999999999
 30
0.0
 11
47.7421
 21
3.422442999999999
 31
0.0
  0
LINE
  5
1F3
330
1E
100
AcDbEntity
  8
0
100
AcDbLine
 10
47.7661
 20
3.422442999999999
 30
0.0
 11
47.7661
 21
4.020909999999999
 31
0.0
  0
LINE
  5
1F7
330
1E
100
AcDbEntity
  8
0
100
AcDbLine
 10
46.85699999999999
 20
3.422442999999999
 30
0.0
 11
46.85699999999999
 21
3.2
 31
0.0
  0
LINE
  5
1F8
330
1E
100
AcDbEntity
  8
0
100
AcDbLine
 10
46.99699999999999
 20
3.668869
 30
0.0
 11
46.99699999999999
 21
4.020909999999999
 31
0.0
  0
LINE
  5
1F9
330
1E
100
AcDbEntity
  8
0
100
AcDbLine
 10
46.8231
 20
3.668869
 30
0.0
 11
46.99699999999999
 21
3.668869
 31
0.0
  0
LINE
  5
1FA
330
1E
100
AcDbEntity
  8
0
100
AcDbLine
 10
46.58
 20
3.668869
 30
0.0
 11
46.99699999999999
 21
3.668869
 31
0.0
  0
LINE
  5
1FC
330
1E
100
AcDbEntity
  8
0
100
AcDbLine
 10
45.8386
 20
3.668869
 30
0.0
 11
46.58
 21
3.668869
 31
0.0
  0
LINE
  5
1FE
330
1E
100
AcDbEntity
  8
0
100
AcDbLine
 10
45.8386
 20
3.668869
 30
0.0
 11
45.90559999999999
 21
3.668869
 31
0.0
  0
LINE
  5
1FF
330
1E
100
AcDbEntity
  8
0
100
AcDbLine
 10
45.2013
 20
3.668869
 30
0.0
 11
45.8386
 21
3.668869
 31
0.0
  0
LINE
  5
201
330
1E
100
AcDbEntity
  8
0
100
AcDbLine
 10
45.0274
 20
3.668869
 30
0.0
 11
45.2013
 21
3.668869
 31
0.0
  0
LINE
  5
202
330
1E
100
AcDbEntity
  8
0
100
AcDbLine
 10
45.0274
 20
3.668869
 30
0.0
 11
45.4444
 21
3.668869
 31
0.0
  0
LINE
  5
203
330
1E
100
AcDbEntity
  8
0
100
AcDbLine
 10
45.0274
 20
3.668869
 30
0.0
 11
45.0274
 21
4.5
 31
0.0
  0
LINE
  5
204
330
1E
100
AcDbEntity
  8
0
100
AcDbLine
 10
48.4185047492478
 20
3.2
 30
0.0
 11
48.5
 21
2.0
 31
0.0
  0
LINE
  5
205
330
1E
100
AcDbEntity
  8
0
100
AcDbLine
 10
50.0
 20
-0.0000000000000024
 30
0.0
 11
51.05
 21
0.5999999999999979
 31
0.0
  0
LINE
  5
206
330
1E
100
AcDbEntity
  8
0
100
AcDbLine
 10
51.05
 20
0.5999999999999979
 30
0.0
 11
51.5
 21
2.0
 31
0.0
  0
LINE
  5
207
330
1E
100
AcDbEntity
  8
0
100
AcDbLine
 10
50.0
 20
-0.0000000000000024
 30
0.0
 11
51.05
 21
0.5999999999999979
 31
0.0
  0
LINE
  5
208
330
1E
100
AcDbEntity
  8
0
100
AcDbLine
 10
51.05
 20
0.5999999999999979
 30
0.0
 11
51.5
 21
2.0
 31
0.0
  0
LINE
  5
209
330
1E
100
AcDbEntity
  8
0
100
AcDbLine
 10
51.0
 20
3.0
 30
0.0
 11
51.0
 21
4.0
 31
0.0
  0
LINE
  5
20A
330
1E
100
AcDbEntity
  8
0
100
AcDbLine
 10
50.7
 20
3.0
 30
0.0
 11
51.0
 21
3.0
 31
0.0
  0
LINE
  5
20B
330
1E
100
AcDbEntity
  8
0
100
AcDbLine
 10
50.7
 20
3.0
 30
0.0
 11
50.7
 21
4.0
 31
0.0
  0
LINE
  5
20C
330
1E
100
AcDbEntity
  8
0
100
AcDbLine
 10
50.0
 20
3.0
 30
0.0
 11
50.7
 21
3.0
 31
0.0
  0
LINE
  5
20D
330
1E
100
AcDbEntity
  8
0
100
AcDbLine
 10
50.0
 20
3.0
 30
0.0
 11
50.0
 21
4.0
 31
0.0
  0
LINE
  5
20E
330
1E
100
AcDbEntity
  8
0
100
AcDbLine
 10
48.8267
 20
3.2
 30
0.0
 11
48.8267
 21
4.0
 31
0.0
  0
LINE
  5
20F
330
1E
100
AcDbEntity
  8
0
100
AcDbLine
 10
48.6528
 20
3.2
 30
0.0
 11
48.8267
 21
3.2
 31
0.0
  0
LINE
  5
210
330
1E
100
AcDbEntity
  8
0
100
AcDbLine
 10
49.0
 20
3.0
 30
0.0
 11
49.29999999999999
 21
3.0
 31
0.0
  0
LINE
  5
211
330
1E
100
AcDbEntity
  8
0
100
AcDbLine
 10
49.0
 20
3.0
 30
0.0
 11
49.0
 21
4.0
 31
0.0
  0
LINE
  5
212
330
1E
100
AcDbEntity
  8
0
100
AcDbLine
 10
49.29999999999999
 20
3.0
 30
0.0
 11
50.0
 21
3.0
 31
0.0
  0
LINE
  5
213
330
1E
100
AcDbEntity
  8
0
100
AcDbLine
 10
49.29999999999999
 20
3.0
 30
0.0
 11
49.29999999999999
 21
4.0
 31
0.0
  0
LINE
  5
214
330
1E
100
AcDbEntity
  8
0
100
AcDbLine
 10
51.7871
 20
3.2
 30
0.0
 11
52.4244
 21
3.2
 31
0.0
  0
LINE
  5
215
330
1E
100
AcDbEntity
  8
0
100
AcDbLine
 10
51.61319999999999
 20
3.2
 30
0.0
 11
52.0302
 21
3.2
 31
0.0
  0
LINE
  5
216
330
1E
100
AcDbEntity
  8
0
100
AcDbLine
 10
51.61319999999999
 20
3.2
 30
0.0
 11
51.7871
 21
3.2
 31
0.0
  0
LINE
  5
217
330
1E
100
AcDbEntity
  8
0
100
AcDbLine
 10
51.61319999999999
 20
3.2
 30
0.0
 11
51.61319999999999
 21
4.0
 31
0.0
  0
LINE
  5
218
330
1E
100
AcDbEntity
  8
0
100
AcDbLine
 10
53.1658
 20
3.2
 30
0.0
 11
53.5828
 21
3.2
 31
0.0
  0
LINE
  5
219
330
1E
100
AcDbEntity
  8
0
100
AcDbLine
 10
52.4244
 20
3.2
 30
0.0
 11
53.1658
 21
3.2
 31
0.0
  0
LINE
  5
21A
330
1E
100
AcDbEntity
  8
0
100
AcDbLine
 10
52.0302
 20
3.2
 30
0.0
 11
52.7717
 21
3.2
 31
0.0
  0
LINE
  5
21C
330
1E
100
AcDbEntity
  8
0
100
AcDbLine
 10
52.7717
 20
3.2
 30
0.0
 11
53.409
 21
3.2
 31
0.0
  0
LINE
  5
21E
330
1E
100
AcDbEntity
  8
0
100
AcDbLine
 10
54.8476
 20
3.2
 30
0.0
 11
55.5274
 21
3.2
 31
0.0
  0
LINE
  5
21F
330
1E
100
AcDbEntity
  8
0
100
AcDbLine
 10
54.62749999999999
 20
3.2
 30
0.0
 11
54.9709
 21
3.2
 31
0.0
  0
LINE
  5
220
330
1E
100
AcDbEntity
  8
0
100
AcDbLine
 10
54.62749999999999
 20
3.2
 30
0.0
 11
54.8476
 21
3.2
 31
0.0
  0
LINE
  5
221
330
1E
100
AcDbEntity
  8
0
100
AcDbLine
 10
54.62749999999999
 20
3.2
 30
0.0
 11
54.62749999999999
 21
3.422442999999999
 31
0.0
  0
LINE
  5
222
330
1E
100
AcDbEntity
  8
0
100
AcDbLine
 10
54.9709
 20
3.2
 30
0.0
 11
55.7
 21
3.2
 31
0.0
  0
LINE
  5
224
330
1E
100
AcDbEntity
  8
0
100
AcDbLine
 10
53.5828
 20
3.2
 30
0.0
 11
53.5828
 21
3.422442999999999
 31
0.0
  0
LINE
  5
225
330
1E
100
AcDbEntity
  8
0
100
AcDbLine
 10
53.409
 20
3.2
 30
0.0
 11
53.5828
 21
3.2
 31
0.0
  0
LINE
  5
227
330
1E
100
AcDbEntity
  8
0
100
AcDbLine
 10
52.86229999999999
 20
3.422442999999999
 30
0.0
 11
53.36999999999999
 21
3.422442999999999
 31
0.0
  0
LINE
  5
228
330
1E
100
AcDbEntity
  8
0
100
AcDbLine
 10
52.86229999999999
 20
3.422442999999999
 30
0.0
 11
52.86229999999999
 21
4.020909999999999
 31
0.0
  0
LINE
  5
229
330
1E
100
AcDbEntity
  8
0
100
AcDbLine
 10
52.8863
 20
3.422442999999999
 30
0.0
 11
53.45399999999999
 21
3.422442999999999
 31
0.0
  0
LINE
  5
22B
330
1E
100
AcDbEntity
  8
0
100
AcDbLine
 10
53.36999999999999
 20
3.422442999999999
 30
0.0
 11
54.1312
 21
3.422442999999999
 31
0.0
  0
LINE
  5
22D
330
1E
100
AcDbEntity
  8
0
100
AcDbLine
 10
53.1769
 20
3.668869
 30
0.0
 11
53.8141
 21
3.668869
 31
0.0
  0
LINE
  5
22E
330
1E
100
AcDbEntity
  8
0
100
AcDbLine
 10
53.003
 20
3.668869
 30
0.0
 11
53.42
 21
3.668869
 31
0.0
  0
LINE
  5
22F
330
1E
100
AcDbEntity
  8
0
100
AcDbLine
 10
53.003
 20
3.668869
 30
0.0
 11
53.1769
 21
3.668869
 31
0.0
  0
LINE
  5
230
330
1E
100
AcDbEntity
  8
0
100
AcDbLine
 10
53.003
 20
3.668869
 30
0.0
 11
53.003
 21
4.020909999999999
 31
0.0
  0
LINE
  5
231
330
1E
100
AcDbEntity
  8
0
100
AcDbLine
 10
54.1312
 20
3.422442999999999
 30
0.0
 11
54.6989
 21
3.422442999999999
 31
0.0
  0
LINE
  5
232
330
1E
100
AcDbEntity
  8
0
100
AcDbLine
 10
54.1312
 20
3.422442999999999
 30
0.0
 11
54.62749999999999
 21
3.422442999999999
 31
0.0
  0
LINE
  5
233
330
1E
100
AcDbEntity
  8
0
100
AcDbLine
 10
53.45399999999999
 20
3.422442999999999
 30
0.0
 11
54.21520000000001
 21
3.422442999999999
 31
0.0
  0
LINE
  5
235
330
1E
100
AcDbEntity
  8
0
100
AcDbLine
 10
54.21520000000001
 20
3.422442999999999
 30
0.0
 11
54.7228
 21
3.422442999999999
 31
0.0
  0
LINE
  5
237
330
1E
100
AcDbEntity
  8
0
100
AcDbLine
 10
54.21520000000001
 20
3.422442999999999
 30
0.0
 11
54.62749999999999
 21
3.422442999999999
 31
0.0
  0
LINE
  5
23A
330
1E
100
AcDbEntity
  8
0
100
AcDbLine
 10
53.5828
 20
3.422442999999999
 30
0.0
 11
53.5828
 21
3.2
 31
0.0
  0
LINE
  5
23B
330
1E
100
AcDbEntity
  8
0
100
AcDbLine
 10
53.5828
 20
3.422442999999999
 30
0.0
 11
54.21520000000001
 21
3.422442999999999
 31
0.0
  0
LINE
  5
23C
330
1E
100
AcDbEntity
  8
0
100
AcDbLine
 10
53.5828
 20
3.422442999999999
 30
0.0
 11
54.1312
 21
3.422442999999999
 31
0.0
  0
LINE
  5
23D
330
1E
100
AcDbEntity
  8
0
100
AcDbLine
 10
54.7228
 20
3.422442999999999
 30
0.0
 11
54.7228
 21
3.668869
 31
0.0
  0
LINE
  5
23E
330
1E
100
AcDbEntity
  8
0
100
AcDbLine
 10
54.7228
 20
3.668869
 30
0.0
 11
54.7228
 21
3.422442999999999
 31
0.0
  0
LINE
  5
23F
330
1E
100
AcDbEntity
  8
0
100
AcDbLine
 10
54.62749999999999
 20
3.422442999999999
 30
0.0
 11
54.62749999999999
 21
3.2
 31
0.0
  0
LINE
  5
240
330
1E
100
AcDbEntity
  8
0
100
AcDbLine
 10
54.5556
 20
3.668869
 30
0.0
 11
54.9726
 21
3.668869
 31
0.0
  0
LINE
  5
241
330
1E
100
AcDbEntity
  8
0
100
AcDbLine
 10
53.8141
 20
3.668869
 30
0.0
 11
54.5556
 21
3.668869
 31
0.0
  0
LINE
  5
242
330
1E
100
AcDbEntity
  8
0
100
AcDbLine
 10
53.42
 20
3.668869
 30
0.0
 11
54.1614
 21
3.668869
 31
0.0
  0
LINE
  5
244
330
1E
100
AcDbEntity
  8
0
100
AcDbLine
 10
51.61319999999999
 20
4.0
 30
0.0
 11
51.61319999999999
 21
3.2
 31
0.0
  0
LINE
  5
247
330
1E
100
AcDbEntity
  8
0
100
AcDbLine
 10
54.1614
 20
3.668869
 30
0.0
 11
54.7987
 21
3.668869
 31
0.0
  0
LINE
  5
24A
330
1E
100
AcDbEntity
  8
0
100
AcDbLine
 10
54.9726
 20
3.668869
 30
0.0
 11
54.9726
 21
4.5
 31
0.0
  0
LINE
  5
24B
330
1E
100
AcDbEntity
  8
0
100
AcDbLine
 10
54.7987
 20
3.668869
 30
0.0
 11
54.9726
 21
3.668869
 31
0.0
  0
LINE
  5
24D
330
1E
100
AcDbEntity
  8
0
100
AcDbLine
 10
51.6051
 20
3.400326999999999
 30
0.0
 11
51.61319999999999
 21
3.502256578349729
 31
0.0
  0
LINE
  5
24E
330
1E
100
AcDbEntity
  8
0
100
AcDbLine
 10
51.5
 20
2.0
 30
0.0
 11
51.6051
 21
3.400326999999999
 31
0.0
  0
LINE
  5
24F
330
1E
100
AcDbEntity
  8
0
100
AcDbLine
 10
51.5
 20
2.0
 30
0.0
 11
51.61319999999999
 21
3.48434585677756
 31
0.0
  0
LINE
  5
250
330
1E
100
AcDbEntity
  8
0
100
AcDbLine
 10
48.95
 20
0.5999999999999979
 30
0.0
 11
50.0
 21
-0.0000000000000024
 31
0.0
  0
LINE
  5
251
330
1E
100
AcDbEntity
  8
0
100
AcDbLine
 10
48.95
 20
0.5999999999999979
 30
0.0
 11
50.0
 21
-0.0000000000000024
 31
0.0
  0
LINE
  5
252
330
1E
100
AcDbEntity
  8
0
100
AcDbLine
 10
48.5
 20
2.0
 30
0.0
 11
48.95
 21
0.5999999999999979
 31
0.0
  0
LINE
  5
253
330
1E
100
AcDbEntity
  8
0
100
AcDbLine
 10
48.5
 20
2.0
 30
0.0
 11
48.95
 21
0.5999999999999979
 31
0.0
  0
LINE
  5
254
330
1E
100
AcDbEntity
  8
0
100
AcDbLine
 10
48.8267
 20
4.0
 30
0.0
 11
48.8267
 21
3.2
 31
0.0
  0
LINE
  5
255
330
1E
100
AcDbEntity
  8
0
100
AcDbLine
 10
48.4097
 20
4.0
 30
0.0
 11
48.4097
 21
3.2
 31
0.0
  0
LINE
  5
256
330
1E
100
AcDbEntity
  8
0
100
AcDbLine
 10
51.0
 20
4.0
 30
0.0
 11
51.0
 21
3.0
 31
0.0
  0
LINE
  5
257
330
1E
100
AcDbEntity
  8
0
100
AcDbLine
 10
50.7
 20
4.0
 30
0.0
 11
50.7
 21
3.0
 31
0.0
  0
LINE
  5
258
330
1E
100
AcDbEntity
  8
0
100
AcDbLine
 10
49.29999999999999
 20
4.0
 30
0.0
 11
49.29999999999999
 21
3.0
 31
0.0
  0
LINE
  5
259
330
1E
100
AcDbEntity
  8
0
100
AcDbLine
 10
49.0
 20
4.0
 30
0.0
 11
49.0
 21
3.0
 31
0.0
  0
LINE
  5
25A
330
1E
100
AcDbEntity
  8
0
100
AcDbLine
 10
52.6
 20
4.0
 30
0.0
 11
52.86229999999999
 21
4.0
 31
0.0
  0
LINE
  5
25B
330
1E
100
AcDbEntity
  8
0
100
AcDbLine
 10
56.0
 20
3.2
 30
0.0
 11
56.29999999999999
 21
3.2
 31
0.0
  0
LINE
  5
25C
330
1E
100
AcDbEntity
  8
0
100
AcDbLine
 10
56.29999999999999
 20
3.2
 30
0.0
 11
57.0
 21
3.2
 31
0.0
  0
LINE
  5
25D
330
1E
100
AcDbEntity
  8
0
100
AcDbLine
 10
55.5274
 20
3.2
 30
0.0
 11
56.2565
 21
3.2
 31
0.0
  0
LINE
  5
25E
330
1E
100
AcDbEntity
  8
0
100
AcDbLine
 10
55.7
 20
3.2
 30
0.0
 11
56.3797
 21
3.2
 31
0.0
  0
LINE
  5
260
330
1E
100
AcDbEntity
  8
0
100
AcDbLine
 10
57.0
 20
3.2
 30
0.0
 11
57.7
 21
3.2
 31
0.0
  0
LINE
  5
263
330
1E
100
AcDbEntity
  8
0
100
AcDbLine
 10
56.3797
 20
3.2
 30
0.0
 11
56.5999
 21
3.2
 31
0.0
  0
LINE
  5
269
330
1E
100
AcDbEntity
  8
0
100
AcDbLine
 10
56.2565
 20
3.2
 30
0.0
 11
56.5999
 21
3.2
 31
0.0
  0
LINE
  5
26A
330
1E
100
AcDbEntity
  8
0
100
AcDbLine
 10
58.0
 20
3.2
 30
0.0
 11
58.0
 21
4.0
 31
0.0
  0
LINE
  5
26B
330
1E
100
AcDbEntity
  8
0
100
AcDbLine
 10
57.7
 20
3.2
 30
0.0
 11
58.0
 21
3.2
 31
0.0
  0
LINE
  5
26D
330
1E
100
AcDbEntity
  8
0
100
AcDbLine
 10
58.0954
 20
3.422442999999999
 30
0.0
 11
58.3783
 21
3.422442999999999
 31
0.0
  0
LINE
  5
26E
330
1E
100
AcDbEntity
  8
0
100
AcDbLine
 10
58.0954
 20
3.422442999999999
 30
0.0
 11
58.0954
 21
4.020909999999999
 31
0.0
  0
LINE
  5
26F
330
1E
100
AcDbEntity
  8
0
100
AcDbLine
 10
58.0954
 20
3.422442999999999
 30
0.0
 11
58.0954
 21
4.0
 31
0.0
  0
LINE
  5
270
330
1E
100
AcDbEntity
  8
0
100
AcDbLine
 10
58.3783
 20
3.422442999999999
 30
0.0
 11
59.0854
 21
3.422442999999999
 31
0.0
  0
LINE
  5
272
330
1E
100
AcDbEntity
  8
0
100
AcDbLine
 10
62.2453
 20
3.422442999999999
 30
0.0
 11
62.8131
 21
3.422442999999999
 31
0.0
  0
LINE
  5
273
330
1E
100
AcDbEntity
  8
0
100
AcDbLine
 10
62.2214
 20
3.422442999999999
 30
0.0
 11
62.72899999999999
 21
3.422442999999999
 31
0.0
  0
LINE
  5
274
330
1E
100
AcDbEntity
  8
0
100
AcDbLine
 10
62.8131
 20
3.422442999999999
 30
0.0
 11
63.5743
 21
3.422442999999999
 31
0.0
  0
LINE
  5
275
330
1E
100
AcDbEntity
  8
0
100
AcDbLine
 10
62.72899999999999
 20
3.422442999999999
 30
0.0
 11
63.4902
 21
3.422442999999999
 31
0.0
  0
LINE
  5
276
330
1E
100
AcDbEntity
  8
0
100
AcDbLine
 10
62.5658
 20
3.422442999999999
 30
0.0
 11
63.32699999999999
 21
3.422442999999999
 31
0.0
  0
LINE
  5
277
330
1E
100
AcDbEntity
  8
0
100
AcDbLine
 10
62.4818
 20
3.422442999999999
 30
0.0
 11
63.243
 21
3.422442999999999
 31
0.0
  0
LINE
  5
278
330
1E
100
AcDbEntity
  8
0
100
AcDbLine
 10
62.4818
 20
3.422442999999999
 30
0.0
 11
62.5658
 21
3.422442999999999
 31
0.0
  0
LINE
  5
27A
330
1E
100
AcDbEntity
  8
0
100
AcDbLine
 10
63.243
 20
3.422442999999999
 30
0.0
 11
63.8107
 21
3.422442999999999
 31
0.0
  0
LINE
  5
27C
330
1E
100
AcDbEntity
  8
0
100
AcDbLine
 10
63.4902
 20
3.422442999999999
 30
0.0
 11
64.05800000000001
 21
3.422442999999999
 31
0.0
  0
LINE
  5
27D
330
1E
100
AcDbEntity
  8
0
100
AcDbLine
 10
63.5743
 20
3.422442999999999
 30
0.0
 11
64.08190000000001
 21
3.422442999999999
 31
0.0
  0
LINE
  5
280
330
1E
100
AcDbEntity
  8
0
100
AcDbLine
 10
63.32699999999999
 20
3.422442999999999
 30
0.0
 11
63.8346
 21
3.422442999999999
 31
0.0
  0
LINE
  5
281
330
1E
100
AcDbEntity
  8
0
100
AcDbLine
 10
63.89330000000001
 20
3.422442999999999
 30
0.0
 11
64.1311
 21
3.422442999999999
 31
0.0
  0
LINE
  5
282
330
1E
100
AcDbEntity
  8
0
100
AcDbLine
 10
63.89330000000001
 20
3.422442999999999
 30
0.0
 11
64.2531
 21
3.422442999999999
 31
0.0
  0
LINE
  5
284
330
1E
100
AcDbEntity
  8
0
100
AcDbLine
 10
64.2531
 20
3.422442999999999
 30
0.0
 11
64.9766
 21
3.422442999999999
 31
0.0
  0
LINE
  5
285
330
1E
100
AcDbEntity
  8
0
100
AcDbLine
 10
64.1311
 20
3.422442999999999
 30
0.0
 11
64.8023
 21
3.422442999999999
 31
0.0
  0
LINE
  5
287
330
1E
100
AcDbEntity
  8
0
100
AcDbLine
 10
61.9741
 20
3.422442999999999
 30
0.0
 11
62.4818
 21
3.422442999999999
 31
0.0
  0
LINE
  5
288
330
1E
100
AcDbEntity
  8
0
100
AcDbLine
 10
61.9741
 20
3.422442999999999
 30
0.0
 11
61.9741
 21
3.668869
 31
0.0
  0
LINE
  5
289
330
1E
100
AcDbEntity
  8
0
100
AcDbLine
 10
64.8023
 20
3.422442999999999
 30
0.0
 11
65.5258
 21
3.422442999999999
 31
0.0
  0
LINE
  5
28B
330
1E
100
AcDbEntity
  8
0
100
AcDbLine
 10
65.8857
 20
3.422442999999999
 30
0.0
 11
65.8857
 21
4.204081168831169
 31
0.0
  0
LINE
  5
28C
330
1E
100
AcDbEntity
  8
0
100
AcDbLine
 10
65.5258
 20
3.422442999999999
 30
0.0
 11
65.8857
 21
3.422442999999999
 31
0.0
  0
LINE
  5
28E
330
1E
100
AcDbEntity
  8
0
100
AcDbLine
 10
65.6478
 20
3.422442999999999
 30
0.0
 11
65.8857
 21
3.422442999999999
 31
0.0
  0
LINE
  5
28F
330
1E
100
AcDbEntity
  8
0
100
AcDbLine
 10
64.9766
 20
3.422442999999999
 30
0.0
 11
65.6478
 21
3.422442999999999
 31
0.0
  0
LINE
  5
290
330
1E
100
AcDbEntity
  8
0
100
AcDbLine
 10
60.0753
 20
3.422442999999999
 30
0.0
 11
60.0753
 21
4.199814960629919
 31
0.0
  0
LINE
  5
291
330
1E
100
AcDbEntity
  8
0
100
AcDbLine
 10
59.0854
 20
3.422442999999999
 30
0.0
 11
59.7925
 21
3.422442999999999
 31
0.0
  0
LINE
  5
293
330
1E
100
AcDbEntity
  8
0
100
AcDbLine
 10
59.7925
 20
3.422442999999999
 30
0.0
 11
60.0753
 21
3.422442999999999
 31
0.0
  0
LINE
  5
295
330
1E
100
AcDbEntity
  8
0
100
AcDbLine
 10
68.5782
 20
3.668869
 30
0.0
 11
68.5782
 21
4.020909999999999
 31
0.0
  0
LINE
  5
296
330
1E
100
AcDbEntity
  8
0
100
AcDbLine
 10
68.35809999999999
 20
3.668869
 30
0.0
 11
68.5782
 21
3.668869
 31
0.0
  0
LINE
  5
298
330
1E
100
AcDbEntity
  8
0
100
AcDbLine
 10
68.2348
 20
3.668869
 30
0.0
 11
68.5782
 21
3.668869
 31
0.0
  0
LINE
  5
299
330
1E
100
AcDbEntity
  8
0
100
AcDbLine
 10
71.16150000000001
 20
3.668869
 30
0.0
 11
71.9219
 21
3.668869
 31
0.0
  0
LINE
  5
29A
330
1E
100
AcDbEntity
  8
0
100
AcDbLine
 10
70.6401
 20
3.668869
 30
0.0
 11
71.16150000000001
 21
3.668869
 31
0.0
  0
LINE
  5
29B
330
1E
100
AcDbEntity
  8
0
100
AcDbLine
 10
70.6401
 20
3.668869
 30
0.0
 11
70.6401
 21
4.38766558441558
 31
0.0
  0
LINE
  5
29C
330
1E
100
AcDbEntity
  8
0
100
AcDbLine
 10
70.6401
 20
3.668869
 30
0.0
 11
70.6401
 21
4.354669999999999
 31
0.0
  0
LINE
  5
29D
330
1E
100
AcDbEntity
  8
0
100
AcDbLine
 10
70.68259999999999
 20
3.668869
 30
0.0
 11
71.2378
 21
3.668869
 31
0.0
  0
LINE
  5
29F
330
1E
100
AcDbEntity
  8
0
100
AcDbLine
 10
71.2378
 20
3.668869
 30
0.0
 11
71.99819999999999
 21
3.668869
 31
0.0
  0
LINE
  5
2A1
330
1E
100
AcDbEntity
  8
0
100
AcDbLine
 10
71.9219
 20
3.668869
 30
0.0
 11
72.477
 21
3.668869
 31
0.0
  0
LINE
  5
2A3
330
1E
100
AcDbEntity
  8
0
100
AcDbLine
 10
71.99819999999999
 20
3.668869
 30
0.0
 11
72.51949999999999
 21
3.668869
 31
0.0
  0
LINE
  5
2A5
330
1E
100
AcDbEntity
  8
0
100
AcDbLine
 10
71.9648
 20
3.668869
 30
0.0
 11
72.26479999999999
 21
3.668869
 31
0.0
  0
LINE
  5
2A6
330
1E
100
AcDbEntity
  8
0
100
AcDbLine
 10
72.26479999999999
 20
3.668869
 30
0.0
 11
72.96479999999999
 21
3.668869
 31
0.0
  0
LINE
  5
2A7
330
1E
100
AcDbEntity
  8
0
100
AcDbLine
 10
73.9648
 20
3.668869
 30
0.0
 11
73.9648
 21
4.46638961038961
 31
0.0
  0
LINE
  5
2A8
330
1E
100
AcDbEntity
  8
0
100
AcDbLine
 10
73.6648
 20
3.668869
 30
0.0
 11
73.9648
 21
3.668869
 31
0.0
  0
LINE
  5
2AA
330
1E
100
AcDbEntity
  8
0
100
AcDbLine
 10
60.5262
 20
3.668869
 30
0.0
 11
60.6164
 21
3.668869
 31
0.0
  0
LINE
  5
2AB
330
1E
100
AcDbEntity
  8
0
100
AcDbLine
 10
60.5262
 20
3.668869
 30
0.0
 11
60.9824
 21
3.668869
 31
0.0
  0
LINE
  5
2AC
330
1E
100
AcDbEntity
  8
0
100
AcDbLine
 10
60.5262
 20
3.668869
 30
0.0
 11
60.5262
 21
4.404397959183669
 31
0.0
  0
LINE
  5
2AD
330
1E
100
AcDbEntity
  8
0
100
AcDbLine
 10
60.5262
 20
3.668869
 30
0.0
 11
60.5262
 21
4.01754
 31
0.0
  0
LINE
  5
2AE
330
1E
100
AcDbEntity
  8
0
100
AcDbLine
 10
61.9741
 20
3.668869
 30
0.0
 11
61.9741
 21
3.422442999999999
 31
0.0
  0
LINE
  5
2AF
330
1E
100
AcDbEntity
  8
0
100
AcDbLine
 10
61.7386
 20
3.668869
 30
0.0
 11
62.3484
 21
3.668869
 31
0.0
  0
LINE
  5
2B0
330
1E
100
AcDbEntity
  8
0
100
AcDbLine
 10
61.7386
 20
3.668869
 30
0.0
 11
61.9741
 21
3.668869
 31
0.0
  0
LINE
  5
2B1
330
1E
100
AcDbEntity
  8
0
100
AcDbLine
 10
60.9824
 20
3.668869
 30
0.0
 11
61.7386
 21
3.668869
 31
0.0
  0
LINE
  5
2B2
330
1E
100
AcDbEntity
  8
0
100
AcDbLine
 10
60.6164
 20
3.668869
 30
0.0
 11
61.2262
 21
3.668869
 31
0.0
  0
LINE
  5
2B4
330
1E
100
AcDbEntity
  8
0
100
AcDbLine
 10
61.2262
 20
3.668869
 30
0.0
 11
61.9824
 21
3.668869
 31
0.0
  0
LINE
  5
2B6
330
1E
100
AcDbEntity
  8
0
100
AcDbLine
 10
61.2262
 20
3.668869
 30
0.0
 11
61.9741
 21
3.668869
 31
0.0
  0
LINE
  5
2B7
330
1E
100
AcDbEntity
  8
0
100
AcDbLine
 10
62.4386
 20
3.668869
 30
0.0
 11
62.4386
 21
4.020909999999999
 31
0.0
  0
LINE
  5
2B8
330
1E
100
AcDbEntity
  8
0
100
AcDbLine
 10
61.9824
 20
3.668869
 30
0.0
 11
62.4386
 21
3.668869
 31
0.0
  0
LINE
  5
2BA
330
1E
100
AcDbEntity
  8
0
100
AcDbLine
 10
62.3484
 20
3.668869
 30
0.0
 11
62.4386
 21
3.668869
 31
0.0
  0
LINE
  5
2BB
330
1E
100
AcDbEntity
  8
0
100
AcDbLine
 10
67.50579999999999
 20
3.668869
 30
0.0
 11
68.2348
 21
3.668869
 31
0.0
  0
LINE
  5
2BC
330
1E
100
AcDbEntity
  8
0
100
AcDbLine
 10
66.826
 20
3.668869
 30
0.0
 11
67.50579999999999
 21
3.668869
 31
0.0
  0
LINE
  5
2BD
330
1E
100
AcDbEntity
  8
0
100
AcDbLine
 10
66.6059
 20
3.668869
 30
0.0
 11
66.9492
 21
3.668869
 31
0.0
  0
LINE
  5
2BE
330
1E
100
AcDbEntity
  8
0
100
AcDbLine
 10
66.6059
 20
3.668869
 30
0.0
 11
66.826
 21
3.668869
 31
0.0
  0
LINE
  5
2BF
330
1E
100
AcDbEntity
  8
0
100
AcDbLine
 10
66.6059
 20
3.668869
 30
0.0
 11
66.6059
 21
4.448391509433959
 31
0.0
  0
LINE
  5
2C0
330
1E
100
AcDbEntity
  8
0
100
AcDbLine
 10
66.6059
 20
3.668869
 30
0.0
 11
66.6059
 21
4.22019666666666
 31
0.0
  0
LINE
  5
2C2
330
1E
100
AcDbEntity
  8
0
100
AcDbLine
 10
58.0954
 20
4.0
 30
0.0
 11
58.0954
 21
3.422442999999999
 31
0.0
  0
LINE
  5
2C3
330
1E
100
AcDbEntity
  8
0
100
AcDbLine
 10
58.0
 20
4.0
 30
0.0
 11
58.0
 21
3.2
 31
0.0
  0
LINE
  5
2C4
330
1E
100
AcDbEntity
  8
0
100
AcDbLine
 10
66.9492
 20
3.668869
 30
0.0
 11
67.6783
 21
3.668869
 31
0.0
  0
LINE
  5
2C6
330
1E
100
AcDbEntity
  8
0
100
AcDbLine
 10
66.9492
 20
3.668869
 30
0.0
 11
67.50579999999999
 21
3.668869
 31
0.0
  0
LINE
  5
2C7
330
1E
100
AcDbEntity
  8
0
100
AcDbLine
 10
67.6783
 20
3.668869
 30
0.0
 11
68.35809999999999
 21
3.668869
 31
0.0
  0
LINE
  5
2C9
330
1E
100
AcDbEntity
  8
0
100
AcDbLine
 10
72.96479999999999
 20
3.668869
 30
0.0
 11
73.6648
 21
3.668869
 31
0.0
  0
LINE
  5
2CB
330
1E
100
AcDbEntity
  8
0
100
AcDbLine
 10
57.1
 20
4.0
 30
0.0
 11
58.0954
 21
4.0
 31
0.0
  0
LINE
  5
2CC
330
1E
100
AcDbEntity
  8
0
100
AcDbLine
 10
55.0
 20
4.0
 30
0.0
 11
57.1
 21
4.0
 31
0.0
  0
LINE
  5
2CD
330
1E
100
AcDbEntity
  8
0
100
AcDbLine
 10
50.0
 20
4.0
 30
0.0
 11
52.6
 21
4.0
 31
0.0
  0
LINE
  5
2CE
330
1E
100
AcDbEntity
  8
0
100
AcDbLine
 10
50.0
 20
4.0
 30
0.0
 11
50.0
 21
3.0
 31
0.0
  0
LINE
  5
2CF
330
1E
100
AcDbEntity
  8
0
100
AcDbLine
 10
47.7661
 20
4.0
 30
0.0
 11
50.0
 21
4.0
 31
0.0
  0
LINE
  5
2D0
330
1E
100
AcDbEntity
  8
0
100
AcDbLine
 10
41.29999999999999
 20
4.0
 30
0.0
 11
42.9
 21
4.0
 31
0.0
  0
LINE
  5
2D1
330
1E
100
AcDbEntity
  8
0
100
AcDbLine
 10
51.9404
 20
4.020909999999999
 30
0.0
 11
52.6116
 21
4.020909999999999
 31
0.0
  0
LINE
  5
2D2
330
1E
100
AcDbEntity
  8
0
100
AcDbLine
 10
51.9404
 20
4.020909999999999
 30
0.0
 11
52.6988
 21
4.020909999999999
 31
0.0
  0
LINE
  5
2D3
330
1E
100
AcDbEntity
  8
0
100
AcDbLine
 10
52.6116
 20
4.020909999999999
 30
0.0
 11
52.6988
 21
4.020909999999999
 31
0.0
  0
LINE
  5
2D4
330
1E
100
AcDbEntity
  8
0
100
AcDbLine
 10
52.6116
 20
4.020909999999999
 30
0.0
 11
53.3351
 21
4.020909999999999
 31
0.0
  0
LINE
  5
2D5
330
1E
100
AcDbEntity
  8
0
100
AcDbLine
 10
52.86229999999999
 20
4.020909999999999
 30
0.0
 11
52.86229999999999
 21
3.422442999999999
 31
0.0
  0
LINE
  5
2D7
330
1E
100
AcDbEntity
  8
0
100
AcDbLine
 10
53.003
 20
4.020909999999999
 30
0.0
 11
53.003
 21
3.668869
 31
0.0
  0
LINE
  5
2D9
330
1E
100
AcDbEntity
  8
0
100
AcDbLine
 10
57.157
 20
4.020909999999999
 30
0.0
 11
57.75549999999999
 21
4.020909999999999
 31
0.0
  0
LINE
  5
2DA
330
1E
100
AcDbEntity
  8
0
100
AcDbLine
 10
57.0483
 20
4.020909999999999
 30
0.0
 11
57.5193
 21
4.020909999999999
 31
0.0
  0
LINE
  5
2DB
330
1E
100
AcDbEntity
  8
0
100
AcDbLine
 10
57.0483
 20
4.020909999999999
 30
0.0
 11
57.157
 21
4.020909999999999
 31
0.0
  0
LINE
  5
2DC
330
1E
100
AcDbEntity
  8
0
100
AcDbLine
 10
57.0483
 20
4.020909999999999
 30
0.0
 11
57.0483
 21
4.372939999999999
 31
0.0
  0
LINE
  5
2DD
330
1E
100
AcDbEntity
  8
0
100
AcDbLine
 10
58.0954
 20
4.020909999999999
 30
0.0
 11
58.0954
 21
3.422442999999999
 31
0.0
  0
LINE
  5
2DF
330
1E
100
AcDbEntity
  8
0
100
AcDbLine
 10
58.5093
 20
4.020909999999999
 30
0.0
 11
58.9802
 21
4.020909999999999
 31
0.0
  0
LINE
  5
2E0
330
1E
100
AcDbEntity
  8
0
100
AcDbLine
 10
57.75549999999999
 20
4.020909999999999
 30
0.0
 11
58.5093
 21
4.020909999999999
 31
0.0
  0
LINE
  5
2E1
330
1E
100
AcDbEntity
  8
0
100
AcDbLine
 10
57.5193
 20
4.020909999999999
 30
0.0
 11
58.2731
 21
4.020909999999999
 31
0.0
  0
LINE
  5
2E3
330
1E
100
AcDbEntity
  8
0
100
AcDbLine
 10
58.2731
 20
4.020909999999999
 30
0.0
 11
58.8716
 21
4.020909999999999
 31
0.0
  0
LINE
  5
2E5
330
1E
100
AcDbEntity
  8
0
100
AcDbLine
 10
60.5262
 20
4.01754
 30
0.0
 11
60.5262
 21
3.668869
 31
0.0
  0
LINE
  5
2E6
330
1E
100
AcDbEntity
  8
0
100
AcDbLine
 10
62.15600000000001
 20
4.020909999999999
 30
0.0
 11
62.6637
 21
4.020909999999999
 31
0.0
  0
LINE
  5
2E7
330
1E
100
AcDbEntity
  8
0
100
AcDbLine
 10
62.15600000000001
 20
4.020909999999999
 30
0.0
 11
62.15600000000001
 21
4.90535211267605
 31
0.0
  0
LINE
  5
2E8
330
1E
100
AcDbEntity
  8
0
100
AcDbLine
 10
62.17999999999999
 20
4.020909999999999
 30
0.0
 11
62.7477
 21
4.020909999999999
 31
0.0
  0
LINE
  5
2EC
330
1E
100
AcDbEntity
  8
0
100
AcDbLine
 10
63.4249
 20
4.020909999999999
 30
0.0
 11
63.9926
 21
4.020909999999999
 31
0.0
  0
LINE
  5
2ED
330
1E
100
AcDbEntity
  8
0
100
AcDbLine
 10
62.6637
 20
4.020909999999999
 30
0.0
 11
63.4249
 21
4.020909999999999
 31
0.0
  0
LINE
  5
2EE
330
1E
100
AcDbEntity
  8
0
100
AcDbLine
 10
62.7477
 20
4.020909999999999
 30
0.0
 11
63.50889999999999
 21
4.020909999999999
 31
0.0
  0
LINE
  5
2F3
330
1E
100
AcDbEntity
  8
0
100
AcDbLine
 10
64.0165
 20
4.020909999999999
 30
0.0
 11
64.0165
 21
4.372939999999999
 31
0.0
  0
LINE
  5
2F4
330
1E
100
AcDbEntity
  8
0
100
AcDbLine
 10
63.50889999999999
 20
4.020909999999999
 30
0.0
 11
64.0165
 21
4.020909999999999
 31
0.0
  0
LINE
  5
2F6
330
1E
100
AcDbEntity
  8
0
100
AcDbLine
 10
62.4386
 20
4.020909999999999
 30
0.0
 11
62.4386
 21
3.668869
 31
0.0
  0
LINE
  5
2F7
330
1E
100
AcDbEntity
  8
0
100
AcDbLine
 10
58.9802
 20
4.020909999999999
 30
0.0
 11
58.9802
 21
4.68170422535211
 31
0.0
  0
LINE
  5
2F8
330
1E
100
AcDbEntity
  8
0
100
AcDbLine
 10
58.8716
 20
4.020909999999999
 30
0.0
 11
58.9802
 21
4.020909999999999
 31
0.0
  0
LINE
  5
2FA
330
1E
100
AcDbEntity
  8
0
100
AcDbLine
 10
53.695
 20
4.020909999999999
 30
0.0
 11
53.695
 21
4.84532710280374
 31
0.0
  0
LINE
  5
2FB
330
1E
100
AcDbEntity
  8
0
100
AcDbLine
 10
53.3351
 20
4.020909999999999
 30
0.0
 11
53.695
 21
4.020909999999999
 31
0.0
  0
LINE
  5
2FC
330
1E
100
AcDbEntity
  8
0
100
AcDbLine
 10
53.4571
 20
4.020909999999999
 30
0.0
 11
53.695
 21
4.020909999999999
 31
0.0
  0
LINE
  5
2FE
330
1E
100
AcDbEntity
  8
0
100
AcDbLine
 10
52.7859
 20
4.020909999999999
 30
0.0
 11
53.4571
 21
4.020909999999999
 31
0.0
  0
LINE
  5
300
330
1E
100
AcDbEntity
  8
0
100
AcDbLine
 10
52.6988
 20
4.020909999999999
 30
0.0
 11
52.7859
 21
4.020909999999999
 31
0.0
  0
LINE
  5
301
330
1E
100
AcDbEntity
  8
0
100
AcDbLine
 10
52.6988
 20
4.020909999999999
 30
0.0
 11
53.4571
 21
4.020909999999999
 31
0.0
  0
LINE
  5
302
330
1E
100
AcDbEntity
  8
0
100
AcDbLine
 10
52.6988
 20
4.020909999999999
 30
0.0
 11
53.695
 21
4.020909999999999
 31
0.0
  0
LINE
  5
303
330
1E
100
AcDbEntity
  8
0
100
AcDbLine
 10
52.6988
 20
4.020909999999999
 30
0.0
 11
53.3351
 21
4.020909999999999
 31
0.0
  0
LINE
  5
304
330
1E
100
AcDbEntity
  8
0
100
AcDbLine
 10
52.0624
 20
4.020909999999999
 30
0.0
 11
52.6988
 21
4.020909999999999
 31
0.0
  0
LINE
  5
305
330
1E
100
AcDbEntity
  8
0
100
AcDbLine
 10
52.0624
 20
4.020909999999999
 30
0.0
 11
52.7859
 21
4.020909999999999
 31
0.0
  0
LINE
  5
307
330
1E
100
AcDbEntity
  8
0
100
AcDbLine
 10
37.844
 20
4.020909999999999
 30
0.0
 11
37.844
 21
4.90535211267605
 31
0.0
  0
LINE
  5
309
330
1E
100
AcDbEntity
  8
0
100
AcDbLine
 10
37.5614
 20
4.020909999999999
 30
0.0
 11
37.5614
 21
3.668869
 31
0.0
  0
LINE
  5
30A
330
1E
100
AcDbEntity
  8
0
100
AcDbLine
 10
41.4907
 20
4.020909999999999
 30
0.0
 11
42.2445
 21
4.020909999999999
 31
0.0
  0
LINE
  5
30B
330
1E
100
AcDbEntity
  8
0
100
AcDbLine
 10
42.2445
 20
4.020909999999999
 30
0.0
 11
42.843
 21
4.020909999999999
 31
0.0
  0
LINE
  5
30C
330
1E
100
AcDbEntity
  8
0
100
AcDbLine
 10
42.9517
 20
4.020909999999999
 30
0.0
 11
42.9517
 21
4.372939999999999
 31
0.0
  0
LINE
  5
30D
330
1E
100
AcDbEntity
  8
0
100
AcDbLine
 10
42.843
 20
4.020909999999999
 30
0.0
 11
42.9517
 21
4.020909999999999
 31
0.0
  0
LINE
  5
30E
330
1E
100
AcDbEntity
  8
0
100
AcDbLine
 10
42.4807
 20
4.020909999999999
 30
0.0
 11
42.9517
 21
4.020909999999999
 31
0.0
  0
LINE
  5
310
330
1E
100
AcDbEntity
  8
0
100
AcDbLine
 10
41.21329999999999
 20
4.020909999999999
 30
0.0
 11
41.21329999999999
 21
3.422442999999999
 31
0.0
  0
LINE
  5
311
330
1E
100
AcDbEntity
  8
0
100
AcDbLine
 10
41.7269
 20
4.020909999999999
 30
0.0
 11
42.4807
 21
4.020909999999999
 31
0.0
  0
LINE
  5
313
330
1E
100
AcDbEntity
  8
0
100
AcDbLine
 10
41.1284
 20
4.020909999999999
 30
0.0
 11
41.7269
 21
4.020909999999999
 31
0.0
  0
LINE
  5
318
330
1E
100
AcDbEntity
  8
0
100
AcDbLine
 10
41.0198
 20
4.020909999999999
 30
0.0
 11
41.1284
 21
4.020909999999999
 31
0.0
  0
LINE
  5
319
330
1E
100
AcDbEntity
  8
0
100
AcDbLine
 10
41.0198
 20
4.020909999999999
 30
0.0
 11
41.4907
 21
4.020909999999999
 31
0.0
  0
LINE
  5
31A
330
1E
100
AcDbEntity
  8
0
100
AcDbLine
 10
41.0198
 20
4.020909999999999
 30
0.0
 11
41.0198
 21
4.68170422535211
 31
0.0
  0
LINE
  5
31C
330
1E
100
AcDbEntity
  8
0
100
AcDbLine
 10
46.99699999999999
 20
4.020909999999999
 30
0.0
 11
46.99699999999999
 21
3.668869
 31
0.0
  0
LINE
  5
31E
330
1E
100
AcDbEntity
  8
0
100
AcDbLine
 10
46.6649
 20
4.020909999999999
 30
0.0
 11
47.38839999999999
 21
4.020909999999999
 31
0.0
  0
LINE
  5
31F
330
1E
100
AcDbEntity
  8
0
100
AcDbLine
 10
46.6649
 20
4.020909999999999
 30
0.0
 11
47.3012
 21
4.020909999999999
 31
0.0
  0
LINE
  5
320
330
1E
100
AcDbEntity
  8
0
100
AcDbLine
 10
47.7661
 20
4.020909999999999
 30
0.0
 11
47.7661
 21
3.422442999999999
 31
0.0
  0
LINE
  5
322
330
1E
100
AcDbEntity
  8
0
100
AcDbLine
 10
47.38839999999999
 20
4.020909999999999
 30
0.0
 11
48.0596
 21
4.020909999999999
 31
0.0
  0
LINE
  5
323
330
1E
100
AcDbEntity
  8
0
100
AcDbLine
 10
48.29740000000001
 20
4.020909999999999
 30
0.0
 11
48.29740000000001
 21
4.659121495327099
 31
0.0
  0
LINE
  5
324
330
1E
100
AcDbEntity
  8
0
100
AcDbLine
 10
48.0596
 20
4.020909999999999
 30
0.0
 11
48.29740000000001
 21
4.020909999999999
 31
0.0
  0
LINE
  5
325
330
1E
100
AcDbEntity
  8
0
100
AcDbLine
 10
47.9376
 20
4.020909999999999
 30
0.0
 11
48.29740000000001
 21
4.020909999999999
 31
0.0
  0
LINE
  5
327
330
1E
100
AcDbEntity
  8
0
100
AcDbLine
 10
47.3012
 20
4.020909999999999
 30
0.0
 11
47.9376
 21
4.020909999999999
 31
0.0
  0
LINE
  5
328
330
1E
100
AcDbEntity
  8
0
100
AcDbLine
 10
47.3012
 20
4.020909999999999
 30
0.0
 11
48.29740000000001
 21
4.020909999999999
 31
0.0
  0
LINE
  5
329
330
1E
100
AcDbEntity
  8
0
100
AcDbLine
 10
47.3012
 20
4.020909999999999
 30
0.0
 11
48.0596
 21
4.020909999999999
 31
0.0
  0
LINE
  5
32A
330
1E
100
AcDbEntity
  8
0
100
AcDbLine
 10
47.3012
 20
4.020909999999999
 30
0.0
 11
47.38839999999999
 21
4.020909999999999
 31
0.0
  0
LINE
  5
32B
330
1E
100
AcDbEntity
  8
0
100
AcDbLine
 10
47.2141
 20
4.020909999999999
 30
0.0
 11
47.3012
 21
4.020909999999999
 31
0.0
  0
LINE
  5
32C
330
1E
100
AcDbEntity
  8
0
100
AcDbLine
 10
47.2141
 20
4.020909999999999
 30
0.0
 11
47.9376
 21
4.020909999999999
 31
0.0
  0
LINE
  5
330
330
1E
100
AcDbEntity
  8
0
100
AcDbLine
 10
60.0753
 20
4.199814960629919
 30
0.0
 11
60.0753
 21
3.422442999999999
 31
0.0
  0
LINE
  5
331
330
1E
100
AcDbEntity
  8
0
100
AcDbLine
 10
46.5429
 20
4.020909999999999
 30
0.0
 11
47.3012
 21
4.020909999999999
 31
0.0
  0
LINE
  5
332
330
1E
100
AcDbEntity
  8
0
100
AcDbLine
 10
46.5429
 20
4.020909999999999
 30
0.0
 11
47.2141
 21
4.020909999999999
 31
0.0
  0
LINE
  5
334
330
1E
100
AcDbEntity
  8
0
100
AcDbLine
 10
46.305
 20
4.020909999999999
 30
0.0
 11
46.5429
 21
4.020909999999999
 31
0.0
  0
LINE
  5
335
330
1E
100
AcDbEntity
  8
0
100
AcDbLine
 10
46.305
 20
4.020909999999999
 30
0.0
 11
47.3012
 21
4.020909999999999
 31
0.0
  0
LINE
  5
336
330
1E
100
AcDbEntity
  8
0
100
AcDbLine
 10
46.305
 20
4.020909999999999
 30
0.0
 11
46.6649
 21
4.020909999999999
 31
0.0
  0
LINE
  5
337
330
1E
100
AcDbEntity
  8
0
100
AcDbLine
 10
46.305
 20
4.020909999999999
 30
0.0
 11
46.305
 21
4.84532710280374
 31
0.0
  0
LINE
  5
338
330
1E
100
AcDbEntity
  8
0
100
AcDbLine
 10
51.70259999999999
 20
4.020909999999999
 30
0.0
 11
52.6988
 21
4.020909999999999
 31
0.0
  0
LINE
  5
339
330
1E
100
AcDbEntity
  8
0
100
AcDbLine
 10
51.70259999999999
 20
4.020909999999999
 30
0.0
 11
52.0624
 21
4.020909999999999
 31
0.0
  0
LINE
  5
33A
330
1E
100
AcDbEntity
  8
0
100
AcDbLine
 10
51.70259999999999
 20
4.020909999999999
 30
0.0
 11
51.9404
 21
4.020909999999999
 31
0.0
  0
LINE
  5
33B
330
1E
100
AcDbEntity
  8
0
100
AcDbLine
 10
51.70259999999999
 20
4.020909999999999
 30
0.0
 11
51.70259999999999
 21
4.659121495327099
 31
0.0
  0
LINE
  5
33F
330
1E
100
AcDbEntity
  8
0
100
AcDbLine
 10
65.8857
 20
4.204081168831169
 30
0.0
 11
65.8857
 21
3.422442999999999
 31
0.0
  0
LINE
  5
340
330
1E
100
AcDbEntity
  8
0
100
AcDbLine
 10
60.0753
 20
4.00251
 30
0.0
 11
60.5262
 21
4.01754
 31
0.0
  0
LINE
  5
341
330
1E
100
AcDbEntity
  8
0
100
AcDbLine
 10
68.3342
 20
4.020909999999999
 30
0.0
 11
68.73560000000001
 21
4.020909999999999
 31
0.0
  0
LINE
  5
342
330
1E
100
AcDbEntity
  8
0
100
AcDbLine
 10
68.3342
 20
4.020909999999999
 30
0.0
 11
68.57980000000001
 21
4.020909999999999
 31
0.0
  0
LINE
  5
345
330
1E
100
AcDbEntity
  8
0
100
AcDbLine
 10
68.73560000000001
 20
4.020909999999999
 30
0.0
 11
68.73560000000001
 21
4.372939999999999
 31
0.0
  0
LINE
  5
346
330
1E
100
AcDbEntity
  8
0
100
AcDbLine
 10
68.57980000000001
 20
4.020909999999999
 30
0.0
 11
68.73560000000001
 21
4.020909999999999
 31
0.0
  0
LINE
  5
347
330
1E
100
AcDbEntity
  8
0
100
AcDbLine
 10
70.9055
 20
4.020909999999999
 30
0.0
 11
71.18829999999999
 21
4.020909999999999
 31
0.0
  0
LINE
  5
348
330
1E
100
AcDbEntity
  8
0
100
AcDbLine
 10
70.9055
 20
4.020909999999999
 30
0.0
 11
70.9055
 21
4.77633620689655
 31
0.0
  0
LINE
  5
349
330
1E
100
AcDbEntity
  8
0
100
AcDbLine
 10
71.18829999999999
 20
4.020909999999999
 30
0.0
 11
71.8954
 21
4.020909999999999
 31
0.0
  0
LINE
  5
34B
330
1E
100
AcDbEntity
  8
0
100
AcDbLine
 10
71.8954
 20
4.020909999999999
 30
0.0
 11
72.6025
 21
4.020909999999999
 31
0.0
  0
LINE
  5
34D
330
1E
100
AcDbEntity
  8
0
100
AcDbLine
 10
68.5782
 20
4.020909999999999
 30
0.0
 11
68.5782
 21
3.668869
 31
0.0
  0
LINE
  5
34E
330
1E
100
AcDbEntity
  8
0
100
AcDbLine
 10
68.5782
 20
4.020909999999999
 30
0.0
 11
68.73560000000001
 21
4.020909999999999
 31
0.0
  0
LINE
  5
350
330
1E
100
AcDbEntity
  8
0
100
AcDbLine
 10
72.88540000000001
 20
4.020909999999999
 30
0.0
 11
72.88540000000001
 21
4.947017241379309
 31
0.0
  0
LINE
  5
351
330
1E
100
AcDbEntity
  8
0
100
AcDbLine
 10
72.6025
 20
4.020909999999999
 30
0.0
 11
72.88540000000001
 21
4.020909999999999
 31
0.0
  0
LINE
  5
354
330
1E
100
AcDbEntity
  8
0
100
AcDbLine
 10
67.1871
 20
4.020909999999999
 30
0.0
 11
67.58880000000001
 21
4.020909999999999
 31
0.0
  0
LINE
  5
355
330
1E
100
AcDbEntity
  8
0
100
AcDbLine
 10
66.7858
 20
4.020909999999999
 30
0.0
 11
66.9415
 21
4.020909999999999
 31
0.0
  0
LINE
  5
356
330
1E
100
AcDbEntity
  8
0
100
AcDbLine
 10
66.7858
 20
4.020909999999999
 30
0.0
 11
67.1871
 21
4.020909999999999
 31
0.0
  0
LINE
  5
357
330
1E
100
AcDbEntity
  8
0
100
AcDbLine
 10
66.7858
 20
4.020909999999999
 30
0.0
 11
66.7858
 21
4.7595147928994
 31
0.0
  0
LINE
  5
358
330
1E
100
AcDbEntity
  8
0
100
AcDbLine
 10
66.9415
 20
4.020909999999999
 30
0.0
 11
67.58880000000001
 21
4.020909999999999
 31
0.0
  0
LINE
  5
35A
330
1E
100
AcDbEntity
  8
0
100
AcDbLine
 10
67.58880000000001
 20
4.020909999999999
 30
0.0
 11
68.3342
 21
4.020909999999999
 31
0.0
  0
LINE
  5
35C
330
1E
100
AcDbEntity
  8
0
100
AcDbLine
 10
66.6059
 20
4.22019666666666
 30
0.0
 11
66.6059
 21
3.668869
 31
0.0
  0
LINE
  5
360
330
1E
100
AcDbEntity
  8
0
100
AcDbLine
 10
65.8857
 20
4.19619
 30
0.0
 11
66.6059
 21
4.22019666666666
 31
0.0
  0
LINE
  5
362
330
1E
100
AcDbEntity
  8
0
100
AcDbLine
 10
42.9517
 20
4.372939999999999
 30
0.0
 11
42.9517
 21
4.020909999999999
 31
0.0
  0
LINE
  5
363
330
1E
100
AcDbEntity
  8
0
100
AcDbLine
 10
42.6599
 20
4.372939999999999
 30
0.0
 11
43.4014
 21
4.372939999999999
 31
0.0
  0
LINE
  5
364
330
1E
100
AcDbEntity
  8
0
100
AcDbLine
 10
43.4014
 20
4.372939999999999
 30
0.0
 11
44.0386
 21
4.372939999999999
 31
0.0
  0
LINE
  5
365
330
1E
100
AcDbEntity
  8
0
100
AcDbLine
 10
44.21249999999999
 20
4.372939999999999
 30
0.0
 11
44.21249999999999
 21
5.5
 31
0.0
  0
LINE
  5
366
330
1E
100
AcDbEntity
  8
0
100
AcDbLine
 10
44.0386
 20
4.372939999999999
 30
0.0
 11
44.21249999999999
 21
4.372939999999999
 31
0.0
  0
LINE
  5
367
330
1E
100
AcDbEntity
  8
0
100
AcDbLine
 10
43.7955
 20
4.372939999999999
 30
0.0
 11
44.21249999999999
 21
4.372939999999999
 31
0.0
  0
LINE
  5
369
330
1E
100
AcDbEntity
  8
0
100
AcDbLine
 10
43.0541
 20
4.372939999999999
 30
0.0
 11
43.7955
 21
4.372939999999999
 31
0.0
  0
LINE
  5
36B
330
1E
100
AcDbEntity
  8
0
100
AcDbLine
 10
42.4168
 20
4.372939999999999
 30
0.0
 11
43.0541
 21
4.372939999999999
 31
0.0
  0
LINE
  5
36D
330
1E
100
AcDbEntity
  8
0
100
AcDbLine
 10
42.24289999999999
 20
4.372939999999999
 30
0.0
 11
42.4168
 21
4.372939999999999
 31
0.0
  0
LINE
  5
36E
330
1E
100
AcDbEntity
  8
0
100
AcDbLine
 10
42.24289999999999
 20
4.372939999999999
 30
0.0
 11
42.6599
 21
4.372939999999999
 31
0.0
  0
LINE
  5
36F
330
1E
100
AcDbEntity
  8
0
100
AcDbLine
 10
42.24289999999999
 20
4.372939999999999
 30
0.0
 11
42.24289999999999
 21
5.5
 31
0.0
  0
LINE
  5
370
330
1E
100
AcDbEntity
  8
0
100
AcDbLine
 10
50.0
 20
4.372939999999999
 30
0.0
 11
50.7
 21
4.372939999999999
 31
0.0
  0
LINE
  5
371
330
1E
100
AcDbEntity
  8
0
100
AcDbLine
 10
50.0
 20
4.372939999999999
 30
0.0
 11
51.0
 21
4.372939999999999
 31
0.0
  0
LINE
  5
372
330
1E
100
AcDbEntity
  8
0
100
AcDbLine
 10
50.0
 20
4.372939999999999
 30
0.0
 11
50.0
 21
5.5
 31
0.0
  0
LINE
  5
373
330
1E
100
AcDbEntity
  8
0
100
AcDbLine
 10
49.29999999999999
 20
4.372939999999999
 30
0.0
 11
50.0
 21
4.372939999999999
 31
0.0
  0
LINE
  5
374
330
1E
100
AcDbEntity
  8
0
100
AcDbLine
 10
49.29999999999999
 20
4.372939999999999
 30
0.0
 11
49.29999999999999
 21
5.5
 31
0.0
  0
LINE
  5
375
330
1E
100
AcDbEntity
  8
0
100
AcDbLine
 10
37.6009
 20
4.372939999999999
 30
0.0
 11
37.6009
 21
5.5
 31
0.0
  0
LINE
  5
376
330
1E
100
AcDbEntity
  8
0
100
AcDbLine
 10
39.47379999999999
 20
4.404397959183669
 30
0.0
 11
39.47379999999999
 21
3.668869
 31
0.0
  0
LINE
  5
37C
330
1E
100
AcDbEntity
  8
0
100
AcDbLine
 10
41.0198
 20
4.68170422535211
 30
0.0
 11
41.0198
 21
4.020909999999999
 31
0.0
  0
LINE
  5
37D
330
1E
100
AcDbEntity
  8
0
100
AcDbLine
 10
45.0274
 20
4.5
 30
0.0
 11
45.0274
 21
3.668869
 31
0.0
  0
LINE
  5
37E
330
1E
100
AcDbEntity
  8
0
100
AcDbLine
 10
48.29740000000001
 20
4.659121495327099
 30
0.0
 11
48.29740000000001
 21
4.020909999999999
 31
0.0
  0
LINE
  5
382
330
1E
100
AcDbEntity
  8
0
100
AcDbLine
 10
37.844
 20
4.90535211267605
 30
0.0
 11
37.844
 21
4.020909999999999
 31
0.0
  0
LINE
  5
385
330
1E
100
AcDbEntity
  8
0
100
AcDbLine
 10
37.6009
 20
5.5
 30
0.0
 11
37.6009
 21
4.372939999999999
 31
0.0
  0
LINE
  5
387
330
1E
100
AcDbEntity
  8
0
100
AcDbLine
 10
44.21249999999999
 20
5.5
 30
0.0
 11
44.21249999999999
 21
4.372939999999999
 31
0.0
  0
LINE
  5
38B
330
1E
100
AcDbEntity
  8
0
100
AcDbLine
 10
42.24289999999999
 20
5.5
 30
0.0
 11
42.24289999999999
 21
4.372939999999999
 31
0.0
  0
LINE
  5
38C
330
1E
100
AcDbEntity
  8
0
100
AcDbLine
 10
46.305
 20
4.84532710280374
 30
0.0
 11
46.305
 21
4.020909999999999
 31
0.0
  0
LINE
  5
38D
330
1E
100
AcDbEntity
  8
0
100
AcDbLine
 10
50.0
 20
5.5
 30
0.0
 11
50.0
 21
4.372939999999999
 31
0.0
  0
LINE
  5
38E
330
1E
100
AcDbEntity
  8
0
100
AcDbLine
 10
49.29999999999999
 20
5.5
 30
0.0
 11
49.29999999999999
 21
4.372939999999999
 31
0.0
  0
LINE
  5
38F
330
1E
100
AcDbEntity
  8
0
100
AcDbLine
 10
49.0
 20
5.5
 30
0.0
 11
49.0
 21
4.372939999999999
 31
0.0
  0
LINE
  5
390
330
1E
100
AcDbEntity
  8
0
100
AcDbLine
 10
49.0
 20
4.372939999999999
 30
0.0
 11
50.0
 21
4.372939999999999
 31
0.0
  0
LINE
  5
391
330
1E
100
AcDbEntity
  8
0
100
AcDbLine
 10
49.0
 20
4.372939999999999
 30
0.0
 11
49.29999999999999
 21
4.372939999999999
 31
0.0
  0
LINE
  5
392
330
1E
100
AcDbEntity
  8
0
100
AcDbLine
 10
49.0
 20
4.372939999999999
 30
0.0
 11
49.0
 21
5.5
 31
0.0
  0
LINE
  5
393
330
1E
100
AcDbEntity
  8
0
100
AcDbLine
 10
50.7
 20
5.5
 30
0.0
 11
50.7
 21
4.372939999999999
 31
0.0
  0
LINE
  5
394
330
1E
100
AcDbEntity
  8
0
100
AcDbLine
 10
62.4416
 20
4.372939999999999
 30
0.0
 11
62.9968
 21
4.372939999999999
 31
0.0
  0
LINE
  5
395
330
1E
100
AcDbEntity
  8
0
100
AcDbLine
 10
62.3991
 20
4.372939999999999
 30
0.0
 11
62.9204
 21
4.372939999999999
 31
0.0
  0
LINE
  5
396
330
1E
100
AcDbEntity
  8
0
100
AcDbLine
 10
62.3991
 20
4.372939999999999
 30
0.0
 11
62.3991
 21
5.5
 31
0.0
  0
LINE
  5
397
330
1E
100
AcDbEntity
  8
0
100
AcDbLine
 10
62.9968
 20
4.372939999999999
 30
0.0
 11
63.7572
 21
4.372939999999999
 31
0.0
  0
LINE
  5
398
330
1E
100
AcDbEntity
  8
0
100
AcDbLine
 10
62.9204
 20
4.372939999999999
 30
0.0
 11
63.68079999999999
 21
4.372939999999999
 31
0.0
  0
LINE
  5
39B
330
1E
100
AcDbEntity
  8
0
100
AcDbLine
 10
64.27849999999999
 20
4.372939999999999
 30
0.0
 11
64.27849999999999
 21
5.5
 31
0.0
  0
LINE
  5
39C
330
1E
100
AcDbEntity
  8
0
100
AcDbLine
 10
63.7572
 20
4.372939999999999
 30
0.0
 11
64.27849999999999
 21
4.372939999999999
 31
0.0
  0
LINE
  5
39D
330
1E
100
AcDbEntity
  8
0
100
AcDbLine
 10
63.68079999999999
 20
4.372939999999999
 30
0.0
 11
64.236
 21
4.372939999999999
 31
0.0
  0
LINE
  5
3A1
330
1E
100
AcDbEntity
  8
0
100
AcDbLine
 10
64.0165
 20
4.372939999999999
 30
0.0
 11
64.0165
 21
4.020909999999999
 31
0.0
  0
LINE
  5
3A2
330
1E
100
AcDbEntity
  8
0
100
AcDbLine
 10
68.5438
 20
4.372939999999999
 30
0.0
 11
68.634
 21
4.372939999999999
 31
0.0
  0
LINE
  5
3A3
330
1E
100
AcDbEntity
  8
0
100
AcDbLine
 10
68.5438
 20
4.372939999999999
 30
0.0
 11
68.5438
 21
5.35519718309859
 31
0.0
  0
LINE
  5
3A4
330
1E
100
AcDbEntity
  8
0
100
AcDbLine
 10
56.5986
 20
4.372939999999999
 30
0.0
 11
57.3401
 21
4.372939999999999
 31
0.0
  0
LINE
  5
3A5
330
1E
100
AcDbEntity
  8
0
100
AcDbLine
 10
55.9614
 20
4.372939999999999
 30
0.0
 11
56.5986
 21
4.372939999999999
 31
0.0
  0
LINE
  5
3A6
330
1E
100
AcDbEntity
  8
0
100
AcDbLine
 10
55.7875
 20
4.372939999999999
 30
0.0
 11
56.2045
 21
4.372939999999999
 31
0.0
  0
LINE
  5
3A7
330
1E
100
AcDbEntity
  8
0
100
AcDbLine
 10
55.7875
 20
4.372939999999999
 30
0.0
 11
55.9614
 21
4.372939999999999
 31
0.0
  0
LINE
  5
3A8
330
1E
100
AcDbEntity
  8
0
100
AcDbLine
 10
55.7875
 20
4.372939999999999
 30
0.0
 11
55.7875
 21
5.5
 31
0.0
  0
LINE
  5
3A9
330
1E
100
AcDbEntity
  8
0
100
AcDbLine
 10
56.2045
 20
4.372939999999999
 30
0.0
 11
56.9459
 21
4.372939999999999
 31
0.0
  0
LINE
  5
3AB
330
1E
100
AcDbEntity
  8
0
100
AcDbLine
 10
57.3401
 20
4.372939999999999
 30
0.0
 11
57.7571
 21
4.372939999999999
 31
0.0
  0
LINE
  5
3AC
330
1E
100
AcDbEntity
  8
0
100
AcDbLine
 10
56.9459
 20
4.372939999999999
 30
0.0
 11
57.5832
 21
4.372939999999999
 31
0.0
  0
LINE
  5
3AE
330
1E
100
AcDbEntity
  8
0
100
AcDbLine
 10
57.0483
 20
4.372939999999999
 30
0.0
 11
57.0483
 21
4.020909999999999
 31
0.0
  0
LINE
  5
3AF
330
1E
100
AcDbEntity
  8
0
100
AcDbLine
 10
57.7571
 20
4.372939999999999
 30
0.0
 11
57.7571
 21
5.5
 31
0.0
  0
LINE
  5
3B0
330
1E
100
AcDbEntity
  8
0
100
AcDbLine
 10
57.5832
 20
4.372939999999999
 30
0.0
 11
57.7571
 21
4.372939999999999
 31
0.0
  0
LINE
  5
3B3
330
1E
100
AcDbEntity
  8
0
100
AcDbLine
 10
68.634
 20
4.372939999999999
 30
0.0
 11
69.24379999999999
 21
4.372939999999999
 31
0.0
  0
LINE
  5
3B5
330
1E
100
AcDbEntity
  8
0
100
AcDbLine
 10
69.75620000000001
 20
4.372939999999999
 30
0.0
 11
70.36599999999999
 21
4.372939999999999
 31
0.0
  0
LINE
  5
3B6
330
1E
100
AcDbEntity
  8
0
100
AcDbLine
 10
69.24379999999999
 20
4.372939999999999
 30
0.0
 11
70.0
 21
4.372939999999999
 31
0.0
  0
LINE
  5
3B8
330
1E
100
AcDbEntity
  8
0
100
AcDbLine
 10
70.6401
 20
4.354669999999999
 30
0.0
 11
70.6401
 21
3.668869
 31
0.0
  0
LINE
  5
3B9
330
1E
100
AcDbEntity
  8
0
100
AcDbLine
 10
70.45619999999999
 20
4.372939999999999
 30
0.0
 11
70.45619999999999
 21
5.482463414634139
 31
0.0
  0
LINE
  5
3BA
330
1E
100
AcDbEntity
  8
0
100
AcDbLine
 10
70.0
 20
4.372939999999999
 30
0.0
 11
70.45619999999999
 21
4.372939999999999
 31
0.0
  0
LINE
  5
3BC
330
1E
100
AcDbEntity
  8
0
100
AcDbLine
 10
69.24379999999999
 20
4.372939999999999
 30
0.0
 11
69.75620000000001
 21
4.372939999999999
 31
0.0
  0
LINE
  5
3BD
330
1E
100
AcDbEntity
  8
0
100
AcDbLine
 10
70.36599999999999
 20
4.372939999999999
 30
0.0
 11
70.45619999999999
 21
4.372939999999999
 31
0.0
  0
LINE
  5
3BE
330
1E
100
AcDbEntity
  8
0
100
AcDbLine
 10
68.73560000000001
 20
4.372939999999999
 30
0.0
 11
68.73560000000001
 21
4.020909999999999
 31
0.0
  0
LINE
  5
3BF
330
1E
100
AcDbEntity
  8
0
100
AcDbLine
 10
70.6401
 20
4.38766558441558
 30
0.0
 11
70.6401
 21
3.668869
 31
0.0
  0
LINE
  5
3C0
330
1E
100
AcDbEntity
  8
0
100
AcDbLine
 10
60.5262
 20
4.404397959183669
 30
0.0
 11
60.5262
 21
3.668869
 31
0.0
  0
LINE
  5
3C3
330
1E
100
AcDbEntity
  8
0
100
AcDbLine
 10
66.6059
 20
4.448391509433959
 30
0.0
 11
66.6059
 21
3.668869
 31
0.0
  0
LINE
  5
3C8
330
1E
100
AcDbEntity
  8
0
100
AcDbLine
 10
54.9726
 20
4.5
 30
0.0
 11
54.9726
 21
3.668869
 31
0.0
  0
LINE
  5
3CB
330
1E
100
AcDbEntity
  8
0
100
AcDbLine
 10
73.9648
 20
4.46638961038961
 30
0.0
 11
73.9648
 21
3.668869
 31
0.0
  0
LINE
  5
3CC
330
1E
100
AcDbEntity
  8
0
100
AcDbLine
 10
58.9802
 20
4.68170422535211
 30
0.0
 11
58.9802
 21
4.020909999999999
 31
0.0
  0
LINE
  5
3CD
330
1E
100
AcDbEntity
  8
0
100
AcDbLine
 10
66.7858
 20
4.7595147928994
 30
0.0
 11
66.7858
 21
4.020909999999999
 31
0.0
  0
LINE
  5
3D0
330
1E
100
AcDbEntity
  8
0
100
AcDbLine
 10
70.9055
 20
4.77633620689655
 30
0.0
 11
70.9055
 21
4.020909999999999
 31
0.0
  0
LINE
  5
3D2
330
1E
100
AcDbEntity
  8
0
100
AcDbLine
 10
62.15600000000001
 20
4.90535211267605
 30
0.0
 11
62.15600000000001
 21
4.020909999999999
 31
0.0
  0
LINE
  5
3D8
330
1E
100
AcDbEntity
  8
0
100
AcDbLine
 10
68.5438
 20
5.35519718309859
 30
0.0
 11
68.5438
 21
4.372939999999999
 31
0.0
  0
LINE
  5
3DB
330
1E
100
AcDbEntity
  8
0
100
AcDbLine
 10
55.7875
 20
5.5
 30
0.0
 11
55.7875
 21
4.372939999999999
 31
0.0
  0
LINE
  5
3DF
330
1E
100
AcDbEntity
  8
0
100
AcDbLine
 10
57.7571
 20
5.5
 30
0.0
 11
57.7571
 21
4.372939999999999
 31
0.0
  0
LINE
  5
3E0
330
1E
100
AcDbEntity
  8
0
100
AcDbLine
 10
62.3991
 20
5.5
 30
0.0
 11
62.3991
 21
4.372939999999999
 31
0.0
  0
LINE
  5
3E4
330
1E
100
AcDbEntity
  8
0
100
AcDbLine
 10
64.27849999999999
 20
5.5
 30
0.0
 11
64.27849999999999
 21
4.372939999999999
 31
0.0
  0
LINE
  5
3E6
330
1E
100
AcDbEntity
  8
0
100
AcDbLine
 10
70.45619999999999
 20
5.482463414634139
 30
0.0
 11
70.45619999999999
 21
4.372939999999999
 31
0.0
  0
LINE
  5
3E8
330
1E
100
AcDbEntity
  8
0
100
AcDbLine
 10
72.88540000000001
 20
4.947017241379309
 30
0.0
 11
72.88540000000001
 21
4.020909999999999
 31
0.0
  0
LINE
  5
3E9
330
1E
100
AcDbEntity
  8
0
100
AcDbLine
 10
53.695
 20
4.84532710280374
 30
0.0
 11
53.695
 21
4.020909999999999
 31
0.0
  0
LINE
  5
3ED
330
1E
100
AcDbEntity
  8
0
100
AcDbLine
 10
51.70259999999999
 20
4.659121495327099
 30
0.0
 11
51.70259999999999
 21
4.020909999999999
 31
0.0
  0
LINE
  5
3EE
330
1E
100
AcDbEntity
  8
0
100
AcDbLine
 10
51.0
 20
5.5
 30
0.0
 11
51.0
 21
4.372939999999999
 31
0.0
  0
LINE
  5
3EF
330
1E
100
AcDbEntity
  8
0
100
AcDbLine
 10
51.0
 20
4.372939999999999
 30
0.0
 11
51.0
 21
5.5
 31
0.0
  0
LINE
  5
3F0
330
1E
100
AcDbEntity
  8
0
100
AcDbLine
 10
50.7
 20
4.372939999999999
 30
0.0
 11
51.0
 21
4.372939999999999
 31
0.0
  0
LINE
  5
3F1
330
1E
100
AcDbEntity
  8
0
100
AcDbLine
 10
50.7
 20
4.372939999999999
 30
0.0
 11
50.7
 21
5.5
 31
0.0
  0
LINE
  5
3F2
330
1E
100
AcDbEntity
  8
0
100
AcDbLine
 10
62.8
 20
15.5
 30
0.0
 11
74.90000000000001
 21
15.5
 31
0.0
  0
LINE
  5
3F3
330
1E
100
AcDbEntity
  8
0
100
AcDbLine
 10
50.0
 20
15.5
 30
0.0
 11
62.8
 21
15.5
 31
0.0
  0
LINE
  5
3F4
330
1E
100
AcDbEntity
  8
0
100
AcDbLine
 10
68.73560000000001
 20
4.29118666666666
 30
0.0
 11
70.6401
 21
4.354669999999999
 31
0.0
  0
LINE
  5
3F5
330
1E
100
AcDbEntity
  8
0
100
AcDbLine
 10
74.39
 20
4.372939999999999
 30
0.0
 11
74.39
 21
4.020909999999999
 31
0.0
  0
LINE
  5
3F6
330
1E
100
AcDbEntity
  8
0
100
AcDbLine
 10
74.39
 20
4.020909999999999
 30
0.0
 11
74.79130000000001
 21
4.020909999999999
 31
0.0
  0
LINE
  5
3F7
330
1E
100
AcDbEntity
  8
0
100
AcDbLine
 10
74.39
 20
4.020909999999999
 30
0.0
 11
74.5457
 21
4.020909999999999
 31
0.0
  0
LINE
  5
3F8
330
1E
100
AcDbEntity
  8
0
100
AcDbLine
 10
74.39
 20
4.020909999999999
 30
0.0
 11
74.39
 21
4.372939999999999
 31
0.0
  0
LINE
  5
3F9
330
1E
100
AcDbEntity
  8
0
100
AcDbLine
 10
74.08249999999999
 20
4.372939999999999
 30
0.0
 11
74.3027
 21
4.372939999999999
 31
0.0
  0
LINE
  5
3FA
330
1E
100
AcDbEntity
  8
0
100
AcDbLine
 10
74.08249999999999
 20
4.372939999999999
 30
0.0
 11
74.4259
 21
4.372939999999999
 31
0.0
  0
LINE
  5
3FB
330
1E
100
AcDbEntity
  8
0
100
AcDbLine
 10
74.08249999999999
 20
4.372939999999999
 30
0.0
 11
74.08249999999999
 21
5.19127218934911
 31
0.0
  0
LINE
  5
3FC
330
1E
100
AcDbEntity
  8
0
100
AcDbLine
 10
74.08249999999999
 20
4.372939999999999
 30
0.0
 11
74.39
 21
4.372939999999999
 31
0.0
  0
LINE
  5
3FD
330
1E
100
AcDbEntity
  8
0
100
AcDbLine
 10
74.08249999999999
 20
4.372939999999999
 30
0.0
 11
74.08249999999999
 21
4.46941666666666
 31
0.0
  0
LINE
  5
3FE
330
1E
100
AcDbEntity
  8
0
100
AcDbLine
 10
74.08249999999999
 20
4.46941666666666
 30
0.0
 11
74.08249999999999
 21
4.372939999999999
 31
0.0
  0
LINE
  5
3FF
330
1E
100
AcDbEntity
  8
0
100
AcDbLine
 10
74.08249999999999
 20
5.19127218934911
 30
0.0
 11
74.08249999999999
 21
4.372939999999999
 31
0.0
  0
LINE
  5
401
330
1E
100
AcDbEntity
  8
0
100
AcDbLine
 10
74.3027
 20
4.372939999999999
 30
0.0
 11
74.9824
 21
4.372939999999999
 31
0.0
  0
LINE
  5
403
330
1E
100
AcDbEntity
  8
0
100
AcDbLine
 10
74.3027
 20
4.372939999999999
 30
0.0
 11
74.39
 21
4.372939999999999
 31
0.0
  0
LINE
  5
404
330
1E
100
AcDbEntity
  8
0
100
AcDbLine
 10
73.9648
 20
4.46549333333333
 30
0.0
 11
74.08249999999999
 21
4.46941666666666
 31
0.0
  0
LINE
  5
405
330
1E
100
AcDbEntity
  8
0
100
AcDbLine
 10
41.21329999999999
 20
4.0
 30
0.0
 11
41.29999999999999
 21
4.0
 31
0.0
  0
LINE
  5
406
330
1E
100
AcDbEntity
  8
0
100
AcDbLine
 10
75.193
 20
4.020909999999999
 30
0.0
 11
75.9384
 21
4.020909999999999
 31
0.0
  0
LINE
  5
407
330
1E
100
AcDbEntity
  8
0
100
AcDbLine
 10
74.5457
 20
4.020909999999999
 30
0.0
 11
75.193
 21
4.020909999999999
 31
0.0
  0
LINE
  5
40A
330
1E
100
AcDbEntity
  8
0
100
AcDbLine
 10
74.79130000000001
 20
4.020909999999999
 30
0.0
 11
75.53679999999999
 21
4.020909999999999
 31
0.0
  0
LINE
  5
40C
330
1E
100
AcDbEntity
  8
0
100
AcDbLine
 10
75.53679999999999
 20
4.020909999999999
 30
0.0
 11
76.184
 21
4.020909999999999
 31
0.0
  0
LINE
  5
40E
330
1E
100
AcDbEntity
  8
0
100
AcDbLine
 10
75.155
 20
4.372939999999999
 30
0.0
 11
75.8348
 21
4.372939999999999
 31
0.0
  0
LINE
  5
40F
330
1E
100
AcDbEntity
  8
0
100
AcDbLine
 10
74.4259
 20
4.372939999999999
 30
0.0
 11
75.155
 21
4.372939999999999
 31
0.0
  0
LINE
  5
410
330
1E
100
AcDbEntity
  8
0
100
AcDbLine
 10
74.9824
 20
4.372939999999999
 30
0.0
 11
75.7115
 21
4.372939999999999
 31
0.0
  0
LINE
  5
413
330
1E
100
AcDbEntity
  8
0
100
AcDbLine
 10
76.3398
 20
4.020909999999999
 30
0.0
 11
76.3398
 21
4.97471428571428
 31
0.0
  0
LINE
  5
414
330
1E
100
AcDbEntity
  8
0
100
AcDbLine
 10
76.184
 20
4.020909999999999
 30
0.0
 11
76.3398
 21
4.020909999999999
 31
0.0
  0
LINE
  5
416
330
1E
100
AcDbEntity
  8
0
100
AcDbLine
 10
75.9384
 20
4.020909999999999
 30
0.0
 11
76.3398
 21
4.020909999999999
 31
0.0
  0
LINE
  5
417
330
1E
100
AcDbEntity
  8
0
100
AcDbLine
 10
76.0549
 20
4.372939999999999
 30
0.0
 11
76.0549
 21
5.5
 31
0.0
  0
LINE
  5
418
330
1E
100
AcDbEntity
  8
0
100
AcDbLine
 10
75.7115
 20
4.372939999999999
 30
0.0
 11
76.0549
 21
4.372939999999999
 31
0.0
  0
LINE
  5
41A
330
1E
100
AcDbEntity
  8
0
100
AcDbLine
 10
75.8348
 20
4.372939999999999
 30
0.0
 11
76.0549
 21
4.372939999999999
 31
0.0
  0
LINE
  5
41B
330
1E
100
AcDbEntity
  8
0
100
AcDbLine
 10
78.94379999999999
 20
4.020909999999999
 30
0.0
 11
79.0524
 21
4.020909999999999
 31
0.0
  0
LINE
  5
41C
330
1E
100
AcDbEntity
  8
0
100
AcDbLine
 10
78.94379999999999
 20
4.020909999999999
 30
0.0
 11
79.41469999999999
 21
4.020909999999999
 31
0.0
  0
LINE
  5
41D
330
1E
100
AcDbEntity
  8
0
100
AcDbLine
 10
77.72499999999999
 20
4.020909999999999
 30
0.0
 11
78.4862
 21
4.020909999999999
 31
0.0
  0
LINE
  5
41E
330
1E
100
AcDbEntity
  8
0
100
AcDbLine
 10
77.641
 20
4.020909999999999
 30
0.0
 11
78.40219999999999
 21
4.020909999999999
 31
0.0
  0
LINE
  5
41F
330
1E
100
AcDbEntity
  8
0
100
AcDbLine
 10
77.641
 20
4.020909999999999
 30
0.0
 11
77.72499999999999
 21
4.020909999999999
 31
0.0
  0
LINE
  5
421
330
1E
100
AcDbEntity
  8
0
100
AcDbLine
 10
78.40219999999999
 20
4.020909999999999
 30
0.0
 11
78.96989999999999
 21
4.020909999999999
 31
0.0
  0
LINE
  5
423
330
1E
100
AcDbEntity
  8
0
100
AcDbLine
 10
79.41469999999999
 20
4.020909999999999
 30
0.0
 11
80.16849999999999
 21
4.020909999999999
 31
0.0
  0
LINE
  5
424
330
1E
100
AcDbEntity
  8
0
100
AcDbLine
 10
79.0524
 20
4.020909999999999
 30
0.0
 11
79.6509
 21
4.020909999999999
 31
0.0
  0
LINE
  5
426
330
1E
100
AcDbEntity
  8
0
100
AcDbLine
 10
79.6509
 20
4.020909999999999
 30
0.0
 11
80.4047
 21
4.020909999999999
 31
0.0
  0
LINE
  5
42A
330
1E
100
AcDbEntity
  8
0
100
AcDbLine
 10
78.4862
 20
4.020909999999999
 30
0.0
 11
78.9939
 21
4.020909999999999
 31
0.0
  0
LINE
  5
42B
330
1E
100
AcDbEntity
  8
0
100
AcDbLine
 10
80.4047
 20
4.020909999999999
 30
0.0
 11
80.87560000000001
 21
4.020909999999999
 31
0.0
  0
LINE
  5
42D
330
1E
100
AcDbEntity
  8
0
100
AcDbLine
 10
80.16849999999999
 20
4.020909999999999
 30
0.0
 11
80.767
 21
4.020909999999999
 31
0.0
  0
LINE
  5
42E
330
1E
100
AcDbEntity
  8
0
100
AcDbLine
 10
80.2106
 20
4.020909999999999
 30
0.0
 11
80.9341
 21
4.020909999999999
 31
0.0
  0
LINE
  5
42F
330
1E
100
AcDbEntity
  8
0
100
AcDbLine
 10
79.8508
 20
4.020909999999999
 30
0.0
 11
80.0886
 21
4.020909999999999
 31
0.0
  0
LINE
  5
430
330
1E
100
AcDbEntity
  8
0
100
AcDbLine
 10
79.8508
 20
4.020909999999999
 30
0.0
 11
80.2106
 21
4.020909999999999
 31
0.0
  0
LINE
  5
431
330
1E
100
AcDbEntity
  8
0
100
AcDbLine
 10
80.0886
 20
4.020909999999999
 30
0.0
 11
80.75979999999999
 21
4.020909999999999
 31
0.0
  0
LINE
  5
433
330
1E
100
AcDbEntity
  8
0
100
AcDbLine
 10
80.767
 20
4.020909999999999
 30
0.0
 11
80.87560000000001
 21
4.020909999999999
 31
0.0
  0
LINE
  5
434
330
1E
100
AcDbEntity
  8
0
100
AcDbLine
 10
80.75979999999999
 20
4.020909999999999
 30
0.0
 11
81.48329999999999
 21
4.020909999999999
 31
0.0
  0
LINE
  5
435
330
1E
100
AcDbEntity
  8
0
100
AcDbLine
 10
81.48329999999999
 20
4.020909999999999
 30
0.0
 11
81.84310000000001
 21
4.020909999999999
 31
0.0
  0
LINE
  5
437
330
1E
100
AcDbEntity
  8
0
100
AcDbLine
 10
81.84310000000001
 20
4.020909999999999
 30
0.0
 11
81.84310000000001
 21
4.945005747126429
 31
0.0
  0
LINE
  5
438
330
1E
100
AcDbEntity
  8
0
100
AcDbLine
 10
81.60529999999999
 20
4.020909999999999
 30
0.0
 11
81.84310000000001
 21
4.020909999999999
 31
0.0
  0
LINE
  5
439
330
1E
100
AcDbEntity
  8
0
100
AcDbLine
 10
78.8895
 20
4.372939999999999
 30
0.0
 11
79.2329
 21
4.372939999999999
 31
0.0
  0
LINE
  5
43A
330
1E
100
AcDbEntity
  8
0
100
AcDbLine
 10
78.8895
 20
4.372939999999999
 30
0.0
 11
79.1097
 21
4.372939999999999
 31
0.0
  0
LINE
  5
43B
330
1E
100
AcDbEntity
  8
0
100
AcDbLine
 10
78.8895
 20
4.372939999999999
 30
0.0
 11
78.8895
 21
5.46461206896551
 31
0.0
  0
LINE
  5
43C
330
1E
100
AcDbEntity
  8
0
100
AcDbLine
 10
79.1097
 20
4.372939999999999
 30
0.0
 11
79.78950000000001
 21
4.372939999999999
 31
0.0
  0
LINE
  5
43D
330
1E
100
AcDbEntity
  8
0
100
AcDbLine
 10
79.2329
 20
4.372939999999999
 30
0.0
 11
79.962
 21
4.372939999999999
 31
0.0
  0
LINE
  5
440
330
1E
100
AcDbEntity
  8
0
100
AcDbLine
 10
79.78950000000001
 20
4.372939999999999
 30
0.0
 11
80.51849999999999
 21
4.372939999999999
 31
0.0
  0
LINE
  5
441
330
1E
100
AcDbEntity
  8
0
100
AcDbLine
 10
79.962
 20
4.372939999999999
 30
0.0
 11
80.6418
 21
4.372939999999999
 31
0.0
  0
LINE
  5
443
330
1E
100
AcDbEntity
  8
0
100
AcDbLine
 10
80.8619
 20
4.372939999999999
 30
0.0
 11
80.8619
 21
5.5
 31
0.0
  0
LINE
  5
444
330
1E
100
AcDbEntity
  8
0
100
AcDbLine
 10
80.6418
 20
4.372939999999999
 30
0.0
 11
80.8619
 21
4.372939999999999
 31
0.0
  0
LINE
  5
446
330
1E
100
AcDbEntity
  8
0
100
AcDbLine
 10
80.51849999999999
 20
4.372939999999999
 30
0.0
 11
80.8619
 21
4.372939999999999
 31
0.0
  0
LINE
  5
44B
330
1E
100
AcDbEntity
  8
0
100
AcDbLine
 10
77.13339999999999
 20
4.020909999999999
 30
0.0
 11
77.641
 21
4.020909999999999
 31
0.0
  0
LINE
  5
44C
330
1E
100
AcDbEntity
  8
0
100
AcDbLine
 10
77.13339999999999
 20
4.020909999999999
 30
0.0
 11
77.13339999999999
 21
4.8826338028169
 31
0.0
  0
LINE
  5
44D
330
1E
100
AcDbEntity
  8
0
100
AcDbLine
 10
77.13339999999999
 20
4.020909999999999
 30
0.0
 11
77.13339999999999
 21
4.629296969696969
 31
0.0
  0
LINE
  5
44E
330
1E
100
AcDbEntity
  8
0
100
AcDbLine
 10
80.9341
 20
4.020909999999999
 30
0.0
 11
81.60529999999999
 21
4.020909999999999
 31
0.0
  0
LINE
  5
44F
330
1E
100
AcDbEntity
  8
0
100
AcDbLine
 10
76.3398
 20
4.581199999999999
 30
0.0
 11
77.13339999999999
 21
4.629296969696969
 31
0.0
  0
LINE
  5
450
330
1E
100
AcDbEntity
  8
0
100
AcDbLine
 10
77.13339999999999
 20
4.629296969696969
 30
0.0
 11
77.13339999999999
 21
4.020909999999999
 31
0.0
  0
LINE
  5
451
330
1E
100
AcDbEntity
  8
0
100
AcDbLine
 10
77.13339999999999
 20
4.8826338028169
 30
0.0
 11
77.13339999999999
 21
4.020909999999999
 31
0.0
  0
LINE
  5
456
330
1E
100
AcDbEntity
  8
0
100
AcDbLine
 10
76.3398
 20
4.97471428571428
 30
0.0
 11
76.3398
 21
4.020909999999999
 31
0.0
  0
LINE
  5
458
330
1E
100
AcDbEntity
  8
0
100
AcDbLine
 10
81.84310000000001
 20
4.945005747126429
 30
0.0
 11
81.84310000000001
 21
4.020909999999999
 31
0.0
  0
LINE
  5
459
330
1E
100
AcDbEntity
  8
0
100
AcDbLine
 10
76.3398
 20
4.581199999999999
 30
0.0
 11
77.13339999999999
 21
4.629296969696969
 31
0.0
  0
LINE
  5
45A
330
1E
100
AcDbEntity
  8
0
100
AcDbLine
 10
87.0664
 20
4.372939999999999
 30
0.0
 11
87.5877
 21
4.372939999999999
 31
0.0
  0
LINE
  5
45C
330
1E
100
AcDbEntity
  8
0
100
AcDbLine
 10
86.98999999999999
 20
4.372939999999999
 30
0.0
 11
87.54519999999999
 21
4.372939999999999
 31
0.0
  0
LINE
  5
45D
330
1E
100
AcDbEntity
  8
0
100
AcDbLine
 10
86.98999999999999
 20
4.372939999999999
 30
0.0
 11
87.0664
 21
4.372939999999999
 31
0.0
  0
LINE
  5
45F
330
1E
100
AcDbEntity
  8
0
100
AcDbLine
 10
88.0
 20
4.372939999999999
 30
0.0
 11
88.3
 21
4.372939999999999
 31
0.0
  0
LINE
  5
460
330
1E
100
AcDbEntity
  8
0
100
AcDbLine
 10
87.8397
 20
4.372939999999999
 30
0.0
 11
88.58119999999999
 21
4.372939999999999
 31
0.0
  0
LINE
  5
461
330
1E
100
AcDbEntity
  8
0
100
AcDbLine
 10
87.42270000000001
 20
4.372939999999999
 30
0.0
 11
87.5966
 21
4.372939999999999
 31
0.0
  0
LINE
  5
462
330
1E
100
AcDbEntity
  8
0
100
AcDbLine
 10
87.42270000000001
 20
4.372939999999999
 30
0.0
 11
87.8397
 21
4.372939999999999
 31
0.0
  0
LINE
  5
463
330
1E
100
AcDbEntity
  8
0
100
AcDbLine
 10
87.5966
 20
4.372939999999999
 30
0.0
 11
88.23390000000001
 21
4.372939999999999
 31
0.0
  0
LINE
  5
465
330
1E
100
AcDbEntity
  8
0
100
AcDbLine
 10
88.3
 20
4.372939999999999
 30
0.0
 11
89.0
 21
4.372939999999999
 31
0.0
  0
LINE
  5
466
330
1E
100
AcDbEntity
  8
0
100
AcDbLine
 10
89.0
 20
4.372939999999999
 30
0.0
 11
89.7
 21
4.372939999999999
 31
0.0
  0
LINE
  5
467
330
1E
100
AcDbEntity
  8
0
100
AcDbLine
 10
88.23390000000001
 20
4.372939999999999
 30
0.0
 11
88.97530000000001
 21
4.372939999999999
 31
0.0
  0
LINE
  5
469
330
1E
100
AcDbEntity
  8
0
100
AcDbLine
 10
88.97530000000001
 20
4.372939999999999
 30
0.0
 11
89.3923
 21
4.372939999999999
 31
0.0
  0
LINE
  5
46B
330
1E
100
AcDbEntity
  8
0
100
AcDbLine
 10
90.0
 20
4.372939999999999
 30
0.0
 11
90.0
 21
5.413793103448269
 31
0.0
  0
LINE
  5
46C
330
1E
100
AcDbEntity
  8
0
100
AcDbLine
 10
89.7
 20
4.372939999999999
 30
0.0
 11
90.0
 21
4.372939999999999
 31
0.0
  0
LINE
  5
46F
330
1E
100
AcDbEntity
  8
0
100
AcDbLine
 10
89.21840000000001
 20
4.372939999999999
 30
0.0
 11
89.3923
 21
4.372939999999999
 31
0.0
  0
LINE
  5
470
330
1E
100
AcDbEntity
  8
0
100
AcDbLine
 10
82.90899999999998
 20
4.372939999999999
 30
0.0
 11
83.51879999999999
 21
4.372939999999999
 31
0.0
  0
LINE
  5
471
330
1E
100
AcDbEntity
  8
0
100
AcDbLine
 10
82.81879999999999
 20
4.372939999999999
 30
0.0
 11
83.275
 21
4.372939999999999
 31
0.0
  0
LINE
  5
472
330
1E
100
AcDbEntity
  8
0
100
AcDbLine
 10
82.81879999999999
 20
4.372939999999999
 30
0.0
 11
82.90899999999998
 21
4.372939999999999
 31
0.0
  0
LINE
  5
473
330
1E
100
AcDbEntity
  8
0
100
AcDbLine
 10
82.81879999999999
 20
4.372939999999999
 30
0.0
 11
82.81879999999999
 21
5.33070329670329
 31
0.0
  0
LINE
  5
474
330
1E
100
AcDbEntity
  8
0
100
AcDbLine
 10
82.81879999999999
 20
4.372939999999999
 30
0.0
 11
82.81879999999999
 21
4.97386666666666
 31
0.0
  0
LINE
  5
475
330
1E
100
AcDbEntity
  8
0
100
AcDbLine
 10
83.51879999999999
 20
4.372939999999999
 30
0.0
 11
84.275
 21
4.372939999999999
 31
0.0
  0
LINE
  5
476
330
1E
100
AcDbEntity
  8
0
100
AcDbLine
 10
83.275
 20
4.372939999999999
 30
0.0
 11
84.03119999999999
 21
4.372939999999999
 31
0.0
  0
LINE
  5
478
330
1E
100
AcDbEntity
  8
0
100
AcDbLine
 10
84.03119999999999
 20
4.372939999999999
 30
0.0
 11
84.641
 21
4.372939999999999
 31
0.0
  0
LINE
  5
47A
330
1E
100
AcDbEntity
  8
0
100
AcDbLine
 10
84.73119999999999
 20
4.372939999999999
 30
0.0
 11
84.73119999999999
 21
5.41769014084507
 31
0.0
  0
LINE
  5
47B
330
1E
100
AcDbEntity
  8
0
100
AcDbLine
 10
84.641
 20
4.372939999999999
 30
0.0
 11
84.73119999999999
 21
4.372939999999999
 31
0.0
  0
LINE
  5
47D
330
1E
100
AcDbEntity
  8
0
100
AcDbLine
 10
84.275
 20
4.372939999999999
 30
0.0
 11
84.73119999999999
 21
4.372939999999999
 31
0.0
  0
LINE
  5
47E
330
1E
100
AcDbEntity
  8
0
100
AcDbLine
 10
86.2296
 20
4.372939999999999
 30
0.0
 11
86.98999999999999
 21
4.372939999999999
 31
0.0
  0
LINE
  5
47F
330
1E
100
AcDbEntity
  8
0
100
AcDbLine
 10
85.70829999999999
 20
4.372939999999999
 30
0.0
 11
86.2296
 21
4.372939999999999
 31
0.0
  0
LINE
  5
480
330
1E
100
AcDbEntity
  8
0
100
AcDbLine
 10
85.70829999999999
 20
4.372939999999999
 30
0.0
 11
85.70829999999999
 21
5.265480874316929
 31
0.0
  0
LINE
  5
481
330
1E
100
AcDbEntity
  8
0
100
AcDbLine
 10
85.70829999999999
 20
4.372939999999999
 30
0.0
 11
85.70829999999999
 21
5.14898787878787
 31
0.0
  0
LINE
  5
482
330
1E
100
AcDbEntity
  8
0
100
AcDbLine
 10
82.81879999999999
 20
4.97386666666666
 30
0.0
 11
82.81879999999999
 21
4.372939999999999
 31
0.0
  0
LINE
  5
483
330
1E
100
AcDbEntity
  8
0
100
AcDbLine
 10
85.75079999999999
 20
4.372939999999999
 30
0.0
 11
86.30599999999999
 21
4.372939999999999
 31
0.0
  0
LINE
  5
485
330
1E
100
AcDbEntity
  8
0
100
AcDbLine
 10
85.75079999999999
 20
4.372939999999999
 30
0.0
 11
86.2296
 21
4.372939999999999
 31
0.0
  0
LINE
  5
486
330
1E
100
AcDbEntity
  8
0
100
AcDbLine
 10
86.30599999999999
 20
4.372939999999999
 30
0.0
 11
87.0664
 21
4.372939999999999
 31
0.0
  0
LINE
  5
488
330
1E
100
AcDbEntity
  8
0
100
AcDbLine
 10
88.58119999999999
 20
4.372939999999999
 30
0.0
 11
89.21840000000001
 21
4.372939999999999
 31
0.0
  0
LINE
  5
489
330
1E
100
AcDbEntity
  8
0
100
AcDbLine
 10
81.84310000000001
 20
4.914733333333329
 30
0.0
 11
82.81879999999999
 21
4.97386666666666
 31
0.0
  0
LINE
  5
48A
330
1E
100
AcDbEntity
  8
0
100
AcDbLine
 10
85.70829999999999
 20
5.14898787878787
 30
0.0
 11
85.70829999999999
 21
4.372939999999999
 31
0.0
  0
LINE
  5
48B
330
1E
100
AcDbEntity
  8
0
100
AcDbLine
 10
85.70829999999999
 20
5.265480874316929
 30
0.0
 11
85.70829999999999
 21
4.372939999999999
 31
0.0
  0
LINE
  5
48C
330
1E
100
AcDbEntity
  8
0
100
AcDbLine
 10
82.81879999999999
 20
5.33070329670329
 30
0.0
 11
82.81879999999999
 21
4.372939999999999
 31
0.0
  0
LINE
  5
492
330
1E
100
AcDbEntity
  8
0
100
AcDbLine
 10
84.73119999999999
 20
5.41769014084507
 30
0.0
 11
84.73119999999999
 21
4.372939999999999
 31
0.0
  0
LINE
  5
496
330
1E
100
AcDbEntity
  8
0
100
AcDbLine
 10
78.8895
 20
5.46461206896551
 30
0.0
 11
78.8895
 21
4.372939999999999
 31
0.0
  0
LINE
  5
49A
330
1E
100
AcDbEntity
  8
0
100
AcDbLine
 10
80.8619
 20
5.5
 30
0.0
 11
80.8619
 21
4.372939999999999
 31
0.0
  0
LINE
  5
49B
330
1E
100
AcDbEntity
  8
0
100
AcDbLine
 10
76.0549
 20
5.5
 30
0.0
 11
76.0549
 21
4.372939999999999
 31
0.0
  0
LINE
  5
4A0
330
1E
100
AcDbEntity
  8
0
100
AcDbLine
 10
90.0
 20
5.413793103448269
 30
0.0
 11
90.0
 21
4.372939999999999
 31
0.0
  0
LINE
  5
4A2
330
1E
100
AcDbEntity
  8
0
100
AcDbLine
 10
85.29999999999999
 20
15.5
 30
0.0
 11
93.3
 21
15.5
 31
0.0
  0
LINE
  5
4A3
330
1E
100
AcDbEntity
  8
0
100
AcDbLine
 10
74.90000000000001
 20
15.5
 30
0.0
 11
85.29999999999999
 21
15.5
 31
0.0
  0
LINE
  5
4A4
330
1E
100
AcDbEntity
  8
0
100
AcDbLine
 10
84.73119999999999
 20
5.08976969696969
 30
0.0
 11
85.70829999999999
 21
5.14898787878787
 31
0.0
  0
LINE
  5
4A5
330
1E
100
AcDbEntity
  8
0
100
AcDbLine
 10
91.5
 20
5.5
 30
0.0
 11
93.0
 21
5.99999999999999
 31
0.0
  0
LINE
  5
4A6
330
1E
100
AcDbEntity
  8
0
100
AcDbLine
 10
90.0
 20
5.4090909090909
 30
0.0
 11
91.5
 21
5.5
 31
0.0
  0
LINE
  5
4A7
330
1E
100
AcDbEntity
  8
0
100
AcDbLine
 10
84.59999999999999
 20
16.0
 30
0.0
 11
92.4
 21
16.0
 31
0.0
  0
LINE
  5
4A8
330
1E
100
AcDbEntity
  8
0
100
AcDbLine
 10
93.3
 20
15.5
 30
0.0
 11
98.2
 21
15.5
 31
0.0
  0
LINE
  5
4A9
330
1E
100
AcDbEntity
  8
0
100
AcDbLine
 10
98.2
 20
15.5
 30
0.0
 11
100.0
 21
15.5
 31
0.0
  0
LINE
  5
4AA
330
1E
100
AcDbEntity
  8
0
100
AcDbLine
 10
100.0
 20
13.0
 30
0.0
 11
100.0
 21
15.5
 31
0.0
  0
LINE
  5
4AB
330
1E
100
AcDbEntity
  8
0
100
AcDbLine
 10
100.0
 20
15.5
 30
0.0
 11
100.0
 21
13.0
 31
0.0
  0
LINE
  5
4AC
330
1E
100
AcDbEntity
  8
0
100
AcDbLine
 10
99.50000000000001
 20
10.5
 30
0.0
 11
100.0
 21
13.0
 31
0.0
  0
LINE
  5
4AD
330
1E
100
AcDbEntity
  8
0
100
AcDbLine
 10
98.0
 20
7.99999999999999
 30
0.0
 11
99.50000000000001
 21
10.5
 31
0.0
  0
LINE
  5
4AE
330
1E
100
AcDbEntity
  8
0
100
AcDbLine
 10
95.5
 20
6.5
 30
0.0
 11
98.0
 21
7.99999999999999
 31
0.0
  0
LINE
  5
4AF
330
1E
100
AcDbEntity
  8
0
100
AcDbLine
 10
93.0
 20
5.99999999999999
 30
0.0
 11
95.5
 21
6.5
 31
0.0
  0
LINE
  5
4B0
330
1E
100
AcDbEntity
  8
0
100
AcDbLine
 10
92.4
 20
16.0
 30
0.0
 11
97.2
 21
16.0
 31
0.0
  0
LINE
  5
4B1
330
1E
100
AcDbEntity
  8
0
100
AcDbLine
 10
97.2
 20
16.0
 30
0.0
 11
99.0
 21
16.0
 31
0.0
  0
LINE
  5
4B2
330
1E
100
AcDbEntity
  8
0
100
AcDbLine
 10
74.40000000000001
 20
16.0
 30
0.0
 11
84.59999999999999
 21
16.0
 31
0.0
  0
LINE
  5
4B3
330
1E
100
AcDbEntity
  8
0
100
AcDbLine
 10
50.0
 20
16.0
 30
0.0
 11
62.6
 21
16.0
 31
0.0
  0
LINE
  5
4B4
330
1E
100
AcDbEntity
  8
0
100
AcDbLine
 10
85.29999999999999
 20
16.5
 30
0.0
 11
93.3
 21
16.5
 31
0.0
  0
LINE
  5
4B5
330
1E
100
AcDbEntity
  8
0
100
AcDbLine
 10
93.3
 20
16.5
 30
0.0
 11
98.2
 21
16.5
 31
0.0
  0
LINE
  5
4B6
330
1E
100
AcDbEntity
  8
0
100
AcDbLine
 10
100.0
 20
16.5
 30
0.0
 11
100.0
 21
27.0
 31
0.0
  0
LINE
  5
4B7
330
1E
100
AcDbEntity
  8
0
100
AcDbLine
 10
98.2
 20
16.5
 30
0.0
 11
100.0
 21
16.5
 31
0.0
  0
LINE
  5
4B8
330
1E
100
AcDbEntity
  8
0
100
AcDbLine
 10
74.90000000000001
 20
16.5
 30
0.0
 11
85.29999999999999
 21
16.5
 31
0.0
  0
LINE
  5
4B9
330
1E
100
AcDbEntity
  8
0
100
AcDbLine
 10
62.6
 20
16.0
 30
0.0
 11
74.40000000000001
 21
16.0
 31
0.0
  0
LINE
  5
4BA
330
1E
100
AcDbEntity
  8
0
100
AcDbLine
 10
62.8
 20
16.5
 30
0.0
 11
74.90000000000001
 21
16.5
 31
0.0
  0
LINE
  5
4BB
330
1E
100
AcDbEntity
  8
0
100
AcDbLine
 10
50.0
 20
16.5
 30
0.0
 11
62.8
 21
16.5
 31
0.0
  0
LINE
  5
4BC
330
1E
100
AcDbEntity
  8
0
100
AcDbLine
 10
99.0
 20
16.0
 30
0.0
 11
100.0
 21
16.5
 31
0.0
  0
LINE
  5
4BD
330
1E
100
AcDbEntity
  8
0
100
AcDbLine
 10
99.0
 20
16.0
 30
0.0
 11
100.0
 21
15.5
 31
0.0
  0
LINE
  5
4BE
330
1E
100
AcDbEntity
  8
0
100
AcDbLine
 10
37.4
 20
16.0
 30
0.0
 11
50.0
 21
16.0
 31
0.0
  0
LINE
  5
4BF
330
1E
100
AcDbEntity
  8
0
100
AcDbLine
 10
37.0
 20
53.0
 30
0.0
 11
39.39999999999999
 21
53.0
 31
0.0
  0
LINE
  5
4C0
330
1E
100
AcDbEntity
  8
0
100
AcDbLine
 10
35.5
 20
61.0
 30
0.0
 11
37.0
 21
61.0
 31
0.0
  0
LINE
  5
4C1
330
1E
100
AcDbEntity
  8
0
100
AcDbLine
 10
35.5
 20
54.0
 30
0.0
 11
37.0
 21
54.0
 31
0.0
  0
LINE
  5
4C2
330
1E
100
AcDbEntity
  8
0
100
AcDbLine
 10
37.0
 20
62.0
 30
0.0
 11
37.5
 21
62.0
 31
0.0
  0
LINE
  5
4C3
330
1E
100
AcDbEntity
  8
0
100
AcDbLine
 10
37.0
 20
61.0
 30
0.0
 11
39.39999999999999
 21
61.0
 31
0.0
  0
LINE
  5
4C4
330
1E
100
AcDbEntity
  8
0
100
AcDbLine
 10
37.0
 20
54.0
 30
0.0
 11
39.39999999999999
 21
54.0
 31
0.0
  0
LINE
  5
4C5
330
1E
100
AcDbEntity
  8
0
100
AcDbLine
 10
36.5
 20
53.5
 30
0.0
 11
37.9
 21
53.5
 31
0.0
  0
LINE
  5
4C6
330
1E
100
AcDbEntity
  8
0
100
AcDbLine
 10
36.0
 20
53.5
 30
0.0
 11
36.5
 21
53.5
 31
0.0
  0
LINE
  5
4C7
330
1E
100
AcDbEntity
  8
0
100
AcDbLine
 10
35.5
 20
53.0
 30
0.0
 11
37.0
 21
53.0
 31
0.0
  0
LINE
  5
4C8
330
1E
100
AcDbEntity
  8
0
100
AcDbLine
 10
38.0
 20
41.0
 30
0.0
 11
41.5
 21
41.0
 31
0.0
  0
LINE
  5
4C9
330
1E
100
AcDbEntity
  8
0
100
AcDbLine
 10
85.0
 20
28.0
 30
0.0
 11
92.9
 21
28.0
 31
0.0
  0
LINE
  5
4CA
330
1E
100
AcDbEntity
  8
0
100
AcDbLine
 10
92.9
 20
28.0
 30
0.0
 11
97.70000000000001
 21
28.0
 31
0.0
  0
LINE
  5
4CB
330
1E
100
AcDbEntity
  8
0
100
AcDbLine
 10
97.70000000000001
 20
28.0
 30
0.0
 11
99.50000000000001
 21
28.0
 31
0.0
  0
LINE
  5
4CC
330
1E
100
AcDbEntity
  8
0
100
AcDbLine
 10
74.59999999999999
 20
28.0
 30
0.0
 11
85.0
 21
28.0
 31
0.0
  0
LINE
  5
4CD
330
1E
100
AcDbEntity
  8
0
100
AcDbLine
 10
62.7
 20
28.0
 30
0.0
 11
74.59999999999999
 21
28.0
 31
0.0
  0
LINE
  5
4CE
330
1E
100
AcDbEntity
  8
0
100
AcDbLine
 10
50.0
 20
28.0
 30
0.0
 11
62.7
 21
28.0
 31
0.0
  0
LINE
  5
4CF
330
1E
100
AcDbEntity
  8
0
100
AcDbLine
 10
65.0
 20
41.0
 30
0.0
 11
65.0
 21
53.0
 31
0.0
  0
LINE
  5
4D0
330
1E
100
AcDbEntity
  8
0
100
AcDbLine
 10
62.0
 20
41.0
 30
0.0
 11
64.7
 21
41.0
 31
0.0
  0
LINE
  5
4D1
330
1E
100
AcDbEntity
  8
0
100
AcDbLine
 10
64.7
 20
41.0
 30
0.0
 11
66.4
 21
41.0
 31
0.0
  0
LINE
  5
4D2
330
1E
100
AcDbEntity
  8
0
100
AcDbLine
 10
66.4
 20
41.0
 30
0.0
 11
67.0
 21
41.0
 31
0.0
  0
LINE
  5
4D3
330
1E
100
AcDbEntity
  8
0
100
AcDbLine
 10
58.5
 20
41.0
 30
0.0
 11
62.0
 21
41.0
 31
0.0
  0
LINE
  5
4D4
330
1E
100
AcDbEntity
  8
0
100
AcDbLine
 10
54.4
 20
41.0
 30
0.0
 11
58.5
 21
41.0
 31
0.0
  0
LINE
  5
4D5
330
1E
100
AcDbEntity
  8
0
100
AcDbLine
 10
50.0
 20
41.0
 30
0.0
 11
54.4
 21
41.0
 31
0.0
  0
LINE
  5
4D6
330
1E
100
AcDbEntity
  8
0
100
AcDbLine
 10
67.0
 20
41.0
 30
0.0
 11
68.0
 21
39.0
 31
0.0
  0
LINE
  5
4D7
330
1E
100
AcDbEntity
  8
0
100
AcDbLine
 10
68.0
 20
39.0
 30
0.0
 11
69.5
 21
38.0
 31
0.0
  0
LINE
  5
4D8
330
1E
100
AcDbEntity
  8
0
100
AcDbLine
 10
69.5
 20
38.0
 30
0.0
 11
98.50000000000001
 21
28.5
 31
0.0
  0
LINE
  5
4D9
330
1E
100
AcDbEntity
  8
0
100
AcDbLine
 10
98.50000000000001
 20
28.5
 30
0.0
 11
99.50000000000001
 21
28.0
 31
0.0
  0
LINE
  5
4DA
330
1E
100
AcDbEntity
  8
0
100
AcDbLine
 10
99.50000000000001
 20
28.0
 30
0.0
 11
100.0
 21
27.0
 31
0.0
  0
LINE
  5
4DB
330
1E
100
AcDbEntity
  8
0
100
AcDbLine
 10
100.0
 20
27.0
 30
0.0
 11
100.0
 21
16.5
 31
0.0
  0
LINE
  5
4DC
330
1E
100
AcDbEntity
  8
0
100
AcDbLine
 10
41.5
 20
41.0
 30
0.0
 11
45.6
 21
41.0
 31
0.0
  0
LINE
  5
4DD
330
1E
100
AcDbEntity
  8
0
100
AcDbLine
 10
37.5
 20
62.0
 30
0.0
 11
38.7
 21
62.0
 31
0.0
  0
LINE
  5
4DE
330
1E
100
AcDbEntity
  8
0
100
AcDbLine
 10
39.39999999999999
 20
61.0
 30
0.0
 11
42.5
 21
61.0
 31
0.0
  0
LINE
  5
4DF
330
1E
100
AcDbEntity
  8
0
100
AcDbLine
 10
39.39999999999999
 20
54.0
 30
0.0
 11
42.5
 21
54.0
 31
0.0
  0
LINE
  5
4E0
330
1E
100
AcDbEntity
  8
0
100
AcDbLine
 10
40.1
 20
53.5
 30
0.0
 11
43.0
 21
53.5
 31
0.0
  0
LINE
  5
4E1
330
1E
100
AcDbEntity
  8
0
100
AcDbLine
 10
40.8
 20
62.0
 30
0.0
 11
43.5
 21
62.0
 31
0.0
  0
LINE
  5
4E2
330
1E
100
AcDbEntity
  8
0
100
AcDbLine
 10
43.5
 20
62.0
 30
0.0
 11
46.7
 21
62.0
 31
0.0
  0
LINE
  5
4E3
330
1E
100
AcDbEntity
  8
0
100
AcDbLine
 10
42.5
 20
61.0
 30
0.0
 11
46.1
 21
61.0
 31
0.0
  0
LINE
  5
4E4
330
1E
100
AcDbEntity
  8
0
100
AcDbLine
 10
42.5
 20
54.0
 30
0.0
 11
46.1
 21
54.0
 31
0.0
  0
LINE
  5
4E5
330
1E
100
AcDbEntity
  8
0
100
AcDbLine
 10
46.1
 20
54.0
 30
0.0
 11
50.0
 21
54.0
 31
0.0
  0
LINE
  5
4E6
330
1E
100
AcDbEntity
  8
0
100
AcDbLine
 10
43.0
 20
53.5
 30
0.0
 11
46.39999999999999
 21
53.5
 31
0.0
  0
LINE
  5
4E7
330
1E
100
AcDbEntity
  8
0
100
AcDbLine
 10
39.39999999999999
 20
53.0
 30
0.0
 11
42.5
 21
53.0
 31
0.0
  0
LINE
  5
4E8
330
1E
100
AcDbEntity
  8
0
100
AcDbLine
 10
42.5
 20
53.0
 30
0.0
 11
46.1
 21
53.0
 31
0.0
  0
LINE
  5
4E9
330
1E
100
AcDbEntity
  8
0
100
AcDbLine
 10
50.0
 20
53.5
 30
0.0
 11
53.6
 21
53.5
 31
0.0
  0
LINE
  5
4EA
330
1E
100
AcDbEntity
  8
0
100
AcDbLine
 10
60.6
 20
53.0
 30
0.0
 11
63.0
 21
53.0
 31
0.0
  0
LINE
  5
4EB
330
1E
100
AcDbEntity
  8
0
100
AcDbLine
 10
65.0
 20
53.0
 30
0.0
 11
65.0
 21
41.0
 31
0.0
  0
LINE
  5
4EC
330
1E
100
AcDbEntity
  8
0
100
AcDbLine
 10
63.0
 20
53.0
 30
0.0
 11
64.5
 21
53.0
 31
0.0
  0
LINE
  5
4ED
330
1E
100
AcDbEntity
  8
0
100
AcDbLine
 10
64.5
 20
53.0
 30
0.0
 11
65.0
 21
53.0
 31
0.0
  0
LINE
  5
4EE
330
1E
100
AcDbEntity
  8
0
100
AcDbLine
 10
57.5
 20
53.0
 30
0.0
 11
60.6
 21
53.0
 31
0.0
  0
LINE
  5
4EF
330
1E
100
AcDbEntity
  8
0
100
AcDbLine
 10
59.9
 20
53.5
 30
0.0
 11
62.1
 21
53.5
 31
0.0
  0
LINE
  5
4F0
330
1E
100
AcDbEntity
  8
0
100
AcDbLine
 10
62.1
 20
53.5
 30
0.0
 11
63.5
 21
53.5
 31
0.0
  0
LINE
  5
4F1
330
1E
100
AcDbEntity
  8
0
100
AcDbLine
 10
64.0
 20
53.5
 30
0.0
 11
65.0
 21
53.0
 31
0.0
  0
LINE
  5
4F2
330
1E
100
AcDbEntity
  8
0
100
AcDbLine
 10
64.0
 20
53.5
 30
0.0
 11
65.0
 21
54.0
 31
0.0
  0
LINE
  5
4F3
330
1E
100
AcDbEntity
  8
0
100
AcDbLine
 10
63.5
 20
53.5
 30
0.0
 11
64.0
 21
53.5
 31
0.0
  0
LINE
  5
4F4
330
1E
100
AcDbEntity
  8
0
100
AcDbLine
 10
57.0
 20
53.5
 30
0.0
 11
59.9
 21
53.5
 31
0.0
  0
LINE
  5
4F5
330
1E
100
AcDbEntity
  8
0
100
AcDbLine
 10
53.6
 20
53.5
 30
0.0
 11
57.0
 21
53.5
 31
0.0
  0
LINE
  5
4F6
330
1E
100
AcDbEntity
  8
0
100
AcDbLine
 10
53.9
 20
53.0
 30
0.0
 11
57.5
 21
53.0
 31
0.0
  0
LINE
  5
4F7
330
1E
100
AcDbEntity
  8
0
100
AcDbLine
 10
50.0
 20
53.0
 30
0.0
 11
53.9
 21
53.0
 31
0.0
  0
LINE
  5
4F8
330
1E
100
AcDbEntity
  8
0
100
AcDbLine
 10
50.0
 20
62.0
 30
0.0
 11
53.3
 21
62.0
 31
0.0
  0
LINE
  5
4F9
330
1E
100
AcDbEntity
  8
0
100
AcDbLine
 10
50.0
 20
61.0
 30
0.0
 11
53.9
 21
61.0
 31
0.0
  0
LINE
  5
4FA
330
1E
100
AcDbEntity
  8
0
100
AcDbLine
 10
60.6
 20
54.0
 30
0.0
 11
63.0
 21
54.0
 31
0.0
  0
LINE
  5
4FB
330
1E
100
AcDbEntity
  8
0
100
AcDbLine
 10
65.0
 20
54.0
 30
0.0
 11
65.0
 21
61.0
 31
0.0
  0
LINE
  5
4FC
330
1E
100
AcDbEntity
  8
0
100
AcDbLine
 10
63.0
 20
54.0
 30
0.0
 11
64.5
 21
54.0
 31
0.0
  0
LINE
  5
4FD
330
1E
100
AcDbEntity
  8
0
100
AcDbLine
 10
64.5
 20
54.0
 30
0.0
 11
65.0
 21
54.0
 31
0.0
  0
LINE
  5
4FE
330
1E
100
AcDbEntity
  8
0
100
AcDbLine
 10
57.5
 20
54.0
 30
0.0
 11
60.6
 21
54.0
 31
0.0
  0
LINE
  5
4FF
330
1E
100
AcDbEntity
  8
0
100
AcDbLine
 10
53.3
 20
62.0
 30
0.0
 11
56.5
 21
62.0
 31
0.0
  0
LINE
  5
500
330
1E
100
AcDbEntity
  8
0
100
AcDbLine
 10
60.6
 20
61.0
 30
0.0
 11
63.0
 21
61.0
 31
0.0
  0
LINE
  5
501
330
1E
100
AcDbEntity
  8
0
100
AcDbLine
 10
63.0
 20
61.0
 30
0.0
 11
64.5
 21
61.0
 31
0.0
  0
LINE
  5
502
330
1E
100
AcDbEntity
  8
0
100
AcDbLine
 10
65.0
 20
61.0
 30
0.0
 11
65.0
 21
54.0
 31
0.0
  0
LINE
  5
503
330
1E
100
AcDbEntity
  8
0
100
AcDbLine
 10
64.5
 20
61.0
 30
0.0
 11
65.0
 21
61.0
 31
0.0
  0
LINE
  5
504
330
1E
100
AcDbEntity
  8
0
100
AcDbLine
 10
59.2
 20
62.0
 30
0.0
 11
61.29999999999999
 21
62.0
 31
0.0
  0
LINE
  5
505
330
1E
100
AcDbEntity
  8
0
100
AcDbLine
 10
61.29999999999999
 20
62.0
 30
0.0
 11
62.5
 21
62.0
 31
0.0
  0
LINE
  5
506
330
1E
100
AcDbEntity
  8
0
100
AcDbLine
 10
63.0
 20
62.0
 30
0.0
 11
65.0
 21
61.0
 31
0.0
  0
LINE
  5
507
330
1E
100
AcDbEntity
  8
0
100
AcDbLine
 10
62.5
 20
62.0
 30
0.0
 11
63.0
 21
62.0
 31
0.0
  0
LINE
  5
508
330
1E
100
AcDbEntity
  8
0
100
AcDbLine
 10
56.5
 20
62.0
 30
0.0
 11
59.2
 21
62.0
 31
0.0
  0
LINE
  5
509
330
1E
100
AcDbEntity
  8
0
100
AcDbLine
 10
57.5
 20
61.0
 30
0.0
 11
60.6
 21
61.0
 31
0.0
  0
LINE
  5
50A
330
1E
100
AcDbEntity
  8
0
100
AcDbLine
 10
53.9
 20
61.0
 30
0.0
 11
57.5
 21
61.0
 31
0.0
  0
LINE
  5
50B
330
1E
100
AcDbEntity
  8
0
100
AcDbLine
 10
53.9
 20
54.0
 30
0.0
 11
57.5
 21
54.0
 31
0.0
  0
LINE
  5
50C
330
1E
100
AcDbEntity
  8
0
100
AcDbLine
 10
50.0
 20
54.0
 30
0.0
 11
53.9
 21
54.0
 31
0.0
  0
LINE
  5
50D
330
1E
100
AcDbEntity
  8
0
100
AcDbLine
 10
46.7
 20
62.0
 30
0.0
 11
50.0
 21
62.0
 31
0.0
  0
LINE
  5
50E
330
1E
100
AcDbEntity
  8
0
100
AcDbLine
 10
46.1
 20
61.0
 30
0.0
 11
50.0
 21
61.0
 31
0.0
  0
LINE
  5
50F
330
1E
100
AcDbEntity
  8
0
100
AcDbLine
 10
46.39999999999999
 20
53.5
 30
0.0
 11
50.0
 21
53.5
 31
0.0
  0
LINE
  5
510
330
1E
100
AcDbEntity
  8
0
100
AcDbLine
 10
46.1
 20
53.0
 30
0.0
 11
50.0
 21
53.0
 31
0.0
  0
LINE
  5
511
330
1E
100
AcDbEntity
  8
0
100
AcDbLine
 10
38.7
 20
62.0
 30
0.0
 11
40.8
 21
62.0
 31
0.0
  0
LINE
  5
512
330
1E
100
AcDbEntity
  8
0
100
AcDbLine
 10
37.9
 20
53.5
 30
0.0
 11
40.1
 21
53.5
 31
0.0
  0
LINE
  5
513
330
1E
100
AcDbEntity
  8
0
100
AcDbLine
 10
45.6
 20
41.0
 30
0.0
 11
50.0
 21
41.0
 31
0.0
  0
LINE
  5
514
330
1E
100
AcDbEntity
  8
0
100
AcDbLine
 10
37.29999999999999
 20
28.0
 30
0.0
 11
50.0
 21
28.0
 31
0.0
  0
LINE
  5
515
330
1E
100
AcDbEntity
  8
0
100
AcDbLine
 10
37.2
 20
16.5
 30
0.0
 11
50.0
 21
16.5
 31
0.0
  0
LINE
  5
516
330
1E
100
AcDbEntity
  8
0
100
AcDbLine
 10
35.29999999999999
 20
41.0
 30
0.0
 11
38.0
 21
41.0
 31
0.0
  0
LINE
  5
517
330
1E
100
AcDbEntity
  8
0
100
AcDbLine
 10
41.5
 20
67.0
 30
0.0
 11
44.0
 21
67.0
 31
0.0
  0
LINE
  5
518
330
1E
100
AcDbEntity
  8
0
100
AcDbLine
 10
41.29999999999999
 20
67.0
 30
0.0
 11
42.9
 21
67.0
 31
0.0
  0
LINE
  5
519
330
1E
100
AcDbEntity
  8
0
100
AcDbLine
 10
40.4
 20
67.0
 30
0.0
 11
41.29999999999999
 21
67.0
 31
0.0
  0
LINE
  5
51A
330
1E
100
AcDbEntity
  8
0
100
AcDbLine
 10
42.0
 20
66.0
 30
0.0
 11
42.0
 21
65.0
 31
0.0
  0
LINE
  5
51B
330
1E
100
AcDbEntity
  8
0
100
AcDbLine
 10
42.0
 20
66.0
 30
0.0
 11
42.29999999999999
 21
66.0
 31
0.0
  0
LINE
  5
51C
330
1E
100
AcDbEntity
  8
0
100
AcDbLine
 10
39.6
 20
67.0
 30
0.0
 11
40.0
 21
67.0
 31
0.0
  0
LINE
  5
51D
330
1E
100
AcDbEntity
  8
0
100
AcDbLine
 10
39.6
 20
67.0
 30
0.0
 11
41.5
 21
67.0
 31
0.0
  0
LINE
  5
51E
330
1E
100
AcDbEntity
  8
0
100
AcDbLine
 10
38.39999999999999
 20
67.0
 30
0.0
 11
39.6
 21
67.0
 31
0.0
  0
LINE
  5
51F
330
1E
100
AcDbEntity
  8
0
100
AcDbLine
 10
38.0
 20
67.0
 30
0.0
 11
38.39999999999999
 21
67.0
 31
0.0
  0
LINE
  5
520
330
1E
100
AcDbEntity
  8
0
100
AcDbLine
 10
38.0
 20
67.0
 30
0.0
 11
38.0
 21
79.0
 31
0.0
  0
LINE
  5
521
330
1E
100
AcDbEntity
  8
0
100
AcDbLine
 10
41.5
 20
79.0
 30
0.0
 11
44.0
 21
79.0
 31
0.0
  0
LINE
  5
522
330
1E
100
AcDbEntity
  8
0
100
AcDbLine
 10
39.6
 20
79.0
 30
0.0
 11
41.5
 21
79.0
 31
0.0
  0
LINE
  5
523
330
1E
100
AcDbEntity
  8
0
100
AcDbLine
 10
38.39999999999999
 20
79.0
 30
0.0
 11
39.6
 21
79.0
 31
0.0
  0
LINE
  5
524
330
1E
100
AcDbEntity
  8
0
100
AcDbLine
 10
38.0
 20
79.0
 30
0.0
 11
38.0
 21
67.0
 31
0.0
  0
LINE
  5
525
330
1E
100
AcDbEntity
  8
0
100
AcDbLine
 10
38.0
 20
79.0
 30
0.0
 11
38.39999999999999
 21
79.0
 31
0.0
  0
LINE
  5
526
330
1E
100
AcDbEntity
  8
0
100
AcDbLine
 10
40.0
 20
67.0
 30
0.0
 11
42.0
 21
66.0
 31
0.0
  0
LINE
  5
527
330
1E
100
AcDbEntity
  8
0
100
AcDbLine
 10
40.0
 20
67.0
 30
0.0
 11
40.4
 21
67.0
 31
0.0
  0
LINE
  5
529
330
1E
100
AcDbEntity
  8
0
100
AcDbLine
 10
58.0
 20
65.0
 30
0.0
 11
60.0
 21
62.0
 31
0.0
  0
LINE
  5
52A
330
1E
100
AcDbEntity
  8
0
100
AcDbLine
 10
58.0
 20
65.0
 30
0.0
 11
58.0
 21
66.0
 31
0.0
  0
LINE
  5
52D
330
1E
100
AcDbEntity
  8
0
100
AcDbLine
 10
44.4
 20
66.0
 30
0.0
 11
46.0
 21
66.0
 31
0.0
  0
LINE
  5
52E
330
1E
100
AcDbEntity
  8
0
100
AcDbLine
 10
46.0
 20
66.0
 30
0.0
 11
47.9
 21
66.0
 31
0.0
  0
LINE
  5
52F
330
1E
100
AcDbEntity
  8
0
100
AcDbLine
 10
55.6
 20
66.0
 30
0.0
 11
56.9
 21
66.0
 31
0.0
  0
LINE
  5
530
330
1E
100
AcDbEntity
  8
0
100
AcDbLine
 10
56.9
 20
66.0
 30
0.0
 11
57.7
 21
66.0
 31
0.0
  0
LINE
  5
531
330
1E
100
AcDbEntity
  8
0
100
AcDbLine
 10
58.0
 20
66.0
 30
0.0
 11
60.0
 21
67.0
 31
0.0
  0
LINE
  5
532
330
1E
100
AcDbEntity
  8
0
100
AcDbLine
 10
58.0
 20
66.0
 30
0.0
 11
58.0
 21
65.0
 31
0.0
  0
LINE
  5
533
330
1E
100
AcDbEntity
  8
0
100
AcDbLine
 10
57.7
 20
66.0
 30
0.0
 11
58.0
 21
66.0
 31
0.0
  0
LINE
  5
534
330
1E
100
AcDbEntity
  8
0
100
AcDbLine
 10
54.0
 20
66.0
 30
0.0
 11
55.6
 21
66.0
 31
0.0
  0
LINE
  5
535
330
1E
100
AcDbEntity
  8
0
100
AcDbLine
 10
52.1
 20
66.0
 30
0.0
 11
54.0
 21
66.0
 31
0.0
  0
LINE
  5
536
330
1E
100
AcDbEntity
  8
0
100
AcDbLine
 10
50.0
 20
66.0
 30
0.0
 11
52.1
 21
66.0
 31
0.0
  0
LINE
  5
537
330
1E
100
AcDbEntity
  8
0
100
AcDbLine
 10
47.9
 20
66.0
 30
0.0
 11
50.0
 21
66.0
 31
0.0
  0
LINE
  5
538
330
1E
100
AcDbEntity
  8
0
100
AcDbLine
 10
44.0
 20
67.0
 30
0.0
 11
46.9
 21
67.0
 31
0.0
  0
LINE
  5
539
330
1E
100
AcDbEntity
  8
0
100
AcDbLine
 10
46.9
 20
67.0
 30
0.0
 11
50.0
 21
67.0
 31
0.0
  0
LINE
  5
53A
330
1E
100
AcDbEntity
  8
0
100
AcDbLine
 10
42.9
 20
67.0
 30
0.0
 11
45.0
 21
67.0
 31
0.0
  0
LINE
  5
53B
330
1E
100
AcDbEntity
  8
0
100
AcDbLine
 10
44.0
 20
79.0
 30
0.0
 11
46.9
 21
79.0
 31
0.0
  0
LINE
  5
53C
330
1E
100
AcDbEntity
  8
0
100
AcDbLine
 10
46.9
 20
79.0
 30
0.0
 11
50.0
 21
79.0
 31
0.0
  0
LINE
  5
53D
330
1E
100
AcDbEntity
  8
0
100
AcDbLine
 10
45.0
 20
67.0
 30
0.0
 11
47.4
 21
67.0
 31
0.0
  0
LINE
  5
53E
330
1E
100
AcDbEntity
  8
0
100
AcDbLine
 10
58.5
 20
67.0
 30
0.0
 11
60.4
 21
67.0
 31
0.0
  0
LINE
  5
53F
330
1E
100
AcDbEntity
  8
0
100
AcDbLine
 10
57.1
 20
67.0
 30
0.0
 11
58.7
 21
67.0
 31
0.0
  0
LINE
  5
540
330
1E
100
AcDbEntity
  8
0
100
AcDbLine
 10
58.7
 20
67.0
 30
0.0
 11
59.6
 21
67.0
 31
0.0
  0
LINE
  5
541
330
1E
100
AcDbEntity
  8
0
100
AcDbLine
 10
60.0
 20
67.0
 30
0.0
 11
60.4
 21
67.0
 31
0.0
  0
LINE
  5
542
330
1E
100
AcDbEntity
  8
0
100
AcDbLine
 10
62.0
 20
67.0
 30
0.0
 11
62.0
 21
79.0
 31
0.0
  0
LINE
  5
543
330
1E
100
AcDbEntity
  8
0
100
AcDbLine
 10
60.4
 20
67.0
 30
0.0
 11
61.6
 21
67.0
 31
0.0
  0
LINE
  5
544
330
1E
100
AcDbEntity
  8
0
100
AcDbLine
 10
61.6
 20
67.0
 30
0.0
 11
62.0
 21
67.0
 31
0.0
  0
LINE
  5
545
330
1E
100
AcDbEntity
  8
0
100
AcDbLine
 10
59.6
 20
67.0
 30
0.0
 11
60.0
 21
67.0
 31
0.0
  0
LINE
  5
546
330
1E
100
AcDbEntity
  8
0
100
AcDbLine
 10
56.0
 20
67.0
 30
0.0
 11
58.5
 21
67.0
 31
0.0
  0
LINE
  5
547
330
1E
100
AcDbEntity
  8
0
100
AcDbLine
 10
53.1
 20
67.0
 30
0.0
 11
56.0
 21
67.0
 31
0.0
  0
LINE
  5
548
330
1E
100
AcDbEntity
  8
0
100
AcDbLine
 10
55.0
 20
67.0
 30
0.0
 11
57.1
 21
67.0
 31
0.0
  0
LINE
  5
549
330
1E
100
AcDbEntity
  8
0
100
AcDbLine
 10
52.6
 20
67.0
 30
0.0
 11
55.0
 21
67.0
 31
0.0
  0
LINE
  5
54A
330
1E
100
AcDbEntity
  8
0
100
AcDbLine
 10
58.5
 20
79.0
 30
0.0
 11
60.4
 21
79.0
 31
0.0
  0
LINE
  5
54B
330
1E
100
AcDbEntity
  8
0
100
AcDbLine
 10
62.0
 20
79.0
 30
0.0
 11
62.0
 21
67.0
 31
0.0
  0
LINE
  5
54C
330
1E
100
AcDbEntity
  8
0
100
AcDbLine
 10
60.4
 20
79.0
 30
0.0
 11
61.6
 21
79.0
 31
0.0
  0
LINE
  5
54D
330
1E
100
AcDbEntity
  8
0
100
AcDbLine
 10
61.6
 20
79.0
 30
0.0
 11
62.0
 21
79.0
 31
0.0
  0
LINE
  5
54E
330
1E
100
AcDbEntity
  8
0
100
AcDbLine
 10
56.0
 20
79.0
 30
0.0
 11
58.5
 21
79.0
 31
0.0
  0
LINE
  5
54F
330
1E
100
AcDbEntity
  8
0
100
AcDbLine
 10
53.1
 20
79.0
 30
0.0
 11
56.0
 21
79.0
 31
0.0
  0
LINE
  5
550
330
1E
100
AcDbEntity
  8
0
100
AcDbLine
 10
50.0
 20
79.0
 30
0.0
 11
53.1
 21
79.0
 31
0.0
  0
LINE
  5
551
330
1E
100
AcDbEntity
  8
0
100
AcDbLine
 10
50.0
 20
67.0
 30
0.0
 11
52.6
 21
67.0
 31
0.0
  0
LINE
  5
552
330
1E
100
AcDbEntity
  8
0
100
AcDbLine
 10
50.0
 20
67.0
 30
0.0
 11
53.1
 21
67.0
 31
0.0
  0
LINE
  5
553
330
1E
100
AcDbEntity
  8
0
100
AcDbLine
 10
47.4
 20
67.0
 30
0.0
 11
50.0
 21
67.0
 31
0.0
  0
LINE
  5
554
330
1E
100
AcDbEntity
  8
0
100
AcDbLine
 10
43.1
 20
66.0
 30
0.0
 11
44.4
 21
66.0
 31
0.0
  0
LINE
  5
555
330
1E
100
AcDbEntity
  8
0
100
AcDbLine
 10
42.29999999999999
 20
66.0
 30
0.0
 11
43.1
 21
66.0
 31
0.0
  0
LINE
  5
557
330
1E
100
AcDbEntity
  8
0
100
AcDbLine
 10
42.0
 20
65.0
 30
0.0
 11
42.0
 21
66.0
 31
0.0
  0
LINE
  5
558
330
1E
100
AcDbEntity
  8
0
100
AcDbLine
 10
40.0
 20
62.0
 30
0.0
 11
42.0
 21
65.0
 31
0.0
  0
LINE
  5
559
330
1E
100
AcDbEntity
  8
0
100
AcDbLine
 10
35.0
 20
41.0
 30
0.0
 11
35.0
 21
53.0
 31
0.0
  0
ENDSEC
  0
SECTION
  2
OBJECTS
  0
DICTIONARY
  5
C
330
0
100
AcDbDictionary
  3
ACAD_GROUP
350
D
  3
ACAD_LAYOUT
350
19
  3
ACAD_MLINESTYLE
350
16
  3
ACAD_PLOTSETTINGS
350
18
  3
ACAD_PLOTSTYLENAME
350
E
  3
ACDBHEADERROUNDTRIPXREC
350
561
  3
ACDBVARIABLEDICTIONARY
350
55E
  0
DICTIONARY
  5
583
330
1E
100
AcDbDictionary
280
     1
  3
ACAD_LAYOUTSELFREF
360
584
  0
DICTIONARY
  5
581
330
1A
100
AcDbDictionary
280
     1
  3
ACAD_LAYOUTSELFREF
360
582
  0
DICTIONARY
  5
D
102
{ACAD_REACTORS
330
C
102
}
330
C
100
AcDbDictionary
  0
DICTIONARY
  5
19
102
{ACAD_REACTORS
330
C
102
}
330
C
100
AcDbDictionary
  0
DICTIONARY
  5
16
102
{ACAD_REACTORS
330
C
102
}
330
C
100
AcDbDictionary
  3
STANDARD
350
17
  0
DICTIONARY
  5
18
102
{ACAD_REACTORS
330
C
102
}
330
C
100
AcDbDictionary
  0
ACDBDICTIONARYWDFLT
  5
E
102
{ACAD_REACTORS
330
C
102
}
330
C
100
AcDbDictionary
281
     1
  3
Normal
350
F
100
AcDbDictionaryWithDefault
340
F
  0
DICTIONARY
  5
561
102
{ACAD_REACTORS
330
C
102
}
330
C
100
AcDbDictionary
  3
CEPSNTYPE
350
56B
  3
FINGERPRINTGUID
350
56C
  3
HYPERLINKBASE
350
564
  3
INSUNITS
350
56A
  3
LAYOUTDICT
350
566
  3
LWETCUNION
350
569
  3
PLOTSETDICT
350
567
  3
PLOTSTYLNAMDICT
350
568
  3
PSVPSCALE
350
56E
  3
PUCSBASE
350
571
  3
PUCSORGBACK
350
577
  3
PUCSORGBOTTOM
350
573
  3
PUCSORGFRONT
350
576
  3
PUCSORGLEFT
350
574
  3
PUCSORGRIGHT
350
575
  3
PUCSORGTOP
350
572
  3
PUCSORTHOREF
350
56F
  3
PUCSORTHOVIEW
350
570
  3
STYLESHEET
350
565
  3
TSTACKALIGN
350
562
  3
TSTACKSIZE
350
563
  3
UCSBASE
350
57A
  3
UCSORGBACK
350
580
  3
UCSORGBOTTOM
350
57C
  3
UCSORGFRONT
350
57F
  3
UCSORGLEFT
350
57D
  3
UCSORGRIGHT
350
57E
  3
UCSORGTOP
350
57B
  3
UCSORTHOREF
350
578
  3
UCSORTHOVIEW
350
579
  3
VERSIONGUID
350
56D
  0
DICTIONARY
  5
55E
102
{ACAD_REACTORS
330
C
102
}
330
C
100
AcDbDictionary
  3
DIMASSOC
350
55F
  0
XRECORD
  5
584
102
{ACAD_REACTORS
330
583
102
}
330
583
100
AcDbXrecord
340
1E
  0
XRECORD
  5
582
102
{ACAD_REACTORS
330
581
102
}
330
581
100
AcDbXrecord
340
1A
  0
MLINESTYLE
  5
17
102
{ACAD_REACTORS
330
16
102
}
330
16
100
AcDbMlineStyle
  2
STANDARD
 70
     0
  3

 62
   256
 51
90.0
 52
90.0
 71
     2
 49
0.5
 62
   256
  6
BYLAYER
 49
-0.5
 62
   256
  6
BYLAYER
  0
ACDBPLACEHOLDER
  5
F
102
{ACAD_REACTORS
330
E
102
}
330
E
100
AcDbPlaceHolder
280
     0
  0
XRECORD
  5
56B
102
{ACAD_REACTORS
330
561
102
}
330
561
100
AcDbXrecord
 90
        0
  0
XRECORD
  5
56C
102
{ACAD_REACTORS
330
561
102
}
330
561
100
AcDbXrecord
  1
{BEFF7D45-18EB-427C-B673-DBAA17F8F041}
  0
XRECORD
  5
564
102
{ACAD_REACTORS
330
561
102
}
330
561
100
AcDbXrecord
  1

  0
XRECORD
  5
56A
102
{ACAD_REACTORS
330
561
102
}
330
561
100
AcDbXrecord
 90
        0
  0
XRECORD
  5
566
102
{ACAD_REACTORS
330
561
102
}
330
561
100
AcDbXrecord
340
19
  0
XRECORD
  5
569
102
{ACAD_REACTORS
330
561
102
}
330
561
100
AcDbXrecord
 90
    10781
  0
XRECORD
  5
567
102
{ACAD_REACTORS
330
561
102
}
330
561
100
AcDbXrecord
340
18
  0
XRECORD
  5
568
102
{ACAD_REACTORS
330
561
102
}
330
561
100
AcDbXrecord
340
E
  0
XRECORD
  5
56E
102
{ACAD_REACTORS
330
561
102
}
330
561
100
AcDbXrecord
 40
0.0
  0
XRECORD
  5
571
102
{ACAD_REACTORS
330
561
102
}
330
561
100
AcDbXrecord
340
0
  0
XRECORD
  5
577
102
{ACAD_REACTORS
330
561
102
}
330
561
100
AcDbXrecord
 10
0.0
 20
0.0
 30
0.0
  0
XRECORD
  5
573
102
{ACAD_REACTORS
330
561
102
}
330
561
100
AcDbXrecord
 10
0.0
 20
0.0
 30
0.0
  0
XRECORD
  5
576
102
{ACAD_REACTORS
330
561
102
}
330
561
100
AcDbXrecord
 10
0.0
 20
0.0
 30
0.0
  0
XRECORD
  5
574
102
{ACAD_REACTORS
330
561
102
}
330
561
100
AcDbXrecord
 10
0.0
 20
0.0
 30
0.0
  0
XRECORD
  5
575
102
{ACAD_REACTORS
330
561
102
}
330
561
100
AcDbXrecord
 10
0.0
 20
0.0
 30
0.0
  0
XRECORD
  5
572
102
{ACAD_REACTORS
330
561
102
}
330
561
100
AcDbXrecord
 10
0.0
 20
0.0
 30
0.0
  0
XRECORD
  5
56F
102
{ACAD_REACTORS
330
561
102
}
330
561
100
AcDbXrecord
340
0
  0
XRECORD
  5
570
102
{ACAD_REACTORS
330
561
102
}
330
561
100
AcDbXrecord
 70
     0
  0
XRECORD
  5
565
102
{ACAD_REACTORS
330
561
102
}
330
561
100
AcDbXrecord
  1

  0
XRECORD
  5
562
102
{ACAD_REACTORS
330
561
102
}
330
561
100
AcDbXrecord
 90
        1
  0
XRECORD
  5
563
102
{ACAD_REACTORS
330
561
102
}
330
561
100
AcDbXrecord
 90
       70
  0
XRECORD
  5
57A
102
{ACAD_REACTORS
330
561
102
}
330
561
100
AcDbXrecord
340
0
  0
XRECORD
  5
580
102
{ACAD_REACTORS
330
561
102
}
330
561
100
AcDbXrecord
 10
0.0
 20
0.0
 30
0.0
  0
XRECORD
  5
57C
102
{ACAD_REACTORS
330
561
102
}
330
561
100
AcDbXrecord
 10
0.0
 20
0.0
 30
0.0
  0
XRECORD
  5
57F
102
{ACAD_REACTORS
330
561
102
}
330
561
100
AcDbXrecord
 10
0.0
 20
0.0
 30
0.0
  0
XRECORD
  5
57D
102
{ACAD_REACTORS
330
561
102
}
330
561
100
AcDbXrecord
 10
0.0
 20
0.0
 30
0.0
  0
XRECORD
  5
57E
102
{ACAD_REACTORS
330
561
102
}
330
561
100
AcDbXrecord
 10
0.0
 20
0.0
 30
0.0
  0
XRECORD
  5
57B
102
{ACAD_REACTORS
330
561
102
}
330
561
100
AcDbXrecord
 10
0.0
 20
0.0
 30
0.0
  0
XRECORD
  5
578
102
{ACAD_REACTORS
330
561
102
}
330
561
100
AcDbXrecord
340
0
  0
XRECORD
  5
579
102
{ACAD_REACTORS
330
561
102
}
330
561
100
AcDbXrecord
 70
     1
  0
XRECORD
  5
56D
102
{ACAD_REACTORS
330
561
102
}
330
561
100
AcDbXrecord
  1
{8585FD5E-2B9C-4540-82FD-2F295344360F}
  0
DICTIONARYVAR
  5
55F
102
{ACAD_REACTORS
330
55E
102
}
330
55E
100
DictionaryVariables
280
     0
  1
1
  0
ENDSEC
  0
EOF
