  0
SECTION
  2
HEADER
  9
$ACADVER
  1
AC1015
  9
$ACADMAINTVER
 70
    13
  9
$DWGCODEPAGE
  3
ANSI_1252
  9
$INSBASE
 10
0.0
 20
0.0
 30
0.0
  9
$EXTMIN
 10
0.0
 20
0.0250499999999962
 30
0.0
  9
$EXTMAX
 10
157.0
 20
101.97495
 30
0.0
  9
$LIMMIN
 10
0.0
 20
0.0
  9
$LIMMAX
 10
12.0
 20
9.0
  9
$ORTHOMODE
 70
     0
  9
$REGENMODE
 70
     1
  9
$FILLMODE
 70
     1
  9
$QTEXTMODE
 70
     0
  9
$MIRRTEXT
 70
     1
  9
$LTSCALE
 40
1.0
  9
$ATTMODE
 70
     1
  9
$TEXTSIZE
 40
0.2
  9
$TRACEWID
 40
0.05
  9
$TEXTSTYLE
  7
Standard
  9
$CLAYER
  8
0
  9
$CELTYPE
  6
Continuous
  9
$CECOLOR
 62
   256
  9
$CELTSCALE
 40
1.0
  9
$DISPSILH
 70
     0
  9
$DIMSCALE
 40
1.0
  9
$DIMASZ
 40
0.18
  9
$DIMEXO
 40
0.0625
  9
$DIMDLI
 40
0.38
  9
$DIMRND
 40
0.0
  9
$DIMDLE
 40
0.0
  9
$DIMEXE
 40
0.18
  9
$DIMTP
 40
0.0
  9
$DIMTM
 40
0.0
  9
$DIMTXT
 40
0.18
  9
$DIMCEN
 40
0.09
  9
$DIMTSZ
 40
0.0
  9
$DIMTOL
 70
     0
  9
$DIMLIM
 70
     0
  9
$DIMTIH
 70
     1
  9
$DIMTOH
 70
     1
  9
$DIMSE1
 70
     0
  9
$DIMSE2
 70
     0
  9
$DIMTAD
 70
     0
  9
$DIMZIN
 70
     0
  9
$DIMBLK
  1

  9
$DIMASO
 70
     1
  9
$DIMSHO
 70
     1
  9
$DIMPOST
  1

  9
$DIMAPOST
  1

  9
$DIMALT
 70
     0
  9
$DIMALTD
 70
     2
  9
$DIMALTF
 40
25.4
  9
$DIMLFAC
 40
1.0
  9
$DIMTOFL
 70
     0
  9
$DIMTVP
 40
0.0
  9
$DIMTIX
 70
     0
  9
$DIMSOXD
 70
     0
  9
$DIMSAH
 70
     0
  9
$DIMBLK1
  1

  9
$DIMBLK2
  1

  9
$DIMSTYLE
  2
Standard
  9
$DIMCLRD
 70
     0
  9
$DIMCLRE
 70
     0
  9
$DIMCLRT
 70
     0
  9
$DIMTFAC
 40
1.0
  9
$DIMGAP
 40
0.09
  9
$DIMJUST
 70
     0
  9
$DIMSD1
 70
     0
  9
$DIMSD2
 70
     0
  9
$DIMTOLJ
 70
     1
  9
$DIMTZIN
 70
     0
  9
$DIMALTZ
 70
     0
  9
$DIMALTTZ
 70
     0
  9
$DIMUPT
 70
     0
  9
$DIMDEC
 70
     4
  9
$DIMTDEC
 70
     4
  9
$DIMALTU
 70
     2
  9
$DIMALTTD
 70
     2
  9
$DIMTXSTY
  7
Standard
  9
$DIMAUNIT
 70
     0
  9
$DIMADEC
 70
     0
  9
$DIMALTRND
 40
0.0
  9
$DIMAZIN
 70
     0
  9
$DIMDSEP
 70
    46
  9
$DIMATFIT
 70
     3
  9
$DIMFRAC
 70
     0
  9
$DIMLDRBLK
  1

  9
$DIMLUNIT
 70
     2
  9
$DIMLWD
 70
    -2
  9
$DIMLWE
 70
    -2
  9
$DIMTMOVE
 70
     0
  9
$LUNITS
 70
     2
  9
$LUPREC
 70
     4
  9
$SKETCHINC
 40
0.1
  9
$FILLETRAD
 40
0.0
  9
$AUNITS
 70
     0
  9
$AUPREC
 70
     0
  9
$MENU
  1
.
  9
$ELEVATION
 40
0.0
  9
$PELEVATION
 40
0.0
  9
$THICKNESS
 40
0.0
  9
$LIMCHECK
 70
     0
  9
$CHAMFERA
 40
0.0
  9
$CHAMFERB
 40
0.0
  9
$CHAMFERC
 40
0.0
  9
$CHAMFERD
 40
0.0
  9
$SKPOLY
 70
     0
  9
$TDCREATE
 40
2454906.875531319
  9
$TDUCREATE
 40
2454906.833864652
  9
$TDUPDATE
 40
2454906.880592985
  9
$TDUUPDATE
 40
2454906.838926319
  9
$TDINDWG
 40
0.0050618519
  9
$TDUSRTIMER
 40
0.0050618519
  9
$USRTIMER
 70
     1
  9
$ANGBASE
 50
0.0
  9
$ANGDIR
 70
     0
  9
$PDMODE
 70
     0
  9
$PDSIZE
 40
0.0
  9
$PLINEWID
 40
0.0
  9
$SPLFRAME
 70
     0
  9
$SPLINETYPE
 70
     6
  9
$SPLINESEGS
 70
     8
  9
$HANDSEED
  5
282
  9
$SURFTAB1
 70
     6
  9
$SURFTAB2
 70
     6
  9
$SURFTYPE
 70
     6
  9
$SURFU
 70
     6
  9
$SURFV
 70
     6
  9
$UCSBASE
  2

  9
$UCSNAME
  2

  9
$UCSORG
 10
0.0
 20
0.0
 30
0.0
  9
$UCSXDIR
 10
1.0
 20
0.0
 30
0.0
  9
$UCSYDIR
 10
0.0
 20
1.0
 30
0.0
  9
$UCSORTHOREF
  2

  9
$UCSORTHOVIEW
 70
     1
  9
$UCSORGTOP
 10
0.0
 20
0.0
 30
0.0
  9
$UCSORGBOTTOM
 10
0.0
 20
0.0
 30
0.0
  9
$UCSORGLEFT
 10
0.0
 20
0.0
 30
0.0
  9
$UCSORGRIGHT
 10
0.0
 20
0.0
 30
0.0
  9
$UCSORGFRONT
 10
0.0
 20
0.0
 30
0.0
  9
$UCSORGBACK
 10
0.0
 20
0.0
 30
0.0
  9
$PUCSBASE
  2

  9
$PUCSNAME
  2

  9
$PUCSORG
 10
0.0
 20
0.0
 30
0.0
  9
$PUCSXDIR
 10
1.0
 20
0.0
 30
0.0
  9
$PUCSYDIR
 10
0.0
 20
1.0
 30
0.0
  9
$PUCSORTHOREF
  2

  9
$PUCSORTHOVIEW
 70
     0
  9
$PUCSORGTOP
 10
0.0
 20
0.0
 30
0.0
  9
$PUCSORGBOTTOM
 10
0.0
 20
0.0
 30
0.0
  9
$PUCSORGLEFT
 10
0.0
 20
0.0
 30
0.0
  9
$PUCSORGRIGHT
 10
0.0
 20
0.0
 30
0.0
  9
$PUCSORGFRONT
 10
0.0
 20
0.0
 30
0.0
  9
$PUCSORGBACK
 10
0.0
 20
0.0
 30
0.0
  9
$USERI1
 70
     0
  9
$USERI2
 70
     0
  9
$USERI3
 70
     0
  9
$USERI4
 70
     0
  9
$USERI5
 70
     0
  9
$USERR1
 40
0.0
  9
$USERR2
 40
0.0
  9
$USERR3
 40
0.0
  9
$USERR4
 40
0.0
  9
$USERR5
 40
0.0
  9
$WORLDVIEW
 70
     1
  9
$SHADEDGE
 70
     3
  9
$SHADEDIF
 70
    70
  9
$TILEMODE
 70
     1
  9
$MAXACTVP
 70
    64
  9
$PINSBASE
 10
0.0
 20
0.0
 30
0.0
  9
$PLIMCHECK
 70
     0
  9
$PEXTMIN
 10
1.000000000000000E+20
 20
1.000000000000000E+20
 30
1.000000000000000E+20
  9
$PEXTMAX
 10
-1.000000000000000E+20
 20
-1.000000000000000E+20
 30
-1.000000000000000E+20
  9
$PLIMMIN
 10
0.0
 20
0.0
  9
$PLIMMAX
 10
12.0
 20
9.0
  9
$UNITMODE
 70
     0
  9
$VISRETAIN
 70
     1
  9
$PLINEGEN
 70
     0
  9
$PSLTSCALE
 70
     1
  9
$TREEDEPTH
 70
  3020
  9
$CMLSTYLE
  2
Standard
  9
$CMLJUST
 70
     0
  9
$CMLSCALE
 40
1.0
  9
$PROXYGRAPHICS
 70
     1
  9
$MEASUREMENT
 70
     0
  9
$CELWEIGHT
370
    -1
  9
$ENDCAPS
280
     0
  9
$JOINSTYLE
280
     0
  9
$LWDISPLAY
290
     0
  9
$INSUNITS
 70
     0
  9
$HYPERLINKBASE
  1

  9
$STYLESHEET
  1

  9
$XEDIT
290
     1
  9
$CEPSNTYPE
380
     0
  9
$PSTYLEMODE
290
     1
  9
$FINGERPRINTGUID
  2
{06D31BDD-52FC-4852-A3C9-DDB33A5B0BF9}
  9
$VERSIONGUID
  2
{BE15C4DF-CE80-4DEF-9C3F-833456F6733A}
  9
$EXTNAMES
290
     1
  9
$PSVPSCALE
 40
0.0
  9
$OLESTARTUP
290
     0
  0
ENDSEC
  0
SECTION
  2
CLASSES
  0
CLASS
  1
ACDBDICTIONARYWDFLT
  2
AcDbDictionaryWithDefault
  3
AutoCAD 2000
 90
        0
280
     0
281
     0
  0
CLASS
  1
ACDBPLACEHOLDER
  2
AcDbPlaceHolder
  3
AutoCAD 2000
 90
        0
280
     0
281
     0
  0
CLASS
  1
LAYOUT
  2
AcDbLayout
  3
AutoCAD 2000
 90
        0
280
     0
281
     0
  0
CLASS
  1
DICTIONARYVAR
  2
AcDbDictionaryVar
  3
AutoCAD 2000
 90
        0
280
     0
281
     0
  0
ENDSEC
  0
SECTION
  2
TABLES
  0
TABLE
  2
VPORT
  5
8
330
0
100
AcDbSymbolTable
 70
     2
  0
VPORT
  5
281
330
8
100
AcDbSymbolTableRecord
100
AcDbViewportTableRecord
  2
*Active
 70
     0
 10
0.0
 20
0.0
 11
1.0
 21
1.0
 12
78.5
 22
51.0
 13
0.0
 23
0.0
 14
1.0
 24
1.0
 15
0.0
 25
0.0
 16
0.0
 26
0.0
 36
1.0
 17
0.0
 27
0.0
 37
0.0
 40
102.5937941052631
 41
1.968387776606954
 42
50.0
 43
0.0
 44
0.0
 50
0.0
 51
0.0
 71
     0
 72
   100
 73
     1
 74
     3
 75
     0
 76
     0
 77
     0
 78
     0
281
     0
 65
     1
110
0.0
120
0.0
130
0.0
111
1.0
121
0.0
131
0.0
112
0.0
122
1.0
132
0.0
 79
     1
146
0.0
  0
ENDTAB
  0
TABLE
  2
LTYPE
  5
5
330
0
100
AcDbSymbolTable
 70
     1
  0
LTYPE
  5
13
330
5
100
AcDbSymbolTableRecord
100
AcDbLinetypeTableRecord
  2
ByBlock
 70
     0
  3

 72
    65
 73
     0
 40
0.0
  0
LTYPE
  5
14
330
5
100
AcDbSymbolTableRecord
100
AcDbLinetypeTableRecord
  2
ByLayer
 70
     0
  3

 72
    65
 73
     0
 40
0.0
  0
LTYPE
  5
15
330
5
100
AcDbSymbolTableRecord
100
AcDbLinetypeTableRecord
  2
Continuous
 70
     0
  3
Solid line
 72
    65
 73
     0
 40
0.0
  0
ENDTAB
  0
TABLE
  2
LAYER
  5
2
330
0
100
AcDbSymbolTable
 70
     1
  0
LAYER
  5
10
330
2
100
AcDbSymbolTableRecord
100
AcDbLayerTableRecord
  2
0
 70
     0
 62
     7
  6
Continuous
370
    -3
390
F
  0
ENDTAB
  0
TABLE
  2
STYLE
  5
3
330
0
100
AcDbSymbolTable
 70
     1
  0
STYLE
  5
11
330
3
100
AcDbSymbolTableRecord
100
AcDbTextStyleTableRecord
  2
Standard
 70
     0
 40
0.0
 41
1.0
 50
0.0
 71
     0
 42
0.2
  3
txt
  4

  0
ENDTAB
  0
TABLE
  2
VIEW
  5
6
330
0
100
AcDbSymbolTable
 70
     0
  0
ENDTAB
  0
TABLE
  2
UCS
  5
7
330
0
100
AcDbSymbolTable
 70
     0
  0
ENDTAB
  0
TABLE
  2
APPID
  5
9
330
0
100
AcDbSymbolTable
 70
     1
  0
APPID
  5
12
330
9
100
AcDbSymbolTableRecord
100
AcDbRegAppTableRecord
  2
ACAD
 70
     0
  0
ENDTAB
  0
TABLE
  2
DIMSTYLE
  5
A
330
0
100
AcDbSymbolTable
 70
     1
100
AcDbDimStyleTable
 71
     0
  0
DIMSTYLE
105
277
330
A
100
AcDbSymbolTableRecord
100
AcDbDimStyleTableRecord
  2
Standard
 70
     0
340
11
  0
ENDTAB
  0
TABLE
  2
BLOCK_RECORD
  5
1
330
0
100
AcDbSymbolTable
 70
     0
  0
BLOCK_RECORD
  5
1E
330
1
100
AcDbSymbolTableRecord
100
AcDbBlockTableRecord
  2
*Model_Space
340
21
  0
BLOCK_RECORD
  5
1A
330
1
100
AcDbSymbolTableRecord
100
AcDbBlockTableRecord
  2
*Paper_Space
340
1D
  0
ENDTAB
  0
ENDSEC
  0
SECTION
  2
BLOCKS
  0
BLOCK
  5
1F
330
1E
100
AcDbEntity
  8
0
100
AcDbBlockBegin
  2
*Model_Space
 70
     0
 10
0.0
 20
0.0
 30
0.0
  3
*Model_Space
  1

  0
ENDBLK
  5
20
330
1E
100
AcDbEntity
  8
0
100
AcDbBlockEnd
  0
BLOCK
  5
1B
330
1A
100
AcDbEntity
 67
     1
  8
0
100
AcDbBlockBegin
  2
*Paper_Space
 70
     0
 10
0.0
 20
0.0
 30
0.0
  3
*Paper_Space
  1

  0
ENDBLK
  5
1C
330
1A
100
AcDbEntity
 67
     1
  8
0
100
AcDbBlockEnd
  0
ENDSEC
  0
SECTION
  2
ENTITIES
  0
LINE
  5
22
330
1E
100
AcDbEntity
  8
0
100
AcDbLine
 10
18.5
 20
0.0250499999999962
 30
0.0
 11
78.5
 21
0.0250499999999962
 31
0.0
  0
LINE
  5
23
330
1E
100
AcDbEntity
  8
0
100
AcDbLine
 10
18.5
 20
0.4077499999999961
 30
0.0
 11
18.5
 21
1.275849999999979
 31
0.0
  0
LINE
  5
24
330
1E
100
AcDbEntity
  8
0
100
AcDbLine
 10
18.5
 20
0.4077499999999961
 30
0.0
 11
18.5
 21
0.0250499999999962
 31
0.0
  0
LINE
  5
25
330
1E
100
AcDbEntity
  8
0
100
AcDbLine
 10
18.5
 20
1.275849999999979
 30
0.0
 11
18.5
 21
0.4077499999999961
 31
0.0
  0
LINE
  5
26
330
1E
100
AcDbEntity
  8
0
100
AcDbLine
 10
18.5
 20
1.524249999999989
 30
0.0
 11
18.5
 21
1.76804999999998
 31
0.0
  0
LINE
  5
27
330
1E
100
AcDbEntity
  8
0
100
AcDbLine
 10
18.5
 20
1.524249999999989
 30
0.0
 11
18.5
 21
1.899449999999989
 31
0.0
  0
LINE
  5
28
330
1E
100
AcDbEntity
  8
0
100
AcDbLine
 10
18.5
 20
0.8590499999999899
 30
0.0
 11
18.5
 21
1.813749999999989
 31
0.0
  0
LINE
  5
29
330
1E
100
AcDbEntity
  8
0
100
AcDbLine
 10
18.5
 20
0.8590499999999899
 30
0.0
 11
18.5
 21
0.308849999999984
 31
0.0
  0
LINE
  5
2A
330
1E
100
AcDbEntity
  8
0
100
AcDbLine
 10
18.5
 20
0.308849999999984
 30
0.0
 11
18.5
 21
0.8590499999999899
 31
0.0
  0
LINE
  5
2B
330
1E
100
AcDbEntity
  8
0
100
AcDbLine
 10
18.5
 20
0.308849999999984
 30
0.0
 11
18.5
 21
0.0250499999999962
 31
0.0
  0
LINE
  5
2C
330
1E
100
AcDbEntity
  8
0
100
AcDbLine
 10
18.5
 20
1.76804999999998
 30
0.0
 11
18.5
 21
1.524249999999989
 31
0.0
  0
LINE
  5
2D
330
1E
100
AcDbEntity
  8
0
100
AcDbLine
 10
18.5
 20
1.76804999999998
 30
0.0
 11
18.5
 21
2.342149999999989
 31
0.0
  0
LINE
  5
2E
330
1E
100
AcDbEntity
  8
0
100
AcDbLine
 10
18.5
 20
0.0250499999999962
 30
0.0
 11
18.5
 21
0.308849999999984
 31
0.0
  0
LINE
  5
2F
330
1E
100
AcDbEntity
  8
0
100
AcDbLine
 10
18.5
 20
0.0250499999999962
 30
0.0
 11
78.5
 21
0.0250499999999962
 31
0.0
  0
LINE
  5
30
330
1E
100
AcDbEntity
  8
0
100
AcDbLine
 10
18.5
 20
0.0250499999999962
 30
0.0
 11
18.5
 21
0.4077499999999961
 31
0.0
  0
LINE
  5
31
330
1E
100
AcDbEntity
  8
0
100
AcDbLine
 10
18.5
 20
1.899449999999989
 30
0.0
 11
18.5
 21
1.524249999999989
 31
0.0
  0
LINE
  5
32
330
1E
100
AcDbEntity
  8
0
100
AcDbLine
 10
18.5
 20
1.899449999999989
 30
0.0
 11
18.5
 21
2.74864999999999
 31
0.0
  0
LINE
  5
33
330
1E
100
AcDbEntity
  8
0
100
AcDbLine
 10
18.5
 20
2.74864999999999
 30
0.0
 11
18.5
 21
1.899449999999989
 31
0.0
  0
LINE
  5
34
330
1E
100
AcDbEntity
  8
0
100
AcDbLine
 10
18.5
 20
2.342149999999989
 30
0.0
 11
18.5
 21
1.76804999999998
 31
0.0
  0
LINE
  5
35
330
1E
100
AcDbEntity
  8
0
100
AcDbLine
 10
18.5
 20
2.342149999999989
 30
0.0
 11
18.5
 21
3.285849999999979
 31
0.0
  0
LINE
  5
36
330
1E
100
AcDbEntity
  8
0
100
AcDbLine
 10
18.5
 20
3.285849999999979
 30
0.0
 11
18.5
 21
4.88124999999999
 31
0.0
  0
LINE
  5
37
330
1E
100
AcDbEntity
  8
0
100
AcDbLine
 10
18.5
 20
3.285849999999979
 30
0.0
 11
18.5
 21
2.342149999999989
 31
0.0
  0
LINE
  5
38
330
1E
100
AcDbEntity
  8
0
100
AcDbLine
 10
18.5
 20
37.63225
 30
0.0
 11
18.5
 21
46.26315
 31
0.0
  0
LINE
  5
39
330
1E
100
AcDbEntity
  8
0
100
AcDbLine
 10
18.5
 20
37.63225
 30
0.0
 11
18.5
 21
28.86855
 31
0.0
  0
LINE
  5
3A
330
1E
100
AcDbEntity
  8
0
100
AcDbLine
 10
18.5
 20
38.96005
 30
0.0
 11
18.5
 21
30.24295
 31
0.0
  0
LINE
  5
3B
330
1E
100
AcDbEntity
  8
0
100
AcDbLine
 10
18.5
 20
38.96005
 30
0.0
 11
18.5
 21
47.59105
 31
0.0
  0
LINE
  5
3C
330
1E
100
AcDbEntity
  8
0
100
AcDbLine
 10
18.5
 20
28.86855
 30
0.0
 11
18.5
 21
37.63225
 31
0.0
  0
LINE
  5
3D
330
1E
100
AcDbEntity
  8
0
100
AcDbLine
 10
18.5
 20
28.86855
 30
0.0
 11
18.5
 21
20.30394999999999
 31
0.0
  0
LINE
  5
3E
330
1E
100
AcDbEntity
  8
0
100
AcDbLine
 10
18.5
 20
30.24295
 30
0.0
 11
18.5
 21
21.41274999999999
 31
0.0
  0
LINE
  5
3F
330
1E
100
AcDbEntity
  8
0
100
AcDbLine
 10
18.5
 20
30.24295
 30
0.0
 11
18.5
 21
38.96005
 31
0.0
  0
LINE
  5
40
330
1E
100
AcDbEntity
  8
0
100
AcDbLine
 10
18.5
 20
20.30394999999999
 30
0.0
 11
18.5
 21
28.86855
 31
0.0
  0
LINE
  5
41
330
1E
100
AcDbEntity
  8
0
100
AcDbLine
 10
18.5
 20
20.30394999999999
 30
0.0
 11
18.5
 21
14.46145
 31
0.0
  0
LINE
  5
42
330
1E
100
AcDbEntity
  8
0
100
AcDbLine
 10
18.5
 20
21.41274999999999
 30
0.0
 11
18.5
 21
15.76945
 31
0.0
  0
LINE
  5
43
330
1E
100
AcDbEntity
  8
0
100
AcDbLine
 10
18.5
 20
21.41274999999999
 30
0.0
 11
18.5
 21
30.24295
 31
0.0
  0
LINE
  5
44
330
1E
100
AcDbEntity
  8
0
100
AcDbLine
 10
18.5
 20
14.46145
 30
0.0
 11
18.5
 21
20.30394999999999
 31
0.0
  0
LINE
  5
45
330
1E
100
AcDbEntity
  8
0
100
AcDbLine
 10
18.5
 20
14.46145
 30
0.0
 11
18.5
 21
9.84735
 31
0.0
  0
LINE
  5
46
330
1E
100
AcDbEntity
  8
0
100
AcDbLine
 10
18.5
 20
15.76945
 30
0.0
 11
18.5
 21
11.38765
 31
0.0
  0
LINE
  5
47
330
1E
100
AcDbEntity
  8
0
100
AcDbLine
 10
18.5
 20
15.76945
 30
0.0
 11
18.5
 21
21.41274999999999
 31
0.0
  0
LINE
  5
48
330
1E
100
AcDbEntity
  8
0
100
AcDbLine
 10
18.5
 20
9.84735
 30
0.0
 11
18.5
 21
14.46145
 31
0.0
  0
LINE
  5
49
330
1E
100
AcDbEntity
  8
0
100
AcDbLine
 10
18.5
 20
9.84735
 30
0.0
 11
18.5
 21
5.99664999999999
 31
0.0
  0
LINE
  5
4A
330
1E
100
AcDbEntity
  8
0
100
AcDbLine
 10
18.5
 20
11.38765
 30
0.0
 11
18.5
 21
7.404149999999999
 31
0.0
  0
LINE
  5
4B
330
1E
100
AcDbEntity
  8
0
100
AcDbLine
 10
18.5
 20
11.38765
 30
0.0
 11
18.5
 21
15.76945
 31
0.0
  0
LINE
  5
4C
330
1E
100
AcDbEntity
  8
0
100
AcDbLine
 10
18.5
 20
5.99664999999999
 30
0.0
 11
18.5
 21
9.84735
 31
0.0
  0
LINE
  5
4D
330
1E
100
AcDbEntity
  8
0
100
AcDbLine
 10
18.5
 20
5.99664999999999
 30
0.0
 11
18.5
 21
3.27464999999999
 31
0.0
  0
LINE
  5
4E
330
1E
100
AcDbEntity
  8
0
100
AcDbLine
 10
18.5
 20
7.404149999999999
 30
0.0
 11
18.5
 21
4.88124999999999
 31
0.0
  0
LINE
  5
4F
330
1E
100
AcDbEntity
  8
0
100
AcDbLine
 10
18.5
 20
7.404149999999999
 30
0.0
 11
18.5
 21
11.38765
 31
0.0
  0
LINE
  5
50
330
1E
100
AcDbEntity
  8
0
100
AcDbLine
 10
18.5
 20
3.27464999999999
 30
0.0
 11
18.5
 21
5.99664999999999
 31
0.0
  0
LINE
  5
51
330
1E
100
AcDbEntity
  8
0
100
AcDbLine
 10
18.5
 20
3.27464999999999
 30
0.0
 11
18.5
 21
1.813749999999989
 31
0.0
  0
LINE
  5
52
330
1E
100
AcDbEntity
  8
0
100
AcDbLine
 10
18.5
 20
4.88124999999999
 30
0.0
 11
18.5
 21
3.285849999999979
 31
0.0
  0
LINE
  5
53
330
1E
100
AcDbEntity
  8
0
100
AcDbLine
 10
18.5
 20
4.88124999999999
 30
0.0
 11
18.5
 21
7.404149999999999
 31
0.0
  0
LINE
  5
54
330
1E
100
AcDbEntity
  8
0
100
AcDbLine
 10
18.5
 20
1.813749999999989
 30
0.0
 11
18.5
 21
3.27464999999999
 31
0.0
  0
LINE
  5
55
330
1E
100
AcDbEntity
  8
0
100
AcDbLine
 10
18.5
 20
1.813749999999989
 30
0.0
 11
18.5
 21
0.8590499999999899
 31
0.0
  0
LINE
  5
56
330
1E
100
AcDbEntity
  8
0
100
AcDbLine
 10
14.0
 20
43.35035
 30
0.0
 11
18.5
 21
43.35035
 31
0.0
  0
LINE
  5
57
330
1E
100
AcDbEntity
  8
0
100
AcDbLine
 10
11.1468
 20
43.44755
 30
0.0
 11
14.0
 21
43.35035
 31
0.0
  0
LINE
  5
58
330
1E
100
AcDbEntity
  8
0
100
AcDbLine
 10
8.487999999999999
 20
43.73255
 30
0.0
 11
11.1468
 21
43.44755
 31
0.0
  0
LINE
  5
59
330
1E
100
AcDbEntity
  8
0
100
AcDbLine
 10
14.0
 20
43.35035
 30
0.0
 11
18.5
 21
43.35035
 31
0.0
  0
LINE
  5
5A
330
1E
100
AcDbEntity
  8
0
100
AcDbLine
 10
6.20485
 20
44.18605
 30
0.0
 11
8.487999999999999
 21
43.73255
 31
0.0
  0
LINE
  5
5B
330
1E
100
AcDbEntity
  8
0
100
AcDbLine
 10
0.0
 20
51.99872
 30
0.0
 11
0.0
 21
49.92817
 31
0.0
  0
LINE
  5
5C
330
1E
100
AcDbEntity
  8
0
100
AcDbLine
 10
0.0
 20
51.99872
 30
0.0
 11
0.144
 21
51.00960999999999
 31
0.0
  0
LINE
  5
5D
330
1E
100
AcDbEntity
  8
0
100
AcDbLine
 10
0.0
 20
51.99872
 30
0.0
 11
0.144
 21
52.98783
 31
0.0
  0
LINE
  5
5E
330
1E
100
AcDbEntity
  8
0
100
AcDbLine
 10
18.5
 20
46.26315
 30
0.0
 11
18.5
 21
52.84861
 31
0.0
  0
LINE
  5
5F
330
1E
100
AcDbEntity
  8
0
100
AcDbLine
 10
18.5
 20
46.26315
 30
0.0
 11
18.5
 21
37.63225
 31
0.0
  0
LINE
  5
60
330
1E
100
AcDbEntity
  8
0
100
AcDbLine
 10
3.62155
 20
45.02365
 30
0.0
 11
5.52603
 21
44.38125
 31
0.0
  0
LINE
  5
61
330
1E
100
AcDbEntity
  8
0
100
AcDbLine
 10
2.42435
 20
45.77164999999999
 30
0.0
 11
3.62155
 21
45.02365
 31
0.0
  0
LINE
  5
62
330
1E
100
AcDbEntity
  8
0
100
AcDbLine
 10
18.5
 20
47.59105
 30
0.0
 11
18.5
 21
38.96005
 31
0.0
  0
LINE
  5
63
330
1E
100
AcDbEntity
  8
0
100
AcDbLine
 10
18.5
 20
47.59105
 30
0.0
 11
18.5
 21
53.72861999999999
 31
0.0
  0
LINE
  5
64
330
1E
100
AcDbEntity
  8
0
100
AcDbLine
 10
1.60524
 20
46.33305
 30
0.0
 11
2.42435
 21
45.77164999999999
 31
0.0
  0
LINE
  5
65
330
1E
100
AcDbEntity
  8
0
100
AcDbLine
 10
0.9870469999999999
 20
47.10935
 30
0.0
 11
1.60524
 21
46.33305
 31
0.0
  0
LINE
  5
66
330
1E
100
AcDbEntity
  8
0
100
AcDbLine
 10
0.144
 20
52.98783
 30
0.0
 11
0.5280000000000001
 21
53.91511999999999
 31
0.0
  0
LINE
  5
67
330
1E
100
AcDbEntity
  8
0
100
AcDbLine
 10
0.144
 20
51.00960999999999
 30
0.0
 11
0.5280000000000001
 21
50.08233
 31
0.0
  0
LINE
  5
68
330
1E
100
AcDbEntity
  8
0
100
AcDbLine
 10
2.976
 20
48.27411
 30
0.0
 11
4.0
 21
48.13502
 31
0.0
  0
LINE
  5
69
330
1E
100
AcDbEntity
  8
0
100
AcDbLine
 10
2.016
 20
48.64503
 30
0.0
 11
2.976
 21
48.27411
 31
0.0
  0
LINE
  5
6A
330
1E
100
AcDbEntity
  8
0
100
AcDbLine
 10
4.0
 20
48.13502
 30
0.0
 11
5.024
 21
48.27411
 31
0.0
  0
LINE
  5
6B
330
1E
100
AcDbEntity
  8
0
100
AcDbLine
 10
5.024
 20
48.27411
 30
0.0
 11
5.983999999999999
 21
48.64503
 31
0.0
  0
LINE
  5
6C
330
1E
100
AcDbEntity
  8
0
100
AcDbLine
 10
1.167999999999999
 20
49.26322
 30
0.0
 11
2.016
 21
48.64503
 31
0.0
  0
LINE
  5
6D
330
1E
100
AcDbEntity
  8
0
100
AcDbLine
 10
0.5280000000000001
 20
50.08233
 30
0.0
 11
1.167999999999999
 21
49.26322
 31
0.0
  0
LINE
  5
6E
330
1E
100
AcDbEntity
  8
0
100
AcDbLine
 10
0.144
 20
48.93906
 30
0.0
 11
0.5280000000000001
 21
48.01177
 31
0.0
  0
LINE
  5
6F
330
1E
100
AcDbEntity
  8
0
100
AcDbLine
 10
5.983999999999999
 20
48.64503
 30
0.0
 11
6.832
 21
49.26322
 31
0.0
  0
LINE
  5
70
330
1E
100
AcDbEntity
  8
0
100
AcDbLine
 10
6.832
 20
49.26322
 30
0.0
 11
7.472
 21
50.08233
 31
0.0
  0
LINE
  5
71
330
1E
100
AcDbEntity
  8
0
100
AcDbLine
 10
0.144
 20
51.00960999999999
 30
0.0
 11
0.5280000000000001
 21
50.08233
 31
0.0
  0
LINE
  5
72
330
1E
100
AcDbEntity
  8
0
100
AcDbLine
 10
7.472
 20
50.08233
 30
0.0
 11
7.855999999999999
 21
51.00960999999999
 31
0.0
  0
LINE
  5
74
330
1E
100
AcDbEntity
  8
0
100
AcDbLine
 10
8.0
 20
51.9411469299996
 30
0.0
 11
9.512
 21
51.64086
 31
0.0
  0
LINE
  5
75
330
1E
100
AcDbEntity
  8
0
100
AcDbLine
 10
9.512
 20
51.64086
 30
0.0
 11
11.6768
 21
51.40878
 31
0.0
  0
LINE
  5
76
330
1E
100
AcDbEntity
  8
0
100
AcDbLine
 10
11.6768
 20
51.40878
 30
0.0
 11
14.0
 21
51.32962
 31
0.0
  0
LINE
  5
78
330
1E
100
AcDbEntity
  8
0
100
AcDbLine
 10
0.5280000000000001
 20
53.91511999999999
 30
0.0
 11
1.167999999999999
 21
54.73421999999999
 31
0.0
  0
LINE
  5
79
330
1E
100
AcDbEntity
  8
0
100
AcDbLine
 10
0.144
 20
52.98783
 30
0.0
 11
0.5280000000000001
 21
53.91511999999999
 31
0.0
  0
LINE
  5
7A
330
1E
100
AcDbEntity
  8
0
100
AcDbLine
 10
2.016
 20
55.35242
 30
0.0
 11
2.976
 21
55.72333
 31
0.0
  0
LINE
  5
7B
330
1E
100
AcDbEntity
  8
0
100
AcDbLine
 10
1.167999999999999
 20
54.73421999999999
 30
0.0
 11
2.016
 21
55.35242
 31
0.0
  0
LINE
  5
7C
330
1E
100
AcDbEntity
  8
0
100
AcDbLine
 10
2.976
 20
55.72333
 30
0.0
 11
4.0
 21
55.86243
 31
0.0
  0
LINE
  5
7D
330
1E
100
AcDbEntity
  8
0
100
AcDbLine
 10
4.0
 20
55.86243
 30
0.0
 11
5.024
 21
55.72333
 31
0.0
  0
LINE
  5
7E
330
1E
100
AcDbEntity
  8
0
100
AcDbLine
 10
5.024
 20
55.72333
 30
0.0
 11
5.983999999999999
 21
55.35242
 31
0.0
  0
LINE
  5
7F
330
1E
100
AcDbEntity
  8
0
100
AcDbLine
 10
5.983999999999999
 20
55.35242
 30
0.0
 11
6.832
 21
54.73421999999999
 31
0.0
  0
LINE
  5
80
330
1E
100
AcDbEntity
  8
0
100
AcDbLine
 10
6.832
 20
54.73421999999999
 30
0.0
 11
7.472
 21
53.91511999999999
 31
0.0
  0
LINE
  5
81
330
1E
100
AcDbEntity
  8
0
100
AcDbLine
 10
7.472
 20
53.91511999999999
 30
0.0
 11
7.855999999999999
 21
52.98783
 31
0.0
  0
LINE
  5
82
330
1E
100
AcDbEntity
  8
0
100
AcDbLine
 10
7.855999999999999
 20
52.98783
 30
0.0
 11
8.0
 21
51.99872
 31
0.0
  0
LINE
  5
84
330
1E
100
AcDbEntity
  8
0
100
AcDbLine
 10
18.5
 20
52.84861
 30
0.0
 11
18.5
 21
58.251897
 31
0.0
  0
LINE
  5
85
330
1E
100
AcDbEntity
  8
0
100
AcDbLine
 10
18.5
 20
52.84861
 30
0.0
 11
18.5
 21
46.26315
 31
0.0
  0
LINE
  5
86
330
1E
100
AcDbEntity
  8
0
100
AcDbLine
 10
71.12709999999999
 20
56.141
 30
0.0
 11
74.7717
 21
54.23014000000001
 31
0.0
  0
LINE
  5
87
330
1E
100
AcDbEntity
  8
0
100
AcDbLine
 10
18.5
 20
53.72861999999999
 30
0.0
 11
18.5
 21
59.13191
 31
0.0
  0
LINE
  5
88
330
1E
100
AcDbEntity
  8
0
100
AcDbLine
 10
18.5
 20
53.72861999999999
 30
0.0
 11
18.5
 21
47.59105
 31
0.0
  0
LINE
  5
89
330
1E
100
AcDbEntity
  8
0
100
AcDbLine
 10
71.12709999999999
 20
56.14101999999999
 30
0.0
 11
74.7717
 21
54.23015
 31
0.0
  0
LINE
  5
8A
330
1E
100
AcDbEntity
  8
0
100
AcDbLine
 10
71.12709999999999
 20
55.26098000000001
 30
0.0
 11
74.7717
 21
53.35013
 31
0.0
  0
LINE
  5
8B
330
1E
100
AcDbEntity
  8
0
100
AcDbLine
 10
14.0
 20
51.32962
 30
0.0
 11
18.5
 21
51.32962
 31
0.0
  0
LINE
  5
8C
330
1E
100
AcDbEntity
  8
0
100
AcDbLine
 10
14.0
 20
51.32962
 30
0.0
 11
18.5
 21
51.32962
 31
0.0
  0
LINE
  5
8D
330
1E
100
AcDbEntity
  8
0
100
AcDbLine
 10
7.855999999999999
 20
51.00960999999999
 30
0.0
 11
8.0
 21
51.99872
 31
0.0
  0
LINE
  5
8E
330
1E
100
AcDbEntity
  8
0
100
AcDbLine
 10
0.144
 20
48.93906
 30
0.0
 11
0.5280000000000001
 21
48.01177
 31
0.0
  0
LINE
  5
8F
330
1E
100
AcDbEntity
  8
0
100
AcDbLine
 10
0.5280000000000001
 20
48.01177
 30
0.0
 11
0.9870469999999999
 21
47.10935
 31
0.0
  0
LINE
  5
90
330
1E
100
AcDbEntity
  8
0
100
AcDbLine
 10
0.0
 20
49.92817
 30
0.0
 11
0.144
 21
48.93906
 31
0.0
  0
LINE
  5
91
330
1E
100
AcDbEntity
  8
0
100
AcDbLine
 10
0.0
 20
49.92817
 30
0.0
 11
0.0
 21
51.99872
 31
0.0
  0
LINE
  5
92
330
1E
100
AcDbEntity
  8
0
100
AcDbLine
 10
5.52603
 20
44.38125
 30
0.0
 11
6.20485
 21
44.18605
 31
0.0
  0
LINE
  5
93
330
1E
100
AcDbEntity
  8
0
100
AcDbLine
 10
74.7717
 20
54.23014000000001
 30
0.0
 11
78.5
 21
53.72861999999999
 31
0.0
  0
LINE
  5
94
330
1E
100
AcDbEntity
  8
0
100
AcDbLine
 10
74.7717
 20
54.23015
 30
0.0
 11
78.5
 21
53.72861999999999
 31
0.0
  0
LINE
  5
95
330
1E
100
AcDbEntity
  8
0
100
AcDbLine
 10
74.7717
 20
53.35013
 30
0.0
 11
78.5
 21
52.84861
 31
0.0
  0
LINE
  5
96
330
1E
100
AcDbEntity
  8
0
100
AcDbLine
 10
78.5
 20
0.0250499999999962
 30
0.0
 11
138.5
 21
0.0250499999999962
 31
0.0
  0
LINE
  5
97
330
1E
100
AcDbEntity
  8
0
100
AcDbLine
 10
78.5
 20
52.84861
 30
0.0
 11
82.2283
 21
53.35013
 31
0.0
  0
LINE
  5
98
330
1E
100
AcDbEntity
  8
0
100
AcDbLine
 10
78.5
 20
53.72861999999999
 30
0.0
 11
82.2283
 21
54.23014000000001
 31
0.0
  0
LINE
  5
99
330
1E
100
AcDbEntity
  8
0
100
AcDbLine
 10
78.5
 20
53.72861999999999
 30
0.0
 11
82.2283
 21
54.23015
 31
0.0
  0
LINE
  5
9A
330
1E
100
AcDbEntity
  8
0
100
AcDbLine
 10
76.86199999999999
 20
57.97495
 30
0.0
 11
78.5
 21
57.97495
 31
0.0
  0
LINE
  5
9B
330
1E
100
AcDbEntity
  8
0
100
AcDbLine
 10
75.354
 20
57.97495
 30
0.0
 11
76.86199999999999
 21
57.97495
 31
0.0
  0
LINE
  5
9C
330
1E
100
AcDbEntity
  8
0
100
AcDbLine
 10
74.028
 20
57.97495
 30
0.0
 11
75.354
 21
57.97495
 31
0.0
  0
LINE
  5
9D
330
1E
100
AcDbEntity
  8
0
100
AcDbLine
 10
73.014
 20
57.97495
 30
0.0
 11
74.028
 21
57.97495
 31
0.0
  0
LINE
  5
9E
330
1E
100
AcDbEntity
  8
0
100
AcDbLine
 10
72.39
 20
57.97495
 30
0.0
 11
73.014
 21
57.97495
 31
0.0
  0
LINE
  5
9F
330
1E
100
AcDbEntity
  8
0
100
AcDbLine
 10
72.15600000000001
 20
57.97495
 30
0.0
 11
72.39
 21
57.97495
 31
0.0
  0
LINE
  5
A0
330
1E
100
AcDbEntity
  8
0
100
AcDbLine
 10
78.5
 20
57.97495
 30
0.0
 11
80.13800000000001
 21
57.97495
 31
0.0
  0
LINE
  5
A1
330
1E
100
AcDbEntity
  8
0
100
AcDbLine
 10
82.2283
 20
53.35013
 30
0.0
 11
85.87290000000001
 21
55.26098000000001
 31
0.0
  0
LINE
  5
A2
330
1E
100
AcDbEntity
  8
0
100
AcDbLine
 10
82.2283
 20
54.23015
 30
0.0
 11
85.87290000000001
 21
56.14101999999999
 31
0.0
  0
LINE
  5
A3
330
1E
100
AcDbEntity
  8
0
100
AcDbLine
 10
82.2283
 20
54.23014000000001
 30
0.0
 11
85.87290000000001
 21
56.141
 31
0.0
  0
LINE
  5
A4
330
1E
100
AcDbEntity
  8
0
100
AcDbLine
 10
80.13800000000001
 20
57.97495
 30
0.0
 11
81.646
 21
57.97495
 31
0.0
  0
LINE
  5
A5
330
1E
100
AcDbEntity
  8
0
100
AcDbLine
 10
81.646
 20
57.97495
 30
0.0
 11
82.97200000000001
 21
57.97495
 31
0.0
  0
LINE
  5
A6
330
1E
100
AcDbEntity
  8
0
100
AcDbLine
 10
82.97200000000001
 20
57.97495
 30
0.0
 11
83.986
 21
57.97495
 31
0.0
  0
LINE
  5
A7
330
1E
100
AcDbEntity
  8
0
100
AcDbLine
 10
83.986
 20
57.97495
 30
0.0
 11
84.61
 21
57.97495
 31
0.0
  0
LINE
  5
A8
330
1E
100
AcDbEntity
  8
0
100
AcDbLine
 10
84.84399999999999
 20
57.97495
 30
0.0
 11
85.0
 21
58.159862
 31
0.0
  0
LINE
  5
A9
330
1E
100
AcDbEntity
  8
0
100
AcDbLine
 10
76.836
 20
58.159862
 30
0.0
 11
78.5
 21
58.159862
 31
0.0
  0
LINE
  5
AA
330
1E
100
AcDbEntity
  8
0
100
AcDbLine
 10
75.27600000000001
 20
58.159862
 30
0.0
 11
76.836
 21
58.159862
 31
0.0
  0
LINE
  5
AB
330
1E
100
AcDbEntity
  8
0
100
AcDbLine
 10
73.898
 20
58.159862
 30
0.0
 11
75.27600000000001
 21
58.159862
 31
0.0
  0
LINE
  5
AC
330
1E
100
AcDbEntity
  8
0
100
AcDbLine
 10
72.858
 20
58.159862
 30
0.0
 11
73.898
 21
58.159862
 31
0.0
  0
LINE
  5
AD
330
1E
100
AcDbEntity
  8
0
100
AcDbLine
 10
72.23399999999999
 20
58.159862
 30
0.0
 11
72.858
 21
58.159862
 31
0.0
  0
LINE
  5
AE
330
1E
100
AcDbEntity
  8
0
100
AcDbLine
 10
72.0
 20
58.159862
 30
0.0
 11
72.0
 21
58.47495
 31
0.0
  0
LINE
  5
AF
330
1E
100
AcDbEntity
  8
0
100
AcDbLine
 10
72.0
 20
58.159862
 30
0.0
 11
72.15600000000001
 21
57.97495
 31
0.0
  0
LINE
  5
B0
330
1E
100
AcDbEntity
  8
0
100
AcDbLine
 10
72.0
 20
58.159862
 30
0.0
 11
72.23399999999999
 21
58.159862
 31
0.0
  0
LINE
  5
B1
330
1E
100
AcDbEntity
  8
0
100
AcDbLine
 10
78.5
 20
58.159862
 30
0.0
 11
80.164
 21
58.159862
 31
0.0
  0
LINE
  5
B2
330
1E
100
AcDbEntity
  8
0
100
AcDbLine
 10
80.164
 20
58.159862
 30
0.0
 11
81.72399999999999
 21
58.159862
 31
0.0
  0
LINE
  5
B3
330
1E
100
AcDbEntity
  8
0
100
AcDbLine
 10
81.72399999999999
 20
58.159862
 30
0.0
 11
83.102
 21
58.159862
 31
0.0
  0
LINE
  5
B4
330
1E
100
AcDbEntity
  8
0
100
AcDbLine
 10
83.102
 20
58.159862
 30
0.0
 11
84.14200000000001
 21
58.159862
 31
0.0
  0
LINE
  5
B5
330
1E
100
AcDbEntity
  8
0
100
AcDbLine
 10
84.14200000000001
 20
58.159862
 30
0.0
 11
84.76600000000001
 21
58.159862
 31
0.0
  0
LINE
  5
B6
330
1E
100
AcDbEntity
  8
0
100
AcDbLine
 10
18.5
 20
58.251897
 30
0.0
 11
18.5
 21
52.84861
 31
0.0
  0
LINE
  5
B7
330
1E
100
AcDbEntity
  8
0
100
AcDbLine
 10
18.5
 20
58.251897
 30
0.0
 11
18.5
 21
61.35173
 31
0.0
  0
LINE
  5
B8
330
1E
100
AcDbEntity
  8
0
100
AcDbLine
 10
68.7145
 20
58.251897
 30
0.0
 11
71.12709999999999
 21
55.26098000000001
 31
0.0
  0
LINE
  5
B9
330
1E
100
AcDbEntity
  8
0
100
AcDbLine
 10
70.69199999999999
 20
58.47495
 30
0.0
 11
70.98
 21
58.47495
 31
0.0
  0
LINE
  5
BA
330
1E
100
AcDbEntity
  8
0
100
AcDbLine
 10
70.5
 20
58.77494999999999
 30
0.0
 11
70.69199999999999
 21
58.47495
 31
0.0
  0
LINE
  5
BB
330
1E
100
AcDbEntity
  8
0
100
AcDbLine
 10
70.5
 20
58.77494999999999
 30
0.0
 11
70.5
 21
61.98531
 31
0.0
  0
LINE
  5
BC
330
1E
100
AcDbEntity
  8
0
100
AcDbLine
 10
70.98
 20
58.47495
 30
0.0
 11
71.74800000000001
 21
58.47495
 31
0.0
  0
LINE
  5
BD
330
1E
100
AcDbEntity
  8
0
100
AcDbLine
 10
71.74800000000001
 20
58.47495
 30
0.0
 11
72.99600000000001
 21
58.47495
 31
0.0
  0
LINE
  5
BE
330
1E
100
AcDbEntity
  8
0
100
AcDbLine
 10
71.74800000000001
 20
58.47495
 30
0.0
 11
72.0
 21
58.47495
 31
0.0
  0
LINE
  5
BF
330
1E
100
AcDbEntity
  8
0
100
AcDbLine
 10
14.0
 20
61.98531
 30
0.0
 11
18.5
 21
61.98531
 31
0.0
  0
LINE
  5
C0
330
1E
100
AcDbEntity
  8
0
100
AcDbLine
 10
14.0
 20
62.11125
 30
0.0
 11
14.0
 21
61.98531
 31
0.0
  0
LINE
  5
C1
330
1E
100
AcDbEntity
  8
0
100
AcDbLine
 10
14.0
 20
62.11125
 30
0.0
 11
14.0
 21
62.51536999999999
 31
0.0
  0
LINE
  5
C2
330
1E
100
AcDbEntity
  8
0
100
AcDbLine
 10
14.0
 20
61.98531
 30
0.0
 11
14.0
 21
62.10776
 31
0.0
  0
LINE
  5
C3
330
1E
100
AcDbEntity
  8
0
100
AcDbLine
 10
14.0
 20
61.98531
 30
0.0
 11
18.5
 21
61.98531
 31
0.0
  0
LINE
  5
C4
330
1E
100
AcDbEntity
  8
0
100
AcDbLine
 10
14.0
 20
61.98531
 30
0.0
 11
14.0
 21
62.11125
 31
0.0
  0
LINE
  5
C5
330
1E
100
AcDbEntity
  8
0
100
AcDbLine
 10
14.0
 20
62.10776
 30
0.0
 11
14.0
 21
62.50646999999999
 31
0.0
  0
LINE
  5
C6
330
1E
100
AcDbEntity
  8
0
100
AcDbLine
 10
14.0
 20
62.10776
 30
0.0
 11
14.0
 21
61.98531
 31
0.0
  0
LINE
  5
C7
330
1E
100
AcDbEntity
  8
0
100
AcDbLine
 10
14.0
 20
62.51536999999999
 30
0.0
 11
14.0
 21
62.11125
 31
0.0
  0
LINE
  5
C8
330
1E
100
AcDbEntity
  8
0
100
AcDbLine
 10
14.0
 20
62.51536999999999
 30
0.0
 11
14.0
 21
63.13475
 31
0.0
  0
LINE
  5
C9
330
1E
100
AcDbEntity
  8
0
100
AcDbLine
 10
14.0
 20
63.13475
 30
0.0
 11
14.0
 21
62.51536999999999
 31
0.0
  0
LINE
  5
CA
330
1E
100
AcDbEntity
  8
0
100
AcDbLine
 10
14.0
 20
63.13475
 30
0.0
 11
14.0
 21
63.97241999999999
 31
0.0
  0
LINE
  5
CB
330
1E
100
AcDbEntity
  8
0
100
AcDbLine
 10
14.0
 20
63.97241999999999
 30
0.0
 11
14.0
 21
63.13475
 31
0.0
  0
LINE
  5
CC
330
1E
100
AcDbEntity
  8
0
100
AcDbLine
 10
14.0
 20
63.97241999999999
 30
0.0
 11
14.0
 21
64.95716999999999
 31
0.0
  0
LINE
  5
CD
330
1E
100
AcDbEntity
  8
0
100
AcDbLine
 10
14.0
 20
62.50646999999999
 30
0.0
 11
14.0
 21
63.15993
 31
0.0
  0
LINE
  5
CE
330
1E
100
AcDbEntity
  8
0
100
AcDbLine
 10
14.0
 20
62.50646999999999
 30
0.0
 11
14.0
 21
62.10776
 31
0.0
  0
LINE
  5
CF
330
1E
100
AcDbEntity
  8
0
100
AcDbLine
 10
18.5
 20
59.13191
 30
0.0
 11
18.5
 21
62.23175
 31
0.0
  0
LINE
  5
D0
330
1E
100
AcDbEntity
  8
0
100
AcDbLine
 10
18.5
 20
59.13191
 30
0.0
 11
18.5
 21
53.72861999999999
 31
0.0
  0
LINE
  5
D1
330
1E
100
AcDbEntity
  8
0
100
AcDbLine
 10
18.5
 20
59.50206999999999
 30
0.0
 11
18.5
 21
60.71111
 31
0.0
  0
LINE
  5
D2
330
1E
100
AcDbEntity
  8
0
100
AcDbLine
 10
18.5
 20
59.50206999999999
 30
0.0
 11
18.5
 21
60.95698
 31
0.0
  0
LINE
  5
D3
330
1E
100
AcDbEntity
  8
0
100
AcDbLine
 10
18.5
 20
61.35173
 30
0.0
 11
18.5
 21
58.251897
 31
0.0
  0
LINE
  5
D4
330
1E
100
AcDbEntity
  8
0
100
AcDbLine
 10
18.5
 20
61.35173
 30
0.0
 11
18.5
 21
62.16155
 31
0.0
  0
LINE
  5
D5
330
1E
100
AcDbEntity
  8
0
100
AcDbLine
 10
18.5
 20
60.95698
 30
0.0
 11
18.5
 21
59.50206999999999
 31
0.0
  0
LINE
  5
D6
330
1E
100
AcDbEntity
  8
0
100
AcDbLine
 10
18.5
 20
60.95698
 30
0.0
 11
18.5
 21
61.92584
 31
0.0
  0
LINE
  5
D7
330
1E
100
AcDbEntity
  8
0
100
AcDbLine
 10
18.5
 20
61.92584
 30
0.0
 11
18.5
 21
61.98531
 31
0.0
  0
LINE
  5
D8
330
1E
100
AcDbEntity
  8
0
100
AcDbLine
 10
18.5
 20
61.92584
 30
0.0
 11
18.5
 21
60.95698
 31
0.0
  0
LINE
  5
D9
330
1E
100
AcDbEntity
  8
0
100
AcDbLine
 10
68.0
 20
61.35173
 30
0.0
 11
68.7145
 21
58.251897
 31
0.0
  0
LINE
  5
DA
330
1E
100
AcDbEntity
  8
0
100
AcDbLine
 10
68.0
 20
61.35173
 30
0.0
 11
68.0
 21
62.16155
 31
0.0
  0
LINE
  5
DB
330
1E
100
AcDbEntity
  8
0
100
AcDbLine
 10
18.5
 20
61.98531
 30
0.0
 11
18.5
 21
60.71111
 31
0.0
  0
LINE
  5
DC
330
1E
100
AcDbEntity
  8
0
100
AcDbLine
 10
18.5
 20
61.98531
 30
0.0
 11
18.5
 21
61.92584
 31
0.0
  0
LINE
  5
DD
330
1E
100
AcDbEntity
  8
0
100
AcDbLine
 10
18.5
 20
60.71111
 30
0.0
 11
18.5
 21
61.98531
 31
0.0
  0
LINE
  5
DE
330
1E
100
AcDbEntity
  8
0
100
AcDbLine
 10
18.5
 20
60.71111
 30
0.0
 11
18.5
 21
59.50206999999999
 31
0.0
  0
LINE
  5
DF
330
1E
100
AcDbEntity
  8
0
100
AcDbLine
 10
68.7145
 20
59.13191
 30
0.0
 11
71.12709999999999
 21
56.141
 31
0.0
  0
LINE
  5
E0
330
1E
100
AcDbEntity
  8
0
100
AcDbLine
 10
68.7145
 20
59.13195
 30
0.0
 11
71.12709999999999
 21
56.14101999999999
 31
0.0
  0
LINE
  5
E1
330
1E
100
AcDbEntity
  8
0
100
AcDbLine
 10
68.0568041099426
 20
61.98531
 30
0.0
 11
70.53011673224759
 21
61.98531
 31
0.0
  0
LINE
  5
E2
330
1E
100
AcDbEntity
  8
0
100
AcDbLine
 10
18.5
 20
62.23175
 30
0.0
 11
18.5
 21
63.04157
 31
0.0
  0
LINE
  5
E3
330
1E
100
AcDbEntity
  8
0
100
AcDbLine
 10
18.5
 20
62.23175
 30
0.0
 11
18.5
 21
59.13191
 31
0.0
  0
LINE
  5
E4
330
1E
100
AcDbEntity
  8
0
100
AcDbLine
 10
18.5
 20
63.04157
 30
0.0
 11
18.5
 21
65.51238999999999
 31
0.0
  0
LINE
  5
E5
330
1E
100
AcDbEntity
  8
0
100
AcDbLine
 10
18.5
 20
63.04157
 30
0.0
 11
18.5
 21
62.23175
 31
0.0
  0
LINE
  5
E6
330
1E
100
AcDbEntity
  8
0
100
AcDbLine
 10
68.0
 20
62.23175
 30
0.0
 11
68.7145
 21
59.13195
 31
0.0
  0
LINE
  5
E7
330
1E
100
AcDbEntity
  8
0
100
AcDbLine
 10
68.0
 20
62.23175
 30
0.0
 11
68.7145
 21
59.13191
 31
0.0
  0
LINE
  5
E8
330
1E
100
AcDbEntity
  8
0
100
AcDbLine
 10
68.0
 20
62.16155
 30
0.0
 11
68.0
 21
65.14801
 31
0.0
  0
LINE
  5
E9
330
1E
100
AcDbEntity
  8
0
100
AcDbLine
 10
68.0
 20
62.16155
 30
0.0
 11
68.0
 21
61.35173
 31
0.0
  0
LINE
  5
EA
330
1E
100
AcDbEntity
  8
0
100
AcDbLine
 10
18.5
 20
62.16155
 30
0.0
 11
18.5
 21
65.14801
 31
0.0
  0
LINE
  5
EB
330
1E
100
AcDbEntity
  8
0
100
AcDbLine
 10
18.5
 20
62.16155
 30
0.0
 11
18.5
 21
61.35173
 31
0.0
  0
LINE
  5
EC
330
1E
100
AcDbEntity
  8
0
100
AcDbLine
 10
68.0568041099426
 20
61.98531
 30
0.0
 11
70.53011673224759
 21
61.98531
 31
0.0
  0
LINE
  5
ED
330
1E
100
AcDbEntity
  8
0
100
AcDbLine
 10
14.0
 20
63.15993
 30
0.0
 11
14.0
 21
63.98784
 31
0.0
  0
LINE
  5
EE
330
1E
100
AcDbEntity
  8
0
100
AcDbLine
 10
14.0
 20
63.15993
 30
0.0
 11
14.0
 21
62.50646999999999
 31
0.0
  0
LINE
  5
EF
330
1E
100
AcDbEntity
  8
0
100
AcDbLine
 10
14.0
 20
65.96605
 30
0.0
 11
14.0
 21
66.99273000000001
 31
0.0
  0
LINE
  5
F0
330
1E
100
AcDbEntity
  8
0
100
AcDbLine
 10
14.0
 20
65.96605
 30
0.0
 11
14.0
 21
64.93966999999999
 31
0.0
  0
LINE
  5
F1
330
1E
100
AcDbEntity
  8
0
100
AcDbLine
 10
14.0
 20
64.93966999999999
 30
0.0
 11
14.0
 21
63.98784
 31
0.0
  0
LINE
  5
F2
330
1E
100
AcDbEntity
  8
0
100
AcDbLine
 10
14.0
 20
64.93966999999999
 30
0.0
 11
14.0
 21
65.96605
 31
0.0
  0
LINE
  5
F3
330
1E
100
AcDbEntity
  8
0
100
AcDbLine
 10
14.0
 20
64.95716999999999
 30
0.0
 11
14.0
 21
63.97241999999999
 31
0.0
  0
LINE
  5
F4
330
1E
100
AcDbEntity
  8
0
100
AcDbLine
 10
14.0
 20
64.95716999999999
 30
0.0
 11
14.0
 21
65.98385
 31
0.0
  0
LINE
  5
F5
330
1E
100
AcDbEntity
  8
0
100
AcDbLine
 10
14.0
 20
67.96205999999999
 30
0.0
 11
14.0
 21
67.01023000000001
 31
0.0
  0
LINE
  5
F6
330
1E
100
AcDbEntity
  8
0
100
AcDbLine
 10
14.0
 20
67.96205999999999
 30
0.0
 11
14.0
 21
68.78995
 31
0.0
  0
LINE
  5
F7
330
1E
100
AcDbEntity
  8
0
100
AcDbLine
 10
14.0
 20
68.78995
 30
0.0
 11
14.0
 21
67.96205999999999
 31
0.0
  0
LINE
  5
F8
330
1E
100
AcDbEntity
  8
0
100
AcDbLine
 10
14.0
 20
68.78995
 30
0.0
 11
14.0
 21
69.44345
 31
0.0
  0
LINE
  5
F9
330
1E
100
AcDbEntity
  8
0
100
AcDbLine
 10
14.0
 20
69.83865
 30
0.0
 11
14.0
 21
69.96455
 31
0.0
  0
LINE
  5
FA
330
1E
100
AcDbEntity
  8
0
100
AcDbLine
 10
14.0
 20
69.83865
 30
0.0
 11
14.0
 21
69.43455
 31
0.0
  0
LINE
  5
FB
330
1E
100
AcDbEntity
  8
0
100
AcDbLine
 10
14.0
 20
69.96455
 30
0.0
 11
18.5
 21
69.96455
 31
0.0
  0
LINE
  5
FC
330
1E
100
AcDbEntity
  8
0
100
AcDbLine
 10
14.0
 20
69.96455
 30
0.0
 11
14.0
 21
69.84215
 31
0.0
  0
LINE
  5
FD
330
1E
100
AcDbEntity
  8
0
100
AcDbLine
 10
14.0
 20
69.96455
 30
0.0
 11
18.5
 21
69.96455
 31
0.0
  0
LINE
  5
FE
330
1E
100
AcDbEntity
  8
0
100
AcDbLine
 10
14.0
 20
69.96455
 30
0.0
 11
14.0
 21
69.83865
 31
0.0
  0
LINE
  5
FF
330
1E
100
AcDbEntity
  8
0
100
AcDbLine
 10
14.0
 20
69.84215
 30
0.0
 11
14.0
 21
69.44345
 31
0.0
  0
LINE
  5
100
330
1E
100
AcDbEntity
  8
0
100
AcDbLine
 10
14.0
 20
69.84215
 30
0.0
 11
14.0
 21
69.96455
 31
0.0
  0
LINE
  5
101
330
1E
100
AcDbEntity
  8
0
100
AcDbLine
 10
14.0
 20
69.44345
 30
0.0
 11
14.0
 21
68.78995
 31
0.0
  0
LINE
  5
102
330
1E
100
AcDbEntity
  8
0
100
AcDbLine
 10
14.0
 20
69.44345
 30
0.0
 11
14.0
 21
69.84215
 31
0.0
  0
LINE
  5
103
330
1E
100
AcDbEntity
  8
0
100
AcDbLine
 10
14.0
 20
69.43455
 30
0.0
 11
14.0
 21
69.83865
 31
0.0
  0
LINE
  5
104
330
1E
100
AcDbEntity
  8
0
100
AcDbLine
 10
14.0
 20
69.43455
 30
0.0
 11
14.0
 21
68.81515
 31
0.0
  0
LINE
  5
105
330
1E
100
AcDbEntity
  8
0
100
AcDbLine
 10
14.0
 20
68.81515
 30
0.0
 11
14.0
 21
69.43455
 31
0.0
  0
LINE
  5
106
330
1E
100
AcDbEntity
  8
0
100
AcDbLine
 10
14.0
 20
68.81515
 30
0.0
 11
14.0
 21
67.97745
 31
0.0
  0
LINE
  5
107
330
1E
100
AcDbEntity
  8
0
100
AcDbLine
 10
14.0
 20
67.97745
 30
0.0
 11
14.0
 21
68.81515
 31
0.0
  0
LINE
  5
108
330
1E
100
AcDbEntity
  8
0
100
AcDbLine
 10
14.0
 20
67.97745
 30
0.0
 11
14.0
 21
66.99273000000001
 31
0.0
  0
LINE
  5
109
330
1E
100
AcDbEntity
  8
0
100
AcDbLine
 10
14.0
 20
66.99273000000001
 30
0.0
 11
14.0
 21
67.97745
 31
0.0
  0
LINE
  5
10A
330
1E
100
AcDbEntity
  8
0
100
AcDbLine
 10
14.0
 20
66.99273000000001
 30
0.0
 11
14.0
 21
65.96605
 31
0.0
  0
LINE
  5
10B
330
1E
100
AcDbEntity
  8
0
100
AcDbLine
 10
14.0
 20
65.98385
 30
0.0
 11
14.0
 21
64.95716999999999
 31
0.0
  0
LINE
  5
10C
330
1E
100
AcDbEntity
  8
0
100
AcDbLine
 10
14.0
 20
65.98385
 30
0.0
 11
14.0
 21
67.01023000000001
 31
0.0
  0
LINE
  5
10D
330
1E
100
AcDbEntity
  8
0
100
AcDbLine
 10
18.5
 20
65.51238999999999
 30
0.0
 11
18.5
 21
63.04157
 31
0.0
  0
LINE
  5
10E
330
1E
100
AcDbEntity
  8
0
100
AcDbLine
 10
18.5
 20
65.51238999999999
 30
0.0
 11
18.5
 21
67.82509000000001
 31
0.0
  0
LINE
  5
10F
330
1E
100
AcDbEntity
  8
0
100
AcDbLine
 10
18.5
 20
67.82509000000001
 30
0.0
 11
18.5
 21
65.51238999999999
 31
0.0
  0
LINE
  5
110
330
1E
100
AcDbEntity
  8
0
100
AcDbLine
 10
18.5
 20
67.82509000000001
 30
0.0
 11
18.5
 21
70.02405
 31
0.0
  0
LINE
  5
111
330
1E
100
AcDbEntity
  8
0
100
AcDbLine
 10
18.5
 20
65.14801
 30
0.0
 11
18.5
 21
68.57545
 31
0.0
  0
LINE
  5
112
330
1E
100
AcDbEntity
  8
0
100
AcDbLine
 10
18.5
 20
65.14801
 30
0.0
 11
18.5
 21
62.16155
 31
0.0
  0
LINE
  5
113
330
1E
100
AcDbEntity
  8
0
100
AcDbLine
 10
18.5
 20
68.57545
 30
0.0
 11
18.5
 21
71.23874999999999
 31
0.0
  0
LINE
  5
114
330
1E
100
AcDbEntity
  8
0
100
AcDbLine
 10
18.5
 20
68.57545
 30
0.0
 11
18.5
 21
65.14801
 31
0.0
  0
LINE
  5
115
330
1E
100
AcDbEntity
  8
0
100
AcDbLine
 10
68.0
 20
65.14801
 30
0.0
 11
68.0
 21
62.16155
 31
0.0
  0
LINE
  5
116
330
1E
100
AcDbEntity
  8
0
100
AcDbLine
 10
68.0
 20
65.14801
 30
0.0
 11
68.0
 21
68.57545
 31
0.0
  0
LINE
  5
117
330
1E
100
AcDbEntity
  8
0
100
AcDbLine
 10
18.5
 20
69.96455
 30
0.0
 11
18.5
 21
70.57705
 31
0.0
  0
LINE
  5
118
330
1E
100
AcDbEntity
  8
0
100
AcDbLine
 10
18.5
 20
69.96455
 30
0.0
 11
18.5
 21
71.83844999999999
 31
0.0
  0
LINE
  5
119
330
1E
100
AcDbEntity
  8
0
100
AcDbLine
 10
68.0
 20
68.57545
 30
0.0
 11
68.0
 21
65.14801
 31
0.0
  0
LINE
  5
11A
330
1E
100
AcDbEntity
  8
0
100
AcDbLine
 10
68.0
 20
68.57545
 30
0.0
 11
68.0
 21
71.23874999999999
 31
0.0
  0
LINE
  5
11B
330
1E
100
AcDbEntity
  8
0
100
AcDbLine
 10
68.0
 20
69.96455
 30
0.0
 11
70.5
 21
69.96455
 31
0.0
  0
LINE
  5
11C
330
1E
100
AcDbEntity
  8
0
100
AcDbLine
 10
18.5
 20
70.57705
 30
0.0
 11
18.5
 21
70.99294999999999
 31
0.0
  0
LINE
  5
11D
330
1E
100
AcDbEntity
  8
0
100
AcDbLine
 10
18.5
 20
70.57705
 30
0.0
 11
18.5
 21
69.96455
 31
0.0
  0
LINE
  5
11E
330
1E
100
AcDbEntity
  8
0
100
AcDbLine
 10
18.5
 20
72.44785
 30
0.0
 11
68.0
 21
72.44785
 31
0.0
  0
LINE
  5
11F
330
1E
100
AcDbEntity
  8
0
100
AcDbLine
 10
18.5
 20
71.83844999999999
 30
0.0
 11
18.5
 21
69.96455
 31
0.0
  0
LINE
  5
120
330
1E
100
AcDbEntity
  8
0
100
AcDbLine
 10
18.5
 20
71.83844999999999
 30
0.0
 11
18.5
 21
72.44785
 31
0.0
  0
LINE
  5
121
330
1E
100
AcDbEntity
  8
0
100
AcDbLine
 10
18.5
 20
72.44785
 30
0.0
 11
18.5
 21
71.83844999999999
 31
0.0
  0
LINE
  5
122
330
1E
100
AcDbEntity
  8
0
100
AcDbLine
 10
18.5
 20
72.44785
 30
0.0
 11
68.0
 21
72.44785
 31
0.0
  0
LINE
  5
123
330
1E
100
AcDbEntity
  8
0
100
AcDbLine
 10
18.5
 20
72.44785
 30
0.0
 11
18.5
 21
71.23874999999999
 31
0.0
  0
LINE
  5
124
330
1E
100
AcDbEntity
  8
0
100
AcDbLine
 10
18.5
 20
70.99294999999999
 30
0.0
 11
18.5
 21
70.02405
 31
0.0
  0
LINE
  5
125
330
1E
100
AcDbEntity
  8
0
100
AcDbLine
 10
18.5
 20
70.99294999999999
 30
0.0
 11
18.5
 21
70.57705
 31
0.0
  0
LINE
  5
126
330
1E
100
AcDbEntity
  8
0
100
AcDbLine
 10
28.5
 20
72.44785
 30
0.0
 11
28.5
 21
76.12295
 31
0.0
  0
LINE
  5
127
330
1E
100
AcDbEntity
  8
0
100
AcDbLine
 10
28.5
 20
72.44785
 30
0.0
 11
28.5
 21
77.63495
 31
0.0
  0
LINE
  5
128
330
1E
100
AcDbEntity
  8
0
100
AcDbLine
 10
28.5
 20
77.63495
 30
0.0
 11
28.5
 21
87.89295
 31
0.0
  0
LINE
  5
129
330
1E
100
AcDbEntity
  8
0
100
AcDbLine
 10
28.5
 20
77.63495
 30
0.0
 11
28.5
 21
72.44785
 31
0.0
  0
LINE
  5
12A
330
1E
100
AcDbEntity
  8
0
100
AcDbLine
 10
28.5
 20
86.66095
 30
0.0
 11
28.5
 21
76.12295
 31
0.0
  0
LINE
  5
12B
330
1E
100
AcDbEntity
  8
0
100
AcDbLine
 10
28.5
 20
86.66095
 30
0.0
 11
28.5
 21
94.84095000000001
 31
0.0
  0
LINE
  5
12C
330
1E
100
AcDbEntity
  8
0
100
AcDbLine
 10
28.5
 20
76.12295
 30
0.0
 11
28.5
 21
72.44785
 31
0.0
  0
LINE
  5
12D
330
1E
100
AcDbEntity
  8
0
100
AcDbLine
 10
28.5
 20
76.12295
 30
0.0
 11
28.5
 21
86.66095
 31
0.0
  0
LINE
  5
12E
330
1E
100
AcDbEntity
  8
0
100
AcDbLine
 10
44.2497
 20
86.97495000000001
 30
0.0
 11
45.0578
 21
86.97495000000001
 31
0.0
  0
LINE
  5
12F
330
1E
100
AcDbEntity
  8
0
100
AcDbLine
 10
45.0578
 20
86.97495000000001
 30
0.0
 11
46.0071
 21
86.97495000000001
 31
0.0
  0
LINE
  5
130
330
1E
100
AcDbEntity
  8
0
100
AcDbLine
 10
46.0071
 20
86.97495000000001
 30
0.0
 11
46.85319999999999
 21
86.97495000000001
 31
0.0
  0
LINE
  5
131
330
1E
100
AcDbEntity
  8
0
100
AcDbLine
 10
46.85319999999999
 20
86.97495000000001
 30
0.0
 11
48.0708
 21
86.97495000000001
 31
0.0
  0
LINE
  5
132
330
1E
100
AcDbEntity
  8
0
100
AcDbLine
 10
48.0708
 20
86.97495000000001
 30
0.0
 11
49.4535
 21
86.97495000000001
 31
0.0
  0
LINE
  5
133
330
1E
100
AcDbEntity
  8
0
100
AcDbLine
 10
49.4535
 20
86.97495000000001
 30
0.0
 11
51.1847
 21
86.97495000000001
 31
0.0
  0
LINE
  5
134
330
1E
100
AcDbEntity
  8
0
100
AcDbLine
 10
51.1847
 20
86.97495000000001
 30
0.0
 11
54.3073
 21
86.97495000000001
 31
0.0
  0
LINE
  5
135
330
1E
100
AcDbEntity
  8
0
100
AcDbLine
 10
54.3073
 20
86.97495000000001
 30
0.0
 11
58.2035
 21
86.97495000000001
 31
0.0
  0
LINE
  5
136
330
1E
100
AcDbEntity
  8
0
100
AcDbLine
 10
58.2035
 20
86.97495000000001
 30
0.0
 11
63.8956
 21
86.97495000000001
 31
0.0
  0
LINE
  5
137
330
1E
100
AcDbEntity
  8
0
100
AcDbLine
 10
63.8956
 20
86.97495000000001
 30
0.0
 11
70.2367
 21
86.97495000000001
 31
0.0
  0
LINE
  5
138
330
1E
100
AcDbEntity
  8
0
100
AcDbLine
 10
43.49829999999999
 20
86.97495000000001
 30
0.0
 11
44.2497
 21
86.97495000000001
 31
0.0
  0
LINE
  5
139
330
1E
100
AcDbEntity
  8
0
100
AcDbLine
 10
42.8995
 20
86.97495000000001
 30
0.0
 11
43.49829999999999
 21
86.97495000000001
 31
0.0
  0
LINE
  5
13A
330
1E
100
AcDbEntity
  8
0
100
AcDbLine
 10
42.4039
 20
86.97495000000001
 30
0.0
 11
42.8995
 21
86.97495000000001
 31
0.0
  0
LINE
  5
13B
330
1E
100
AcDbEntity
  8
0
100
AcDbLine
 10
41.9497
 20
86.97495000000001
 30
0.0
 11
42.4039
 21
86.97495000000001
 31
0.0
  0
LINE
  5
13C
330
1E
100
AcDbEntity
  8
0
100
AcDbLine
 10
41.6193
 20
86.97495000000001
 30
0.0
 11
41.9497
 21
86.97495000000001
 31
0.0
  0
LINE
  5
13D
330
1E
100
AcDbEntity
  8
0
100
AcDbLine
 10
41.3264
 20
86.97495000000001
 30
0.0
 11
41.6193
 21
86.97495000000001
 31
0.0
  0
LINE
  5
13E
330
1E
100
AcDbEntity
  8
0
100
AcDbLine
 10
40.90349999999999
 20
86.97495000000001
 30
0.0
 11
41.3264
 21
86.97495000000001
 31
0.0
  0
LINE
  5
13F
330
1E
100
AcDbEntity
  8
0
100
AcDbLine
 10
40.463
 20
86.97495000000001
 30
0.0
 11
40.90349999999999
 21
86.97495000000001
 31
0.0
  0
LINE
  5
140
330
1E
100
AcDbEntity
  8
0
100
AcDbLine
 10
40.05049999999999
 20
86.97495000000001
 30
0.0
 11
40.463
 21
86.97495000000001
 31
0.0
  0
LINE
  5
141
330
1E
100
AcDbEntity
  8
0
100
AcDbLine
 10
39.72249999999999
 20
86.97495000000001
 30
0.0
 11
40.05049999999999
 21
86.97495000000001
 31
0.0
  0
LINE
  5
142
330
1E
100
AcDbEntity
  8
0
100
AcDbLine
 10
39.5097
 20
86.97495000000001
 30
0.0
 11
39.72249999999999
 21
86.97495000000001
 31
0.0
  0
LINE
  5
143
330
1E
100
AcDbEntity
  8
0
100
AcDbLine
 10
68.0
 20
72.44785
 30
0.0
 11
68.0
 21
71.23874999999999
 31
0.0
  0
LINE
  5
144
330
1E
100
AcDbEntity
  8
0
100
AcDbLine
 10
18.5
 20
71.23874999999999
 30
0.0
 11
18.5
 21
68.57545
 31
0.0
  0
LINE
  5
145
330
1E
100
AcDbEntity
  8
0
100
AcDbLine
 10
18.5
 20
71.23874999999999
 30
0.0
 11
18.5
 21
72.44785
 31
0.0
  0
LINE
  5
146
330
1E
100
AcDbEntity
  8
0
100
AcDbLine
 10
18.5
 20
70.02405
 30
0.0
 11
18.5
 21
67.82509000000001
 31
0.0
  0
LINE
  5
147
330
1E
100
AcDbEntity
  8
0
100
AcDbLine
 10
18.5
 20
70.02405
 30
0.0
 11
18.5
 21
70.99294999999999
 31
0.0
  0
LINE
  5
148
330
1E
100
AcDbEntity
  8
0
100
AcDbLine
 10
70.2367
 20
86.97495000000001
 30
0.0
 11
70.5
 21
86.97495000000001
 31
0.0
  0
LINE
  5
149
330
1E
100
AcDbEntity
  8
0
100
AcDbLine
 10
68.0
 20
71.23874999999999
 30
0.0
 11
68.0
 21
68.57545
 31
0.0
  0
LINE
  5
14A
330
1E
100
AcDbEntity
  8
0
100
AcDbLine
 10
68.0
 20
71.23874999999999
 30
0.0
 11
68.0
 21
72.44785
 31
0.0
  0
LINE
  5
14B
330
1E
100
AcDbEntity
  8
0
100
AcDbLine
 10
68.0
 20
69.96455
 30
0.0
 11
70.5
 21
69.96455
 31
0.0
  0
LINE
  5
14C
330
1E
100
AcDbEntity
  8
0
100
AcDbLine
 10
14.0
 20
67.01023000000001
 30
0.0
 11
14.0
 21
65.98385
 31
0.0
  0
LINE
  5
14D
330
1E
100
AcDbEntity
  8
0
100
AcDbLine
 10
14.0
 20
67.01023000000001
 30
0.0
 11
14.0
 21
67.96205999999999
 31
0.0
  0
LINE
  5
14E
330
1E
100
AcDbEntity
  8
0
100
AcDbLine
 10
14.0
 20
63.98784
 30
0.0
 11
14.0
 21
64.93966999999999
 31
0.0
  0
LINE
  5
14F
330
1E
100
AcDbEntity
  8
0
100
AcDbLine
 10
14.0
 20
63.98784
 30
0.0
 11
14.0
 21
63.15993
 31
0.0
  0
LINE
  5
150
330
1E
100
AcDbEntity
  8
0
100
AcDbLine
 10
70.5
 20
69.96455
 30
0.0
 11
70.5
 21
86.97495000000001
 31
0.0
  0
LINE
  5
151
330
1E
100
AcDbEntity
  8
0
100
AcDbLine
 10
28.5
 20
95.71094999999999
 30
0.0
 11
28.5
 21
100.39995
 31
0.0
  0
LINE
  5
152
330
1E
100
AcDbEntity
  8
0
100
AcDbLine
 10
28.5
 20
95.71094999999999
 30
0.0
 11
28.5
 21
87.89295
 31
0.0
  0
LINE
  5
153
330
1E
100
AcDbEntity
  8
0
100
AcDbLine
 10
28.5
 20
87.89295
 30
0.0
 11
28.5
 21
95.71094999999999
 31
0.0
  0
LINE
  5
154
330
1E
100
AcDbEntity
  8
0
100
AcDbLine
 10
28.5
 20
87.89295
 30
0.0
 11
28.5
 21
77.63495
 31
0.0
  0
LINE
  5
155
330
1E
100
AcDbEntity
  8
0
100
AcDbLine
 10
28.5
 20
101.97495
 30
0.0
 11
39.0
 21
101.97495
 31
0.0
  0
LINE
  5
156
330
1E
100
AcDbEntity
  8
0
100
AcDbLine
 10
28.5
 20
100.39995
 30
0.0
 11
28.5
 21
101.97495
 31
0.0
  0
LINE
  5
157
330
1E
100
AcDbEntity
  8
0
100
AcDbLine
 10
28.5
 20
100.39995
 30
0.0
 11
28.5
 21
95.71094999999999
 31
0.0
  0
LINE
  5
158
330
1E
100
AcDbEntity
  8
0
100
AcDbLine
 10
28.5
 20
101.97495
 30
0.0
 11
28.5
 21
99.94995000000001
 31
0.0
  0
LINE
  5
159
330
1E
100
AcDbEntity
  8
0
100
AcDbLine
 10
28.5
 20
101.97495
 30
0.0
 11
39.0
 21
101.97495
 31
0.0
  0
LINE
  5
15A
330
1E
100
AcDbEntity
  8
0
100
AcDbLine
 10
28.5
 20
101.97495
 30
0.0
 11
28.5
 21
100.39995
 31
0.0
  0
LINE
  5
15B
330
1E
100
AcDbEntity
  8
0
100
AcDbLine
 10
28.5
 20
99.94995000000001
 30
0.0
 11
28.5
 21
94.84095000000001
 31
0.0
  0
LINE
  5
15C
330
1E
100
AcDbEntity
  8
0
100
AcDbLine
 10
28.5
 20
99.94995000000001
 30
0.0
 11
28.5
 21
101.97495
 31
0.0
  0
LINE
  5
15D
330
1E
100
AcDbEntity
  8
0
100
AcDbLine
 10
28.5
 20
94.84095000000001
 30
0.0
 11
28.5
 21
86.66095
 31
0.0
  0
LINE
  5
15E
330
1E
100
AcDbEntity
  8
0
100
AcDbLine
 10
28.5
 20
94.84095000000001
 30
0.0
 11
28.5
 21
99.94995000000001
 31
0.0
  0
LINE
  5
15F
330
1E
100
AcDbEntity
  8
0
100
AcDbLine
 10
39.0
 20
101.97495
 30
0.0
 11
39.0524
 21
101.97495
 31
0.0
  0
LINE
  5
160
330
1E
100
AcDbEntity
  8
0
100
AcDbLine
 10
39.0
 20
101.97495
 30
0.0
 11
39.0
 21
87.68925000000001
 31
0.0
  0
LINE
  5
175
330
1E
100
AcDbEntity
  8
0
100
AcDbLine
 10
43.14869999999999
 20
101.97495
 30
0.0
 11
43.8674
 21
101.97495
 31
0.0
  0
LINE
  5
176
330
1E
100
AcDbEntity
  8
0
100
AcDbLine
 10
42.5253
 20
101.97495
 30
0.0
 11
43.14869999999999
 21
101.97495
 31
0.0
  0
LINE
  5
177
330
1E
100
AcDbEntity
  8
0
100
AcDbLine
 10
42.0215
 20
101.97495
 30
0.0
 11
42.5253
 21
101.97495
 31
0.0
  0
LINE
  5
178
330
1E
100
AcDbEntity
  8
0
100
AcDbLine
 10
41.5262
 20
101.97495
 30
0.0
 11
42.0215
 21
101.97495
 31
0.0
  0
LINE
  5
179
330
1E
100
AcDbEntity
  8
0
100
AcDbLine
 10
41.17609999999999
 20
101.97495
 30
0.0
 11
41.5262
 21
101.97495
 31
0.0
  0
LINE
  5
17A
330
1E
100
AcDbEntity
  8
0
100
AcDbLine
 10
40.8565
 20
101.97495
 30
0.0
 11
41.17609999999999
 21
101.97495
 31
0.0
  0
LINE
  5
17B
330
1E
100
AcDbEntity
  8
0
100
AcDbLine
 10
40.4753
 20
101.97495
 30
0.0
 11
40.8565
 21
101.97495
 31
0.0
  0
LINE
  5
17C
330
1E
100
AcDbEntity
  8
0
100
AcDbLine
 10
40.00869999999999
 20
101.97495
 30
0.0
 11
40.4753
 21
101.97495
 31
0.0
  0
LINE
  5
17D
330
1E
100
AcDbEntity
  8
0
100
AcDbLine
 10
39.58
 20
101.97495
 30
0.0
 11
40.00869999999999
 21
101.97495
 31
0.0
  0
LINE
  5
17E
330
1E
100
AcDbEntity
  8
0
100
AcDbLine
 10
39.2235
 20
101.97495
 30
0.0
 11
39.58
 21
101.97495
 31
0.0
  0
LINE
  5
17F
330
1E
100
AcDbEntity
  8
0
100
AcDbLine
 10
39.0524
 20
101.97495
 30
0.0
 11
39.2235
 21
101.97495
 31
0.0
  0
LINE
  5
180
330
1E
100
AcDbEntity
  8
0
100
AcDbLine
 10
43.8674
 20
101.97495
 30
0.0
 11
44.6809
 21
101.97495
 31
0.0
  0
LINE
  5
181
330
1E
100
AcDbEntity
  8
0
100
AcDbLine
 10
44.6809
 20
101.97495
 30
0.0
 11
45.6197
 21
101.97495
 31
0.0
  0
LINE
  5
182
330
1E
100
AcDbEntity
  8
0
100
AcDbLine
 10
45.6197
 20
101.97495
 30
0.0
 11
46.4988
 21
101.97495
 31
0.0
  0
LINE
  5
183
330
1E
100
AcDbEntity
  8
0
100
AcDbLine
 10
46.4988
 20
101.97495
 30
0.0
 11
47.7278
 21
101.97495
 31
0.0
  0
LINE
  5
184
330
1E
100
AcDbEntity
  8
0
100
AcDbLine
 10
47.7278
 20
101.97495
 30
0.0
 11
49.1531
 21
101.97495
 31
0.0
  0
LINE
  5
185
330
1E
100
AcDbEntity
  8
0
100
AcDbLine
 10
49.1531
 20
101.97495
 30
0.0
 11
50.8842
 21
101.97495
 31
0.0
  0
LINE
  5
186
330
1E
100
AcDbEntity
  8
0
100
AcDbLine
 10
50.8842
 20
101.97495
 30
0.0
 11
54.0848
 21
101.97495
 31
0.0
  0
LINE
  5
187
330
1E
100
AcDbEntity
  8
0
100
AcDbLine
 10
54.0848
 20
101.97495
 30
0.0
 11
57.99710000000001
 21
101.97495
 31
0.0
  0
LINE
  5
188
330
1E
100
AcDbEntity
  8
0
100
AcDbLine
 10
57.99710000000001
 20
101.97495
 30
0.0
 11
63.6676
 21
101.97495
 31
0.0
  0
LINE
  5
189
330
1E
100
AcDbEntity
  8
0
100
AcDbLine
 10
63.6676
 20
101.97495
 30
0.0
 11
70.1369
 21
101.97495
 31
0.0
  0
LINE
  5
18A
330
1E
100
AcDbEntity
  8
0
100
AcDbLine
 10
70.1369
 20
101.97495
 30
0.0
 11
75.13139999999999
 21
101.97495
 31
0.0
  0
LINE
  5
18B
330
1E
100
AcDbEntity
  8
0
100
AcDbLine
 10
39.1529
 20
87.18925
 30
0.0
 11
39.5097
 21
86.97495000000001
 31
0.0
  0
LINE
  5
18D
330
1E
100
AcDbEntity
  8
0
100
AcDbLine
 10
39.0
 20
87.68925000000001
 30
0.0
 11
39.1529
 21
87.18925
 31
0.0
  0
LINE
  5
18E
330
1E
100
AcDbEntity
  8
0
100
AcDbLine
 10
39.0
 20
87.68925000000001
 30
0.0
 11
39.0
 21
101.97495
 31
0.0
  0
LINE
  5
18F
330
1E
100
AcDbEntity
  8
0
100
AcDbLine
 10
70.5
 20
86.97495000000001
 30
0.0
 11
70.5
 21
69.96455
 31
0.0
  0
LINE
  5
190
330
1E
100
AcDbEntity
  8
0
100
AcDbLine
 10
70.5
 20
61.98531
 30
0.0
 11
70.5
 21
58.77494999999999
 31
0.0
  0
LINE
  5
192
330
1E
100
AcDbEntity
  8
0
100
AcDbLine
 10
72.99600000000001
 20
58.47495
 30
0.0
 11
74.628
 21
58.47495
 31
0.0
  0
LINE
  5
193
330
1E
100
AcDbEntity
  8
0
100
AcDbLine
 10
74.628
 20
58.47495
 30
0.0
 11
76.48399999999999
 21
58.47495
 31
0.0
  0
LINE
  5
194
330
1E
100
AcDbEntity
  8
0
100
AcDbLine
 10
76.48399999999999
 20
58.47495
 30
0.0
 11
78.5
 21
58.47495
 31
0.0
  0
LINE
  5
195
330
1E
100
AcDbEntity
  8
0
100
AcDbLine
 10
84.00399999999999
 20
58.47495
 30
0.0
 11
85.25200000000001
 21
58.47495
 31
0.0
  0
LINE
  5
196
330
1E
100
AcDbEntity
  8
0
100
AcDbLine
 10
82.37200000000001
 20
58.47495
 30
0.0
 11
84.00399999999999
 21
58.47495
 31
0.0
  0
LINE
  5
197
330
1E
100
AcDbEntity
  8
0
100
AcDbLine
 10
80.516
 20
58.47495
 30
0.0
 11
82.37200000000001
 21
58.47495
 31
0.0
  0
LINE
  5
199
330
1E
100
AcDbEntity
  8
0
100
AcDbLine
 10
78.5
 20
58.47495
 30
0.0
 11
80.516
 21
58.47495
 31
0.0
  0
LINE
  5
19B
330
1E
100
AcDbEntity
  8
0
100
AcDbLine
 10
75.13139999999999
 20
101.97495
 30
0.0
 11
78.5
 21
101.97495
 31
0.0
  0
LINE
  5
19D
330
1E
100
AcDbEntity
  8
0
100
AcDbLine
 10
78.5
 20
101.97495
 30
0.0
 11
81.86860000000001
 21
101.97495
 31
0.0
  0
LINE
  5
19E
330
1E
100
AcDbEntity
  8
0
100
AcDbLine
 10
81.86860000000001
 20
101.97495
 30
0.0
 11
86.8631
 21
101.97495
 31
0.0
  0
LINE
  5
1A2
330
1E
100
AcDbEntity
  8
0
100
AcDbLine
 10
72.0
 20
58.47495
 30
0.0
 11
72.0
 21
58.159862
 31
0.0
  0
LINE
  5
1A3
330
1E
100
AcDbEntity
  8
0
100
AcDbLine
 10
84.76600000000001
 20
58.159862
 30
0.0
 11
85.0
 21
58.159862
 31
0.0
  0
LINE
  5
1A4
330
1E
100
AcDbEntity
  8
0
100
AcDbLine
 10
85.0
 20
58.159862
 30
0.0
 11
85.0
 21
58.47495
 31
0.0
  0
LINE
  5
1A5
330
1E
100
AcDbEntity
  8
0
100
AcDbLine
 10
84.61
 20
57.97495
 30
0.0
 11
84.84399999999999
 21
57.97495
 31
0.0
  0
LINE
  5
1A6
330
1E
100
AcDbEntity
  8
0
100
AcDbLine
 10
85.87290000000001
 20
55.26098000000001
 30
0.0
 11
88.28549999999999
 21
58.251897
 31
0.0
  0
LINE
  5
1A7
330
1E
100
AcDbEntity
  8
0
100
AcDbLine
 10
85.87290000000001
 20
56.14101999999999
 30
0.0
 11
88.28549999999999
 21
59.13195
 31
0.0
  0
LINE
  5
1A8
330
1E
100
AcDbEntity
  8
0
100
AcDbLine
 10
85.87290000000001
 20
56.141
 30
0.0
 11
88.28549999999999
 21
59.13191
 31
0.0
  0
LINE
  5
1A9
330
1E
100
AcDbEntity
  8
0
100
AcDbLine
 10
138.5
 20
1.813749999999989
 30
0.0
 11
138.5
 21
3.27464999999999
 31
0.0
  0
LINE
  5
1AA
330
1E
100
AcDbEntity
  8
0
100
AcDbLine
 10
138.5
 20
1.813749999999989
 30
0.0
 11
138.5
 21
0.8590499999999899
 31
0.0
  0
LINE
  5
1AB
330
1E
100
AcDbEntity
  8
0
100
AcDbLine
 10
138.5
 20
3.27464999999999
 30
0.0
 11
138.5
 21
5.99664999999999
 31
0.0
  0
LINE
  5
1AC
330
1E
100
AcDbEntity
  8
0
100
AcDbLine
 10
138.5
 20
3.27464999999999
 30
0.0
 11
138.5
 21
1.813749999999989
 31
0.0
  0
LINE
  5
1AD
330
1E
100
AcDbEntity
  8
0
100
AcDbLine
 10
138.5
 20
5.99664999999999
 30
0.0
 11
138.5
 21
9.84735
 31
0.0
  0
LINE
  5
1AE
330
1E
100
AcDbEntity
  8
0
100
AcDbLine
 10
138.5
 20
5.99664999999999
 30
0.0
 11
138.5
 21
3.27464999999999
 31
0.0
  0
LINE
  5
1AF
330
1E
100
AcDbEntity
  8
0
100
AcDbLine
 10
138.5
 20
9.84735
 30
0.0
 11
138.5
 21
14.46145
 31
0.0
  0
LINE
  5
1B0
330
1E
100
AcDbEntity
  8
0
100
AcDbLine
 10
138.5
 20
9.84735
 30
0.0
 11
138.5
 21
5.99664999999999
 31
0.0
  0
LINE
  5
1B1
330
1E
100
AcDbEntity
  8
0
100
AcDbLine
 10
138.5
 20
14.46145
 30
0.0
 11
138.5
 21
20.30394999999999
 31
0.0
  0
LINE
  5
1B2
330
1E
100
AcDbEntity
  8
0
100
AcDbLine
 10
138.5
 20
14.46145
 30
0.0
 11
138.5
 21
9.84735
 31
0.0
  0
LINE
  5
1B3
330
1E
100
AcDbEntity
  8
0
100
AcDbLine
 10
138.5
 20
20.30394999999999
 30
0.0
 11
138.5
 21
28.86855
 31
0.0
  0
LINE
  5
1B4
330
1E
100
AcDbEntity
  8
0
100
AcDbLine
 10
138.5
 20
20.30394999999999
 30
0.0
 11
138.5
 21
14.46145
 31
0.0
  0
LINE
  5
1B5
330
1E
100
AcDbEntity
  8
0
100
AcDbLine
 10
138.5
 20
28.86855
 30
0.0
 11
138.5
 21
37.63225
 31
0.0
  0
LINE
  5
1B6
330
1E
100
AcDbEntity
  8
0
100
AcDbLine
 10
138.5
 20
28.86855
 30
0.0
 11
138.5
 21
20.30394999999999
 31
0.0
  0
LINE
  5
1B7
330
1E
100
AcDbEntity
  8
0
100
AcDbLine
 10
138.5
 20
37.63225
 30
0.0
 11
138.5
 21
46.26315
 31
0.0
  0
LINE
  5
1B8
330
1E
100
AcDbEntity
  8
0
100
AcDbLine
 10
138.5
 20
37.63225
 30
0.0
 11
138.5
 21
28.86855
 31
0.0
  0
LINE
  5
1B9
330
1E
100
AcDbEntity
  8
0
100
AcDbLine
 10
138.5
 20
0.8590499999999899
 30
0.0
 11
138.5
 21
1.813749999999989
 31
0.0
  0
LINE
  5
1BA
330
1E
100
AcDbEntity
  8
0
100
AcDbLine
 10
138.5
 20
0.8590499999999899
 30
0.0
 11
138.5
 21
0.308849999999984
 31
0.0
  0
LINE
  5
1BB
330
1E
100
AcDbEntity
  8
0
100
AcDbLine
 10
138.5
 20
0.308849999999984
 30
0.0
 11
138.5
 21
0.8590499999999899
 31
0.0
  0
LINE
  5
1BC
330
1E
100
AcDbEntity
  8
0
100
AcDbLine
 10
138.5
 20
0.308849999999984
 30
0.0
 11
138.5
 21
0.0250499999999962
 31
0.0
  0
LINE
  5
1BD
330
1E
100
AcDbEntity
  8
0
100
AcDbLine
 10
138.5
 20
0.0250499999999962
 30
0.0
 11
138.5
 21
0.308849999999984
 31
0.0
  0
LINE
  5
1BE
330
1E
100
AcDbEntity
  8
0
100
AcDbLine
 10
143.0
 20
43.35035
 30
0.0
 11
145.8529999999999
 21
43.44755
 31
0.0
  0
LINE
  5
1BF
330
1E
100
AcDbEntity
  8
0
100
AcDbLine
 10
138.5
 20
43.35035
 30
0.0
 11
143.0
 21
43.35035
 31
0.0
  0
LINE
  5
1C0
330
1E
100
AcDbEntity
  8
0
100
AcDbLine
 10
138.5
 20
46.26315
 30
0.0
 11
138.5
 21
52.84861
 31
0.0
  0
LINE
  5
1C1
330
1E
100
AcDbEntity
  8
0
100
AcDbLine
 10
138.5
 20
46.26315
 30
0.0
 11
138.5
 21
37.63225
 31
0.0
  0
LINE
  5
1C2
330
1E
100
AcDbEntity
  8
0
100
AcDbLine
 10
143.0
 20
51.32962
 30
0.0
 11
145.3229999999999
 21
51.40878
 31
0.0
  0
LINE
  5
1C3
330
1E
100
AcDbEntity
  8
0
100
AcDbLine
 10
138.5
 20
52.84861
 30
0.0
 11
138.5
 21
58.251897
 31
0.0
  0
LINE
  5
1C4
330
1E
100
AcDbEntity
  8
0
100
AcDbLine
 10
138.5
 20
52.84861
 30
0.0
 11
138.5
 21
46.26315
 31
0.0
  0
LINE
  5
1C5
330
1E
100
AcDbEntity
  8
0
100
AcDbLine
 10
138.5
 20
58.251897
 30
0.0
 11
138.5
 21
61.35173
 31
0.0
  0
LINE
  5
1C6
330
1E
100
AcDbEntity
  8
0
100
AcDbLine
 10
138.5
 20
58.251897
 30
0.0
 11
138.5
 21
52.84861
 31
0.0
  0
LINE
  5
1C7
330
1E
100
AcDbEntity
  8
0
100
AcDbLine
 10
88.28549999999999
 20
58.251897
 30
0.0
 11
89.0
 21
61.35173
 31
0.0
  0
LINE
  5
1C8
330
1E
100
AcDbEntity
  8
0
100
AcDbLine
 10
145.3229999999999
 20
51.40878
 30
0.0
 11
147.4879999999999
 21
51.64086
 31
0.0
  0
LINE
  5
1C9
330
1E
100
AcDbEntity
  8
0
100
AcDbLine
 10
138.5
 20
51.32962
 30
0.0
 11
143.0
 21
51.32962
 31
0.0
  0
LINE
  5
1CA
330
1E
100
AcDbEntity
  8
0
100
AcDbLine
 10
147.4879999999999
 20
51.64086
 30
0.0
 11
149.0
 21
51.94114531468529
 31
0.0
  0
LINE
  5
1CC
330
1E
100
AcDbEntity
  8
0
100
AcDbLine
 10
149.0
 20
51.94114531468529
 30
0.0
 11
149.0
 21
61.3737846853147
 31
0.0
  0
LINE
  5
1CD
330
1E
100
AcDbEntity
  8
0
100
AcDbLine
 10
154.576
 20
45.77164999999999
 30
0.0
 11
155.395
 21
46.33305
 31
0.0
  0
LINE
  5
1CE
330
1E
100
AcDbEntity
  8
0
100
AcDbLine
 10
153.3779999999999
 20
45.02365
 30
0.0
 11
154.576
 21
45.77164999999999
 31
0.0
  0
LINE
  5
1CF
330
1E
100
AcDbEntity
  8
0
100
AcDbLine
 10
156.472
 20
48.01177
 30
0.0
 11
156.8559999999999
 21
48.93906
 31
0.0
  0
LINE
  5
1D0
330
1E
100
AcDbEntity
  8
0
100
AcDbLine
 10
156.013
 20
47.10935
 30
0.0
 11
156.472
 21
48.01177
 31
0.0
  0
LINE
  5
1D1
330
1E
100
AcDbEntity
  8
0
100
AcDbLine
 10
157.0
 20
49.92817
 30
0.0
 11
157.0
 21
63.38675999999999
 31
0.0
  0
LINE
  5
1D2
330
1E
100
AcDbEntity
  8
0
100
AcDbLine
 10
156.8559999999999
 20
48.93906
 30
0.0
 11
157.0
 21
49.92817
 31
0.0
  0
LINE
  5
1D3
330
1E
100
AcDbEntity
  8
0
100
AcDbLine
 10
155.395
 20
46.33305
 30
0.0
 11
156.013
 21
47.10935
 31
0.0
  0
LINE
  5
1D4
330
1E
100
AcDbEntity
  8
0
100
AcDbLine
 10
151.4739999999999
 20
44.38125
 30
0.0
 11
153.3779999999999
 21
45.02365
 31
0.0
  0
LINE
  5
1D5
330
1E
100
AcDbEntity
  8
0
100
AcDbLine
 10
150.7949999999999
 20
44.18605
 30
0.0
 11
151.4739999999999
 21
44.38125
 31
0.0
  0
LINE
  5
1D6
330
1E
100
AcDbEntity
  8
0
100
AcDbLine
 10
148.512
 20
43.73255
 30
0.0
 11
150.7949999999999
 21
44.18605
 31
0.0
  0
LINE
  5
1D7
330
1E
100
AcDbEntity
  8
0
100
AcDbLine
 10
145.8529999999999
 20
43.44755
 30
0.0
 11
148.512
 21
43.73255
 31
0.0
  0
LINE
  5
1D8
330
1E
100
AcDbEntity
  8
0
100
AcDbLine
 10
138.5
 20
43.35035
 30
0.0
 11
143.0
 21
43.35035
 31
0.0
  0
LINE
  5
1D9
330
1E
100
AcDbEntity
  8
0
100
AcDbLine
 10
86.30799999999998
 20
58.47495
 30
0.0
 11
86.5
 21
58.77494999999999
 31
0.0
  0
LINE
  5
1DA
330
1E
100
AcDbEntity
  8
0
100
AcDbLine
 10
88.28549999999999
 20
59.13195
 30
0.0
 11
89.0
 21
62.23175
 31
0.0
  0
LINE
  5
1DB
330
1E
100
AcDbEntity
  8
0
100
AcDbLine
 10
89.0
 20
61.35173
 30
0.0
 11
89.0
 21
62.16155
 31
0.0
  0
LINE
  5
1DC
330
1E
100
AcDbEntity
  8
0
100
AcDbLine
 10
89.0
 20
61.35173
 30
0.0
 11
89.0
 21
62.23175
 31
0.0
  0
LINE
  5
1DD
330
1E
100
AcDbEntity
  8
0
100
AcDbLine
 10
138.5
 20
61.35173
 30
0.0
 11
138.5
 21
62.16155
 31
0.0
  0
LINE
  5
1DE
330
1E
100
AcDbEntity
  8
0
100
AcDbLine
 10
138.5
 20
61.35173
 30
0.0
 11
138.5
 21
58.251897
 31
0.0
  0
LINE
  5
1DF
330
1E
100
AcDbEntity
  8
0
100
AcDbLine
 10
88.28549999999999
 20
59.13191
 30
0.0
 11
89.0
 21
62.23175
 31
0.0
  0
LINE
  5
1E2
330
1E
100
AcDbEntity
  8
0
100
AcDbLine
 10
138.5
 20
61.98531
 30
0.0
 11
143.0
 21
61.98531
 31
0.0
  0
LINE
  5
1E3
330
1E
100
AcDbEntity
  8
0
100
AcDbLine
 10
138.5
 20
61.98531
 30
0.0
 11
143.0
 21
61.98531
 31
0.0
  0
LINE
  5
1E4
330
1E
100
AcDbEntity
  8
0
100
AcDbLine
 10
143.0
 20
61.98531
 30
0.0
 11
145.3229999999999
 21
61.90615
 31
0.0
  0
LINE
  5
1E5
330
1E
100
AcDbEntity
  8
0
100
AcDbLine
 10
145.3229999999999
 20
61.90615
 30
0.0
 11
147.4879999999999
 21
61.67406999999999
 31
0.0
  0
LINE
  5
1E6
330
1E
100
AcDbEntity
  8
0
100
AcDbLine
 10
147.4879999999999
 20
61.67406999999999
 30
0.0
 11
149.0
 21
61.37378468531468
 31
0.0
  0
LINE
  5
1E7
330
1E
100
AcDbEntity
  8
0
100
AcDbLine
 10
149.0
 20
61.3737846853147
 30
0.0
 11
149.0
 21
51.94114531468529
 31
0.0
  0
LINE
  5
1E8
330
1E
100
AcDbEntity
  8
0
100
AcDbLine
 10
86.5
 20
58.77494999999999
 30
0.0
 11
86.5
 21
61.98531
 31
0.0
  0
LINE
  5
1E9
330
1E
100
AcDbEntity
  8
0
100
AcDbLine
 10
86.02
 20
58.47495
 30
0.0
 11
86.30799999999998
 21
58.47495
 31
0.0
  0
LINE
  5
1EA
330
1E
100
AcDbEntity
  8
0
100
AcDbLine
 10
85.25200000000001
 20
58.47495
 30
0.0
 11
86.02
 21
58.47495
 31
0.0
  0
LINE
  5
1EB
330
1E
100
AcDbEntity
  8
0
100
AcDbLine
 10
86.5
 20
69.96455
 30
0.0
 11
86.5
 21
86.97495000000001
 31
0.0
  0
LINE
  5
1EC
330
1E
100
AcDbEntity
  8
0
100
AcDbLine
 10
86.5
 20
69.96455
 30
0.0
 11
89.0
 21
69.96455
 31
0.0
  0
LINE
  5
1ED
330
1E
100
AcDbEntity
  8
0
100
AcDbLine
 10
86.5
 20
69.96455
 30
0.0
 11
89.0
 21
69.96455
 31
0.0
  0
LINE
  5
1EE
330
1E
100
AcDbEntity
  8
0
100
AcDbLine
 10
89.0
 20
62.16155
 30
0.0
 11
89.0
 21
61.35173
 31
0.0
  0
LINE
  5
1EF
330
1E
100
AcDbEntity
  8
0
100
AcDbLine
 10
89.0
 20
62.16155
 30
0.0
 11
89.0
 21
65.14801
 31
0.0
  0
LINE
  5
1F0
330
1E
100
AcDbEntity
  8
0
100
AcDbLine
 10
89.0
 20
62.23175
 30
0.0
 11
89.0
 21
63.04157
 31
0.0
  0
LINE
  5
1F1
330
1E
100
AcDbEntity
  8
0
100
AcDbLine
 10
89.0
 20
62.23175
 30
0.0
 11
89.0
 21
61.35173
 31
0.0
  0
LINE
  5
1F2
330
1E
100
AcDbEntity
  8
0
100
AcDbLine
 10
138.5
 20
62.16155
 30
0.0
 11
138.5
 21
65.14801
 31
0.0
  0
LINE
  5
1F3
330
1E
100
AcDbEntity
  8
0
100
AcDbLine
 10
138.5
 20
62.16155
 30
0.0
 11
138.5
 21
61.35173
 31
0.0
  0
LINE
  5
1F4
330
1E
100
AcDbEntity
  8
0
100
AcDbLine
 10
89.0
 20
63.04157
 30
0.0
 11
89.0
 21
65.51238999999999
 31
0.0
  0
LINE
  5
1F5
330
1E
100
AcDbEntity
  8
0
100
AcDbLine
 10
89.0
 20
63.04157
 30
0.0
 11
89.0
 21
62.23175
 31
0.0
  0
LINE
  5
1F6
330
1E
100
AcDbEntity
  8
0
100
AcDbLine
 10
138.5
 20
65.14801
 30
0.0
 11
138.5
 21
68.57545
 31
0.0
  0
LINE
  5
1F7
330
1E
100
AcDbEntity
  8
0
100
AcDbLine
 10
138.5
 20
65.14801
 30
0.0
 11
138.5
 21
62.16155
 31
0.0
  0
LINE
  5
1F8
330
1E
100
AcDbEntity
  8
0
100
AcDbLine
 10
89.0
 20
65.14801
 30
0.0
 11
89.0
 21
62.16155
 31
0.0
  0
LINE
  5
1F9
330
1E
100
AcDbEntity
  8
0
100
AcDbLine
 10
89.0
 20
65.14801
 30
0.0
 11
89.0
 21
68.57545
 31
0.0
  0
LINE
  5
1FA
330
1E
100
AcDbEntity
  8
0
100
AcDbLine
 10
89.0
 20
68.57545
 30
0.0
 11
89.0
 21
65.14801
 31
0.0
  0
LINE
  5
1FB
330
1E
100
AcDbEntity
  8
0
100
AcDbLine
 10
89.0
 20
68.57545
 30
0.0
 11
89.0
 21
71.23874999999999
 31
0.0
  0
LINE
  5
1FC
330
1E
100
AcDbEntity
  8
0
100
AcDbLine
 10
138.5
 20
68.57545
 30
0.0
 11
138.5
 21
71.23874999999999
 31
0.0
  0
LINE
  5
1FD
330
1E
100
AcDbEntity
  8
0
100
AcDbLine
 10
138.5
 20
68.57545
 30
0.0
 11
138.5
 21
65.14801
 31
0.0
  0
LINE
  5
1FE
330
1E
100
AcDbEntity
  8
0
100
AcDbLine
 10
89.0
 20
67.82509000000001
 30
0.0
 11
89.0
 21
70.02405
 31
0.0
  0
LINE
  5
1FF
330
1E
100
AcDbEntity
  8
0
100
AcDbLine
 10
89.0
 20
67.82509000000001
 30
0.0
 11
89.0
 21
65.51238999999999
 31
0.0
  0
LINE
  5
200
330
1E
100
AcDbEntity
  8
0
100
AcDbLine
 10
89.0
 20
65.51238999999999
 30
0.0
 11
89.0
 21
67.82509000000001
 31
0.0
  0
LINE
  5
201
330
1E
100
AcDbEntity
  8
0
100
AcDbLine
 10
89.0
 20
65.51238999999999
 30
0.0
 11
89.0
 21
63.04157
 31
0.0
  0
LINE
  5
202
330
1E
100
AcDbEntity
  8
0
100
AcDbLine
 10
153.3779999999999
 20
68.29125000000001
 30
0.0
 11
154.576
 21
67.54323000000001
 31
0.0
  0
LINE
  5
203
330
1E
100
AcDbEntity
  8
0
100
AcDbLine
 10
154.576
 20
67.54323000000001
 30
0.0
 11
155.395
 21
66.98184000000001
 31
0.0
  0
LINE
  5
204
330
1E
100
AcDbEntity
  8
0
100
AcDbLine
 10
156.013
 20
66.20560999999999
 30
0.0
 11
156.472
 21
65.30315999999999
 31
0.0
  0
LINE
  5
205
330
1E
100
AcDbEntity
  8
0
100
AcDbLine
 10
155.395
 20
66.98184000000001
 30
0.0
 11
156.013
 21
66.20560999999999
 31
0.0
  0
LINE
  5
206
330
1E
100
AcDbEntity
  8
0
100
AcDbLine
 10
151.4739999999999
 20
68.93365
 30
0.0
 11
153.3779999999999
 21
68.29125000000001
 31
0.0
  0
LINE
  5
207
330
1E
100
AcDbEntity
  8
0
100
AcDbLine
 10
150.7949999999999
 20
69.12895
 30
0.0
 11
151.4739999999999
 21
68.93365
 31
0.0
  0
LINE
  5
208
330
1E
100
AcDbEntity
  8
0
100
AcDbLine
 10
89.0
 20
69.96455
 30
0.0
 11
89.0
 21
71.83844999999999
 31
0.0
  0
LINE
  5
209
330
1E
100
AcDbEntity
  8
0
100
AcDbLine
 10
89.0
 20
69.96455
 30
0.0
 11
89.0
 21
70.57705
 31
0.0
  0
LINE
  5
20A
330
1E
100
AcDbEntity
  8
0
100
AcDbLine
 10
145.8529999999999
 20
69.86735
 30
0.0
 11
148.512
 21
69.58235000000001
 31
0.0
  0
LINE
  5
20B
330
1E
100
AcDbEntity
  8
0
100
AcDbLine
 10
143.0
 20
69.96455
 30
0.0
 11
145.8529999999999
 21
69.86735
 31
0.0
  0
LINE
  5
20C
330
1E
100
AcDbEntity
  8
0
100
AcDbLine
 10
148.512
 20
69.58235000000001
 30
0.0
 11
150.7949999999999
 21
69.12895
 31
0.0
  0
LINE
  5
20D
330
1E
100
AcDbEntity
  8
0
100
AcDbLine
 10
156.472
 20
65.30315999999999
 30
0.0
 11
156.8559999999999
 21
64.37586999999999
 31
0.0
  0
LINE
  5
20E
330
1E
100
AcDbEntity
  8
0
100
AcDbLine
 10
156.8559999999999
 20
64.37586999999999
 30
0.0
 11
157.0
 21
63.38675999999999
 31
0.0
  0
LINE
  5
20F
330
1E
100
AcDbEntity
  8
0
100
AcDbLine
 10
157.0
 20
63.38675999999999
 30
0.0
 11
157.0
 21
49.92817
 31
0.0
  0
LINE
  5
210
330
1E
100
AcDbEntity
  8
0
100
AcDbLine
 10
89.0
 20
70.02405
 30
0.0
 11
89.0
 21
70.99294999999999
 31
0.0
  0
LINE
  5
211
330
1E
100
AcDbEntity
  8
0
100
AcDbLine
 10
89.0
 20
70.02405
 30
0.0
 11
89.0
 21
67.82509000000001
 31
0.0
  0
LINE
  5
212
330
1E
100
AcDbEntity
  8
0
100
AcDbLine
 10
89.0
 20
71.83844999999999
 30
0.0
 11
89.0
 21
72.44785
 31
0.0
  0
LINE
  5
213
330
1E
100
AcDbEntity
  8
0
100
AcDbLine
 10
89.0
 20
71.83844999999999
 30
0.0
 11
89.0
 21
69.96455
 31
0.0
  0
LINE
  5
214
330
1E
100
AcDbEntity
  8
0
100
AcDbLine
 10
86.8631
 20
101.97495
 30
0.0
 11
93.33240000000001
 21
101.97495
 31
0.0
  0
LINE
  5
216
330
1E
100
AcDbEntity
  8
0
100
AcDbLine
 10
86.7633
 20
86.97495000000001
 30
0.0
 11
93.10439999999999
 21
86.97495000000001
 31
0.0
  0
LINE
  5
217
330
1E
100
AcDbEntity
  8
0
100
AcDbLine
 10
89.0
 20
72.44785
 30
0.0
 11
138.5
 21
72.44785
 31
0.0
  0
LINE
  5
218
330
1E
100
AcDbEntity
  8
0
100
AcDbLine
 10
89.0
 20
72.44785
 30
0.0
 11
89.0
 21
71.23874999999999
 31
0.0
  0
LINE
  5
219
330
1E
100
AcDbEntity
  8
0
100
AcDbLine
 10
89.0
 20
72.44785
 30
0.0
 11
89.0
 21
71.83844999999999
 31
0.0
  0
LINE
  5
21A
330
1E
100
AcDbEntity
  8
0
100
AcDbLine
 10
89.0
 20
70.99294999999999
 30
0.0
 11
89.0
 21
70.57705
 31
0.0
  0
LINE
  5
21B
330
1E
100
AcDbEntity
  8
0
100
AcDbLine
 10
89.0
 20
70.99294999999999
 30
0.0
 11
89.0
 21
70.02405
 31
0.0
  0
LINE
  5
21C
330
1E
100
AcDbEntity
  8
0
100
AcDbLine
 10
89.0
 20
70.57705
 30
0.0
 11
89.0
 21
69.96455
 31
0.0
  0
LINE
  5
21D
330
1E
100
AcDbEntity
  8
0
100
AcDbLine
 10
89.0
 20
70.57705
 30
0.0
 11
89.0
 21
70.99294999999999
 31
0.0
  0
LINE
  5
21E
330
1E
100
AcDbEntity
  8
0
100
AcDbLine
 10
112.7499999999999
 20
86.97495000000001
 30
0.0
 11
113.502
 21
86.97495000000001
 31
0.0
  0
LINE
  5
21F
330
1E
100
AcDbEntity
  8
0
100
AcDbLine
 10
113.502
 20
86.97495000000001
 30
0.0
 11
114.101
 21
86.97495000000001
 31
0.0
  0
LINE
  5
220
330
1E
100
AcDbEntity
  8
0
100
AcDbLine
 10
114.101
 20
86.97495000000001
 30
0.0
 11
114.596
 21
86.97495000000001
 31
0.0
  0
LINE
  5
221
330
1E
100
AcDbEntity
  8
0
100
AcDbLine
 10
114.596
 20
86.97495000000001
 30
0.0
 11
115.05
 21
86.97495000000001
 31
0.0
  0
LINE
  5
222
330
1E
100
AcDbEntity
  8
0
100
AcDbLine
 10
115.05
 20
86.97495000000001
 30
0.0
 11
115.381
 21
86.97495000000001
 31
0.0
  0
LINE
  5
223
330
1E
100
AcDbEntity
  8
0
100
AcDbLine
 10
115.381
 20
86.97495000000001
 30
0.0
 11
115.6739999999999
 21
86.97495000000001
 31
0.0
  0
LINE
  5
224
330
1E
100
AcDbEntity
  8
0
100
AcDbLine
 10
115.6739999999999
 20
86.97495000000001
 30
0.0
 11
116.0959999999999
 21
86.97495000000001
 31
0.0
  0
LINE
  5
225
330
1E
100
AcDbEntity
  8
0
100
AcDbLine
 10
116.0959999999999
 20
86.97495000000001
 30
0.0
 11
116.537
 21
86.97495000000001
 31
0.0
  0
LINE
  5
226
330
1E
100
AcDbEntity
  8
0
100
AcDbLine
 10
116.537
 20
86.97495000000001
 30
0.0
 11
116.9499999999999
 21
86.97495000000001
 31
0.0
  0
LINE
  5
227
330
1E
100
AcDbEntity
  8
0
100
AcDbLine
 10
116.9499999999999
 20
86.97495000000001
 30
0.0
 11
117.277
 21
86.97495000000001
 31
0.0
  0
LINE
  5
228
330
1E
100
AcDbEntity
  8
0
100
AcDbLine
 10
117.277
 20
86.97495000000001
 30
0.0
 11
117.449
 21
86.97495000000001
 31
0.0
  0
LINE
  5
229
330
1E
100
AcDbEntity
  8
0
100
AcDbLine
 10
128.4999999999999
 20
77.63495
 30
0.0
 11
128.4999999999999
 21
87.89295
 31
0.0
  0
LINE
  5
22A
330
1E
100
AcDbEntity
  8
0
100
AcDbLine
 10
128.4999999999999
 20
77.63495
 30
0.0
 11
128.4999999999999
 21
72.44785
 31
0.0
  0
LINE
  5
22B
330
1E
100
AcDbEntity
  8
0
100
AcDbLine
 10
128.4999999999999
 20
72.44785
 30
0.0
 11
128.4999999999999
 21
77.63495
 31
0.0
  0
LINE
  5
22D
330
1E
100
AcDbEntity
  8
0
100
AcDbLine
 10
111.942
 20
86.97495000000001
 30
0.0
 11
112.7499999999999
 21
86.97495000000001
 31
0.0
  0
LINE
  5
22E
330
1E
100
AcDbEntity
  8
0
100
AcDbLine
 10
110.993
 20
86.97495000000001
 30
0.0
 11
111.942
 21
86.97495000000001
 31
0.0
  0
LINE
  5
22F
330
1E
100
AcDbEntity
  8
0
100
AcDbLine
 10
110.147
 20
86.97495000000001
 30
0.0
 11
110.993
 21
86.97495000000001
 31
0.0
  0
LINE
  5
230
330
1E
100
AcDbEntity
  8
0
100
AcDbLine
 10
108.929
 20
86.97495000000001
 30
0.0
 11
110.147
 21
86.97495000000001
 31
0.0
  0
LINE
  5
231
330
1E
100
AcDbEntity
  8
0
100
AcDbLine
 10
107.547
 20
86.97495000000001
 30
0.0
 11
108.929
 21
86.97495000000001
 31
0.0
  0
LINE
  5
232
330
1E
100
AcDbEntity
  8
0
100
AcDbLine
 10
105.8149999999999
 20
86.97495000000001
 30
0.0
 11
107.547
 21
86.97495000000001
 31
0.0
  0
LINE
  5
233
330
1E
100
AcDbEntity
  8
0
100
AcDbLine
 10
102.6929999999999
 20
86.97495000000001
 30
0.0
 11
105.8149999999999
 21
86.97495000000001
 31
0.0
  0
LINE
  5
234
330
1E
100
AcDbEntity
  8
0
100
AcDbLine
 10
98.79649999999999
 20
86.97495000000001
 30
0.0
 11
102.6929999999999
 21
86.97495000000001
 31
0.0
  0
LINE
  5
246
330
1E
100
AcDbEntity
  8
0
100
AcDbLine
 10
93.33240000000001
 20
101.97495
 30
0.0
 11
99.0029
 21
101.97495
 31
0.0
  0
LINE
  5
247
330
1E
100
AcDbEntity
  8
0
100
AcDbLine
 10
112.319
 20
101.97495
 30
0.0
 11
113.1329999999999
 21
101.97495
 31
0.0
  0
LINE
  5
248
330
1E
100
AcDbEntity
  8
0
100
AcDbLine
 10
111.3799999999999
 20
101.97495
 30
0.0
 11
112.319
 21
101.97495
 31
0.0
  0
LINE
  5
249
330
1E
100
AcDbEntity
  8
0
100
AcDbLine
 10
110.501
 20
101.97495
 30
0.0
 11
111.3799999999999
 21
101.97495
 31
0.0
  0
LINE
  5
24A
330
1E
100
AcDbEntity
  8
0
100
AcDbLine
 10
109.272
 20
101.97495
 30
0.0
 11
110.501
 21
101.97495
 31
0.0
  0
LINE
  5
24B
330
1E
100
AcDbEntity
  8
0
100
AcDbLine
 10
107.847
 20
101.97495
 30
0.0
 11
109.272
 21
101.97495
 31
0.0
  0
LINE
  5
24C
330
1E
100
AcDbEntity
  8
0
100
AcDbLine
 10
106.116
 20
101.97495
 30
0.0
 11
107.847
 21
101.97495
 31
0.0
  0
LINE
  5
24D
330
1E
100
AcDbEntity
  8
0
100
AcDbLine
 10
102.915
 20
101.97495
 30
0.0
 11
106.116
 21
101.97495
 31
0.0
  0
LINE
  5
24E
330
1E
100
AcDbEntity
  8
0
100
AcDbLine
 10
99.0029
 20
101.97495
 30
0.0
 11
102.915
 21
101.97495
 31
0.0
  0
LINE
  5
24F
330
1E
100
AcDbEntity
  8
0
100
AcDbLine
 10
113.1329999999999
 20
101.97495
 30
0.0
 11
113.8509999999999
 21
101.97495
 31
0.0
  0
LINE
  5
250
330
1E
100
AcDbEntity
  8
0
100
AcDbLine
 10
113.8509999999999
 20
101.97495
 30
0.0
 11
114.4749999999999
 21
101.97495
 31
0.0
  0
LINE
  5
251
330
1E
100
AcDbEntity
  8
0
100
AcDbLine
 10
114.4749999999999
 20
101.97495
 30
0.0
 11
114.979
 21
101.97495
 31
0.0
  0
LINE
  5
252
330
1E
100
AcDbEntity
  8
0
100
AcDbLine
 10
114.979
 20
101.97495
 30
0.0
 11
115.4739999999999
 21
101.97495
 31
0.0
  0
LINE
  5
253
330
1E
100
AcDbEntity
  8
0
100
AcDbLine
 10
115.4739999999999
 20
101.97495
 30
0.0
 11
115.8239999999999
 21
101.97495
 31
0.0
  0
LINE
  5
254
330
1E
100
AcDbEntity
  8
0
100
AcDbLine
 10
115.8239999999999
 20
101.97495
 30
0.0
 11
116.144
 21
101.97495
 31
0.0
  0
LINE
  5
255
330
1E
100
AcDbEntity
  8
0
100
AcDbLine
 10
116.144
 20
101.97495
 30
0.0
 11
116.525
 21
101.97495
 31
0.0
  0
LINE
  5
256
330
1E
100
AcDbEntity
  8
0
100
AcDbLine
 10
116.525
 20
101.97495
 30
0.0
 11
116.991
 21
101.97495
 31
0.0
  0
LINE
  5
257
330
1E
100
AcDbEntity
  8
0
100
AcDbLine
 10
116.991
 20
101.97495
 30
0.0
 11
117.42
 21
101.97495
 31
0.0
  0
LINE
  5
258
330
1E
100
AcDbEntity
  8
0
100
AcDbLine
 10
117.42
 20
101.97495
 30
0.0
 11
117.776
 21
101.97495
 31
0.0
  0
LINE
  5
259
330
1E
100
AcDbEntity
  8
0
100
AcDbLine
 10
117.776
 20
101.97495
 30
0.0
 11
117.9479999999999
 21
101.97495
 31
0.0
  0
LINE
  5
25C
330
1E
100
AcDbEntity
  8
0
100
AcDbLine
 10
118.0
 20
101.97495
 30
0.0
 11
128.4999999999999
 21
101.97495
 31
0.0
  0
LINE
  5
25D
330
1E
100
AcDbEntity
  8
0
100
AcDbLine
 10
118.0
 20
101.97495
 30
0.0
 11
128.4999999999999
 21
101.97495
 31
0.0
  0
LINE
  5
25E
330
1E
100
AcDbEntity
  8
0
100
AcDbLine
 10
117.9479999999999
 20
101.97495
 30
0.0
 11
118.0
 21
101.97495
 31
0.0
  0
LINE
  5
25F
330
1E
100
AcDbEntity
  8
0
100
AcDbLine
 10
128.4999999999999
 20
101.97495
 30
0.0
 11
128.4999999999999
 21
100.39995
 31
0.0
  0
LINE
  5
260
330
1E
100
AcDbEntity
  8
0
100
AcDbLine
 10
128.4999999999999
 20
100.39995
 30
0.0
 11
128.4999999999999
 21
101.97495
 31
0.0
  0
LINE
  5
261
330
1E
100
AcDbEntity
  8
0
100
AcDbLine
 10
128.4999999999999
 20
100.39995
 30
0.0
 11
128.4999999999999
 21
95.71094999999999
 31
0.0
  0
LINE
  5
262
330
1E
100
AcDbEntity
  8
0
100
AcDbLine
 10
128.4999999999999
 20
95.71094999999999
 30
0.0
 11
128.4999999999999
 21
100.39995
 31
0.0
  0
LINE
  5
263
330
1E
100
AcDbEntity
  8
0
100
AcDbLine
 10
128.4999999999999
 20
95.71094999999999
 30
0.0
 11
128.4999999999999
 21
87.89295
 31
0.0
  0
LINE
  5
264
330
1E
100
AcDbEntity
  8
0
100
AcDbLine
 10
128.4999999999999
 20
87.89295
 30
0.0
 11
128.4999999999999
 21
95.71094999999999
 31
0.0
  0
LINE
  5
265
330
1E
100
AcDbEntity
  8
0
100
AcDbLine
 10
128.4999999999999
 20
87.89295
 30
0.0
 11
128.4999999999999
 21
77.63495
 31
0.0
  0
LINE
  5
266
330
1E
100
AcDbEntity
  8
0
100
AcDbLine
 10
118.0
 20
87.68925000000001
 30
0.0
 11
118.0
 21
101.97495
 31
0.0
  0
LINE
  5
267
330
1E
100
AcDbEntity
  8
0
100
AcDbLine
 10
118.0
 20
101.97495
 30
0.0
 11
118.0
 21
87.68925000000001
 31
0.0
  0
LINE
  5
268
330
1E
100
AcDbEntity
  8
0
100
AcDbLine
 10
117.847
 20
87.18925
 30
0.0
 11
118.0
 21
87.68925000000001
 31
0.0
  0
LINE
  5
269
330
1E
100
AcDbEntity
  8
0
100
AcDbLine
 10
93.10439999999999
 20
86.97495000000001
 30
0.0
 11
98.79649999999999
 21
86.97495000000001
 31
0.0
  0
LINE
  5
26A
330
1E
100
AcDbEntity
  8
0
100
AcDbLine
 10
138.5
 20
72.44785
 30
0.0
 11
138.5
 21
71.23874999999999
 31
0.0
  0
LINE
  5
26B
330
1E
100
AcDbEntity
  8
0
100
AcDbLine
 10
138.5
 20
71.23874999999999
 30
0.0
 11
138.5
 21
72.44785
 31
0.0
  0
LINE
  5
26C
330
1E
100
AcDbEntity
  8
0
100
AcDbLine
 10
138.5
 20
71.23874999999999
 30
0.0
 11
138.5
 21
68.57545
 31
0.0
  0
LINE
  5
26D
330
1E
100
AcDbEntity
  8
0
100
AcDbLine
 10
89.0
 20
71.23874999999999
 30
0.0
 11
89.0
 21
68.57545
 31
0.0
  0
LINE
  5
26E
330
1E
100
AcDbEntity
  8
0
100
AcDbLine
 10
89.0
 20
71.23874999999999
 30
0.0
 11
89.0
 21
72.44785
 31
0.0
  0
LINE
  5
26F
330
1E
100
AcDbEntity
  8
0
100
AcDbLine
 10
138.5
 20
69.96455
 30
0.0
 11
143.0
 21
69.96455
 31
0.0
  0
LINE
  5
270
330
1E
100
AcDbEntity
  8
0
100
AcDbLine
 10
86.5
 20
86.97495000000001
 30
0.0
 11
86.5
 21
69.96455
 31
0.0
  0
LINE
  5
271
330
1E
100
AcDbEntity
  8
0
100
AcDbLine
 10
86.5
 20
86.97495000000001
 30
0.0
 11
86.7633
 21
86.97495000000001
 31
0.0
  0
LINE
  5
272
330
1E
100
AcDbEntity
  8
0
100
AcDbLine
 10
86.5
 20
61.98531
 30
0.0
 11
86.5
 21
58.77494999999999
 31
0.0
  0
LINE
  5
273
330
1E
100
AcDbEntity
  8
0
100
AcDbLine
 10
86.5
 20
61.98531
 30
0.0
 11
88.94319589005741
 21
61.98531
 31
0.0
  0
LINE
  5
274
330
1E
100
AcDbEntity
  8
0
100
AcDbLine
 10
86.5
 20
61.98531
 30
0.0
 11
88.94319589005741
 21
61.98531
 31
0.0
  0
LINE
  5
275
330
1E
100
AcDbEntity
  8
0
100
AcDbLine
 10
85.0
 20
58.47495
 30
0.0
 11
85.0
 21
58.159862
 31
0.0
  0
LINE
  5
276
330
1E
100
AcDbEntity
  8
0
100
AcDbLine
 10
85.0
 20
58.47495
 30
0.0
 11
85.25200000000001
 21
58.47495
 31
0.0
  0
LINE
  5
27B
330
1E
100
AcDbEntity
  8
0
100
AcDbLine
 10
117.847
 20
87.18925
 30
0.0
 11
117.449
 21
86.97495000000001
 31
0.0
  0
LINE
  5
27C
330
1E
100
AcDbEntity
  8
0
100
AcDbLine
 10
70.5
 20
86.97495000000001
 30
0.0
 11
86.7633
 21
86.97495000000001
 31
0.0
  0
LINE
  5
27D
330
1E
100
AcDbEntity
  8
0
100
AcDbLine
 10
70.5
 20
69.96455
 30
0.0
 11
70.53011673224759
 21
61.98531
 31
0.0
  0
LINE
  5
27E
330
1E
100
AcDbEntity
  8
0
100
AcDbLine
 10
86.5
 20
69.96455
 30
0.0
 11
86.5
 21
61.98531
 31
0.0
  0
ENDSEC
  0
SECTION
  2
OBJECTS
  0
DICTIONARY
  5
C
330
0
100
AcDbDictionary
281
     1
  3
ACAD_GROUP
350
D
  3
ACAD_LAYOUT
350
19
  3
ACAD_MLINESTYLE
350
16
  3
ACAD_PLOTSETTINGS
350
18
  3
ACAD_PLOTSTYLENAME
350
E
  3
AcDbVariableDictionary
350
27F
  0
DICTIONARY
  5
D
102
{ACAD_REACTORS
330
C
102
}
330
C
100
AcDbDictionary
281
     1
  0
DICTIONARY
  5
19
102
{ACAD_REACTORS
330
C
102
}
330
C
100
AcDbDictionary
281
     1
  3
Layout1
350
1D
  3
Model
350
21
  0
DICTIONARY
  5
16
102
{ACAD_REACTORS
330
C
102
}
330
C
100
AcDbDictionary
281
     1
  3
Standard
350
17
  0
DICTIONARY
  5
18
102
{ACAD_REACTORS
330
C
102
}
330
C
100
AcDbDictionary
281
     1
  0
ACDBDICTIONARYWDFLT
  5
E
102
{ACAD_REACTORS
330
C
102
}
330
C
100
AcDbDictionary
281
     1
  3
Normal
350
F
100
AcDbDictionaryWithDefault
340
F
  0
DICTIONARY
  5
27F
102
{ACAD_REACTORS
330
C
102
}
330
C
100
AcDbDictionary
281
     1
  3
DIMASSOC
350
280
  0
LAYOUT
  5
1D
102
{ACAD_REACTORS
330
19
102
}
330
19
100
AcDbPlotSettings
  1

  2
hp deskjet 980c series
  4

  6

 40
0.0
 41
0.0
 42
0.0
 43
0.0
 44
0.0
 45
0.0
 46
0.0
 47
0.0
 48
0.0
 49
0.0
140
0.0
141
0.0
142
1.0
143
1.0
 70
   688
 72
     0
 73
     0
 74
     5
  7

 75
    16
147
1.0
148
0.0
149
0.0
100
AcDbLayout
  1
Layout1
 70
     1
 71
     1
 10
0.0
 20
0.0
 11
12.0
 21
9.0
 12
0.0
 22
0.0
 32
0.0
 14
1.000000000000000E+20
 24
1.000000000000000E+20
 34
1.000000000000000E+20
 15
-1.000000000000000E+20
 25
-1.000000000000000E+20
 35
-1.000000000000000E+20
146
0.0
 13
0.0
 23
0.0
 33
0.0
 16
1.0
 26
0.0
 36
0.0
 17
0.0
 27
1.0
 37
0.0
 76
     0
330
1A
  0
LAYOUT
  5
21
102
{ACAD_REACTORS
330
19
102
}
330
19
100
AcDbPlotSettings
  1

  2
hp deskjet 980c series
  4

  6

 40
0.0
 41
0.0
 42
0.0
 43
0.0
 44
0.0
 45
0.0
 46
0.0
 47
0.0
 48
0.0
 49
0.0
140
0.0
141
0.0
142
1.0
143
1.0
 70
  1712
 72
     0
 73
     0
 74
     0
  7

 75
     0
147
1.0
148
0.0
149
0.0
100
AcDbLayout
  1
Model
 70
     1
 71
     0
 10
0.0
 20
0.0
 11
12.0
 21
9.0
 12
0.0
 22
0.0
 32
0.0
 14
0.0
 24
0.0
 34
0.0
 15
0.0
 25
0.0
 35
0.0
146
0.0
 13
0.0
 23
0.0
 33
0.0
 16
1.0
 26
0.0
 36
0.0
 17
0.0
 27
1.0
 37
0.0
 76
     0
330
1E
  0
MLINESTYLE
  5
17
102
{ACAD_REACTORS
330
16
102
}
330
16
100
AcDbMlineStyle
  2
STANDARD
 70
     0
  3

 62
   256
 51
90.0
 52
90.0
 71
     2
 49
0.5
 62
   256
  6
BYLAYER
 49
-0.5
 62
   256
  6
BYLAYER
  0
ACDBPLACEHOLDER
  5
F
102
{ACAD_REACTORS
330
E
102
}
330
E
  0
DICTIONARYVAR
  5
280
102
{ACAD_REACTORS
330
27F
102
}
330
27F
100
DictionaryVariables
280
     0
  1
1
  0
ENDSEC
  0
EOF
