  0
SECTION
  2
HEADER
  9
$ACADVER
  1
AC1015
  9
$ACADMAINTVER
 70
    13
  9
$DWGCODEPAGE
  3
ANSI_1252
  9
$INSBASE
 10
0.0
 20
0.0
 30
0.0
  9
$EXTMIN
 10
0.0250499999999962
 20
0.0000000000000096
 30
0.0
  9
$EXTMAX
 10
101.97495
 20
173.0
 30
0.0
  9
$LIMMIN
 10
0.0
 20
0.0
  9
$LIMMAX
 10
12.0
 20
9.0
  9
$ORTHOMODE
 70
     0
  9
$REGENMODE
 70
     1
  9
$FILLMODE
 70
     1
  9
$QTEXTMODE
 70
     0
  9
$MIRRTEXT
 70
     1
  9
$LTSCALE
 40
1.0
  9
$ATTMODE
 70
     1
  9
$TEXTSIZE
 40
0.2
  9
$TRACEWID
 40
0.05
  9
$TEXTSTYLE
  7
Standard
  9
$CLAYER
  8
0
  9
$CELTYPE
  6
Continuous
  9
$CECOLOR
 62
   256
  9
$CELTSCALE
 40
1.0
  9
$DISPSILH
 70
     0
  9
$DIMSCALE
 40
1.0
  9
$DIMASZ
 40
0.18
  9
$DIMEXO
 40
0.0625
  9
$DIMDLI
 40
0.38
  9
$DIMRND
 40
0.0
  9
$DIMDLE
 40
0.0
  9
$DIMEXE
 40
0.18
  9
$DIMTP
 40
0.0
  9
$DIMTM
 40
0.0
  9
$DIMTXT
 40
0.18
  9
$DIMCEN
 40
0.09
  9
$DIMTSZ
 40
0.0
  9
$DIMTOL
 70
     0
  9
$DIMLIM
 70
     0
  9
$DIMTIH
 70
     1
  9
$DIMTOH
 70
     1
  9
$DIMSE1
 70
     0
  9
$DIMSE2
 70
     0
  9
$DIMTAD
 70
     0
  9
$DIMZIN
 70
     0
  9
$DIMBLK
  1

  9
$DIMASO
 70
     1
  9
$DIMSHO
 70
     1
  9
$DIMPOST
  1

  9
$DIMAPOST
  1

  9
$DIMALT
 70
     0
  9
$DIMALTD
 70
     2
  9
$DIMALTF
 40
25.4
  9
$DIMLFAC
 40
1.0
  9
$DIMTOFL
 70
     0
  9
$DIMTVP
 40
0.0
  9
$DIMTIX
 70
     0
  9
$DIMSOXD
 70
     0
  9
$DIMSAH
 70
     0
  9
$DIMBLK1
  1

  9
$DIMBLK2
  1

  9
$DIMSTYLE
  2
Standard
  9
$DIMCLRD
 70
     0
  9
$DIMCLRE
 70
     0
  9
$DIMCLRT
 70
     0
  9
$DIMTFAC
 40
1.0
  9
$DIMGAP
 40
0.09
  9
$DIMJUST
 70
     0
  9
$DIMSD1
 70
     0
  9
$DIMSD2
 70
     0
  9
$DIMTOLJ
 70
     1
  9
$DIMTZIN
 70
     0
  9
$DIMALTZ
 70
     0
  9
$DIMALTTZ
 70
     0
  9
$DIMUPT
 70
     0
  9
$DIMDEC
 70
     4
  9
$DIMTDEC
 70
     4
  9
$DIMALTU
 70
     2
  9
$DIMALTTD
 70
     2
  9
$DIMTXSTY
  7
Standard
  9
$DIMAUNIT
 70
     0
  9
$DIMADEC
 70
     0
  9
$DIMALTRND
 40
0.0
  9
$DIMAZIN
 70
     0
  9
$DIMDSEP
 70
    46
  9
$DIMATFIT
 70
     3
  9
$DIMFRAC
 70
     0
  9
$DIMLDRBLK
  1

  9
$DIMLUNIT
 70
     2
  9
$DIMLWD
 70
    -2
  9
$DIMLWE
 70
    -2
  9
$DIMTMOVE
 70
     0
  9
$LUNITS
 70
     2
  9
$LUPREC
 70
     4
  9
$SKETCHINC
 40
0.1
  9
$FILLETRAD
 40
0.0
  9
$AUNITS
 70
     0
  9
$AUPREC
 70
     0
  9
$MENU
  1
.
  9
$ELEVATION
 40
0.0
  9
$PELEVATION
 40
0.0
  9
$THICKNESS
 40
0.0
  9
$LIMCHECK
 70
     0
  9
$CHAMFERA
 40
0.0
  9
$CHAMFERB
 40
0.0
  9
$CHAMFERC
 40
0.0
  9
$CHAMFERD
 40
0.0
  9
$SKPOLY
 70
     0
  9
$TDCREATE
 40
2454906.875528240
  9
$TDUCREATE
 40
2454906.833861574
  9
$TDUPDATE
 40
2454906.881290138
  9
$TDUUPDATE
 40
2454906.839623472
  9
$TDINDWG
 40
0.0057618981
  9
$TDUSRTIMER
 40
0.0057618981
  9
$USRTIMER
 70
     1
  9
$ANGBASE
 50
0.0
  9
$ANGDIR
 70
     0
  9
$PDMODE
 70
     0
  9
$PDSIZE
 40
0.0
  9
$PLINEWID
 40
0.0
  9
$SPLFRAME
 70
     0
  9
$SPLINETYPE
 70
     6
  9
$SPLINESEGS
 70
     8
  9
$HANDSEED
  5
238
  9
$SURFTAB1
 70
     6
  9
$SURFTAB2
 70
     6
  9
$SURFTYPE
 70
     6
  9
$SURFU
 70
     6
  9
$SURFV
 70
     6
  9
$UCSBASE
  2

  9
$UCSNAME
  2

  9
$UCSORG
 10
0.0
 20
0.0
 30
0.0
  9
$UCSXDIR
 10
1.0
 20
0.0
 30
0.0
  9
$UCSYDIR
 10
0.0
 20
1.0
 30
0.0
  9
$UCSORTHOREF
  2

  9
$UCSORTHOVIEW
 70
     1
  9
$UCSORGTOP
 10
0.0
 20
0.0
 30
0.0
  9
$UCSORGBOTTOM
 10
0.0
 20
0.0
 30
0.0
  9
$UCSORGLEFT
 10
0.0
 20
0.0
 30
0.0
  9
$UCSORGRIGHT
 10
0.0
 20
0.0
 30
0.0
  9
$UCSORGFRONT
 10
0.0
 20
0.0
 30
0.0
  9
$UCSORGBACK
 10
0.0
 20
0.0
 30
0.0
  9
$PUCSBASE
  2

  9
$PUCSNAME
  2

  9
$PUCSORG
 10
0.0
 20
0.0
 30
0.0
  9
$PUCSXDIR
 10
1.0
 20
0.0
 30
0.0
  9
$PUCSYDIR
 10
0.0
 20
1.0
 30
0.0
  9
$PUCSORTHOREF
  2

  9
$PUCSORTHOVIEW
 70
     0
  9
$PUCSORGTOP
 10
0.0
 20
0.0
 30
0.0
  9
$PUCSORGBOTTOM
 10
0.0
 20
0.0
 30
0.0
  9
$PUCSORGLEFT
 10
0.0
 20
0.0
 30
0.0
  9
$PUCSORGRIGHT
 10
0.0
 20
0.0
 30
0.0
  9
$PUCSORGFRONT
 10
0.0
 20
0.0
 30
0.0
  9
$PUCSORGBACK
 10
0.0
 20
0.0
 30
0.0
  9
$USERI1
 70
     0
  9
$USERI2
 70
     0
  9
$USERI3
 70
     0
  9
$USERI4
 70
     0
  9
$USERI5
 70
     0
  9
$USERR1
 40
0.0
  9
$USERR2
 40
0.0
  9
$USERR3
 40
0.0
  9
$USERR4
 40
0.0
  9
$USERR5
 40
0.0
  9
$WORLDVIEW
 70
     1
  9
$SHADEDGE
 70
     3
  9
$SHADEDIF
 70
    70
  9
$TILEMODE
 70
     1
  9
$MAXACTVP
 70
    64
  9
$PINSBASE
 10
0.0
 20
0.0
 30
0.0
  9
$PLIMCHECK
 70
     0
  9
$PEXTMIN
 10
1.000000000000000E+20
 20
1.000000000000000E+20
 30
1.000000000000000E+20
  9
$PEXTMAX
 10
-1.000000000000000E+20
 20
-1.000000000000000E+20
 30
-1.000000000000000E+20
  9
$PLIMMIN
 10
0.0
 20
0.0
  9
$PLIMMAX
 10
12.0
 20
9.0
  9
$UNITMODE
 70
     0
  9
$VISRETAIN
 70
     1
  9
$PLINEGEN
 70
     0
  9
$PSLTSCALE
 70
     1
  9
$TREEDEPTH
 70
  3020
  9
$CMLSTYLE
  2
Standard
  9
$CMLJUST
 70
     0
  9
$CMLSCALE
 40
1.0
  9
$PROXYGRAPHICS
 70
     1
  9
$MEASUREMENT
 70
     0
  9
$CELWEIGHT
370
    -1
  9
$ENDCAPS
280
     0
  9
$JOINSTYLE
280
     0
  9
$LWDISPLAY
290
     0
  9
$INSUNITS
 70
     0
  9
$HYPERLINKBASE
  1

  9
$STYLESHEET
  1

  9
$XEDIT
290
     1
  9
$CEPSNTYPE
380
     0
  9
$PSTYLEMODE
290
     1
  9
$FINGERPRINTGUID
  2
{916A6EA0-2094-4E4A-A6AF-079DFBB3591E}
  9
$VERSIONGUID
  2
{AAD17CA1-8023-497E-9B5E-3156D0F96080}
  9
$EXTNAMES
290
     1
  9
$PSVPSCALE
 40
0.0
  9
$OLESTARTUP
290
     0
  0
ENDSEC
  0
SECTION
  2
CLASSES
  0
CLASS
  1
ACDBDICTIONARYWDFLT
  2
AcDbDictionaryWithDefault
  3
AutoCAD 2000
 90
        0
280
     0
281
     0
  0
CLASS
  1
ACDBPLACEHOLDER
  2
AcDbPlaceHolder
  3
AutoCAD 2000
 90
        0
280
     0
281
     0
  0
CLASS
  1
LAYOUT
  2
AcDbLayout
  3
AutoCAD 2000
 90
        0
280
     0
281
     0
  0
CLASS
  1
DICTIONARYVAR
  2
AcDbDictionaryVar
  3
AutoCAD 2000
 90
        0
280
     0
281
     0
  0
ENDSEC
  0
SECTION
  2
TABLES
  0
TABLE
  2
VPORT
  5
8
330
0
100
AcDbSymbolTable
 70
     2
  0
VPORT
  5
237
330
8
100
AcDbSymbolTableRecord
100
AcDbViewportTableRecord
  2
*Active
 70
     0
 10
0.0
 20
0.0
 11
1.0
 21
1.0
 12
51.0
 22
86.50000000000002
 13
0.0
 23
0.0
 14
1.0
 24
1.0
 15
0.0
 25
0.0
 16
0.0
 26
0.0
 36
1.0
 17
0.0
 27
0.0
 37
0.0
 40
174.0926315789473
 41
1.968387776606954
 42
50.0
 43
0.0
 44
0.0
 50
0.0
 51
0.0
 71
     0
 72
   100
 73
     1
 74
     3
 75
     0
 76
     0
 77
     0
 78
     0
281
     0
 65
     1
110
0.0
120
0.0
130
0.0
111
1.0
121
0.0
131
0.0
112
0.0
122
1.0
132
0.0
 79
     1
146
0.0
  0
ENDTAB
  0
TABLE
  2
LTYPE
  5
5
330
0
100
AcDbSymbolTable
 70
     1
  0
LTYPE
  5
13
330
5
100
AcDbSymbolTableRecord
100
AcDbLinetypeTableRecord
  2
ByBlock
 70
     0
  3

 72
    65
 73
     0
 40
0.0
  0
LTYPE
  5
14
330
5
100
AcDbSymbolTableRecord
100
AcDbLinetypeTableRecord
  2
ByLayer
 70
     0
  3

 72
    65
 73
     0
 40
0.0
  0
LTYPE
  5
15
330
5
100
AcDbSymbolTableRecord
100
AcDbLinetypeTableRecord
  2
Continuous
 70
     0
  3
Solid line
 72
    65
 73
     0
 40
0.0
  0
ENDTAB
  0
TABLE
  2
LAYER
  5
2
330
0
100
AcDbSymbolTable
 70
     1
  0
LAYER
  5
10
330
2
100
AcDbSymbolTableRecord
100
AcDbLayerTableRecord
  2
0
 70
     0
 62
     7
  6
Continuous
370
    -3
390
F
  0
ENDTAB
  0
TABLE
  2
STYLE
  5
3
330
0
100
AcDbSymbolTable
 70
     1
  0
STYLE
  5
11
330
3
100
AcDbSymbolTableRecord
100
AcDbTextStyleTableRecord
  2
Standard
 70
     0
 40
0.0
 41
1.0
 50
0.0
 71
     0
 42
0.2
  3
txt
  4

  0
ENDTAB
  0
TABLE
  2
VIEW
  5
6
330
0
100
AcDbSymbolTable
 70
     0
  0
ENDTAB
  0
TABLE
  2
UCS
  5
7
330
0
100
AcDbSymbolTable
 70
     0
  0
ENDTAB
  0
TABLE
  2
APPID
  5
9
330
0
100
AcDbSymbolTable
 70
     1
  0
APPID
  5
12
330
9
100
AcDbSymbolTableRecord
100
AcDbRegAppTableRecord
  2
ACAD
 70
     0
  0
ENDTAB
  0
TABLE
  2
DIMSTYLE
  5
A
330
0
100
AcDbSymbolTable
 70
     1
100
AcDbDimStyleTable
 71
     0
  0
DIMSTYLE
105
231
330
A
100
AcDbSymbolTableRecord
100
AcDbDimStyleTableRecord
  2
Standard
 70
     0
340
11
  0
ENDTAB
  0
TABLE
  2
BLOCK_RECORD
  5
1
330
0
100
AcDbSymbolTable
 70
     0
  0
BLOCK_RECORD
  5
1E
330
1
100
AcDbSymbolTableRecord
100
AcDbBlockTableRecord
  2
*Model_Space
340
21
  0
BLOCK_RECORD
  5
1A
330
1
100
AcDbSymbolTableRecord
100
AcDbBlockTableRecord
  2
*Paper_Space
340
1D
  0
ENDTAB
  0
ENDSEC
  0
SECTION
  2
BLOCKS
  0
BLOCK
  5
1F
330
1E
100
AcDbEntity
  8
0
100
AcDbBlockBegin
  2
*Model_Space
 70
     0
 10
0.0
 20
0.0
 30
0.0
  3
*Model_Space
  1

  0
ENDBLK
  5
20
330
1E
100
AcDbEntity
  8
0
100
AcDbBlockEnd
  0
BLOCK
  5
1B
330
1A
100
AcDbEntity
 67
     1
  8
0
100
AcDbBlockBegin
  2
*Paper_Space
 70
     0
 10
0.0
 20
0.0
 30
0.0
  3
*Paper_Space
  1

  0
ENDBLK
  5
1C
330
1A
100
AcDbEntity
 67
     1
  8
0
100
AcDbBlockEnd
  0
ENDSEC
  0
SECTION
  2
ENTITIES
  0
LINE
  5
22
330
1E
100
AcDbEntity
  8
0
100
AcDbLine
 10
0.4077499999999961
 20
45.8525
 30
0.0
 11
1.275849999999979
 21
39.91579999999999
 31
0.0
  0
LINE
  5
23
330
1E
100
AcDbEntity
  8
0
100
AcDbLine
 10
0.8590499999999899
 20
60.51393199999999
 30
0.0
 11
1.813749999999989
 21
65.67116999999999
 31
0.0
  0
LINE
  5
24
330
1E
100
AcDbEntity
  8
0
100
AcDbLine
 10
0.308849999999984
 20
55.34336999999999
 30
0.0
 11
0.8590499999999899
 21
60.51393199999999
 31
0.0
  0
LINE
  5
25
330
1E
100
AcDbEntity
  8
0
100
AcDbLine
 10
0.0250499999999962
 20
50.8947
 30
0.0
 11
0.308849999999984
 21
55.34336999999999
 31
0.0
  0
LINE
  5
26
330
1E
100
AcDbEntity
  8
0
100
AcDbLine
 10
0.0250499999999962
 20
50.8947
 30
0.0
 11
0.4077499999999961
 21
45.8525
 31
0.0
  0
LINE
  5
27
330
1E
100
AcDbEntity
  8
0
100
AcDbLine
 10
8.254549999999991
 20
25.8519
 30
0.0
 11
16.07185
 21
15.3138
 31
0.0
  0
LINE
  5
28
330
1E
100
AcDbEntity
  8
0
100
AcDbLine
 10
16.07185
 20
15.3138
 30
0.0
 11
26.33065
 21
7.133499999999999
 31
0.0
  0
LINE
  5
29
330
1E
100
AcDbEntity
  8
0
100
AcDbLine
 10
26.33065
 20
7.133499999999999
 30
0.0
 11
38.24334999999999
 21
2.0249
 31
0.0
  0
LINE
  5
2A
330
1E
100
AcDbEntity
  8
0
100
AcDbLine
 10
41.68194999999999
 20
32.8695
 30
0.0
 11
46.54695
 21
30.7843
 31
0.0
  0
LINE
  5
2B
330
1E
100
AcDbEntity
  8
0
100
AcDbLine
 10
38.24334999999999
 20
2.0249
 30
0.0
 11
51.10994999999999
 21
0.0000000000000096
 31
0.0
  0
LINE
  5
2C
330
1E
100
AcDbEntity
  8
0
100
AcDbLine
 10
37.63865
 20
36.1406
 30
0.0
 11
41.68194999999999
 21
32.8695
 31
0.0
  0
LINE
  5
2D
330
1E
100
AcDbEntity
  8
0
100
AcDbLine
 10
3.60284999999999
 20
35.77859999999999
 30
0.0
 11
3.696949999999979
 21
35.2911
 31
0.0
  0
LINE
  5
2E
330
1E
100
AcDbEntity
  8
0
100
AcDbLine
 10
2.22424999999999
 20
35.00659999999999
 30
0.0
 11
3.696949999999979
 21
35.2911
 31
0.0
  0
LINE
  5
2F
330
1E
100
AcDbEntity
  8
0
100
AcDbLine
 10
2.13005
 20
35.4941
 30
0.0
 11
2.22424999999999
 21
35.00659999999999
 31
0.0
  0
LINE
  5
30
330
1E
100
AcDbEntity
  8
0
100
AcDbLine
 10
32.59644999999999
 20
45.22999999999999
 30
0.0
 11
34.51064999999999
 21
40.2958
 31
0.0
  0
LINE
  5
31
330
1E
100
AcDbEntity
  8
0
100
AcDbLine
 10
34.51064999999999
 20
40.2958
 30
0.0
 11
37.63865
 21
36.1406
 31
0.0
  0
LINE
  5
32
330
1E
100
AcDbEntity
  8
0
100
AcDbLine
 10
3.56474999999999
 20
37.93549999999999
 30
0.0
 11
8.254549999999991
 21
25.8519
 31
0.0
  0
LINE
  5
33
330
1E
100
AcDbEntity
  8
0
100
AcDbLine
 10
3.29854999999999
 20
37.3536
 30
0.0
 11
3.60284999999999
 21
35.77859999999999
 31
0.0
  0
LINE
  5
34
330
1E
100
AcDbEntity
  8
0
100
AcDbLine
 10
2.74864999999999
 20
40.2003
 30
0.0
 11
3.29854999999999
 21
37.3536
 31
0.0
  0
LINE
  5
35
330
1E
100
AcDbEntity
  8
0
100
AcDbLine
 10
32.77454999999999
 20
55.42843000000001
 30
0.0
 11
34.85974999999999
 21
60.29278000000001
 31
0.0
  0
LINE
  5
36
330
1E
100
AcDbEntity
  8
0
100
AcDbLine
 10
34.85974999999999
 20
60.29278000000001
 30
0.0
 11
38.13074999999999
 21
64.33629999999999
 31
0.0
  0
LINE
  5
37
330
1E
100
AcDbEntity
  8
0
100
AcDbLine
 10
31.98565
 20
50.3414
 30
0.0
 11
32.59644999999999
 21
45.22999999999999
 31
0.0
  0
LINE
  5
38
330
1E
100
AcDbEntity
  8
0
100
AcDbLine
 10
31.98565
 20
50.3414
 30
0.0
 11
32.77454999999999
 21
55.42843000000001
 31
0.0
  0
LINE
  5
39
330
1E
100
AcDbEntity
  8
0
100
AcDbLine
 10
1.99015
 20
50.865
 30
0.0
 11
3.56474999999999
 21
37.93549999999999
 31
0.0
  0
LINE
  5
3A
330
1E
100
AcDbEntity
  8
0
100
AcDbLine
 10
1.99015
 20
50.865
 30
0.0
 11
4.01504999999999
 21
63.7316
 31
0.0
  0
LINE
  5
3B
330
1E
100
AcDbEntity
  8
0
100
AcDbLine
 10
2.342149999999989
 20
60.29849
 30
0.0
 11
3.285849999999979
 21
65.38311
 31
0.0
  0
LINE
  5
3C
330
1E
100
AcDbEntity
  8
0
100
AcDbLine
 10
1.76804999999998
 20
55.10399
 30
0.0
 11
2.342149999999989
 21
60.29849
 31
0.0
  0
LINE
  5
3D
330
1E
100
AcDbEntity
  8
0
100
AcDbLine
 10
1.899449999999989
 20
45.997
 30
0.0
 11
2.74864999999999
 21
40.2003
 31
0.0
  0
LINE
  5
3E
330
1E
100
AcDbEntity
  8
0
100
AcDbLine
 10
1.524249999999989
 20
50.8464
 30
0.0
 11
1.76804999999998
 21
55.10399
 31
0.0
  0
LINE
  5
3F
330
1E
100
AcDbEntity
  8
0
100
AcDbLine
 10
1.524249999999989
 20
50.8464
 30
0.0
 11
1.899449999999989
 21
45.997
 31
0.0
  0
LINE
  5
40
330
1E
100
AcDbEntity
  8
0
100
AcDbLine
 10
1.82575
 20
37.0691
 30
0.0
 11
2.13005
 21
35.4941
 31
0.0
  0
LINE
  5
41
330
1E
100
AcDbEntity
  8
0
100
AcDbLine
 10
1.275849999999979
 20
39.91579999999999
 30
0.0
 11
1.82575
 21
37.0691
 31
0.0
  0
LINE
  5
42
330
1E
100
AcDbEntity
  8
0
100
AcDbLine
 10
4.01504999999999
 20
63.7316
 30
0.0
 11
9.123749999999999
 21
75.6443
 31
0.0
  0
LINE
  5
43
330
1E
100
AcDbEntity
  8
0
100
AcDbLine
 10
38.13074999999999
 20
64.33629999999999
 30
0.0
 11
42.28595
 21
67.4643
 31
0.0
  0
LINE
  5
44
330
1E
100
AcDbEntity
  8
0
100
AcDbLine
 10
3.285849999999979
 20
65.38311
 30
0.0
 11
4.88124999999999
 21
71.23758999999999
 31
0.0
  0
LINE
  5
45
330
1E
100
AcDbEntity
  8
0
100
AcDbLine
 10
9.123749999999999
 20
75.6443
 30
0.0
 11
17.30405
 21
85.9031
 31
0.0
  0
LINE
  5
46
330
1E
100
AcDbEntity
  8
0
100
AcDbLine
 10
4.88124999999999
 20
71.23758999999999
 30
0.0
 11
7.404149999999999
 21
78.47929999999999
 31
0.0
  0
LINE
  5
47
330
1E
100
AcDbEntity
  8
0
100
AcDbLine
 10
5.99664999999999
 20
79.2167
 30
0.0
 11
9.84735
 21
87.25570000000001
 31
0.0
  0
LINE
  5
48
330
1E
100
AcDbEntity
  8
0
100
AcDbLine
 10
7.404149999999999
 20
78.47929999999999
 30
0.0
 11
11.38765
 21
86.58469999999999
 31
0.0
  0
LINE
  5
49
330
1E
100
AcDbEntity
  8
0
100
AcDbLine
 10
42.28595
 20
67.4643
 30
0.0
 11
44.3546770172385
 21
68.2668436529583
 31
0.0
  0
LINE
  5
4A
330
1E
100
AcDbEntity
  8
0
100
AcDbLine
 10
17.30405
 20
85.9031
 30
0.0
 11
27.84205
 21
93.7203
 31
0.0
  0
LINE
  5
4B
330
1E
100
AcDbEntity
  8
0
100
AcDbLine
 10
11.38765
 20
86.58469999999999
 30
0.0
 11
15.76945
 21
93.5607
 31
0.0
  0
LINE
  5
4C
330
1E
100
AcDbEntity
  8
0
100
AcDbLine
 10
15.76945
 20
93.5607
 30
0.0
 11
21.41274999999999
 21
101.0680999999999
 31
0.0
  0
LINE
  5
4D
330
1E
100
AcDbEntity
  8
0
100
AcDbLine
 10
27.84205
 20
93.7203
 30
0.0
 11
39.92575
 21
98.4102
 31
0.0
  0
LINE
  5
4E
330
1E
100
AcDbEntity
  8
0
100
AcDbLine
 10
39.92575
 20
98.4102
 30
0.0
 11
52.85341760990039
 21
99.98461337581201
 31
0.0
  0
LINE
  5
4F
330
1E
100
AcDbEntity
  8
0
100
AcDbLine
 10
21.41274999999999
 20
101.0680999999999
 30
0.0
 11
30.24295
 21
110.0371999999999
 31
0.0
  0
LINE
  5
50
330
1E
100
AcDbEntity
  8
0
100
AcDbLine
 10
30.24295
 20
110.0371999999999
 30
0.0
 11
38.96005
 21
118.5478999999999
 31
0.0
  0
LINE
  5
51
330
1E
100
AcDbEntity
  8
0
100
AcDbLine
 10
38.96005
 20
118.5478999999999
 30
0.0
 11
47.59105
 21
125.9889
 31
0.0
  0
LINE
  5
52
330
1E
100
AcDbEntity
  8
0
100
AcDbLine
 10
37.63225
 20
119.8765999999999
 30
0.0
 11
46.26315
 21
127.2512
 31
0.0
  0
LINE
  5
53
330
1E
100
AcDbEntity
  8
0
100
AcDbLine
 10
28.86855
 20
111.3061999999999
 30
0.0
 11
37.63225
 21
119.8765999999999
 31
0.0
  0
LINE
  5
54
330
1E
100
AcDbEntity
  8
0
100
AcDbLine
 10
20.30394999999999
 20
102.0048999999999
 30
0.0
 11
28.86855
 21
111.3061999999999
 31
0.0
  0
LINE
  5
55
330
1E
100
AcDbEntity
  8
0
100
AcDbLine
 10
14.46145
 20
94.4974
 30
0.0
 11
20.30394999999999
 21
102.0048999999999
 31
0.0
  0
LINE
  5
56
330
1E
100
AcDbEntity
  8
0
100
AcDbLine
 10
9.84735
 20
87.25570000000001
 30
0.0
 11
14.46145
 21
94.4974
 31
0.0
  0
LINE
  5
57
330
1E
100
AcDbEntity
  8
0
100
AcDbLine
 10
3.27464999999999
 20
71.5764
 30
0.0
 11
5.99664999999999
 21
79.2167
 31
0.0
  0
LINE
  5
58
330
1E
100
AcDbEntity
  8
0
100
AcDbLine
 10
1.813749999999989
 20
65.67116999999999
 30
0.0
 11
3.27464999999999
 21
71.5764
 31
0.0
  0
LINE
  5
59
330
1E
100
AcDbEntity
  8
0
100
AcDbLine
 10
43.47624999999999
 20
64.98861999999999
 30
0.0
 11
43.56444999999999
 21
65.31775
 31
0.0
  0
LINE
  5
5A
330
1E
100
AcDbEntity
  8
0
100
AcDbLine
 10
43.56444999999999
 20
65.31775
 30
0.0
 11
43.82305
 21
66.28270999999999
 31
0.0
  0
LINE
  5
5B
330
1E
100
AcDbEntity
  8
0
100
AcDbLine
 10
43.35035
 20
63.96224
 30
0.0
 11
43.47274999999999
 21
62.93555999999999
 31
0.0
  0
LINE
  5
5C
330
1E
100
AcDbEntity
  8
0
100
AcDbLine
 10
43.35035
 20
63.96224
 30
0.0
 11
43.47624999999999
 21
64.98861999999999
 31
0.0
  0
LINE
  5
5D
330
1E
100
AcDbEntity
  8
0
100
AcDbLine
 10
43.47274999999999
 20
62.93555999999999
 30
0.0
 11
43.87154999999999
 21
61.950814
 31
0.0
  0
LINE
  5
5E
330
1E
100
AcDbEntity
  8
0
100
AcDbLine
 10
51.10994999999999
 20
0.0000000000000096
 30
0.0
 11
64.03895
 21
1.5746
 31
0.0
  0
LINE
  5
5F
330
1E
100
AcDbEntity
  8
0
100
AcDbLine
 10
56.74495
 20
30.6063
 30
0.0
 11
61.67895
 21
32.5205
 31
0.0
  0
LINE
  5
60
330
1E
100
AcDbEntity
  8
0
100
AcDbLine
 10
51.63395
 20
29.9954
 30
0.0
 11
56.74495
 21
30.6063
 31
0.0
  0
LINE
  5
61
330
1E
100
AcDbEntity
  8
0
100
AcDbLine
 10
46.54695
 20
30.7843
 30
0.0
 11
51.63395
 21
29.9954
 31
0.0
  0
LINE
  5
62
330
1E
100
AcDbEntity
  8
0
100
AcDbLine
 10
49.3425
 20
60.48486
 30
0.0
 11
50.18018
 21
61.13832399999999
 31
0.0
  0
LINE
  5
63
330
1E
100
AcDbEntity
  8
0
100
AcDbLine
 10
48.35776
 20
60.08615
 30
0.0
 11
49.3425
 21
60.48486
 31
0.0
  0
LINE
  5
64
330
1E
100
AcDbEntity
  8
0
100
AcDbLine
 10
47.33105
 20
59.9637
 30
0.0
 11
48.35776
 21
60.08615
 31
0.0
  0
LINE
  5
65
330
1E
100
AcDbEntity
  8
0
100
AcDbLine
 10
46.30474999999999
 20
60.08964
 30
0.0
 11
47.33105
 21
59.9637
 31
0.0
  0
LINE
  5
66
330
1E
100
AcDbEntity
  8
0
100
AcDbLine
 10
44.23435
 20
67.81775
 30
0.0
 11
44.3546770172385
 21
68.2668436529583
 31
0.0
  0
LINE
  5
67
330
1E
100
AcDbEntity
  8
0
100
AcDbLine
 10
44.23435
 20
67.81775
 30
0.0
 11
44.77034999999999
 21
69.81825
 31
0.0
  0
LINE
  5
68
330
1E
100
AcDbEntity
  8
0
100
AcDbLine
 10
43.87154999999999
 20
61.950814
 30
0.0
 11
44.52494999999999
 21
61.113143
 31
0.0
  0
LINE
  5
69
330
1E
100
AcDbEntity
  8
0
100
AcDbLine
 10
51.29187
 20
63.2472
 30
0.0
 11
51.55043
 21
64.21216
 31
0.0
  0
LINE
  5
6A
330
1E
100
AcDbEntity
  8
0
100
AcDbLine
 10
51.20368
 20
62.91806
 30
0.0
 11
51.29187
 21
63.2472
 31
0.0
  0
LINE
  5
6B
330
1E
100
AcDbEntity
  8
0
100
AcDbLine
 10
51.55043
 20
64.21216
 30
0.0
 11
51.96174
 21
65.74720000000001
 31
0.0
  0
LINE
  5
6C
330
1E
100
AcDbEntity
  8
0
100
AcDbLine
 10
51.96174
 20
65.74720000000001
 30
0.0
 11
52.49778
 21
67.74769
 31
0.0
  0
LINE
  5
6D
330
1E
100
AcDbEntity
  8
0
100
AcDbLine
 10
57.41895
 20
69.2004
 30
0.0
 11
62.28295
 21
67.1152
 31
0.0
  0
LINE
  5
6E
330
1E
100
AcDbEntity
  8
0
100
AcDbLine
 10
52.49778
 20
67.74769
 30
0.0
 11
53.122
 21
70.07732
 31
0.0
  0
LINE
  5
6F
330
1E
100
AcDbEntity
  8
0
100
AcDbLine
 10
50.79956
 20
61.966226
 30
0.0
 11
51.20368
 21
62.91806
 31
0.0
  0
LINE
  5
70
330
1E
100
AcDbEntity
  8
0
100
AcDbLine
 10
50.18018
 20
61.13832399999999
 30
0.0
 11
50.79956
 21
61.966226
 31
0.0
  0
LINE
  5
71
330
1E
100
AcDbEntity
  8
0
100
AcDbLine
 10
53.06783631853179
 20
69.8751775866543
 30
0.0
 11
57.41895
 21
69.2004
 31
0.0
  0
LINE
  5
72
330
1E
100
AcDbEntity
  8
0
100
AcDbLine
 10
53.122
 20
70.07732
 30
0.0
 11
53.79186999999999
 21
72.57729999999999
 31
0.0
  0
LINE
  5
73
330
1E
100
AcDbEntity
  8
0
100
AcDbLine
 10
53.79186999999999
 20
72.57729999999999
 30
0.0
 11
67.25046
 21
122.8054999999999
 31
0.0
  0
LINE
  5
74
330
1E
100
AcDbEntity
  8
0
100
AcDbLine
 10
47.59105
 20
125.9889
 30
0.0
 11
53.72861999999999
 21
130.8023
 31
0.0
  0
LINE
  5
75
330
1E
100
AcDbEntity
  8
0
100
AcDbLine
 10
46.06444999999999
 20
74.6479
 30
0.0
 11
59.52306
 21
124.876
 31
0.0
  0
LINE
  5
76
330
1E
100
AcDbEntity
  8
0
100
AcDbLine
 10
45.39455
 20
72.1479
 30
0.0
 11
46.06444999999999
 21
74.6479
 31
0.0
  0
LINE
  5
77
330
1E
100
AcDbEntity
  8
0
100
AcDbLine
 10
44.77034999999999
 20
69.81825
 30
0.0
 11
45.39455
 21
72.1479
 31
0.0
  0
LINE
  5
78
330
1E
100
AcDbEntity
  8
0
100
AcDbLine
 10
44.52494999999999
 20
61.113143
 30
0.0
 11
45.35285
 21
60.49375999999999
 31
0.0
  0
LINE
  5
79
330
1E
100
AcDbEntity
  8
0
100
AcDbLine
 10
45.35285
 20
60.49375999999999
 30
0.0
 11
46.30474999999999
 21
60.08964
 31
0.0
  0
LINE
  5
7A
330
1E
100
AcDbEntity
  8
0
100
AcDbLine
 10
43.82305
 20
66.28270999999999
 30
0.0
 11
44.23435
 21
67.81775
 31
0.0
  0
LINE
  5
7B
330
1E
100
AcDbEntity
  8
0
100
AcDbLine
 10
57.97495
 20
127.156
 30
0.0
 11
58.159862
 21
127.0
 31
0.0
  0
LINE
  5
7C
330
1E
100
AcDbEntity
  8
0
100
AcDbLine
 10
57.97495
 20
127.156
 30
0.0
 11
57.97495
 21
127.39
 31
0.0
  0
LINE
  5
7D
330
1E
100
AcDbEntity
  8
0
100
AcDbLine
 10
58.159862
 20
127.0
 30
0.0
 11
58.47495
 21
127.0
 31
0.0
  0
LINE
  5
7E
330
1E
100
AcDbEntity
  8
0
100
AcDbLine
 10
58.159862
 20
127.0
 30
0.0
 11
58.159862
 21
127.234
 31
0.0
  0
LINE
  5
7F
330
1E
100
AcDbEntity
  8
0
100
AcDbLine
 10
46.26315
 20
127.2512
 30
0.0
 11
52.84861
 21
132.0170999999999
 31
0.0
  0
LINE
  5
80
330
1E
100
AcDbEntity
  8
0
100
AcDbLine
 10
57.97495
 20
127.39
 30
0.0
 11
57.97495
 21
127.156
 31
0.0
  0
LINE
  5
81
330
1E
100
AcDbEntity
  8
0
100
AcDbLine
 10
57.97495
 20
127.39
 30
0.0
 11
57.97495
 21
128.014
 31
0.0
  0
LINE
  5
82
330
1E
100
AcDbEntity
  8
0
100
AcDbLine
 10
57.97495
 20
128.014
 30
0.0
 11
57.97495
 21
127.39
 31
0.0
  0
LINE
  5
83
330
1E
100
AcDbEntity
  8
0
100
AcDbLine
 10
57.97495
 20
128.014
 30
0.0
 11
57.97495
 21
129.0279999999999
 31
0.0
  0
LINE
  5
84
330
1E
100
AcDbEntity
  8
0
100
AcDbLine
 10
58.159862
 20
127.234
 30
0.0
 11
58.159862
 21
127.0
 31
0.0
  0
LINE
  5
85
330
1E
100
AcDbEntity
  8
0
100
AcDbLine
 10
58.159862
 20
127.234
 30
0.0
 11
58.159862
 21
127.8579999999999
 31
0.0
  0
LINE
  5
86
330
1E
100
AcDbEntity
  8
0
100
AcDbLine
 10
58.159862
 20
127.8579999999999
 30
0.0
 11
58.159862
 21
127.234
 31
0.0
  0
LINE
  5
87
330
1E
100
AcDbEntity
  8
0
100
AcDbLine
 10
58.159862
 20
127.8579999999999
 30
0.0
 11
58.159862
 21
128.898
 31
0.0
  0
LINE
  5
88
330
1E
100
AcDbEntity
  8
0
100
AcDbLine
 10
53.72861999999999
 20
130.8023
 30
0.0
 11
56.0832314509974
 21
132.5081359860249
 31
0.0
  0
LINE
  5
89
330
1E
100
AcDbEntity
  8
0
100
AcDbLine
 10
53.72861999999999
 20
130.8023
 30
0.0
 11
56.0832314510054
 21
132.5081359860309
 31
0.0
  0
LINE
  5
8A
330
1E
100
AcDbEntity
  8
0
100
AcDbLine
 10
53.72861999999999
 20
130.8023
 30
0.0
 11
59.13191
 21
134.7168
 31
0.0
  0
LINE
  5
8B
330
1E
100
AcDbEntity
  8
0
100
AcDbLine
 10
57.97495
 20
129.0279999999999
 30
0.0
 11
57.97495
 21
128.014
 31
0.0
  0
LINE
  5
8C
330
1E
100
AcDbEntity
  8
0
100
AcDbLine
 10
57.97495
 20
129.0279999999999
 30
0.0
 11
57.97495
 21
130.3539999999999
 31
0.0
  0
LINE
  5
8D
330
1E
100
AcDbEntity
  8
0
100
AcDbLine
 10
57.97495
 20
130.3539999999999
 30
0.0
 11
57.97495
 21
129.0279999999999
 31
0.0
  0
LINE
  5
8E
330
1E
100
AcDbEntity
  8
0
100
AcDbLine
 10
57.97495
 20
130.3539999999999
 30
0.0
 11
57.97495
 21
131.8619999999999
 31
0.0
  0
LINE
  5
8F
330
1E
100
AcDbEntity
  8
0
100
AcDbLine
 10
58.159862
 20
128.898
 30
0.0
 11
58.159862
 21
127.8579999999999
 31
0.0
  0
LINE
  5
90
330
1E
100
AcDbEntity
  8
0
100
AcDbLine
 10
58.159862
 20
128.898
 30
0.0
 11
58.159862
 21
130.276
 31
0.0
  0
LINE
  5
91
330
1E
100
AcDbEntity
  8
0
100
AcDbLine
 10
58.159862
 20
130.276
 30
0.0
 11
58.159862
 21
128.898
 31
0.0
  0
LINE
  5
92
330
1E
100
AcDbEntity
  8
0
100
AcDbLine
 10
58.159862
 20
130.276
 30
0.0
 11
58.159862
 21
131.836
 31
0.0
  0
LINE
  5
93
330
1E
100
AcDbEntity
  8
0
100
AcDbLine
 10
52.84861
 20
132.0170999999999
 30
0.0
 11
58.251897
 21
135.9315
 31
0.0
  0
LINE
  5
94
330
1E
100
AcDbEntity
  8
0
100
AcDbLine
 10
56.0832314510013
 20
132.508135986028
 30
0.0
 11
56.14101999999999
 21
132.55
 31
0.0
  0
LINE
  5
95
330
1E
100
AcDbEntity
  8
0
100
AcDbLine
 10
56.14101999999999
 20
132.55
 30
0.0
 11
59.13195
 21
134.7168
 31
0.0
  0
LINE
  5
96
330
1E
100
AcDbEntity
  8
0
100
AcDbLine
 10
56.08323145099849
 20
132.5081359860259
 30
0.0
 11
56.14101999999999
 21
132.55
 31
0.0
  0
LINE
  5
97
330
1E
100
AcDbEntity
  8
0
100
AcDbLine
 10
57.97495
 20
135.730866323351
 30
0.0
 11
57.97495
 21
136.646
 31
0.0
  0
LINE
  5
98
330
1E
100
AcDbEntity
  8
0
100
AcDbLine
 10
57.97495
 20
139.8439999999999
 30
0.0
 11
57.97495
 21
139.61
 31
0.0
  0
LINE
  5
99
330
1E
100
AcDbEntity
  8
0
100
AcDbLine
 10
57.97495
 20
139.8439999999999
 30
0.0
 11
58.159862
 21
140.0
 31
0.0
  0
LINE
  5
9A
330
1E
100
AcDbEntity
  8
0
100
AcDbLine
 10
57.97495
 20
139.61
 30
0.0
 11
57.97495
 21
138.9859999999999
 31
0.0
  0
LINE
  5
9B
330
1E
100
AcDbEntity
  8
0
100
AcDbLine
 10
57.97495
 20
139.61
 30
0.0
 11
57.97495
 21
139.8439999999999
 31
0.0
  0
LINE
  5
9C
330
1E
100
AcDbEntity
  8
0
100
AcDbLine
 10
57.97495
 20
138.9859999999999
 30
0.0
 11
57.97495
 21
137.972
 31
0.0
  0
LINE
  5
9D
330
1E
100
AcDbEntity
  8
0
100
AcDbLine
 10
57.97495
 20
138.9859999999999
 30
0.0
 11
57.97495
 21
139.61
 31
0.0
  0
LINE
  5
9E
330
1E
100
AcDbEntity
  8
0
100
AcDbLine
 10
57.97495
 20
137.972
 30
0.0
 11
57.97495
 21
136.646
 31
0.0
  0
LINE
  5
9F
330
1E
100
AcDbEntity
  8
0
100
AcDbLine
 10
57.97495
 20
137.972
 30
0.0
 11
57.97495
 21
138.9859999999999
 31
0.0
  0
LINE
  5
A0
330
1E
100
AcDbEntity
  8
0
100
AcDbLine
 10
57.97495
 20
136.646
 30
0.0
 11
57.97495
 21
135.730866323351
 31
0.0
  0
LINE
  5
A1
330
1E
100
AcDbEntity
  8
0
100
AcDbLine
 10
57.97495
 20
136.646
 30
0.0
 11
57.97495
 21
137.972
 31
0.0
  0
LINE
  5
A2
330
1E
100
AcDbEntity
  8
0
100
AcDbLine
 10
57.97495
 20
133.8786033187
 30
0.0
 11
57.97495
 21
133.4999999999999
 31
0.0
  0
LINE
  5
A3
330
1E
100
AcDbEntity
  8
0
100
AcDbLine
 10
57.97495
 20
131.8619999999999
 30
0.0
 11
57.97495
 21
130.3539999999999
 31
0.0
  0
LINE
  5
A4
330
1E
100
AcDbEntity
  8
0
100
AcDbLine
 10
57.97495
 20
131.8619999999999
 30
0.0
 11
57.97495
 21
133.4999999999999
 31
0.0
  0
LINE
  5
A5
330
1E
100
AcDbEntity
  8
0
100
AcDbLine
 10
58.159862
 20
135.864825436165
 30
0.0
 11
58.159862
 21
136.724
 31
0.0
  0
LINE
  5
A6
330
1E
100
AcDbEntity
  8
0
100
AcDbLine
 10
58.159862
 20
140.0
 30
0.0
 11
58.159862
 21
139.7659999999999
 31
0.0
  0
LINE
  5
A7
330
1E
100
AcDbEntity
  8
0
100
AcDbLine
 10
58.159862
 20
140.0
 30
0.0
 11
58.47495
 21
140.0
 31
0.0
  0
LINE
  5
A8
330
1E
100
AcDbEntity
  8
0
100
AcDbLine
 10
58.159862
 20
139.7659999999999
 30
0.0
 11
58.159862
 21
139.1419999999999
 31
0.0
  0
LINE
  5
A9
330
1E
100
AcDbEntity
  8
0
100
AcDbLine
 10
58.159862
 20
139.7659999999999
 30
0.0
 11
58.159862
 21
140.0
 31
0.0
  0
LINE
  5
AA
330
1E
100
AcDbEntity
  8
0
100
AcDbLine
 10
58.159862
 20
139.1419999999999
 30
0.0
 11
58.159862
 21
138.102
 31
0.0
  0
LINE
  5
AB
330
1E
100
AcDbEntity
  8
0
100
AcDbLine
 10
58.159862
 20
139.1419999999999
 30
0.0
 11
58.159862
 21
139.7659999999999
 31
0.0
  0
LINE
  5
AC
330
1E
100
AcDbEntity
  8
0
100
AcDbLine
 10
58.159862
 20
138.102
 30
0.0
 11
58.159862
 21
136.724
 31
0.0
  0
LINE
  5
AD
330
1E
100
AcDbEntity
  8
0
100
AcDbLine
 10
58.159862
 20
138.102
 30
0.0
 11
58.159862
 21
139.1419999999999
 31
0.0
  0
LINE
  5
AE
330
1E
100
AcDbEntity
  8
0
100
AcDbLine
 10
58.159862
 20
136.724
 30
0.0
 11
58.159862
 21
135.864825436165
 31
0.0
  0
LINE
  5
AF
330
1E
100
AcDbEntity
  8
0
100
AcDbLine
 10
58.159862
 20
136.724
 30
0.0
 11
58.159862
 21
138.102
 31
0.0
  0
LINE
  5
B0
330
1E
100
AcDbEntity
  8
0
100
AcDbLine
 10
58.159862
 20
134.012564100664
 30
0.0
 11
58.159862
 21
133.4999999999999
 31
0.0
  0
LINE
  5
B1
330
1E
100
AcDbEntity
  8
0
100
AcDbLine
 10
57.97495
 20
133.4999999999999
 30
0.0
 11
57.97495
 21
131.8619999999999
 31
0.0
  0
LINE
  5
B2
330
1E
100
AcDbEntity
  8
0
100
AcDbLine
 10
57.97495
 20
133.4999999999999
 30
0.0
 11
57.97495
 21
133.8786033187
 31
0.0
  0
LINE
  5
B3
330
1E
100
AcDbEntity
  8
0
100
AcDbLine
 10
58.159862
 20
131.836
 30
0.0
 11
58.159862
 21
130.276
 31
0.0
  0
LINE
  5
B4
330
1E
100
AcDbEntity
  8
0
100
AcDbLine
 10
58.159862
 20
131.836
 30
0.0
 11
58.159862
 21
133.4999999999999
 31
0.0
  0
LINE
  5
B5
330
1E
100
AcDbEntity
  8
0
100
AcDbLine
 10
58.47495
 20
127.0
 30
0.0
 11
58.47495
 21
126.7479999999999
 31
0.0
  0
LINE
  5
B6
330
1E
100
AcDbEntity
  8
0
100
AcDbLine
 10
58.47495
 20
126.7479999999999
 30
0.0
 11
58.47495
 21
125.98
 31
0.0
  0
LINE
  5
B7
330
1E
100
AcDbEntity
  8
0
100
AcDbLine
 10
58.47495
 20
126.7479999999999
 30
0.0
 11
58.47495
 21
127.996
 31
0.0
  0
LINE
  5
B8
330
1E
100
AcDbEntity
  8
0
100
AcDbLine
 10
58.47495
 20
126.7479999999999
 30
0.0
 11
58.47495
 21
127.0
 31
0.0
  0
LINE
  5
B9
330
1E
100
AcDbEntity
  8
0
100
AcDbLine
 10
58.47495
 20
125.98
 30
0.0
 11
58.47495
 21
125.692
 31
0.0
  0
LINE
  5
BA
330
1E
100
AcDbEntity
  8
0
100
AcDbLine
 10
58.47495
 20
125.98
 30
0.0
 11
58.47495
 21
126.7479999999999
 31
0.0
  0
LINE
  5
BC
330
1E
100
AcDbEntity
  8
0
100
AcDbLine
 10
58.47495
 20
125.692
 30
0.0
 11
58.77494999999999
 21
125.5
 31
0.0
  0
LINE
  5
BD
330
1E
100
AcDbEntity
  8
0
100
AcDbLine
 10
58.47495
 20
125.692
 30
0.0
 11
58.47495
 21
125.98
 31
0.0
  0
LINE
  5
BE
330
1E
100
AcDbEntity
  8
0
100
AcDbLine
 10
58.251897
 20
135.9315
 30
0.0
 11
61.35173
 21
138.1771999999999
 31
0.0
  0
LINE
  5
BF
330
1E
100
AcDbEntity
  8
0
100
AcDbLine
 10
58.47495
 20
136.093092615505
 30
0.0
 11
58.47495
 21
137.372
 31
0.0
  0
LINE
  5
C0
330
1E
100
AcDbEntity
  8
0
100
AcDbLine
 10
58.47495
 20
134.240831789443
 30
0.0
 11
58.47495
 21
133.4999999999999
 31
0.0
  0
LINE
  5
C1
330
1E
100
AcDbEntity
  8
0
100
AcDbLine
 10
58.47495
 20
137.372
 30
0.0
 11
58.47495
 21
136.093092615505
 31
0.0
  0
LINE
  5
C2
330
1E
100
AcDbEntity
  8
0
100
AcDbLine
 10
58.47495
 20
137.372
 30
0.0
 11
58.47495
 21
139.0039999999999
 31
0.0
  0
LINE
  5
C3
330
1E
100
AcDbEntity
  8
0
100
AcDbLine
 10
58.47495
 20
139.0039999999999
 30
0.0
 11
58.47495
 21
137.372
 31
0.0
  0
LINE
  5
C4
330
1E
100
AcDbEntity
  8
0
100
AcDbLine
 10
58.47495
 20
139.0039999999999
 30
0.0
 11
58.47495
 21
140.252
 31
0.0
  0
LINE
  5
C5
330
1E
100
AcDbEntity
  8
0
100
AcDbLine
 10
58.47495
 20
133.4999999999999
 30
0.0
 11
58.47495
 21
131.484
 31
0.0
  0
LINE
  5
C6
330
1E
100
AcDbEntity
  8
0
100
AcDbLine
 10
58.47495
 20
133.4999999999999
 30
0.0
 11
58.47495
 21
134.240831789443
 31
0.0
  0
LINE
  5
C7
330
1E
100
AcDbEntity
  8
0
100
AcDbLine
 10
58.47495
 20
131.484
 30
0.0
 11
58.47495
 21
129.6279999999999
 31
0.0
  0
LINE
  5
C8
330
1E
100
AcDbEntity
  8
0
100
AcDbLine
 10
58.47495
 20
131.484
 30
0.0
 11
58.47495
 21
133.4999999999999
 31
0.0
  0
LINE
  5
CA
330
1E
100
AcDbEntity
  8
0
100
AcDbLine
 10
58.47495
 20
129.6279999999999
 30
0.0
 11
58.47495
 21
127.996
 31
0.0
  0
LINE
  5
CB
330
1E
100
AcDbEntity
  8
0
100
AcDbLine
 10
58.47495
 20
129.6279999999999
 30
0.0
 11
58.47495
 21
131.484
 31
0.0
  0
LINE
  5
CC
330
1E
100
AcDbEntity
  8
0
100
AcDbLine
 10
58.47495
 20
127.996
 30
0.0
 11
58.47495
 21
126.7479999999999
 31
0.0
  0
LINE
  5
CD
330
1E
100
AcDbEntity
  8
0
100
AcDbLine
 10
58.47495
 20
127.996
 30
0.0
 11
58.47495
 21
129.6279999999999
 31
0.0
  0
LINE
  5
D1
330
1E
100
AcDbEntity
  8
0
100
AcDbLine
 10
64.03895
 20
1.5746
 30
0.0
 11
76.12295
 21
6.2644
 31
0.0
  0
LINE
  5
D2
330
1E
100
AcDbEntity
  8
0
100
AcDbLine
 10
62.28295
 20
67.1152
 30
0.0
 11
66.32695
 21
63.84409999999999
 31
0.0
  0
LINE
  5
D3
330
1E
100
AcDbEntity
  8
0
100
AcDbLine
 10
65.72195
 20
97.95990000000001
 30
0.0
 11
77.63495
 21
92.8512
 31
0.0
  0
LINE
  5
D4
330
1E
100
AcDbEntity
  8
0
100
AcDbLine
 10
60.8006292462295
 20
98.73437597686409
 30
0.0
 11
65.72195
 21
97.95990000000001
 31
0.0
  0
LINE
  5
D5
330
1E
100
AcDbEntity
  8
0
100
AcDbLine
 10
66.32695
 20
63.84409999999999
 30
0.0
 11
69.45395000000001
 21
59.68893000000001
 31
0.0
  0
LINE
  5
D6
330
1E
100
AcDbEntity
  8
0
100
AcDbLine
 10
65.83395
 20
35.6484
 30
0.0
 11
69.10495
 21
39.692
 31
0.0
  0
LINE
  5
D7
330
1E
100
AcDbEntity
  8
0
100
AcDbLine
 10
61.67895
 20
32.5205
 30
0.0
 11
65.83395
 21
35.6484
 31
0.0
  0
LINE
  5
D8
330
1E
100
AcDbEntity
  8
0
100
AcDbLine
 10
86.66095
 20
14.0817
 30
0.0
 11
94.84095000000001
 21
24.3405
 31
0.0
  0
LINE
  5
D9
330
1E
100
AcDbEntity
  8
0
100
AcDbLine
 10
76.12295
 20
6.2644
 30
0.0
 11
86.66095
 21
14.0817
 31
0.0
  0
LINE
  5
DA
330
1E
100
AcDbEntity
  8
0
100
AcDbLine
 10
71.36894999999999
 20
54.75476999999999
 30
0.0
 11
71.97995
 21
49.6433
 31
0.0
  0
LINE
  5
DB
330
1E
100
AcDbEntity
  8
0
100
AcDbLine
 10
77.63495
 20
92.8512
 30
0.0
 11
87.89295
 21
84.6709
 31
0.0
  0
LINE
  5
DC
330
1E
100
AcDbEntity
  8
0
100
AcDbLine
 10
69.45395000000001
 20
59.68893000000001
 30
0.0
 11
71.36894999999999
 21
54.75476999999999
 31
0.0
  0
LINE
  5
DD
330
1E
100
AcDbEntity
  8
0
100
AcDbLine
 10
71.19095
 20
44.5563
 30
0.0
 11
71.97995
 21
49.6433
 31
0.0
  0
LINE
  5
DE
330
1E
100
AcDbEntity
  8
0
100
AcDbLine
 10
69.10495
 20
39.692
 30
0.0
 11
71.19095
 21
44.5563
 31
0.0
  0
LINE
  5
E2
330
1E
100
AcDbEntity
  8
0
100
AcDbLine
 10
86.97495000000001
 20
94.50969999999999
 30
0.0
 11
87.18925
 21
94.1529
 31
0.0
  0
LINE
  5
FB
330
1E
100
AcDbEntity
  8
0
100
AcDbLine
 10
87.89295
 20
84.6709
 30
0.0
 11
95.71094999999999
 21
74.1329
 31
0.0
  0
LINE
  5
FC
330
1E
100
AcDbEntity
  8
0
100
AcDbLine
 10
100.39995
 20
62.0492
 30
0.0
 11
101.97495
 21
49.11979999999999
 31
0.0
  0
LINE
  5
FD
330
1E
100
AcDbEntity
  8
0
100
AcDbLine
 10
95.71094999999999
 20
74.1329
 30
0.0
 11
100.39995
 21
62.0492
 31
0.0
  0
LINE
  5
FE
330
1E
100
AcDbEntity
  8
0
100
AcDbLine
 10
99.94995000000001
 20
36.2531
 30
0.0
 11
101.97495
 21
49.11979999999999
 31
0.0
  0
LINE
  5
FF
330
1E
100
AcDbEntity
  8
0
100
AcDbLine
 10
94.84095000000001
 20
24.3405
 30
0.0
 11
99.94995000000001
 21
36.2531
 31
0.0
  0
LINE
  5
100
330
1E
100
AcDbEntity
  8
0
100
AcDbLine
 10
101.97495
 20
94.0524
 30
0.0
 11
101.97495
 21
94.22349999999999
 31
0.0
  0
LINE
  5
101
330
1E
100
AcDbEntity
  8
0
100
AcDbLine
 10
101.97495
 20
94.0524
 30
0.0
 11
101.97495
 21
94.0
 31
0.0
  0
LINE
  5
102
330
1E
100
AcDbEntity
  8
0
100
AcDbLine
 10
101.97495
 20
94.0
 30
0.0
 11
101.97495
 21
94.0524
 31
0.0
  0
LINE
  5
103
330
1E
100
AcDbEntity
  8
0
100
AcDbLine
 10
87.68925000000001
 20
94.0
 30
0.0
 11
101.97495
 21
94.0
 31
0.0
  0
LINE
  5
124
330
1E
100
AcDbEntity
  8
0
100
AcDbLine
 10
101.97495
 20
99.6809
 30
0.0
 11
101.97495
 21
98.86740000000001
 31
0.0
  0
LINE
  5
125
330
1E
100
AcDbEntity
  8
0
100
AcDbLine
 10
101.97495
 20
99.6809
 30
0.0
 11
101.97495
 21
100.6197
 31
0.0
  0
LINE
  5
126
330
1E
100
AcDbEntity
  8
0
100
AcDbLine
 10
101.97495
 20
100.6197
 30
0.0
 11
101.97495
 21
99.6809
 31
0.0
  0
LINE
  5
127
330
1E
100
AcDbEntity
  8
0
100
AcDbLine
 10
101.97495
 20
100.6197
 30
0.0
 11
101.97495
 21
101.4988
 31
0.0
  0
LINE
  5
128
330
1E
100
AcDbEntity
  8
0
100
AcDbLine
 10
101.97495
 20
101.4988
 30
0.0
 11
101.97495
 21
100.6197
 31
0.0
  0
LINE
  5
129
330
1E
100
AcDbEntity
  8
0
100
AcDbLine
 10
101.97495
 20
101.4988
 30
0.0
 11
101.97495
 21
102.7278
 31
0.0
  0
LINE
  5
12A
330
1E
100
AcDbEntity
  8
0
100
AcDbLine
 10
101.97495
 20
102.7278
 30
0.0
 11
101.97495
 21
101.4988
 31
0.0
  0
LINE
  5
12B
330
1E
100
AcDbEntity
  8
0
100
AcDbLine
 10
101.97495
 20
102.7278
 30
0.0
 11
101.97495
 21
104.1530999999999
 31
0.0
  0
LINE
  5
12C
330
1E
100
AcDbEntity
  8
0
100
AcDbLine
 10
101.97495
 20
104.1530999999999
 30
0.0
 11
101.97495
 21
102.7278
 31
0.0
  0
LINE
  5
12D
330
1E
100
AcDbEntity
  8
0
100
AcDbLine
 10
101.97495
 20
104.1530999999999
 30
0.0
 11
101.97495
 21
105.8842
 31
0.0
  0
LINE
  5
12E
330
1E
100
AcDbEntity
  8
0
100
AcDbLine
 10
101.97495
 20
98.86740000000001
 30
0.0
 11
101.97495
 21
98.1487
 31
0.0
  0
LINE
  5
12F
330
1E
100
AcDbEntity
  8
0
100
AcDbLine
 10
101.97495
 20
98.86740000000001
 30
0.0
 11
101.97495
 21
99.6809
 31
0.0
  0
LINE
  5
130
330
1E
100
AcDbEntity
  8
0
100
AcDbLine
 10
101.97495
 20
98.1487
 30
0.0
 11
101.97495
 21
98.86740000000001
 31
0.0
  0
LINE
  5
131
330
1E
100
AcDbEntity
  8
0
100
AcDbLine
 10
101.97495
 20
98.1487
 30
0.0
 11
101.97495
 21
97.5253
 31
0.0
  0
LINE
  5
132
330
1E
100
AcDbEntity
  8
0
100
AcDbLine
 10
101.97495
 20
97.5253
 30
0.0
 11
101.97495
 21
98.1487
 31
0.0
  0
LINE
  5
133
330
1E
100
AcDbEntity
  8
0
100
AcDbLine
 10
101.97495
 20
97.5253
 30
0.0
 11
101.97495
 21
97.02150000000001
 31
0.0
  0
LINE
  5
134
330
1E
100
AcDbEntity
  8
0
100
AcDbLine
 10
101.97495
 20
97.02150000000001
 30
0.0
 11
101.97495
 21
97.5253
 31
0.0
  0
LINE
  5
135
330
1E
100
AcDbEntity
  8
0
100
AcDbLine
 10
101.97495
 20
97.02150000000001
 30
0.0
 11
101.97495
 21
96.5262
 31
0.0
  0
LINE
  5
136
330
1E
100
AcDbEntity
  8
0
100
AcDbLine
 10
101.97495
 20
96.5262
 30
0.0
 11
101.97495
 21
97.02150000000001
 31
0.0
  0
LINE
  5
137
330
1E
100
AcDbEntity
  8
0
100
AcDbLine
 10
101.97495
 20
96.5262
 30
0.0
 11
101.97495
 21
96.1761
 31
0.0
  0
LINE
  5
138
330
1E
100
AcDbEntity
  8
0
100
AcDbLine
 10
101.97495
 20
96.1761
 30
0.0
 11
101.97495
 21
96.5262
 31
0.0
  0
LINE
  5
139
330
1E
100
AcDbEntity
  8
0
100
AcDbLine
 10
101.97495
 20
96.1761
 30
0.0
 11
101.97495
 21
95.85649999999999
 31
0.0
  0
LINE
  5
13A
330
1E
100
AcDbEntity
  8
0
100
AcDbLine
 10
101.97495
 20
95.85649999999999
 30
0.0
 11
101.97495
 21
96.1761
 31
0.0
  0
LINE
  5
13B
330
1E
100
AcDbEntity
  8
0
100
AcDbLine
 10
101.97495
 20
95.85649999999999
 30
0.0
 11
101.97495
 21
95.4753
 31
0.0
  0
LINE
  5
13C
330
1E
100
AcDbEntity
  8
0
100
AcDbLine
 10
101.97495
 20
95.4753
 30
0.0
 11
101.97495
 21
95.85649999999999
 31
0.0
  0
LINE
  5
13D
330
1E
100
AcDbEntity
  8
0
100
AcDbLine
 10
101.97495
 20
95.4753
 30
0.0
 11
101.97495
 21
95.0087
 31
0.0
  0
LINE
  5
13E
330
1E
100
AcDbEntity
  8
0
100
AcDbLine
 10
101.97495
 20
95.0087
 30
0.0
 11
101.97495
 21
95.4753
 31
0.0
  0
LINE
  5
13F
330
1E
100
AcDbEntity
  8
0
100
AcDbLine
 10
101.97495
 20
95.0087
 30
0.0
 11
101.97495
 21
94.58
 31
0.0
  0
LINE
  5
140
330
1E
100
AcDbEntity
  8
0
100
AcDbLine
 10
101.97495
 20
94.58
 30
0.0
 11
101.97495
 21
95.0087
 31
0.0
  0
LINE
  5
141
330
1E
100
AcDbEntity
  8
0
100
AcDbLine
 10
101.97495
 20
94.58
 30
0.0
 11
101.97495
 21
94.22349999999999
 31
0.0
  0
LINE
  5
142
330
1E
100
AcDbEntity
  8
0
100
AcDbLine
 10
101.97495
 20
94.22349999999999
 30
0.0
 11
101.97495
 21
94.58
 31
0.0
  0
LINE
  5
143
330
1E
100
AcDbEntity
  8
0
100
AcDbLine
 10
101.97495
 20
94.22349999999999
 30
0.0
 11
101.97495
 21
94.0524
 31
0.0
  0
LINE
  5
144
330
1E
100
AcDbEntity
  8
0
100
AcDbLine
 10
101.97495
 20
109.0848
 30
0.0
 11
101.97495
 21
112.9971
 31
0.0
  0
LINE
  5
145
330
1E
100
AcDbEntity
  8
0
100
AcDbLine
 10
101.97495
 20
112.9971
 30
0.0
 11
101.97495
 21
109.0848
 31
0.0
  0
LINE
  5
146
330
1E
100
AcDbEntity
  8
0
100
AcDbLine
 10
101.97495
 20
112.9971
 30
0.0
 11
101.97495
 21
118.6676
 31
0.0
  0
LINE
  5
147
330
1E
100
AcDbEntity
  8
0
100
AcDbLine
 10
101.97495
 20
105.8842
 30
0.0
 11
101.97495
 21
109.0848
 31
0.0
  0
LINE
  5
148
330
1E
100
AcDbEntity
  8
0
100
AcDbLine
 10
101.97495
 20
105.8842
 30
0.0
 11
101.97495
 21
104.1530999999999
 31
0.0
  0
LINE
  5
14C
330
1E
100
AcDbEntity
  8
0
100
AcDbLine
 10
87.18925
 20
94.1529
 30
0.0
 11
87.68925000000001
 21
94.0
 31
0.0
  0
LINE
  5
152
330
1E
100
AcDbEntity
  8
0
100
AcDbLine
 10
101.97495
 20
118.6676
 30
0.0
 11
101.97495
 21
112.9971
 31
0.0
  0
LINE
  5
153
330
1E
100
AcDbEntity
  8
0
100
AcDbLine
 10
101.97495
 20
118.6676
 30
0.0
 11
101.97495
 21
125.1368999999999
 31
0.0
  0
LINE
  5
154
330
1E
100
AcDbEntity
  8
0
100
AcDbLine
 10
101.97495
 20
125.1368999999999
 30
0.0
 11
101.97495
 21
118.6676
 31
0.0
  0
LINE
  5
155
330
1E
100
AcDbEntity
  8
0
100
AcDbLine
 10
101.97495
 20
125.1368999999999
 30
0.0
 11
101.97495
 21
130.1314
 31
0.0
  0
LINE
  5
15E
330
1E
100
AcDbEntity
  8
0
100
AcDbLine
 10
67.25046
 20
122.8054999999999
 30
0.0
 11
67.92034
 21
125.3055
 31
0.0
  0
LINE
  5
15F
330
1E
100
AcDbEntity
  8
0
100
AcDbLine
 10
67.92034
 20
125.3055
 30
0.0
 11
68.54455
 21
127.6351
 31
0.0
  0
LINE
  5
160
330
1E
100
AcDbEntity
  8
0
100
AcDbLine
 10
59.52306
 20
124.876
 30
0.0
 11
60.19293000000001
 21
127.376
 31
0.0
  0
LINE
  5
161
330
1E
100
AcDbEntity
  8
0
100
AcDbLine
 10
59.13195
 20
134.7168
 30
0.0
 11
62.23175
 21
136.9623999999999
 31
0.0
  0
LINE
  5
162
330
1E
100
AcDbEntity
  8
0
100
AcDbLine
 10
59.13191
 20
134.7168
 30
0.0
 11
62.23175
 21
136.9623999999999
 31
0.0
  0
LINE
  5
163
330
1E
100
AcDbEntity
  8
0
100
AcDbLine
 10
59.50206999999999
 20
132.8859999999999
 30
0.0
 11
60.95698
 21
133.1986
 31
0.0
  0
LINE
  5
164
330
1E
100
AcDbEntity
  8
0
100
AcDbLine
 10
59.50206999999999
 20
132.8859999999999
 30
0.0
 11
60.71111
 21
129.6866
 31
0.0
  0
LINE
  5
165
330
1E
100
AcDbEntity
  8
0
100
AcDbLine
 10
60.71111
 20
129.6866
 30
0.0
 11
60.7941138401867
 21
129.619724956719
 31
0.0
  0
LINE
  5
166
330
1E
100
AcDbEntity
  8
0
100
AcDbLine
 10
68.5776271326841
 20
127.758552992415
 30
0.0
 11
69.78835
 21
128.2362
 31
0.0
  0
LINE
  5
167
330
1E
100
AcDbEntity
  8
0
100
AcDbLine
 10
68.5776271326841
 20
127.758552992415
 30
0.0
 11
69.78835
 21
128.2362
 31
0.0
  0
LINE
  5
168
330
1E
100
AcDbEntity
  8
0
100
AcDbLine
 10
68.54455
 20
127.6351
 30
0.0
 11
69.08055
 21
129.6356
 31
0.0
  0
LINE
  5
169
330
1E
100
AcDbEntity
  8
0
100
AcDbLine
 10
69.78835
 20
128.2362
 30
0.0
 11
71.83844999999999
 21
130.7067999999999
 31
0.0
  0
LINE
  5
16A
330
1E
100
AcDbEntity
  8
0
100
AcDbLine
 10
69.091409249577
 20
129.6761176181349
 30
0.0
 11
70.57705
 21
131.5038999999999
 31
0.0
  0
LINE
  5
16B
330
1E
100
AcDbEntity
  8
0
100
AcDbLine
 10
69.08055
 20
129.6356
 30
0.0
 11
69.49195
 21
131.1706
 31
0.0
  0
LINE
  5
16C
330
1E
100
AcDbEntity
  8
0
100
AcDbLine
 10
61.35173
 20
138.1771999999999
 30
0.0
 11
62.16155
 21
138.7638
 31
0.0
  0
LINE
  5
16D
330
1E
100
AcDbEntity
  8
0
100
AcDbLine
 10
60.95698
 20
133.1986
 30
0.0
 11
61.4177175831553
 21
131.9469626954719
 31
0.0
  0
LINE
  5
16E
330
1E
100
AcDbEntity
  8
0
100
AcDbLine
 10
69.49195
 20
131.1706
 30
0.0
 11
69.75045
 21
132.1356
 31
0.0
  0
LINE
  5
16F
330
1E
100
AcDbEntity
  8
0
100
AcDbLine
 10
69.75045
 20
132.1356
 30
0.0
 11
69.83865
 21
132.4646999999999
 31
0.0
  0
LINE
  5
170
330
1E
100
AcDbEntity
  8
0
100
AcDbLine
 10
101.97495
 20
130.1314
 30
0.0
 11
101.97495
 21
125.1368999999999
 31
0.0
  0
LINE
  5
171
330
1E
100
AcDbEntity
  8
0
100
AcDbLine
 10
101.97495
 20
130.1314
 30
0.0
 11
101.97495
 21
133.4999999999999
 31
0.0
  0
LINE
  5
176
330
1E
100
AcDbEntity
  8
0
100
AcDbLine
 10
71.83844999999999
 20
130.7067999999999
 30
0.0
 11
72.44785
 21
134.1139999999999
 31
0.0
  0
LINE
  5
177
330
1E
100
AcDbEntity
  8
0
100
AcDbLine
 10
70.57705
 20
131.5038999999999
 30
0.0
 11
70.99294999999999
 21
133.8014
 31
0.0
  0
LINE
  5
178
330
1E
100
AcDbEntity
  8
0
100
AcDbLine
 10
69.83865
 20
132.4646999999999
 30
0.0
 11
69.96455
 21
133.4910999999999
 31
0.0
  0
LINE
  5
179
330
1E
100
AcDbEntity
  8
0
100
AcDbLine
 10
62.11125
 20
134.5353
 30
0.0
 11
62.51536999999999
 21
135.4870999999999
 31
0.0
  0
LINE
  5
17A
330
1E
100
AcDbEntity
  8
0
100
AcDbLine
 10
62.23175
 20
136.9623999999999
 30
0.0
 11
63.04157
 21
137.5491
 31
0.0
  0
LINE
  5
17B
330
1E
100
AcDbEntity
  8
0
100
AcDbLine
 10
62.51536999999999
 20
135.4870999999999
 30
0.0
 11
63.13475
 21
136.315
 31
0.0
  0
LINE
  5
17C
330
1E
100
AcDbEntity
  8
0
100
AcDbLine
 10
63.13475
 20
136.315
 30
0.0
 11
63.97241999999999
 21
136.9685
 31
0.0
  0
LINE
  5
17D
330
1E
100
AcDbEntity
  8
0
100
AcDbLine
 10
63.97241999999999
 20
136.9685
 30
0.0
 11
64.95716999999999
 21
137.3672
 31
0.0
  0
LINE
  5
17E
330
1E
100
AcDbEntity
  8
0
100
AcDbLine
 10
101.97495
 20
133.4999999999999
 30
0.0
 11
101.97495
 21
130.1314
 31
0.0
  0
LINE
  5
17F
330
1E
100
AcDbEntity
  8
0
100
AcDbLine
 10
101.97495
 20
133.4999999999999
 30
0.0
 11
101.97495
 21
136.8685999999999
 31
0.0
  0
LINE
  5
184
330
1E
100
AcDbEntity
  8
0
100
AcDbLine
 10
69.84215
 20
134.5177999999999
 30
0.0
 11
69.96455
 21
133.4910999999999
 31
0.0
  0
LINE
  5
185
330
1E
100
AcDbEntity
  8
0
100
AcDbLine
 10
69.44345
 20
135.5024999999999
 30
0.0
 11
69.84215
 21
134.5177999999999
 31
0.0
  0
LINE
  5
188
330
1E
100
AcDbEntity
  8
0
100
AcDbLine
 10
101.97495
 20
136.8685999999999
 30
0.0
 11
101.97495
 21
141.8630999999999
 31
0.0
  0
LINE
  5
189
330
1E
100
AcDbEntity
  8
0
100
AcDbLine
 10
101.97495
 20
136.8685999999999
 30
0.0
 11
101.97495
 21
133.4999999999999
 31
0.0
  0
LINE
  5
18C
330
1E
100
AcDbEntity
  8
0
100
AcDbLine
 10
71.23874999999999
 20
137.3134
 30
0.0
 11
72.44785
 21
134.1139999999999
 31
0.0
  0
LINE
  5
18D
330
1E
100
AcDbEntity
  8
0
100
AcDbLine
 10
70.02405
 20
136.4334
 30
0.0
 11
70.99294999999999
 21
133.8014
 31
0.0
  0
LINE
  5
18E
330
1E
100
AcDbEntity
  8
0
100
AcDbLine
 10
68.78995
 20
136.3402
 30
0.0
 11
69.44345
 21
135.5024999999999
 31
0.0
  0
LINE
  5
18F
330
1E
100
AcDbEntity
  8
0
100
AcDbLine
 10
67.96205999999999
 20
136.9596
 30
0.0
 11
68.78995
 21
136.3402
 31
0.0
  0
LINE
  5
190
330
1E
100
AcDbEntity
  8
0
100
AcDbLine
 10
67.01023000000001
 20
137.3636999999999
 30
0.0
 11
67.96205999999999
 21
136.9596
 31
0.0
  0
LINE
  5
191
330
1E
100
AcDbEntity
  8
0
100
AcDbLine
 10
64.95716999999999
 20
137.3672
 30
0.0
 11
65.98385
 21
137.4895999999999
 31
0.0
  0
LINE
  5
192
330
1E
100
AcDbEntity
  8
0
100
AcDbLine
 10
62.16155
 20
138.7638
 30
0.0
 11
65.14801
 21
139.942
 31
0.0
  0
LINE
  5
193
330
1E
100
AcDbEntity
  8
0
100
AcDbLine
 10
67.82509000000001
 20
138.1742
 30
0.0
 11
70.02405
 21
136.4334
 31
0.0
  0
LINE
  5
194
330
1E
100
AcDbEntity
  8
0
100
AcDbLine
 10
65.51238999999999
 20
138.4948999999999
 30
0.0
 11
67.82509000000001
 21
138.1742
 31
0.0
  0
LINE
  5
195
330
1E
100
AcDbEntity
  8
0
100
AcDbLine
 10
63.04157
 20
137.5491
 30
0.0
 11
65.51238999999999
 21
138.4948999999999
 31
0.0
  0
LINE
  5
196
330
1E
100
AcDbEntity
  8
0
100
AcDbLine
 10
65.98385
 20
137.4895999999999
 30
0.0
 11
67.01023000000001
 21
137.3636999999999
 31
0.0
  0
LINE
  5
197
330
1E
100
AcDbEntity
  8
0
100
AcDbLine
 10
62.02306
 20
134.2060999999999
 30
0.0
 11
62.11125
 21
134.5353
 31
0.0
  0
LINE
  5
198
330
1E
100
AcDbEntity
  8
0
100
AcDbLine
 10
61.76449999999999
 20
133.2411999999999
 30
0.0
 11
62.02306
 21
134.2060999999999
 31
0.0
  0
LINE
  5
199
330
1E
100
AcDbEntity
  8
0
100
AcDbLine
 10
61.35318
 20
131.7061
 30
0.0
 11
61.76449999999999
 21
133.2411999999999
 31
0.0
  0
LINE
  5
19A
330
1E
100
AcDbEntity
  8
0
100
AcDbLine
 10
60.81714999999999
 20
129.7057
 30
0.0
 11
61.35318
 21
131.7061
 31
0.0
  0
LINE
  5
19B
330
1E
100
AcDbEntity
  8
0
100
AcDbLine
 10
60.19293000000001
 20
127.376
 30
0.0
 11
60.81714999999999
 21
129.7057
 31
0.0
  0
LINE
  5
19C
330
1E
100
AcDbEntity
  8
0
100
AcDbLine
 10
67.9724557473386
 20
125.5
 30
0.0
 11
86.97495000000001
 21
125.5
 31
0.0
  0
LINE
  5
19D
330
1E
100
AcDbEntity
  8
0
100
AcDbLine
 10
58.77494999999999
 20
125.5
 30
0.0
 11
59.690259552
 21
125.5
 31
0.0
  0
LINE
  5
19E
330
1E
100
AcDbEntity
  8
0
100
AcDbLine
 10
58.77494999999999
 20
125.5
 30
0.0
 11
59.690259552
 21
125.5
 31
0.0
  0
LINE
  5
19F
330
1E
100
AcDbEntity
  8
0
100
AcDbLine
 10
58.47495
 20
140.0
 30
0.0
 11
58.47495
 21
140.252
 31
0.0
  0
LINE
  5
1A0
330
1E
100
AcDbEntity
  8
0
100
AcDbLine
 10
58.47495
 20
140.252
 30
0.0
 11
58.47495
 21
139.0039999999999
 31
0.0
  0
LINE
  5
1A1
330
1E
100
AcDbEntity
  8
0
100
AcDbLine
 10
58.47495
 20
140.252
 30
0.0
 11
58.47495
 21
141.02
 31
0.0
  0
LINE
  5
1A2
330
1E
100
AcDbEntity
  8
0
100
AcDbLine
 10
58.47495
 20
140.252
 30
0.0
 11
58.47495
 21
140.0
 31
0.0
  0
LINE
  5
1A5
330
1E
100
AcDbEntity
  8
0
100
AcDbLine
 10
58.47495
 20
141.02
 30
0.0
 11
58.47495
 21
140.252
 31
0.0
  0
LINE
  5
1A6
330
1E
100
AcDbEntity
  8
0
100
AcDbLine
 10
58.47495
 20
141.02
 30
0.0
 11
58.47495
 21
141.3079999999999
 31
0.0
  0
LINE
  5
1A7
330
1E
100
AcDbEntity
  8
0
100
AcDbLine
 10
58.47495
 20
141.3079999999999
 30
0.0
 11
58.47495
 21
141.02
 31
0.0
  0
LINE
  5
1A8
330
1E
100
AcDbEntity
  8
0
100
AcDbLine
 10
58.47495
 20
141.3079999999999
 30
0.0
 11
58.77494999999999
 21
141.5
 31
0.0
  0
LINE
  5
1AA
330
1E
100
AcDbEntity
  8
0
100
AcDbLine
 10
68.57545
 20
139.4592
 30
0.0
 11
71.23874999999999
 21
137.3134
 31
0.0
  0
LINE
  5
1BD
330
1E
100
AcDbEntity
  8
0
100
AcDbLine
 10
86.97495000000001
 20
94.50969999999999
 30
0.0
 11
86.97495000000001
 21
168.502
 31
0.0
  0
LINE
  5
1BF
330
1E
100
AcDbEntity
  8
0
100
AcDbLine
 10
86.97495000000001
 20
169.5959999999999
 30
0.0
 11
86.97495000000001
 21
170.05
 31
0.0
  0
LINE
  5
1C0
330
1E
100
AcDbEntity
  8
0
100
AcDbLine
 10
86.97495000000001
 20
169.5959999999999
 30
0.0
 11
86.97495000000001
 21
169.101
 31
0.0
  0
LINE
  5
1C1
330
1E
100
AcDbEntity
  8
0
100
AcDbLine
 10
86.97495000000001
 20
169.101
 30
0.0
 11
86.97495000000001
 21
168.502
 31
0.0
  0
LINE
  5
1C2
330
1E
100
AcDbEntity
  8
0
100
AcDbLine
 10
86.97495000000001
 20
169.101
 30
0.0
 11
86.97495000000001
 21
169.5959999999999
 31
0.0
  0
LINE
  5
1C3
330
1E
100
AcDbEntity
  8
0
100
AcDbLine
 10
86.97495000000001
 20
168.502
 30
0.0
 11
86.97495000000001
 21
169.101
 31
0.0
  0
LINE
  5
1C4
330
1E
100
AcDbEntity
  8
0
100
AcDbLine
 10
86.97495000000001
 20
168.502
 30
0.0
 11
86.97495000000001
 21
94.50969999999999
 31
0.0
  0
LINE
  5
1C5
330
1E
100
AcDbEntity
  8
0
100
AcDbLine
 10
86.97495000000001
 20
170.05
 30
0.0
 11
86.97495000000001
 21
170.3809999999999
 31
0.0
  0
LINE
  5
1C6
330
1E
100
AcDbEntity
  8
0
100
AcDbLine
 10
86.97495000000001
 20
170.05
 30
0.0
 11
86.97495000000001
 21
169.5959999999999
 31
0.0
  0
LINE
  5
1C7
330
1E
100
AcDbEntity
  8
0
100
AcDbLine
 10
86.97495000000001
 20
170.3809999999999
 30
0.0
 11
86.97495000000001
 21
170.674
 31
0.0
  0
LINE
  5
1C8
330
1E
100
AcDbEntity
  8
0
100
AcDbLine
 10
86.97495000000001
 20
170.3809999999999
 30
0.0
 11
86.97495000000001
 21
170.05
 31
0.0
  0
LINE
  5
1C9
330
1E
100
AcDbEntity
  8
0
100
AcDbLine
 10
86.97495000000001
 20
170.674
 30
0.0
 11
86.97495000000001
 21
171.0959999999999
 31
0.0
  0
LINE
  5
1CA
330
1E
100
AcDbEntity
  8
0
100
AcDbLine
 10
86.97495000000001
 20
170.674
 30
0.0
 11
86.97495000000001
 21
170.3809999999999
 31
0.0
  0
LINE
  5
1CB
330
1E
100
AcDbEntity
  8
0
100
AcDbLine
 10
86.97495000000001
 20
172.277
 30
0.0
 11
86.97495000000001
 21
172.49
 31
0.0
  0
LINE
  5
1CC
330
1E
100
AcDbEntity
  8
0
100
AcDbLine
 10
86.97495000000001
 20
172.277
 30
0.0
 11
86.97495000000001
 21
171.95
 31
0.0
  0
LINE
  5
1CD
330
1E
100
AcDbEntity
  8
0
100
AcDbLine
 10
86.97495000000001
 20
172.49
 30
0.0
 11
86.97495000000001
 21
172.277
 31
0.0
  0
LINE
  5
1CE
330
1E
100
AcDbEntity
  8
0
100
AcDbLine
 10
86.97495000000001
 20
171.95
 30
0.0
 11
86.97495000000001
 21
171.537
 31
0.0
  0
LINE
  5
1CF
330
1E
100
AcDbEntity
  8
0
100
AcDbLine
 10
86.97495000000001
 20
171.95
 30
0.0
 11
86.97495000000001
 21
172.277
 31
0.0
  0
LINE
  5
1D0
330
1E
100
AcDbEntity
  8
0
100
AcDbLine
 10
86.97495000000001
 20
171.0959999999999
 30
0.0
 11
86.97495000000001
 21
171.537
 31
0.0
  0
LINE
  5
1D1
330
1E
100
AcDbEntity
  8
0
100
AcDbLine
 10
86.97495000000001
 20
171.0959999999999
 30
0.0
 11
86.97495000000001
 21
170.674
 31
0.0
  0
LINE
  5
1F6
330
1E
100
AcDbEntity
  8
0
100
AcDbLine
 10
86.97495000000001
 20
171.537
 30
0.0
 11
86.97495000000001
 21
171.95
 31
0.0
  0
LINE
  5
1F7
330
1E
100
AcDbEntity
  8
0
100
AcDbLine
 10
86.97495000000001
 20
171.537
 30
0.0
 11
86.97495000000001
 21
171.0959999999999
 31
0.0
  0
LINE
  5
1FC
330
1E
100
AcDbEntity
  8
0
100
AcDbLine
 10
86.97495000000001
 20
172.49
 30
0.0
 11
87.18925
 21
172.847
 31
0.0
  0
LINE
  5
1FD
330
1E
100
AcDbEntity
  8
0
100
AcDbLine
 10
101.97495
 20
168.8509999999999
 30
0.0
 11
101.97495
 21
168.1329999999999
 31
0.0
  0
LINE
  5
1FE
330
1E
100
AcDbEntity
  8
0
100
AcDbLine
 10
101.97495
 20
168.8509999999999
 30
0.0
 11
101.97495
 21
169.4749999999999
 31
0.0
  0
LINE
  5
1FF
330
1E
100
AcDbEntity
  8
0
100
AcDbLine
 10
101.97495
 20
169.4749999999999
 30
0.0
 11
101.97495
 21
168.8509999999999
 31
0.0
  0
LINE
  5
200
330
1E
100
AcDbEntity
  8
0
100
AcDbLine
 10
101.97495
 20
169.4749999999999
 30
0.0
 11
101.97495
 21
169.979
 31
0.0
  0
LINE
  5
201
330
1E
100
AcDbEntity
  8
0
100
AcDbLine
 10
101.97495
 20
169.979
 30
0.0
 11
101.97495
 21
169.4749999999999
 31
0.0
  0
LINE
  5
202
330
1E
100
AcDbEntity
  8
0
100
AcDbLine
 10
101.97495
 20
169.979
 30
0.0
 11
101.97495
 21
170.474
 31
0.0
  0
LINE
  5
203
330
1E
100
AcDbEntity
  8
0
100
AcDbLine
 10
101.97495
 20
170.474
 30
0.0
 11
101.97495
 21
169.979
 31
0.0
  0
LINE
  5
204
330
1E
100
AcDbEntity
  8
0
100
AcDbLine
 10
101.97495
 20
170.474
 30
0.0
 11
101.97495
 21
170.824
 31
0.0
  0
LINE
  5
205
330
1E
100
AcDbEntity
  8
0
100
AcDbLine
 10
101.97495
 20
170.824
 30
0.0
 11
101.97495
 21
170.474
 31
0.0
  0
LINE
  5
206
330
1E
100
AcDbEntity
  8
0
100
AcDbLine
 10
101.97495
 20
170.824
 30
0.0
 11
101.97495
 21
171.144
 31
0.0
  0
LINE
  5
207
330
1E
100
AcDbEntity
  8
0
100
AcDbLine
 10
101.97495
 20
171.144
 30
0.0
 11
101.97495
 21
170.824
 31
0.0
  0
LINE
  5
208
330
1E
100
AcDbEntity
  8
0
100
AcDbLine
 10
101.97495
 20
171.144
 30
0.0
 11
101.97495
 21
171.525
 31
0.0
  0
LINE
  5
209
330
1E
100
AcDbEntity
  8
0
100
AcDbLine
 10
101.97495
 20
171.525
 30
0.0
 11
101.97495
 21
171.144
 31
0.0
  0
LINE
  5
20A
330
1E
100
AcDbEntity
  8
0
100
AcDbLine
 10
101.97495
 20
171.525
 30
0.0
 11
101.97495
 21
171.9909999999999
 31
0.0
  0
LINE
  5
20B
330
1E
100
AcDbEntity
  8
0
100
AcDbLine
 10
101.97495
 20
171.9909999999999
 30
0.0
 11
101.97495
 21
171.525
 31
0.0
  0
LINE
  5
20C
330
1E
100
AcDbEntity
  8
0
100
AcDbLine
 10
101.97495
 20
171.9909999999999
 30
0.0
 11
101.97495
 21
172.4199999999999
 31
0.0
  0
LINE
  5
20D
330
1E
100
AcDbEntity
  8
0
100
AcDbLine
 10
101.97495
 20
172.4199999999999
 30
0.0
 11
101.97495
 21
171.9909999999999
 31
0.0
  0
LINE
  5
20E
330
1E
100
AcDbEntity
  8
0
100
AcDbLine
 10
101.97495
 20
172.4199999999999
 30
0.0
 11
101.97495
 21
172.7759999999999
 31
0.0
  0
LINE
  5
20F
330
1E
100
AcDbEntity
  8
0
100
AcDbLine
 10
101.97495
 20
172.7759999999999
 30
0.0
 11
101.97495
 21
172.4199999999999
 31
0.0
  0
LINE
  5
210
330
1E
100
AcDbEntity
  8
0
100
AcDbLine
 10
101.97495
 20
172.7759999999999
 30
0.0
 11
101.97495
 21
172.9479999999999
 31
0.0
  0
LINE
  5
211
330
1E
100
AcDbEntity
  8
0
100
AcDbLine
 10
101.97495
 20
172.9479999999999
 30
0.0
 11
101.97495
 21
172.7759999999999
 31
0.0
  0
LINE
  5
212
330
1E
100
AcDbEntity
  8
0
100
AcDbLine
 10
101.97495
 20
172.9479999999999
 30
0.0
 11
101.97495
 21
173.0
 31
0.0
  0
LINE
  5
213
330
1E
100
AcDbEntity
  8
0
100
AcDbLine
 10
101.97495
 20
173.0
 30
0.0
 11
101.97495
 21
172.9479999999999
 31
0.0
  0
LINE
  5
214
330
1E
100
AcDbEntity
  8
0
100
AcDbLine
 10
101.97495
 20
168.1329999999999
 30
0.0
 11
101.97495
 21
167.319
 31
0.0
  0
LINE
  5
215
330
1E
100
AcDbEntity
  8
0
100
AcDbLine
 10
101.97495
 20
168.1329999999999
 30
0.0
 11
101.97495
 21
168.8509999999999
 31
0.0
  0
LINE
  5
216
330
1E
100
AcDbEntity
  8
0
100
AcDbLine
 10
101.97495
 20
167.319
 30
0.0
 11
101.97495
 21
168.1329999999999
 31
0.0
  0
LINE
  5
217
330
1E
100
AcDbEntity
  8
0
100
AcDbLine
 10
101.97495
 20
167.319
 30
0.0
 11
101.97495
 21
166.3799999999999
 31
0.0
  0
LINE
  5
218
330
1E
100
AcDbEntity
  8
0
100
AcDbLine
 10
101.97495
 20
166.3799999999999
 30
0.0
 11
101.97495
 21
167.319
 31
0.0
  0
LINE
  5
219
330
1E
100
AcDbEntity
  8
0
100
AcDbLine
 10
101.97495
 20
166.3799999999999
 30
0.0
 11
101.97495
 21
165.5009999999999
 31
0.0
  0
LINE
  5
21A
330
1E
100
AcDbEntity
  8
0
100
AcDbLine
 10
101.97495
 20
165.5009999999999
 30
0.0
 11
101.97495
 21
166.3799999999999
 31
0.0
  0
LINE
  5
21B
330
1E
100
AcDbEntity
  8
0
100
AcDbLine
 10
101.97495
 20
165.5009999999999
 30
0.0
 11
101.97495
 21
164.272
 31
0.0
  0
LINE
  5
21C
330
1E
100
AcDbEntity
  8
0
100
AcDbLine
 10
101.97495
 20
164.272
 30
0.0
 11
101.97495
 21
165.5009999999999
 31
0.0
  0
LINE
  5
21D
330
1E
100
AcDbEntity
  8
0
100
AcDbLine
 10
101.97495
 20
164.272
 30
0.0
 11
101.97495
 21
162.847
 31
0.0
  0
LINE
  5
21E
330
1E
100
AcDbEntity
  8
0
100
AcDbLine
 10
101.97495
 20
162.847
 30
0.0
 11
101.97495
 21
164.272
 31
0.0
  0
LINE
  5
21F
330
1E
100
AcDbEntity
  8
0
100
AcDbLine
 10
101.97495
 20
162.847
 30
0.0
 11
101.97495
 21
161.1158
 31
0.0
  0
LINE
  5
220
330
1E
100
AcDbEntity
  8
0
100
AcDbLine
 10
101.97495
 20
161.1158
 30
0.0
 11
101.97495
 21
162.847
 31
0.0
  0
LINE
  5
221
330
1E
100
AcDbEntity
  8
0
100
AcDbLine
 10
101.97495
 20
161.1158
 30
0.0
 11
101.97495
 21
157.9152
 31
0.0
  0
LINE
  5
222
330
1E
100
AcDbEntity
  8
0
100
AcDbLine
 10
101.97495
 20
157.9152
 30
0.0
 11
101.97495
 21
161.1158
 31
0.0
  0
LINE
  5
223
330
1E
100
AcDbEntity
  8
0
100
AcDbLine
 10
101.97495
 20
157.9152
 30
0.0
 11
101.97495
 21
154.0029
 31
0.0
  0
LINE
  5
224
330
1E
100
AcDbEntity
  8
0
100
AcDbLine
 10
101.97495
 20
154.0029
 30
0.0
 11
101.97495
 21
157.9152
 31
0.0
  0
LINE
  5
225
330
1E
100
AcDbEntity
  8
0
100
AcDbLine
 10
101.97495
 20
154.0029
 30
0.0
 11
101.97495
 21
148.3324
 31
0.0
  0
LINE
  5
226
330
1E
100
AcDbEntity
  8
0
100
AcDbLine
 10
101.97495
 20
148.3324
 30
0.0
 11
101.97495
 21
154.0029
 31
0.0
  0
LINE
  5
227
330
1E
100
AcDbEntity
  8
0
100
AcDbLine
 10
101.97495
 20
148.3324
 30
0.0
 11
101.97495
 21
141.8630999999999
 31
0.0
  0
LINE
  5
228
330
1E
100
AcDbEntity
  8
0
100
AcDbLine
 10
101.97495
 20
141.8630999999999
 30
0.0
 11
101.97495
 21
148.3324
 31
0.0
  0
LINE
  5
229
330
1E
100
AcDbEntity
  8
0
100
AcDbLine
 10
101.97495
 20
141.8630999999999
 30
0.0
 11
101.97495
 21
136.8685999999999
 31
0.0
  0
LINE
  5
22A
330
1E
100
AcDbEntity
  8
0
100
AcDbLine
 10
87.68925000000001
 20
173.0
 30
0.0
 11
101.97495
 21
173.0
 31
0.0
  0
LINE
  5
22B
330
1E
100
AcDbEntity
  8
0
100
AcDbLine
 10
87.18925
 20
172.847
 30
0.0
 11
87.68925000000001
 21
173.0
 31
0.0
  0
LINE
  5
22D
330
1E
100
AcDbEntity
  8
0
100
AcDbLine
 10
65.14801
 20
139.942
 30
0.0
 11
68.57545
 21
139.4592
 31
0.0
  0
LINE
  5
22E
330
1E
100
AcDbEntity
  8
0
100
AcDbLine
 10
58.77494999999999
 20
141.5
 30
0.0
 11
86.97495000000001
 21
141.5
 31
0.0
  0
LINE
  5
22F
330
1E
100
AcDbEntity
  8
0
100
AcDbLine
 10
58.159862
 20
133.4999999999999
 30
0.0
 11
58.159862
 21
131.836
 31
0.0
  0
LINE
  5
230
330
1E
100
AcDbEntity
  8
0
100
AcDbLine
 10
58.159862
 20
133.4999999999999
 30
0.0
 11
58.159862
 21
134.012564100664
 31
0.0
  0
ENDSEC
  0
SECTION
  2
OBJECTS
  0
DICTIONARY
  5
C
330
0
100
AcDbDictionary
281
     1
  3
ACAD_GROUP
350
D
  3
ACAD_LAYOUT
350
19
  3
ACAD_MLINESTYLE
350
16
  3
ACAD_PLOTSETTINGS
350
18
  3
ACAD_PLOTSTYLENAME
350
E
  3
AcDbVariableDictionary
350
235
  0
DICTIONARY
  5
D
102
{ACAD_REACTORS
330
C
102
}
330
C
100
AcDbDictionary
281
     1
  0
DICTIONARY
  5
19
102
{ACAD_REACTORS
330
C
102
}
330
C
100
AcDbDictionary
281
     1
  3
Layout1
350
1D
  3
Model
350
21
  0
DICTIONARY
  5
16
102
{ACAD_REACTORS
330
C
102
}
330
C
100
AcDbDictionary
281
     1
  3
Standard
350
17
  0
DICTIONARY
  5
18
102
{ACAD_REACTORS
330
C
102
}
330
C
100
AcDbDictionary
281
     1
  0
ACDBDICTIONARYWDFLT
  5
E
102
{ACAD_REACTORS
330
C
102
}
330
C
100
AcDbDictionary
281
     1
  3
Normal
350
F
100
AcDbDictionaryWithDefault
340
F
  0
DICTIONARY
  5
235
102
{ACAD_REACTORS
330
C
102
}
330
C
100
AcDbDictionary
281
     1
  3
DIMASSOC
350
236
  0
LAYOUT
  5
1D
102
{ACAD_REACTORS
330
19
102
}
330
19
100
AcDbPlotSettings
  1

  2
hp deskjet 980c series
  4

  6

 40
0.0
 41
0.0
 42
0.0
 43
0.0
 44
0.0
 45
0.0
 46
0.0
 47
0.0
 48
0.0
 49
0.0
140
0.0
141
0.0
142
1.0
143
1.0
 70
   688
 72
     0
 73
     0
 74
     5
  7

 75
    16
147
1.0
148
0.0
149
0.0
100
AcDbLayout
  1
Layout1
 70
     1
 71
     1
 10
0.0
 20
0.0
 11
12.0
 21
9.0
 12
0.0
 22
0.0
 32
0.0
 14
1.000000000000000E+20
 24
1.000000000000000E+20
 34
1.000000000000000E+20
 15
-1.000000000000000E+20
 25
-1.000000000000000E+20
 35
-1.000000000000000E+20
146
0.0
 13
0.0
 23
0.0
 33
0.0
 16
1.0
 26
0.0
 36
0.0
 17
0.0
 27
1.0
 37
0.0
 76
     0
330
1A
  0
LAYOUT
  5
21
102
{ACAD_REACTORS
330
19
102
}
330
19
100
AcDbPlotSettings
  1

  2
hp deskjet 980c series
  4

  6

 40
0.0
 41
0.0
 42
0.0
 43
0.0
 44
0.0
 45
0.0
 46
0.0
 47
0.0
 48
0.0
 49
0.0
140
0.0
141
0.0
142
1.0
143
1.0
 70
  1712
 72
     0
 73
     0
 74
     0
  7

 75
     0
147
1.0
148
0.0
149
0.0
100
AcDbLayout
  1
Model
 70
     1
 71
     0
 10
0.0
 20
0.0
 11
12.0
 21
9.0
 12
0.0
 22
0.0
 32
0.0
 14
0.0
 24
0.0
 34
0.0
 15
0.0
 25
0.0
 35
0.0
146
0.0
 13
0.0
 23
0.0
 33
0.0
 16
1.0
 26
0.0
 36
0.0
 17
0.0
 27
1.0
 37
0.0
 76
     0
330
1E
  0
MLINESTYLE
  5
17
102
{ACAD_REACTORS
330
16
102
}
330
16
100
AcDbMlineStyle
  2
STANDARD
 70
     0
  3

 62
   256
 51
90.0
 52
90.0
 71
     2
 49
0.5
 62
   256
  6
BYLAYER
 49
-0.5
 62
   256
  6
BYLAYER
  0
ACDBPLACEHOLDER
  5
F
102
{ACAD_REACTORS
330
E
102
}
330
E
  0
DICTIONARYVAR
  5
236
102
{ACAD_REACTORS
330
235
102
}
330
235
100
DictionaryVariables
280
     0
  1
1
  0
ENDSEC
  0
EOF
