  0
SECTION
  2
HEADER
  9
$ACADVER
  1
AC1015
  9
$ACADMAINTVER
 70
    13
  9
$DWGCODEPAGE
  3
ANSI_1252
  9
$INSBASE
 10
0.0
 20
0.0
 30
0.0
  9
$EXTMIN
 10
5.0
 20
-0.2079850000000039
 30
0.0
  9
$EXTMAX
 10
155.0
 20
80.20798499999999
 30
0.0
  9
$LIMMIN
 10
0.0
 20
0.0
  9
$LIMMAX
 10
12.0
 20
9.0
  9
$ORTHOMODE
 70
     0
  9
$REGENMODE
 70
     1
  9
$FILLMODE
 70
     1
  9
$QTEXTMODE
 70
     0
  9
$MIRRTEXT
 70
     1
  9
$LTSCALE
 40
1.0
  9
$ATTMODE
 70
     1
  9
$TEXTSIZE
 40
0.2
  9
$TRACEWID
 40
0.05
  9
$TEXTSTYLE
  7
Standard
  9
$CLAYER
  8
0
  9
$CELTYPE
  6
Continuous
  9
$CECOLOR
 62
   256
  9
$CELTSCALE
 40
1.0
  9
$DISPSILH
 70
     0
  9
$DIMSCALE
 40
1.0
  9
$DIMASZ
 40
0.18
  9
$DIMEXO
 40
0.0625
  9
$DIMDLI
 40
0.38
  9
$DIMRND
 40
0.0
  9
$DIMDLE
 40
0.0
  9
$DIMEXE
 40
0.18
  9
$DIMTP
 40
0.0
  9
$DIMTM
 40
0.0
  9
$DIMTXT
 40
0.18
  9
$DIMCEN
 40
0.09
  9
$DIMTSZ
 40
0.0
  9
$DIMTOL
 70
     0
  9
$DIMLIM
 70
     0
  9
$DIMTIH
 70
     1
  9
$DIMTOH
 70
     1
  9
$DIMSE1
 70
     0
  9
$DIMSE2
 70
     0
  9
$DIMTAD
 70
     0
  9
$DIMZIN
 70
     0
  9
$DIMBLK
  1

  9
$DIMASO
 70
     1
  9
$DIMSHO
 70
     1
  9
$DIMPOST
  1

  9
$DIMAPOST
  1

  9
$DIMALT
 70
     0
  9
$DIMALTD
 70
     2
  9
$DIMALTF
 40
25.4
  9
$DIMLFAC
 40
1.0
  9
$DIMTOFL
 70
     0
  9
$DIMTVP
 40
0.0
  9
$DIMTIX
 70
     0
  9
$DIMSOXD
 70
     0
  9
$DIMSAH
 70
     0
  9
$DIMBLK1
  1

  9
$DIMBLK2
  1

  9
$DIMSTYLE
  2
Standard
  9
$DIMCLRD
 70
     0
  9
$DIMCLRE
 70
     0
  9
$DIMCLRT
 70
     0
  9
$DIMTFAC
 40
1.0
  9
$DIMGAP
 40
0.09
  9
$DIMJUST
 70
     0
  9
$DIMSD1
 70
     0
  9
$DIMSD2
 70
     0
  9
$DIMTOLJ
 70
     1
  9
$DIMTZIN
 70
     0
  9
$DIMALTZ
 70
     0
  9
$DIMALTTZ
 70
     0
  9
$DIMUPT
 70
     0
  9
$DIMDEC
 70
     4
  9
$DIMTDEC
 70
     4
  9
$DIMALTU
 70
     2
  9
$DIMALTTD
 70
     2
  9
$DIMTXSTY
  7
Standard
  9
$DIMAUNIT
 70
     0
  9
$DIMADEC
 70
     0
  9
$DIMALTRND
 40
0.0
  9
$DIMAZIN
 70
     0
  9
$DIMDSEP
 70
    46
  9
$DIMATFIT
 70
     3
  9
$DIMFRAC
 70
     0
  9
$DIMLDRBLK
  1

  9
$DIMLUNIT
 70
     2
  9
$DIMLWD
 70
    -2
  9
$DIMLWE
 70
    -2
  9
$DIMTMOVE
 70
     0
  9
$LUNITS
 70
     2
  9
$LUPREC
 70
     4
  9
$SKETCHINC
 40
0.1
  9
$FILLETRAD
 40
0.0
  9
$AUNITS
 70
     0
  9
$AUPREC
 70
     0
  9
$MENU
  1
.
  9
$ELEVATION
 40
0.0
  9
$PELEVATION
 40
0.0
  9
$THICKNESS
 40
0.0
  9
$LIMCHECK
 70
     0
  9
$CHAMFERA
 40
0.0
  9
$CHAMFERB
 40
0.0
  9
$CHAMFERC
 40
0.0
  9
$CHAMFERD
 40
0.0
  9
$SKPOLY
 70
     0
  9
$TDCREATE
 40
2454834.900389351
  9
$TDUCREATE
 40
2454834.858722685
  9
$TDUPDATE
 40
2454834.901506979
  9
$TDUUPDATE
 40
2454834.859840312
  9
$TDINDWG
 40
0.0011176273
  9
$TDUSRTIMER
 40
0.0011176273
  9
$USRTIMER
 70
     1
  9
$ANGBASE
 50
0.0
  9
$ANGDIR
 70
     0
  9
$PDMODE
 70
     0
  9
$PDSIZE
 40
0.0
  9
$PLINEWID
 40
0.0
  9
$SPLFRAME
 70
     0
  9
$SPLINETYPE
 70
     6
  9
$SPLINESEGS
 70
     8
  9
$HANDSEED
  5
3D1
  9
$SURFTAB1
 70
     6
  9
$SURFTAB2
 70
     6
  9
$SURFTYPE
 70
     6
  9
$SURFU
 70
     6
  9
$SURFV
 70
     6
  9
$UCSBASE
  2

  9
$UCSNAME
  2

  9
$UCSORG
 10
0.0
 20
0.0
 30
0.0
  9
$UCSXDIR
 10
1.0
 20
0.0
 30
0.0
  9
$UCSYDIR
 10
0.0
 20
1.0
 30
0.0
  9
$UCSORTHOREF
  2

  9
$UCSORTHOVIEW
 70
     1
  9
$UCSORGTOP
 10
0.0
 20
0.0
 30
0.0
  9
$UCSORGBOTTOM
 10
0.0
 20
0.0
 30
0.0
  9
$UCSORGLEFT
 10
0.0
 20
0.0
 30
0.0
  9
$UCSORGRIGHT
 10
0.0
 20
0.0
 30
0.0
  9
$UCSORGFRONT
 10
0.0
 20
0.0
 30
0.0
  9
$UCSORGBACK
 10
0.0
 20
0.0
 30
0.0
  9
$PUCSBASE
  2

  9
$PUCSNAME
  2

  9
$PUCSORG
 10
0.0
 20
0.0
 30
0.0
  9
$PUCSXDIR
 10
1.0
 20
0.0
 30
0.0
  9
$PUCSYDIR
 10
0.0
 20
1.0
 30
0.0
  9
$PUCSORTHOREF
  2

  9
$PUCSORTHOVIEW
 70
     0
  9
$PUCSORGTOP
 10
0.0
 20
0.0
 30
0.0
  9
$PUCSORGBOTTOM
 10
0.0
 20
0.0
 30
0.0
  9
$PUCSORGLEFT
 10
0.0
 20
0.0
 30
0.0
  9
$PUCSORGRIGHT
 10
0.0
 20
0.0
 30
0.0
  9
$PUCSORGFRONT
 10
0.0
 20
0.0
 30
0.0
  9
$PUCSORGBACK
 10
0.0
 20
0.0
 30
0.0
  9
$USERI1
 70
     0
  9
$USERI2
 70
     0
  9
$USERI3
 70
     0
  9
$USERI4
 70
     0
  9
$USERI5
 70
     0
  9
$USERR1
 40
0.0
  9
$USERR2
 40
0.0
  9
$USERR3
 40
0.0
  9
$USERR4
 40
0.0
  9
$USERR5
 40
0.0
  9
$WORLDVIEW
 70
     1
  9
$SHADEDGE
 70
     3
  9
$SHADEDIF
 70
    70
  9
$TILEMODE
 70
     1
  9
$MAXACTVP
 70
    64
  9
$PINSBASE
 10
0.0
 20
0.0
 30
0.0
  9
$PLIMCHECK
 70
     0
  9
$PEXTMIN
 10
1.000000000000000E+20
 20
1.000000000000000E+20
 30
1.000000000000000E+20
  9
$PEXTMAX
 10
-1.000000000000000E+20
 20
-1.000000000000000E+20
 30
-1.000000000000000E+20
  9
$PLIMMIN
 10
0.0
 20
0.0
  9
$PLIMMAX
 10
12.0
 20
9.0
  9
$UNITMODE
 70
     0
  9
$VISRETAIN
 70
     1
  9
$PLINEGEN
 70
     0
  9
$PSLTSCALE
 70
     1
  9
$TREEDEPTH
 70
  3020
  9
$CMLSTYLE
  2
Standard
  9
$CMLJUST
 70
     0
  9
$CMLSCALE
 40
1.0
  9
$PROXYGRAPHICS
 70
     1
  9
$MEASUREMENT
 70
     0
  9
$CELWEIGHT
370
    -1
  9
$ENDCAPS
280
     0
  9
$JOINSTYLE
280
     0
  9
$LWDISPLAY
290
     0
  9
$INSUNITS
 70
     0
  9
$HYPERLINKBASE
  1

  9
$STYLESHEET
  1

  9
$XEDIT
290
     1
  9
$CEPSNTYPE
380
     0
  9
$PSTYLEMODE
290
     1
  9
$FINGERPRINTGUID
  2
{4C5EEDA5-0ACF-409E-AD33-9C047DD232D8}
  9
$VERSIONGUID
  2
{47276EB9-D9A4-4B2E-A8B1-FB1209FEE93B}
  9
$EXTNAMES
290
     1
  9
$PSVPSCALE
 40
0.0
  9
$OLESTARTUP
290
     0
  0
ENDSEC
  0
SECTION
  2
CLASSES
  0
CLASS
  1
ACDBDICTIONARYWDFLT
  2
AcDbDictionaryWithDefault
  3
AutoCAD 2000
 90
        0
280
     0
281
     0
  0
CLASS
  1
ACDBPLACEHOLDER
  2
AcDbPlaceHolder
  3
AutoCAD 2000
 90
        0
280
     0
281
     0
  0
CLASS
  1
LAYOUT
  2
AcDbLayout
  3
AutoCAD 2000
 90
        0
280
     0
281
     0
  0
CLASS
  1
DICTIONARYVAR
  2
AcDbDictionaryVar
  3
AutoCAD 2000
 90
        0
280
     0
281
     0
  0
ENDSEC
  0
SECTION
  2
TABLES
  0
TABLE
  2
VPORT
  5
8
330
0
100
AcDbSymbolTable
 70
     5
  0
VPORT
  5
3D0
330
8
100
AcDbSymbolTableRecord
100
AcDbViewportTableRecord
  2
*Active
 70
     0
 10
0.0
 20
0.0
 11
1.0
 21
1.0
 12
80.0
 22
40.0
 13
0.0
 23
0.0
 14
1.0
 24
1.0
 15
0.0
 25
0.0
 16
0.0
 26
0.0
 36
1.0
 17
0.0
 27
0.0
 37
0.0
 40
81.03297232736572
 41
2.078104993597951
 42
50.0
 43
0.0
 44
0.0
 50
0.0
 51
0.0
 71
     0
 72
   100
 73
     1
 74
     3
 75
     0
 76
     0
 77
     0
 78
     0
281
     0
 65
     1
110
0.0
120
0.0
130
0.0
111
1.0
121
0.0
131
0.0
112
0.0
122
1.0
132
0.0
 79
     1
146
0.0
  0
ENDTAB
  0
TABLE
  2
LTYPE
  5
5
330
0
100
AcDbSymbolTable
 70
     1
  0
LTYPE
  5
13
330
5
100
AcDbSymbolTableRecord
100
AcDbLinetypeTableRecord
  2
ByBlock
 70
     0
  3

 72
    65
 73
     0
 40
0.0
  0
LTYPE
  5
14
330
5
100
AcDbSymbolTableRecord
100
AcDbLinetypeTableRecord
  2
ByLayer
 70
     0
  3

 72
    65
 73
     0
 40
0.0
  0
LTYPE
  5
15
330
5
100
AcDbSymbolTableRecord
100
AcDbLinetypeTableRecord
  2
Continuous
 70
     0
  3
Solid line
 72
    65
 73
     0
 40
0.0
  0
ENDTAB
  0
TABLE
  2
LAYER
  5
2
330
0
100
AcDbSymbolTable
 70
     1
  0
LAYER
  5
10
330
2
100
AcDbSymbolTableRecord
100
AcDbLayerTableRecord
  2
0
 70
     0
 62
     7
  6
Continuous
370
    -3
390
F
  0
ENDTAB
  0
TABLE
  2
STYLE
  5
3
330
0
100
AcDbSymbolTable
 70
     1
  0
STYLE
  5
11
330
3
100
AcDbSymbolTableRecord
100
AcDbTextStyleTableRecord
  2
Standard
 70
     0
 40
0.0
 41
1.0
 50
0.0
 71
     0
 42
0.2
  3
txt
  4

  0
ENDTAB
  0
TABLE
  2
VIEW
  5
6
330
0
100
AcDbSymbolTable
 70
     0
  0
ENDTAB
  0
TABLE
  2
UCS
  5
7
330
0
100
AcDbSymbolTable
 70
     0
  0
ENDTAB
  0
TABLE
  2
APPID
  5
9
330
0
100
AcDbSymbolTable
 70
     1
  0
APPID
  5
12
330
9
100
AcDbSymbolTableRecord
100
AcDbRegAppTableRecord
  2
ACAD
 70
     0
  0
ENDTAB
  0
TABLE
  2
DIMSTYLE
  5
A
330
0
100
AcDbSymbolTable
 70
     1
100
AcDbDimStyleTable
 71
     0
  0
DIMSTYLE
105
3C7
330
A
100
AcDbSymbolTableRecord
100
AcDbDimStyleTableRecord
  2
Standard
 70
     0
340
11
  0
ENDTAB
  0
TABLE
  2
BLOCK_RECORD
  5
1
330
0
100
AcDbSymbolTable
 70
     0
  0
BLOCK_RECORD
  5
1E
330
1
100
AcDbSymbolTableRecord
100
AcDbBlockTableRecord
  2
*Model_Space
340
21
  0
BLOCK_RECORD
  5
1A
330
1
100
AcDbSymbolTableRecord
100
AcDbBlockTableRecord
  2
*Paper_Space
340
1D
  0
ENDTAB
  0
ENDSEC
  0
SECTION
  2
BLOCKS
  0
BLOCK
  5
1F
330
1E
100
AcDbEntity
  8
0
100
AcDbBlockBegin
  2
*Model_Space
 70
     0
 10
0.0
 20
0.0
 30
0.0
  3
*Model_Space
  1

  0
ENDBLK
  5
20
330
1E
100
AcDbEntity
  8
0
100
AcDbBlockEnd
  0
BLOCK
  5
1B
330
1A
100
AcDbEntity
 67
     1
  8
0
100
AcDbBlockBegin
  2
*Paper_Space
 70
     0
 10
0.0
 20
0.0
 30
0.0
  3
*Paper_Space
  1

  0
ENDBLK
  5
1C
330
1A
100
AcDbEntity
 67
     1
  8
0
100
AcDbBlockEnd
  0
ENDSEC
  0
SECTION
  2
ENTITIES
  0
LINE
  5
23
330
1E
100
AcDbEntity
  8
0
100
AcDbLine
 10
63.39030000000001
 20
1.379064999999999
 30
0.0
 11
64.82569999999999
 21
1.041395
 31
0.0
  0
LINE
  5
24
330
1E
100
AcDbEntity
  8
0
100
AcDbLine
 10
62.0574
 20
1.848895
 30
0.0
 11
63.0827
 21
1.477454999999999
 31
0.0
  0
LINE
  5
25
330
1E
100
AcDbEntity
  8
0
100
AcDbLine
 10
63.0827
 20
1.477454999999999
 30
0.0
 11
63.39030000000001
 21
1.379064999999999
 31
0.0
  0
LINE
  5
28
330
1E
100
AcDbEntity
  8
0
100
AcDbLine
 10
61.2372
 20
2.254094999999999
 30
0.0
 11
62.0574
 21
1.848895
 31
0.0
  0
LINE
  5
29
330
1E
100
AcDbEntity
  8
0
100
AcDbLine
 10
60.7246
 20
2.659304999999999
 30
0.0
 11
61.2372
 21
2.254094999999999
 31
0.0
  0
LINE
  5
2A
330
1E
100
AcDbEntity
  8
0
100
AcDbLine
 10
60.5195
 20
3.081395
 30
0.0
 11
60.7246
 21
2.659304999999999
 31
0.0
  0
LINE
  5
2B
330
1E
100
AcDbEntity
  8
0
100
AcDbLine
 10
57.6111
 20
19.620385
 30
0.0
 11
57.6274
 21
21.776485
 31
0.0
  0
LINE
  5
2C
330
1E
100
AcDbEntity
  8
0
100
AcDbLine
 10
57.6274
 20
21.776485
 30
0.0
 11
58.0
 21
51.747285
 31
0.0
  0
LINE
  5
2D
330
1E
100
AcDbEntity
  8
0
100
AcDbLine
 10
62.16
 20
15.131585
 30
0.0
 11
64.108
 21
15.486085
 31
0.0
  0
LINE
  5
2E
330
1E
100
AcDbEntity
  8
0
100
AcDbLine
 10
60.417
 20
14.726385
 30
0.0
 11
62.16
 21
15.131585
 31
0.0
  0
LINE
  5
2F
330
1E
100
AcDbEntity
  8
0
100
AcDbLine
 10
59.1866
 20
14.287385
 30
0.0
 11
60.417
 21
14.726385
 31
0.0
  0
LINE
  5
30
330
1E
100
AcDbEntity
  8
0
100
AcDbLine
 10
58.26389999999999
 20
13.831485
 30
0.0
 11
59.1866
 21
14.287385
 31
0.0
  0
LINE
  5
31
330
1E
100
AcDbEntity
  8
0
100
AcDbLine
 10
57.6487
 20
13.358785
 30
0.0
 11
58.26389999999999
 21
13.831485
 31
0.0
  0
LINE
  5
32
330
1E
100
AcDbEntity
  8
0
100
AcDbLine
 10
57.4436
 20
12.869185
 30
0.0
 11
57.6487
 21
13.358785
 31
0.0
  0
LINE
  5
33
330
1E
100
AcDbEntity
  8
0
100
AcDbLine
 10
57.4436
 20
12.869185
 30
0.0
 11
60.5195
 21
3.081395
 31
0.0
  0
LINE
  5
34
330
1E
100
AcDbEntity
  8
0
100
AcDbLine
 10
57.4436
 20
12.869185
 30
0.0
 11
57.6111
 21
19.620385
 31
0.0
  0
LINE
  5
35
330
1E
100
AcDbEntity
  8
0
100
AcDbLine
 10
64.82569999999999
 20
1.041395
 30
0.0
 11
66.4662
 21
0.720604999999998
 31
0.0
  0
LINE
  5
36
330
1E
100
AcDbEntity
  8
0
100
AcDbLine
 10
64.108
 20
15.486085
 30
0.0
 11
66.2611
 21
15.806885
 31
0.0
  0
LINE
  5
39
330
1E
100
AcDbEntity
  8
0
100
AcDbLine
 10
64.0
 20
33.78488499999999
 30
0.0
 11
64.384
 21
33.207985
 31
0.0
  0
LINE
  5
3A
330
1E
100
AcDbEntity
  8
0
100
AcDbLine
 10
64.0
 20
33.78488499999999
 30
0.0
 11
64.0
 21
47.631085
 31
0.0
  0
LINE
  5
3B
330
1E
100
AcDbEntity
  8
0
100
AcDbLine
 10
64.384
 20
33.207985
 30
0.0
 11
64.95999999999999
 21
33.207985
 31
0.0
  0
LINE
  5
3C
330
1E
100
AcDbEntity
  8
0
100
AcDbLine
 10
64.95999999999999
 20
33.207985
 30
0.0
 11
66.49600000000001
 21
33.207985
 31
0.0
  0
LINE
  5
3D
330
1E
100
AcDbEntity
  8
0
100
AcDbLine
 10
62.576
 20
47.912585
 30
0.0
 11
64.0
 21
47.4950940909091
 31
0.0
  0
LINE
  5
3E
330
1E
100
AcDbEntity
  8
0
100
AcDbLine
 10
58.0
 20
57.80798499999999
 30
0.0
 11
58.792
 21
57.80798499999999
 31
0.0
  0
LINE
  5
3F
330
1E
100
AcDbEntity
  8
0
100
AcDbLine
 10
58.0
 20
57.80798499999999
 30
0.0
 11
58.528
 21
57.207985
 31
0.0
  0
LINE
  5
40
330
1E
100
AcDbEntity
  8
0
100
AcDbLine
 10
58.0
 20
57.80798499999999
 30
0.0
 11
58.0
 21
67.20798499999999
 31
0.0
  0
LINE
  5
41
330
1E
100
AcDbEntity
  8
0
100
AcDbLine
 10
58.26399999999999
 20
50.848185
 30
0.0
 11
58.792
 21
50.056585
 31
0.0
  0
LINE
  5
42
330
1E
100
AcDbEntity
  8
0
100
AcDbLine
 10
58.792
 20
50.056585
 30
0.0
 11
59.75999999999999
 21
49.33428499999999
 31
0.0
  0
LINE
  5
43
330
1E
100
AcDbEntity
  8
0
100
AcDbLine
 10
59.0
 20
51.207985
 30
0.0
 11
59.0
 21
57.207985
 31
0.0
  0
LINE
  5
44
330
1E
100
AcDbEntity
  8
0
100
AcDbLine
 10
59.0
 20
51.207985
 30
0.0
 11
59.23588429394611
 21
49.7253684447136
 31
0.0
  0
LINE
  5
45
330
1E
100
AcDbEntity
  8
0
100
AcDbLine
 10
59.0
 20
51.210485
 30
0.0
 11
59.0
 21
53.21048499999999
 31
0.0
  0
LINE
  5
46
330
1E
100
AcDbEntity
  8
0
100
AcDbLine
 10
59.0
 20
51.210485
 30
0.0
 11
59.23633562449619
 21
49.7250316719281
 31
0.0
  0
LINE
  5
47
330
1E
100
AcDbEntity
  8
0
100
AcDbLine
 10
59.75999999999999
 20
49.33428499999999
 30
0.0
 11
60.90399999999999
 21
48.601285
 31
0.0
  0
LINE
  5
48
330
1E
100
AcDbEntity
  8
0
100
AcDbLine
 10
60.90399999999999
 20
48.601285
 30
0.0
 11
62.576
 21
47.912585
 31
0.0
  0
LINE
  5
49
330
1E
100
AcDbEntity
  8
0
100
AcDbLine
 10
58.792
 20
51.747285
 30
0.0
 11
59.0
 21
51.747285
 31
0.0
  0
LINE
  5
4A
330
1E
100
AcDbEntity
  8
0
100
AcDbLine
 10
59.0
 20
57.207985
 30
0.0
 11
59.0
 21
51.207985
 31
0.0
  0
LINE
  5
4B
330
1E
100
AcDbEntity
  8
0
100
AcDbLine
 10
58.528
 20
57.207985
 30
0.0
 11
59.32
 21
57.207985
 31
0.0
  0
LINE
  5
4C
330
1E
100
AcDbEntity
  8
0
100
AcDbLine
 10
58.528
 20
57.207985
 30
0.0
 11
59.0
 21
57.207985
 31
0.0
  0
LINE
  5
4D
330
1E
100
AcDbEntity
  8
0
100
AcDbLine
 10
58.792
 20
57.80798499999999
 30
0.0
 11
60.90399999999999
 21
57.80798499999999
 31
0.0
  0
LINE
  5
4E
330
1E
100
AcDbEntity
  8
0
100
AcDbLine
 10
60.6227
 20
53.21048499999999
 30
0.0
 11
61.7682
 21
53.21048499999999
 31
0.0
  0
LINE
  5
4F
330
1E
100
AcDbEntity
  8
0
100
AcDbLine
 10
59.76359999999999
 20
53.21048499999999
 30
0.0
 11
60.6227
 21
53.21048499999999
 31
0.0
  0
LINE
  5
50
330
1E
100
AcDbEntity
  8
0
100
AcDbLine
 10
59.32
 20
57.207985
 30
0.0
 11
61.432
 21
57.207985
 31
0.0
  0
LINE
  5
51
330
1E
100
AcDbEntity
  8
0
100
AcDbLine
 10
61.432
 20
57.207985
 30
0.0
 11
64.86399999999999
 21
57.207985
 31
0.0
  0
LINE
  5
52
330
1E
100
AcDbEntity
  8
0
100
AcDbLine
 10
60.90399999999999
 20
57.80798499999999
 30
0.0
 11
64.42399999999999
 21
57.80798499999999
 31
0.0
  0
LINE
  5
53
330
1E
100
AcDbEntity
  8
0
100
AcDbLine
 10
64.86399999999999
 20
57.207985
 30
0.0
 11
65.0
 21
57.207985
 31
0.0
  0
LINE
  5
54
330
1E
100
AcDbEntity
  8
0
100
AcDbLine
 10
64.42399999999999
 20
57.80798499999999
 30
0.0
 11
65.1103900156006
 21
57.80798499999999
 31
0.0
  0
LINE
  5
55
330
1E
100
AcDbEntity
  8
0
100
AcDbLine
 10
63.3909
 20
53.21048499999999
 30
0.0
 11
65.0
 21
53.21048499999999
 31
0.0
  0
LINE
  5
56
330
1E
100
AcDbEntity
  8
0
100
AcDbLine
 10
61.7682
 20
53.21048499999999
 30
0.0
 11
63.3909
 21
53.21048499999999
 31
0.0
  0
LINE
  5
57
330
1E
100
AcDbEntity
  8
0
100
AcDbLine
 10
59.1909
 20
53.21048499999999
 30
0.0
 11
59.76359999999999
 21
53.21048499999999
 31
0.0
  0
LINE
  5
58
330
1E
100
AcDbEntity
  8
0
100
AcDbLine
 10
59.0
 20
53.21048499999999
 30
0.0
 11
59.0
 21
51.210485
 31
0.0
  0
LINE
  5
59
330
1E
100
AcDbEntity
  8
0
100
AcDbLine
 10
59.0
 20
53.21048499999999
 30
0.0
 11
59.1909
 21
53.21048499999999
 31
0.0
  0
LINE
  5
5A
330
1E
100
AcDbEntity
  8
0
100
AcDbLine
 10
58.26399999999999
 20
51.747285
 30
0.0
 11
58.792
 21
51.747285
 31
0.0
  0
LINE
  5
5B
330
1E
100
AcDbEntity
  8
0
100
AcDbLine
 10
58.0
 20
51.747285
 30
0.0
 11
58.26399999999999
 21
51.747285
 31
0.0
  0
LINE
  5
5C
330
1E
100
AcDbEntity
  8
0
100
AcDbLine
 10
58.0
 20
51.747285
 30
0.0
 11
58.26399999999999
 21
50.848185
 31
0.0
  0
LINE
  5
5D
330
1E
100
AcDbEntity
  8
0
100
AcDbLine
 10
64.384
 20
48.207985
 30
0.0
 11
64.95999999999999
 21
48.207985
 31
0.0
  0
LINE
  5
5E
330
1E
100
AcDbEntity
  8
0
100
AcDbLine
 10
65.0
 20
48.207985
 30
0.0
 11
65.0
 21
57.631085
 31
0.0
  0
LINE
  5
5F
330
1E
100
AcDbEntity
  8
0
100
AcDbLine
 10
65.36
 20
58.207985
 30
0.0
 11
65.9
 21
58.207985
 31
0.0
  0
LINE
  5
60
330
1E
100
AcDbEntity
  8
0
100
AcDbLine
 10
65.0
 20
57.631085
 30
0.0
 11
65.36
 21
58.207985
 31
0.0
  0
LINE
  5
61
330
1E
100
AcDbEntity
  8
0
100
AcDbLine
 10
65.0
 20
57.631085
 30
0.0
 11
65.0
 21
48.207985
 31
0.0
  0
LINE
  5
62
330
1E
100
AcDbEntity
  8
0
100
AcDbLine
 10
64.95999999999999
 20
48.207985
 30
0.0
 11
66.49600000000001
 21
48.207985
 31
0.0
  0
LINE
  5
63
330
1E
100
AcDbEntity
  8
0
100
AcDbLine
 10
64.0
 20
47.631085
 30
0.0
 11
64.384
 21
48.207985
 31
0.0
  0
LINE
  5
64
330
1E
100
AcDbEntity
  8
0
100
AcDbLine
 10
64.0
 20
47.631085
 30
0.0
 11
64.0
 21
33.78488499999999
 31
0.0
  0
LINE
  5
65
330
1E
100
AcDbEntity
  8
0
100
AcDbLine
 10
66.4662
 20
0.720604999999998
 30
0.0
 11
68.41419999999999
 21
0.450474999999998
 31
0.0
  0
LINE
  5
66
330
1E
100
AcDbEntity
  8
0
100
AcDbLine
 10
66.2611
 20
15.806885
 30
0.0
 11
68.7218
 21
16.093885
 31
0.0
  0
LINE
  5
67
330
1E
100
AcDbEntity
  8
0
100
AcDbLine
 10
65.9
 20
58.207985
 30
0.0
 11
67.34
 21
58.207985
 31
0.0
  0
LINE
  5
6A
330
1E
100
AcDbEntity
  8
0
100
AcDbLine
 10
66.49600000000001
 20
48.207985
 30
0.0
 11
68.992
 21
48.207985
 31
0.0
  0
LINE
  5
6C
330
1E
100
AcDbEntity
  8
0
100
AcDbLine
 10
66.49600000000001
 20
33.207985
 30
0.0
 11
68.992
 21
33.207985
 31
0.0
  0
LINE
  5
6D
330
1E
100
AcDbEntity
  8
0
100
AcDbLine
 10
67.34
 20
58.207985
 30
0.0
 11
69.68
 21
58.207985
 31
0.0
  0
LINE
  5
6E
330
1E
100
AcDbEntity
  8
0
100
AcDbLine
 10
67.0
 20
58.207985
 30
0.0
 11
67.0
 21
60.207985
 31
0.0
  0
LINE
  5
6F
330
1E
100
AcDbEntity
  8
0
100
AcDbLine
 10
67.0
 20
60.207985
 30
0.0
 11
67.0
 21
58.207985
 31
0.0
  0
LINE
  5
70
330
1E
100
AcDbEntity
  8
0
100
AcDbLine
 10
67.0
 20
60.207985
 30
0.0
 11
67.468
 21
60.207985
 31
0.0
  0
LINE
  5
71
330
1E
100
AcDbEntity
  8
0
100
AcDbLine
 10
65.36
 20
60.207985
 30
0.0
 11
65.9
 21
60.207985
 31
0.0
  0
LINE
  5
72
330
1E
100
AcDbEntity
  8
0
100
AcDbLine
 10
65.9
 20
60.207985
 30
0.0
 11
67.34
 21
60.207985
 31
0.0
  0
LINE
  5
73
330
1E
100
AcDbEntity
  8
0
100
AcDbLine
 10
65.9
 20
60.207985
 30
0.0
 11
67.0
 21
60.207985
 31
0.0
  0
LINE
  5
82
330
1E
100
AcDbEntity
  8
0
100
AcDbLine
 10
68.41419999999999
 20
0.450474999999998
 30
0.0
 11
70.46479999999999
 21
0.214104999999997
 31
0.0
  0
LINE
  5
85
330
1E
100
AcDbEntity
  8
0
100
AcDbLine
 10
67.468
 20
60.207985
 30
0.0
 11
68.716
 21
60.207985
 31
0.0
  0
LINE
  5
88
330
1E
100
AcDbEntity
  8
0
100
AcDbLine
 10
68.7218
 20
16.093885
 30
0.0
 11
71.38760000000001
 21
16.296485
 31
0.0
  0
LINE
  5
91
330
1E
100
AcDbEntity
  8
0
100
AcDbLine
 10
70.46479999999999
 20
0.214104999999997
 30
0.0
 11
72.7204
 21
0.0452749999999967
 31
0.0
  0
LINE
  5
92
330
1E
100
AcDbEntity
  8
0
100
AcDbLine
 10
72.7204
 20
0.0452749999999967
 30
0.0
 11
75.07859999999999
 21
-0.089795000000003
 31
0.0
  0
LINE
  5
93
330
1E
100
AcDbEntity
  8
0
100
AcDbLine
 10
71.38760000000001
 20
16.296485
 30
0.0
 11
74.1559
 21
16.448485
 31
0.0
  0
LINE
  5
94
330
1E
100
AcDbEntity
  8
0
100
AcDbLine
 10
68.992
 20
33.207985
 30
0.0
 11
72.256
 21
33.207985
 31
0.0
  0
LINE
  5
95
330
1E
100
AcDbEntity
  8
0
100
AcDbLine
 10
69.68
 20
58.207985
 30
0.0
 11
72.74
 21
58.207985
 31
0.0
  0
LINE
  5
97
330
1E
100
AcDbEntity
  8
0
100
AcDbLine
 10
68.992
 20
48.207985
 30
0.0
 11
72.256
 21
48.207985
 31
0.0
  0
LINE
  5
99
330
1E
100
AcDbEntity
  8
0
100
AcDbLine
 10
72.74
 20
58.207985
 30
0.0
 11
76.21999999999999
 21
58.207985
 31
0.0
  0
LINE
  5
9A
330
1E
100
AcDbEntity
  8
0
100
AcDbLine
 10
72.256
 20
48.207985
 30
0.0
 11
75.968
 21
48.207985
 31
0.0
  0
LINE
  5
9C
330
1E
100
AcDbEntity
  8
0
100
AcDbLine
 10
72.256
 20
33.207985
 30
0.0
 11
75.968
 21
33.207985
 31
0.0
  0
LINE
  5
9D
330
1E
100
AcDbEntity
  8
0
100
AcDbLine
 10
68.716
 20
60.207985
 30
0.0
 11
70.79600000000001
 21
60.207985
 31
0.0
  0
LINE
  5
9E
330
1E
100
AcDbEntity
  8
0
100
AcDbLine
 10
70.79600000000001
 20
60.207985
 30
0.0
 11
73.55199999999999
 21
60.207985
 31
0.0
  0
LINE
  5
9F
330
1E
100
AcDbEntity
  8
0
100
AcDbLine
 10
67.34
 20
60.207985
 30
0.0
 11
69.68
 21
60.207985
 31
0.0
  0
LINE
  5
A0
330
1E
100
AcDbEntity
  8
0
100
AcDbLine
 10
69.68
 20
60.207985
 30
0.0
 11
72.74
 21
60.207985
 31
0.0
  0
LINE
  5
A1
330
1E
100
AcDbEntity
  8
0
100
AcDbLine
 10
75.07859999999999
 20
-0.089795000000003
 30
0.0
 11
77.5393
 21
-0.174215000000004
 31
0.0
  0
LINE
  5
A2
330
1E
100
AcDbEntity
  8
0
100
AcDbLine
 10
74.1559
 20
16.448485
 30
0.0
 11
77.02670000000001
 21
16.549785
 31
0.0
  0
LINE
  5
A3
330
1E
100
AcDbEntity
  8
0
100
AcDbLine
 10
75.968
 20
48.207985
 30
0.0
 11
80.0
 21
48.207985
 31
0.0
  0
LINE
  5
A4
330
1E
100
AcDbEntity
  8
0
100
AcDbLine
 10
76.21999999999999
 20
58.207985
 30
0.0
 11
80.0
 21
58.207985
 31
0.0
  0
LINE
  5
A5
330
1E
100
AcDbEntity
  8
0
100
AcDbLine
 10
75.968
 20
33.207985
 30
0.0
 11
80.0
 21
33.207985
 31
0.0
  0
LINE
  5
A6
330
1E
100
AcDbEntity
  8
0
100
AcDbLine
 10
73.55199999999999
 20
60.207985
 30
0.0
 11
76.672
 21
60.207985
 31
0.0
  0
LINE
  5
A7
330
1E
100
AcDbEntity
  8
0
100
AcDbLine
 10
82.46070000000001
 20
-0.174215000000004
 30
0.0
 11
84.9214
 21
-0.089795000000003
 31
0.0
  0
LINE
  5
A8
330
1E
100
AcDbEntity
  8
0
100
AcDbLine
 10
80.0
 20
-0.2079850000000039
 30
0.0
 11
82.46070000000001
 21
-0.174215000000004
 31
0.0
  0
LINE
  5
A9
330
1E
100
AcDbEntity
  8
0
100
AcDbLine
 10
82.9733
 20
16.549785
 30
0.0
 11
85.8441
 21
16.448485
 31
0.0
  0
LINE
  5
AA
330
1E
100
AcDbEntity
  8
0
100
AcDbLine
 10
80.0
 20
16.583585
 30
0.0
 11
82.9733
 21
16.549785
 31
0.0
  0
LINE
  5
AB
330
1E
100
AcDbEntity
  8
0
100
AcDbLine
 10
77.5393
 20
-0.174215000000004
 30
0.0
 11
80.0
 21
-0.2079850000000039
 31
0.0
  0
LINE
  5
AC
330
1E
100
AcDbEntity
  8
0
100
AcDbLine
 10
77.02670000000001
 20
16.549785
 30
0.0
 11
80.0
 21
16.583585
 31
0.0
  0
LINE
  5
AD
330
1E
100
AcDbEntity
  8
0
100
AcDbLine
 10
80.0
 20
58.207985
 30
0.0
 11
83.78
 21
58.207985
 31
0.0
  0
LINE
  5
AE
330
1E
100
AcDbEntity
  8
0
100
AcDbLine
 10
83.78
 20
58.207985
 30
0.0
 11
87.26
 21
58.207985
 31
0.0
  0
LINE
  5
AF
330
1E
100
AcDbEntity
  8
0
100
AcDbLine
 10
80.0
 20
48.207985
 30
0.0
 11
84.03200000000001
 21
48.207985
 31
0.0
  0
LINE
  5
B0
330
1E
100
AcDbEntity
  8
0
100
AcDbLine
 10
80.0
 20
33.207985
 30
0.0
 11
84.03200000000001
 21
33.207985
 31
0.0
  0
LINE
  5
B1
330
1E
100
AcDbEntity
  8
0
100
AcDbLine
 10
76.672
 20
60.207985
 30
0.0
 11
80.0
 21
60.207985
 31
0.0
  0
LINE
  5
B2
330
1E
100
AcDbEntity
  8
0
100
AcDbLine
 10
83.32799999999998
 20
60.207985
 30
0.0
 11
86.448
 21
60.207985
 31
0.0
  0
LINE
  5
B3
330
1E
100
AcDbEntity
  8
0
100
AcDbLine
 10
72.74
 20
60.207985
 30
0.0
 11
76.21999999999999
 21
60.207985
 31
0.0
  0
LINE
  5
B4
330
1E
100
AcDbEntity
  8
0
100
AcDbLine
 10
76.21999999999999
 20
60.207985
 30
0.0
 11
80.0
 21
60.207985
 31
0.0
  0
LINE
  5
B5
330
1E
100
AcDbEntity
  8
0
100
AcDbLine
 10
84.03200000000001
 20
48.207985
 30
0.0
 11
87.74399999999999
 21
48.207985
 31
0.0
  0
LINE
  5
B6
330
1E
100
AcDbEntity
  8
0
100
AcDbLine
 10
84.9214
 20
-0.089795000000003
 30
0.0
 11
87.27960000000001
 21
0.0452749999999967
 31
0.0
  0
LINE
  5
B7
330
1E
100
AcDbEntity
  8
0
100
AcDbLine
 10
89.53520000000001
 20
0.214104999999997
 30
0.0
 11
91.5858
 21
0.450474999999998
 31
0.0
  0
LINE
  5
B8
330
1E
100
AcDbEntity
  8
0
100
AcDbLine
 10
87.27960000000001
 20
0.0452749999999967
 30
0.0
 11
89.53520000000001
 21
0.214104999999997
 31
0.0
  0
LINE
  5
B9
330
1E
100
AcDbEntity
  8
0
100
AcDbLine
 10
88.6124
 20
16.296485
 30
0.0
 11
91.27819999999999
 21
16.093885
 31
0.0
  0
LINE
  5
BA
330
1E
100
AcDbEntity
  8
0
100
AcDbLine
 10
85.8441
 20
16.448485
 30
0.0
 11
88.6124
 21
16.296485
 31
0.0
  0
LINE
  5
BD
330
1E
100
AcDbEntity
  8
0
100
AcDbLine
 10
87.74399999999999
 20
48.207985
 30
0.0
 11
91.00799999999999
 21
48.207985
 31
0.0
  0
LINE
  5
C0
330
1E
100
AcDbEntity
  8
0
100
AcDbLine
 10
87.74399999999999
 20
33.207985
 30
0.0
 11
91.00799999999999
 21
33.207985
 31
0.0
  0
LINE
  5
C1
330
1E
100
AcDbEntity
  8
0
100
AcDbLine
 10
84.03200000000001
 20
33.207985
 30
0.0
 11
87.74399999999999
 21
33.207985
 31
0.0
  0
LINE
  5
C2
330
1E
100
AcDbEntity
  8
0
100
AcDbLine
 10
87.26
 20
58.207985
 30
0.0
 11
90.32
 21
58.207985
 31
0.0
  0
LINE
  5
C3
330
1E
100
AcDbEntity
  8
0
100
AcDbLine
 10
90.32
 20
58.207985
 30
0.0
 11
92.66
 21
58.207985
 31
0.0
  0
LINE
  5
C5
330
1E
100
AcDbEntity
  8
0
100
AcDbLine
 10
89.20399999999998
 20
60.207985
 30
0.0
 11
91.28399999999999
 21
60.207985
 31
0.0
  0
LINE
  5
C6
330
1E
100
AcDbEntity
  8
0
100
AcDbLine
 10
86.448
 20
60.207985
 30
0.0
 11
89.20399999999998
 21
60.207985
 31
0.0
  0
LINE
  5
D3
330
1E
100
AcDbEntity
  8
0
100
AcDbLine
 10
91.27819999999999
 20
16.093885
 30
0.0
 11
93.73890000000001
 21
15.806885
 31
0.0
  0
LINE
  5
D5
330
1E
100
AcDbEntity
  8
0
100
AcDbLine
 10
91.00799999999999
 20
48.207985
 30
0.0
 11
93.50399999999998
 21
48.207985
 31
0.0
  0
LINE
  5
D6
330
1E
100
AcDbEntity
  8
0
100
AcDbLine
 10
91.00799999999999
 20
33.207985
 30
0.0
 11
93.50399999999998
 21
33.207985
 31
0.0
  0
LINE
  5
E3
330
1E
100
AcDbEntity
  8
0
100
AcDbLine
 10
91.5858
 20
0.450474999999998
 30
0.0
 11
93.53379999999999
 21
0.720604999999998
 31
0.0
  0
LINE
  5
E4
330
1E
100
AcDbEntity
  8
0
100
AcDbLine
 10
92.66
 20
58.207985
 30
0.0
 11
94.1
 21
58.207985
 31
0.0
  0
LINE
  5
E5
330
1E
100
AcDbEntity
  8
0
100
AcDbLine
 10
93.50399999999998
 20
48.207985
 30
0.0
 11
95.04000000000001
 21
48.207985
 31
0.0
  0
LINE
  5
E8
330
1E
100
AcDbEntity
  8
0
100
AcDbLine
 10
93.53379999999999
 20
0.720604999999998
 30
0.0
 11
95.1743
 21
1.041395
 31
0.0
  0
LINE
  5
E9
330
1E
100
AcDbEntity
  8
0
100
AcDbLine
 10
93.73890000000001
 20
15.806885
 30
0.0
 11
95.89200000000001
 21
15.486085
 31
0.0
  0
LINE
  5
EA
330
1E
100
AcDbEntity
  8
0
100
AcDbLine
 10
94.1
 20
58.207985
 30
0.0
 11
94.64
 21
58.207985
 31
0.0
  0
LINE
  5
ED
330
1E
100
AcDbEntity
  8
0
100
AcDbLine
 10
93.50399999999998
 20
33.207985
 30
0.0
 11
95.04000000000001
 21
33.207985
 31
0.0
  0
LINE
  5
EE
330
1E
100
AcDbEntity
  8
0
100
AcDbLine
 10
92.53200000000001
 20
60.207985
 30
0.0
 11
93.0
 21
60.207985
 31
0.0
  0
LINE
  5
EF
330
1E
100
AcDbEntity
  8
0
100
AcDbLine
 10
93.0
 20
58.207985
 30
0.0
 11
93.0
 21
60.207985
 31
0.0
  0
LINE
  5
F0
330
1E
100
AcDbEntity
  8
0
100
AcDbLine
 10
91.28399999999999
 20
60.207985
 30
0.0
 11
92.53200000000001
 21
60.207985
 31
0.0
  0
LINE
  5
F1
330
1E
100
AcDbEntity
  8
0
100
AcDbLine
 10
92.66
 20
60.207985
 30
0.0
 11
94.1
 21
60.207985
 31
0.0
  0
LINE
  5
F2
330
1E
100
AcDbEntity
  8
0
100
AcDbLine
 10
90.32
 20
60.207985
 30
0.0
 11
92.66
 21
60.207985
 31
0.0
  0
LINE
  5
F3
330
1E
100
AcDbEntity
  8
0
100
AcDbLine
 10
87.26
 20
60.207985
 30
0.0
 11
90.32
 21
60.207985
 31
0.0
  0
LINE
  5
F4
330
1E
100
AcDbEntity
  8
0
100
AcDbLine
 10
83.78
 20
60.207985
 30
0.0
 11
87.26
 21
60.207985
 31
0.0
  0
LINE
  5
F5
330
1E
100
AcDbEntity
  8
0
100
AcDbLine
 10
80.0
 20
60.207985
 30
0.0
 11
83.78
 21
60.207985
 31
0.0
  0
LINE
  5
F6
330
1E
100
AcDbEntity
  8
0
100
AcDbLine
 10
80.0
 20
60.207985
 30
0.0
 11
83.32799999999998
 21
60.207985
 31
0.0
  0
LINE
  5
F7
330
1E
100
AcDbEntity
  8
0
100
AcDbLine
 10
95.0
 20
57.207985
 30
0.0
 11
95.13600000000002
 21
57.207985
 31
0.0
  0
LINE
  5
F8
330
1E
100
AcDbEntity
  8
0
100
AcDbLine
 10
94.88960998439941
 20
57.80798499999999
 30
0.0
 11
95.576
 21
57.80798499999999
 31
0.0
  0
LINE
  5
F9
330
1E
100
AcDbEntity
  8
0
100
AcDbLine
 10
95.0
 20
53.21048499999999
 30
0.0
 11
96.60910000000001
 21
53.21048499999999
 31
0.0
  0
LINE
  5
FA
330
1E
100
AcDbEntity
  8
0
100
AcDbLine
 10
95.0
 20
57.631085
 30
0.0
 11
95.0
 21
48.207985
 31
0.0
  0
LINE
  5
FB
330
1E
100
AcDbEntity
  8
0
100
AcDbLine
 10
95.0
 20
48.207985
 30
0.0
 11
95.0
 21
57.631085
 31
0.0
  0
LINE
  5
FC
330
1E
100
AcDbEntity
  8
0
100
AcDbLine
 10
94.64
 20
58.207985
 30
0.0
 11
95.0
 21
57.631085
 31
0.0
  0
LINE
  5
FD
330
1E
100
AcDbEntity
  8
0
100
AcDbLine
 10
94.64
 20
60.207985
 30
0.0
 11
95.0
 21
60.807985
 31
0.0
  0
LINE
  5
FE
330
1E
100
AcDbEntity
  8
0
100
AcDbLine
 10
94.1
 20
60.207985
 30
0.0
 11
94.64
 21
60.207985
 31
0.0
  0
LINE
  5
FF
330
1E
100
AcDbEntity
  8
0
100
AcDbLine
 10
13.29412
 20
67.20798499999999
 30
0.0
 11
17.3529
 21
67.20798499999999
 31
0.0
  0
LINE
  5
100
330
1E
100
AcDbEntity
  8
0
100
AcDbLine
 10
58.0
 20
67.20798499999999
 30
0.0
 11
58.0
 21
57.80798499999999
 31
0.0
  0
LINE
  5
101
330
1E
100
AcDbEntity
  8
0
100
AcDbLine
 10
58.0
 20
67.20798499999999
 30
0.0
 11
58.792
 21
67.20798499999999
 31
0.0
  0
LINE
  5
102
330
1E
100
AcDbEntity
  8
0
100
AcDbLine
 10
58.792
 20
67.20798499999999
 30
0.0
 11
60.90399999999999
 21
67.20798499999999
 31
0.0
  0
LINE
  5
103
330
1E
100
AcDbEntity
  8
0
100
AcDbLine
 10
52.3824
 20
67.20798499999999
 30
0.0
 11
58.0
 21
67.20798499999999
 31
0.0
  0
LINE
  5
104
330
1E
100
AcDbEntity
  8
0
100
AcDbLine
 10
44.0
 20
67.20798499999999
 30
0.0
 11
52.3824
 21
67.20798499999999
 31
0.0
  0
LINE
  5
105
330
1E
100
AcDbEntity
  8
0
100
AcDbLine
 10
36.05879999999999
 20
67.20798499999999
 30
0.0
 11
44.0
 21
67.20798499999999
 31
0.0
  0
LINE
  5
106
330
1E
100
AcDbEntity
  8
0
100
AcDbLine
 10
28.9118
 20
67.20798499999999
 30
0.0
 11
36.05879999999999
 21
67.20798499999999
 31
0.0
  0
LINE
  5
107
330
1E
100
AcDbEntity
  8
0
100
AcDbLine
 10
17.3529
 20
67.20798499999999
 30
0.0
 11
22.6471
 21
67.20798499999999
 31
0.0
  0
LINE
  5
108
330
1E
100
AcDbEntity
  8
0
100
AcDbLine
 10
7.64706
 20
67.20798499999999
 30
0.0
 11
8.35294
 21
67.20798499999999
 31
0.0
  0
LINE
  5
109
330
1E
100
AcDbEntity
  8
0
100
AcDbLine
 10
8.35294
 20
67.20798499999999
 30
0.0
 11
10.29411999999999
 21
67.20798499999999
 31
0.0
  0
LINE
  5
10A
330
1E
100
AcDbEntity
  8
0
100
AcDbLine
 10
60.90399999999999
 20
67.20798499999999
 30
0.0
 11
64.42399999999999
 21
67.20798499999999
 31
0.0
  0
LINE
  5
10B
330
1E
100
AcDbEntity
  8
0
100
AcDbLine
 10
64.42399999999999
 20
67.20798499999999
 30
0.0
 11
95.0
 21
67.20798499999999
 31
0.0
  0
LINE
  5
10C
330
1E
100
AcDbEntity
  8
0
100
AcDbLine
 10
10.29411999999999
 20
67.20798499999999
 30
0.0
 11
13.29412
 21
67.20798499999999
 31
0.0
  0
LINE
  5
10D
330
1E
100
AcDbEntity
  8
0
100
AcDbLine
 10
22.6471
 20
67.20798499999999
 30
0.0
 11
28.9118
 21
67.20798499999999
 31
0.0
  0
LINE
  5
10E
330
1E
100
AcDbEntity
  8
0
100
AcDbLine
 10
6.41176
 20
67.70798499999999
 30
0.0
 11
7.64706
 21
67.20798499999999
 31
0.0
  0
LINE
  5
10F
330
1E
100
AcDbEntity
  8
0
100
AcDbLine
 10
5.441176
 20
68.807985
 30
0.0
 11
6.41176
 21
67.70798499999999
 31
0.0
  0
LINE
  5
110
330
1E
100
AcDbEntity
  8
0
100
AcDbLine
 10
5.0
 20
70.20798499999999
 30
0.0
 11
5.441176
 21
68.807985
 31
0.0
  0
LINE
  5
111
330
1E
100
AcDbEntity
  8
0
100
AcDbLine
 10
5.0
 20
70.20798499999999
 30
0.0
 11
5.0
 21
80.20798499999999
 31
0.0
  0
LINE
  5
112
330
1E
100
AcDbEntity
  8
0
100
AcDbLine
 10
65.0
 20
60.807985
 30
0.0
 11
65.36
 21
60.207985
 31
0.0
  0
LINE
  5
113
330
1E
100
AcDbEntity
  8
0
100
AcDbLine
 10
65.0
 20
60.807985
 30
0.0
 11
65.0
 21
67.20798499999999
 31
0.0
  0
LINE
  5
114
330
1E
100
AcDbEntity
  8
0
100
AcDbLine
 10
65.0
 20
67.20798499999999
 30
0.0
 11
65.0
 21
60.807985
 31
0.0
  0
LINE
  5
116
330
1E
100
AcDbEntity
  8
0
100
AcDbLine
 10
20.6176
 20
80.20798499999999
 30
0.0
 11
27.0588
 21
80.20798499999999
 31
0.0
  0
LINE
  5
117
330
1E
100
AcDbEntity
  8
0
100
AcDbLine
 10
15.0588
 20
80.20798499999999
 30
0.0
 11
20.6176
 21
80.20798499999999
 31
0.0
  0
LINE
  5
118
330
1E
100
AcDbEntity
  8
0
100
AcDbLine
 10
10.82353
 20
80.20798499999999
 30
0.0
 11
15.0588
 21
80.20798499999999
 31
0.0
  0
LINE
  5
119
330
1E
100
AcDbEntity
  8
0
100
AcDbLine
 10
7.735289999999999
 20
80.20798499999999
 30
0.0
 11
10.82353
 21
80.20798499999999
 31
0.0
  0
LINE
  5
11A
330
1E
100
AcDbEntity
  8
0
100
AcDbLine
 10
5.794118
 20
80.20798499999999
 30
0.0
 11
7.735289999999999
 21
80.20798499999999
 31
0.0
  0
LINE
  5
11B
330
1E
100
AcDbEntity
  8
0
100
AcDbLine
 10
5.0
 20
80.20798499999999
 30
0.0
 11
5.794118
 21
80.20798499999999
 31
0.0
  0
LINE
  5
11C
330
1E
100
AcDbEntity
  8
0
100
AcDbLine
 10
5.0
 20
80.20798499999999
 30
0.0
 11
5.0
 21
70.20798499999999
 31
0.0
  0
LINE
  5
11D
330
1E
100
AcDbEntity
  8
0
100
AcDbLine
 10
27.0588
 20
80.20798499999999
 30
0.0
 11
34.38239999999999
 21
80.20798499999999
 31
0.0
  0
LINE
  5
11E
330
1E
100
AcDbEntity
  8
0
100
AcDbLine
 10
34.38239999999999
 20
80.20798499999999
 30
0.0
 11
42.67649999999999
 21
80.20798499999999
 31
0.0
  0
LINE
  5
11F
330
1E
100
AcDbEntity
  8
0
100
AcDbLine
 10
42.67649999999999
 20
80.20798499999999
 30
0.0
 11
51.3235
 21
80.20798499999999
 31
0.0
  0
LINE
  5
120
330
1E
100
AcDbEntity
  8
0
100
AcDbLine
 10
51.3235
 20
80.20798499999999
 30
0.0
 11
60.6765
 21
80.20798499999999
 31
0.0
  0
LINE
  5
24B
330
1E
100
AcDbEntity
  8
0
100
AcDbLine
 10
60.6765
 20
80.20798499999999
 30
0.0
 11
70.2059
 21
80.20798499999999
 31
0.0
  0
LINE
  5
24C
330
1E
100
AcDbEntity
  8
0
100
AcDbLine
 10
89.79409999999999
 20
80.20798499999999
 30
0.0
 11
99.32349999999999
 21
80.20798499999999
 31
0.0
  0
LINE
  5
29D
330
1E
100
AcDbEntity
  8
0
100
AcDbLine
 10
80.0
 20
80.20798499999999
 30
0.0
 11
89.79409999999999
 21
80.20798499999999
 31
0.0
  0
LINE
  5
29E
330
1E
100
AcDbEntity
  8
0
100
AcDbLine
 10
70.2059
 20
80.20798499999999
 30
0.0
 11
80.0
 21
80.20798499999999
 31
0.0
  0
LINE
  5
29F
330
1E
100
AcDbEntity
  8
0
100
AcDbLine
 10
95.0
 20
60.807985
 30
0.0
 11
95.0
 21
67.20798499999999
 31
0.0
  0
LINE
  5
2A0
330
1E
100
AcDbEntity
  8
0
100
AcDbLine
 10
93.0
 20
60.207985
 30
0.0
 11
94.1
 21
60.207985
 31
0.0
  0
LINE
  5
2A1
330
1E
100
AcDbEntity
  8
0
100
AcDbLine
 10
93.0
 20
60.207985
 30
0.0
 11
93.0
 21
58.207985
 31
0.0
  0
LINE
  5
2A2
330
1E
100
AcDbEntity
  8
0
100
AcDbLine
 10
95.1743
 20
1.041395
 30
0.0
 11
96.6097
 21
1.379064999999999
 31
0.0
  0
LINE
  5
2A3
330
1E
100
AcDbEntity
  8
0
100
AcDbLine
 10
95.89200000000001
 20
15.486085
 30
0.0
 11
97.84
 21
15.131585
 31
0.0
  0
LINE
  5
2A4
330
1E
100
AcDbEntity
  8
0
100
AcDbLine
 10
95.04000000000001
 20
33.207985
 30
0.0
 11
95.616
 21
33.207985
 31
0.0
  0
LINE
  5
2A5
330
1E
100
AcDbEntity
  8
0
100
AcDbLine
 10
96.0
 20
47.4950940909091
 30
0.0
 11
97.42399999999999
 21
47.912585
 31
0.0
  0
LINE
  5
2A6
330
1E
100
AcDbEntity
  8
0
100
AcDbLine
 10
95.04000000000001
 20
48.207985
 30
0.0
 11
95.616
 21
48.207985
 31
0.0
  0
LINE
  5
2A7
330
1E
100
AcDbEntity
  8
0
100
AcDbLine
 10
96.0
 20
47.631085
 30
0.0
 11
96.0
 21
33.78488499999999
 31
0.0
  0
LINE
  5
2A8
330
1E
100
AcDbEntity
  8
0
100
AcDbLine
 10
95.616
 20
33.207985
 30
0.0
 11
96.0
 21
33.78488499999999
 31
0.0
  0
LINE
  5
2AA
330
1E
100
AcDbEntity
  8
0
100
AcDbLine
 10
96.6097
 20
1.379064999999999
 30
0.0
 11
96.91729999999999
 21
1.477454999999999
 31
0.0
  0
LINE
  5
2AB
330
1E
100
AcDbEntity
  8
0
100
AcDbLine
 10
96.91729999999999
 20
1.477454999999999
 30
0.0
 11
97.94260000000001
 21
1.848895
 31
0.0
  0
LINE
  5
2AC
330
1E
100
AcDbEntity
  8
0
100
AcDbLine
 10
97.94260000000001
 20
1.848895
 30
0.0
 11
98.76280000000001
 21
2.254094999999999
 31
0.0
  0
LINE
  5
2AD
330
1E
100
AcDbEntity
  8
0
100
AcDbLine
 10
98.76280000000001
 20
2.254094999999999
 30
0.0
 11
99.2754
 21
2.659304999999999
 31
0.0
  0
LINE
  5
2AE
330
1E
100
AcDbEntity
  8
0
100
AcDbLine
 10
99.48050000000002
 20
3.081395
 30
0.0
 11
102.5563999999999
 21
12.869185
 31
0.0
  0
LINE
  5
2B0
330
1E
100
AcDbEntity
  8
0
100
AcDbLine
 10
99.2754
 20
2.659304999999999
 30
0.0
 11
99.48050000000002
 21
3.081395
 31
0.0
  0
LINE
  5
2B1
330
1E
100
AcDbEntity
  8
0
100
AcDbLine
 10
97.42399999999999
 20
47.912585
 30
0.0
 11
99.09600000000001
 21
48.601285
 31
0.0
  0
LINE
  5
2B2
330
1E
100
AcDbEntity
  8
0
100
AcDbLine
 10
97.84
 20
15.131585
 30
0.0
 11
99.58300000000001
 21
14.726385
 31
0.0
  0
LINE
  5
2B3
330
1E
100
AcDbEntity
  8
0
100
AcDbLine
 10
99.58300000000001
 20
14.726385
 30
0.0
 11
100.8134
 21
14.287385
 31
0.0
  0
LINE
  5
2B4
330
1E
100
AcDbEntity
  8
0
100
AcDbLine
 10
100.8134
 20
14.287385
 30
0.0
 11
101.7360999999999
 21
13.831485
 31
0.0
  0
LINE
  5
2B5
330
1E
100
AcDbEntity
  8
0
100
AcDbLine
 10
102.3889
 20
19.620385
 30
0.0
 11
102.5563999999999
 21
12.869185
 31
0.0
  0
LINE
  5
2B6
330
1E
100
AcDbEntity
  8
0
100
AcDbLine
 10
102.3726
 20
21.776485
 30
0.0
 11
102.3889
 21
19.620385
 31
0.0
  0
LINE
  5
2B7
330
1E
100
AcDbEntity
  8
0
100
AcDbLine
 10
101.7360999999999
 20
13.831485
 30
0.0
 11
102.3512999999999
 21
13.358785
 31
0.0
  0
LINE
  5
2B8
330
1E
100
AcDbEntity
  8
0
100
AcDbLine
 10
102.3512999999999
 20
13.358785
 30
0.0
 11
102.5563999999999
 21
12.869185
 31
0.0
  0
LINE
  5
2B9
330
1E
100
AcDbEntity
  8
0
100
AcDbLine
 10
96.0
 20
33.78488499999999
 30
0.0
 11
96.0
 21
47.631085
 31
0.0
  0
LINE
  5
2BA
330
1E
100
AcDbEntity
  8
0
100
AcDbLine
 10
95.13600000000002
 20
57.207985
 30
0.0
 11
98.56799999999999
 21
57.207985
 31
0.0
  0
LINE
  5
2BB
330
1E
100
AcDbEntity
  8
0
100
AcDbLine
 10
95.576
 20
67.20798499999999
 30
0.0
 11
99.09600000000001
 21
67.20798499999999
 31
0.0
  0
LINE
  5
2BC
330
1E
100
AcDbEntity
  8
0
100
AcDbLine
 10
95.576
 20
57.80798499999999
 30
0.0
 11
99.09600000000001
 21
57.80798499999999
 31
0.0
  0
LINE
  5
2BD
330
1E
100
AcDbEntity
  8
0
100
AcDbLine
 10
96.60910000000001
 20
53.21048499999999
 30
0.0
 11
98.2318
 21
53.21048499999999
 31
0.0
  0
LINE
  5
2BE
330
1E
100
AcDbEntity
  8
0
100
AcDbLine
 10
98.56799999999999
 20
57.207985
 30
0.0
 11
100.68
 21
57.207985
 31
0.0
  0
LINE
  5
2BF
330
1E
100
AcDbEntity
  8
0
100
AcDbLine
 10
99.09600000000001
 20
67.20798499999999
 30
0.0
 11
101.208
 21
67.20798499999999
 31
0.0
  0
LINE
  5
2C0
330
1E
100
AcDbEntity
  8
0
100
AcDbLine
 10
99.09600000000001
 20
57.80798499999999
 30
0.0
 11
101.208
 21
57.80798499999999
 31
0.0
  0
LINE
  5
2C1
330
1E
100
AcDbEntity
  8
0
100
AcDbLine
 10
98.2318
 20
53.21048499999999
 30
0.0
 11
99.37730000000001
 21
53.21048499999999
 31
0.0
  0
LINE
  5
2C2
330
1E
100
AcDbEntity
  8
0
100
AcDbLine
 10
99.09600000000001
 20
48.601285
 30
0.0
 11
100.2399999999999
 21
49.33428499999999
 31
0.0
  0
LINE
  5
2C3
330
1E
100
AcDbEntity
  8
0
100
AcDbLine
 10
101.0
 20
51.207985
 30
0.0
 11
101.0
 21
57.207985
 31
0.0
  0
LINE
  5
2C4
330
1E
100
AcDbEntity
  8
0
100
AcDbLine
 10
100.7641157060539
 20
49.7253684447136
 30
0.0
 11
101.0
 21
51.207985
 31
0.0
  0
LINE
  5
2C5
330
1E
100
AcDbEntity
  8
0
100
AcDbLine
 10
101.0
 20
51.210485
 30
0.0
 11
101.0
 21
53.21048499999999
 31
0.0
  0
LINE
  5
2C6
330
1E
100
AcDbEntity
  8
0
100
AcDbLine
 10
100.7636643755039
 20
49.72503167192799
 30
0.0
 11
101.0
 21
51.210485
 31
0.0
  0
LINE
  5
2C7
330
1E
100
AcDbEntity
  8
0
100
AcDbLine
 10
100.2399999999999
 20
49.33428499999999
 30
0.0
 11
101.208
 21
50.056585
 31
0.0
  0
LINE
  5
2C8
330
1E
100
AcDbEntity
  8
0
100
AcDbLine
 10
101.736
 20
50.848185
 30
0.0
 11
102.0
 21
51.747285
 31
0.0
  0
LINE
  5
2C9
330
1E
100
AcDbEntity
  8
0
100
AcDbLine
 10
101.208
 20
50.056585
 30
0.0
 11
101.736
 21
50.848185
 31
0.0
  0
LINE
  5
2CA
330
1E
100
AcDbEntity
  8
0
100
AcDbLine
 10
101.0
 20
51.747285
 30
0.0
 11
101.208
 21
51.747285
 31
0.0
  0
LINE
  5
2CB
330
1E
100
AcDbEntity
  8
0
100
AcDbLine
 10
101.208
 20
51.747285
 30
0.0
 11
101.736
 21
51.747285
 31
0.0
  0
LINE
  5
2CC
330
1E
100
AcDbEntity
  8
0
100
AcDbLine
 10
101.736
 20
51.747285
 30
0.0
 11
102.0
 21
51.747285
 31
0.0
  0
LINE
  5
2CD
330
1E
100
AcDbEntity
  8
0
100
AcDbLine
 10
99.37730000000001
 20
53.21048499999999
 30
0.0
 11
100.2364
 21
53.21048499999999
 31
0.0
  0
LINE
  5
2CE
330
1E
100
AcDbEntity
  8
0
100
AcDbLine
 10
100.2364
 20
53.21048499999999
 30
0.0
 11
100.8091
 21
53.21048499999999
 31
0.0
  0
LINE
  5
2CF
330
1E
100
AcDbEntity
  8
0
100
AcDbLine
 10
100.68
 20
57.207985
 30
0.0
 11
101.472
 21
57.207985
 31
0.0
  0
LINE
  5
2D0
330
1E
100
AcDbEntity
  8
0
100
AcDbLine
 10
101.0
 20
57.207985
 30
0.0
 11
101.472
 21
57.207985
 31
0.0
  0
LINE
  5
2D1
330
1E
100
AcDbEntity
  8
0
100
AcDbLine
 10
101.0
 20
57.207985
 30
0.0
 11
101.0
 21
51.207985
 31
0.0
  0
LINE
  5
2D2
330
1E
100
AcDbEntity
  8
0
100
AcDbLine
 10
100.8091
 20
53.21048499999999
 30
0.0
 11
101.0
 21
53.21048499999999
 31
0.0
  0
LINE
  5
2D3
330
1E
100
AcDbEntity
  8
0
100
AcDbLine
 10
101.208
 20
67.20798499999999
 30
0.0
 11
102.0
 21
67.20798499999999
 31
0.0
  0
LINE
  5
2D4
330
1E
100
AcDbEntity
  8
0
100
AcDbLine
 10
101.208
 20
57.80798499999999
 30
0.0
 11
102.0
 21
57.80798499999999
 31
0.0
  0
LINE
  5
2D5
330
1E
100
AcDbEntity
  8
0
100
AcDbLine
 10
102.0
 20
57.80798499999999
 30
0.0
 11
102.0
 21
67.20798499999999
 31
0.0
  0
LINE
  5
2D6
330
1E
100
AcDbEntity
  8
0
100
AcDbLine
 10
101.472
 20
57.207985
 30
0.0
 11
102.0
 21
57.80798499999999
 31
0.0
  0
LINE
  5
2D7
330
1E
100
AcDbEntity
  8
0
100
AcDbLine
 10
101.0
 20
53.21048499999999
 30
0.0
 11
101.0
 21
51.210485
 31
0.0
  0
LINE
  5
2D8
330
1E
100
AcDbEntity
  8
0
100
AcDbLine
 10
102.0
 20
51.747285
 30
0.0
 11
102.3726
 21
21.776485
 31
0.0
  0
LINE
  5
2D9
330
1E
100
AcDbEntity
  8
0
100
AcDbLine
 10
107.6179999999999
 20
67.20798499999999
 30
0.0
 11
116.0
 21
67.20798499999999
 31
0.0
  0
LINE
  5
2DA
330
1E
100
AcDbEntity
  8
0
100
AcDbLine
 10
102.0
 20
67.20798499999999
 30
0.0
 11
107.6179999999999
 21
67.20798499999999
 31
0.0
  0
LINE
  5
2DB
330
1E
100
AcDbEntity
  8
0
100
AcDbLine
 10
102.0
 20
67.20798499999999
 30
0.0
 11
102.0
 21
57.80798499999999
 31
0.0
  0
LINE
  5
2DC
330
1E
100
AcDbEntity
  8
0
100
AcDbLine
 10
99.32349999999999
 20
80.20798499999999
 30
0.0
 11
108.6759999999999
 21
80.20798499999999
 31
0.0
  0
LINE
  5
2DD
330
1E
100
AcDbEntity
  8
0
100
AcDbLine
 10
123.941
 20
67.20798499999999
 30
0.0
 11
131.088
 21
67.20798499999999
 31
0.0
  0
LINE
  5
2DE
330
1E
100
AcDbEntity
  8
0
100
AcDbLine
 10
116.0
 20
67.20798499999999
 30
0.0
 11
123.941
 21
67.20798499999999
 31
0.0
  0
LINE
  5
2DF
330
1E
100
AcDbEntity
  8
0
100
AcDbLine
 10
108.6759999999999
 20
80.20798499999999
 30
0.0
 11
117.324
 21
80.20798499999999
 31
0.0
  0
LINE
  5
321
330
1E
100
AcDbEntity
  8
0
100
AcDbLine
 10
117.324
 20
80.20798499999999
 30
0.0
 11
125.618
 21
80.20798499999999
 31
0.0
  0
LINE
  5
322
330
1E
100
AcDbEntity
  8
0
100
AcDbLine
 10
131.088
 20
67.20798499999999
 30
0.0
 11
137.3529999999999
 21
67.20798499999999
 31
0.0
  0
LINE
  5
323
330
1E
100
AcDbEntity
  8
0
100
AcDbLine
 10
142.647
 20
67.20798499999999
 30
0.0
 11
146.706
 21
67.20798499999999
 31
0.0
  0
LINE
  5
325
330
1E
100
AcDbEntity
  8
0
100
AcDbLine
 10
137.3529999999999
 20
67.20798499999999
 30
0.0
 11
142.647
 21
67.20798499999999
 31
0.0
  0
LINE
  5
326
330
1E
100
AcDbEntity
  8
0
100
AcDbLine
 10
132.9409999999999
 20
80.20798499999999
 30
0.0
 11
139.382
 21
80.20798499999999
 31
0.0
  0
LINE
  5
327
330
1E
100
AcDbEntity
  8
0
100
AcDbLine
 10
139.382
 20
80.20798499999999
 30
0.0
 11
144.941
 21
80.20798499999999
 31
0.0
  0
LINE
  5
328
330
1E
100
AcDbEntity
  8
0
100
AcDbLine
 10
146.706
 20
67.20798499999999
 30
0.0
 11
149.706
 21
67.20798499999999
 31
0.0
  0
LINE
  5
329
330
1E
100
AcDbEntity
  8
0
100
AcDbLine
 10
149.706
 20
67.20798499999999
 30
0.0
 11
151.647
 21
67.20798499999999
 31
0.0
  0
LINE
  5
32A
330
1E
100
AcDbEntity
  8
0
100
AcDbLine
 10
151.647
 20
67.20798499999999
 30
0.0
 11
152.3529999999999
 21
67.20798499999999
 31
0.0
  0
LINE
  5
32B
330
1E
100
AcDbEntity
  8
0
100
AcDbLine
 10
144.941
 20
80.20798499999999
 30
0.0
 11
149.176
 21
80.20798499999999
 31
0.0
  0
LINE
  5
32C
330
1E
100
AcDbEntity
  8
0
100
AcDbLine
 10
149.176
 20
80.20798499999999
 30
0.0
 11
152.2649999999999
 21
80.20798499999999
 31
0.0
  0
LINE
  5
32D
330
1E
100
AcDbEntity
  8
0
100
AcDbLine
 10
153.5879999999999
 20
67.70798499999999
 30
0.0
 11
154.5589999999999
 21
68.807985
 31
0.0
  0
LINE
  5
32E
330
1E
100
AcDbEntity
  8
0
100
AcDbLine
 10
155.0
 20
80.20798499999999
 30
0.0
 11
155.0
 21
70.20798499999999
 31
0.0
  0
LINE
  5
32F
330
1E
100
AcDbEntity
  8
0
100
AcDbLine
 10
154.5589999999999
 20
68.807985
 30
0.0
 11
155.0
 21
70.20798499999999
 31
0.0
  0
LINE
  5
330
330
1E
100
AcDbEntity
  8
0
100
AcDbLine
 10
155.0
 20
70.20798499999999
 30
0.0
 11
155.0
 21
80.20798499999999
 31
0.0
  0
LINE
  5
331
330
1E
100
AcDbEntity
  8
0
100
AcDbLine
 10
152.3529999999999
 20
67.20798499999999
 30
0.0
 11
153.5879999999999
 21
67.70798499999999
 31
0.0
  0
LINE
  5
332
330
1E
100
AcDbEntity
  8
0
100
AcDbLine
 10
152.2649999999999
 20
80.20798499999999
 30
0.0
 11
154.206
 21
80.20798499999999
 31
0.0
  0
LINE
  5
3C2
330
1E
100
AcDbEntity
  8
0
100
AcDbLine
 10
154.206
 20
80.20798499999999
 30
0.0
 11
155.0
 21
80.20798499999999
 31
0.0
  0
LINE
  5
3C3
330
1E
100
AcDbEntity
  8
0
100
AcDbLine
 10
125.618
 20
80.20798499999999
 30
0.0
 11
132.9409999999999
 21
80.20798499999999
 31
0.0
  0
LINE
  5
3C4
330
1E
100
AcDbEntity
  8
0
100
AcDbLine
 10
95.616
 20
48.207985
 30
0.0
 11
96.0
 21
47.631085
 31
0.0
  0
LINE
  5
3C5
330
1E
100
AcDbEntity
  8
0
100
AcDbLine
 10
95.0
 20
67.20798499999999
 30
0.0
 11
95.0
 21
60.807985
 31
0.0
  0
LINE
  5
3C6
330
1E
100
AcDbEntity
  8
0
100
AcDbLine
 10
95.0
 20
67.20798499999999
 30
0.0
 11
95.576
 21
67.20798499999999
 31
0.0
  0
ENDSEC
  0
SECTION
  2
OBJECTS
  0
DICTIONARY
  5
C
330
0
100
AcDbDictionary
281
     1
  3
ACAD_GROUP
350
D
  3
ACAD_LAYOUT
350
19
  3
ACAD_MLINESTYLE
350
16
  3
ACAD_PLOTSETTINGS
350
18
  3
ACAD_PLOTSTYLENAME
350
E
  3
AcDbVariableDictionary
350
3CB
  0
DICTIONARY
  5
D
102
{ACAD_REACTORS
330
C
102
}
330
C
100
AcDbDictionary
281
     1
  0
DICTIONARY
  5
19
102
{ACAD_REACTORS
330
C
102
}
330
C
100
AcDbDictionary
281
     1
  3
Layout1
350
1D
  3
Model
350
21
  0
DICTIONARY
  5
16
102
{ACAD_REACTORS
330
C
102
}
330
C
100
AcDbDictionary
281
     1
  3
Standard
350
17
  0
DICTIONARY
  5
18
102
{ACAD_REACTORS
330
C
102
}
330
C
100
AcDbDictionary
281
     1
  0
ACDBDICTIONARYWDFLT
  5
E
102
{ACAD_REACTORS
330
C
102
}
330
C
100
AcDbDictionary
281
     1
  3
Normal
350
F
100
AcDbDictionaryWithDefault
340
F
  0
DICTIONARY
  5
3CB
102
{ACAD_REACTORS
330
C
102
}
330
C
100
AcDbDictionary
281
     1
  3
DIMASSOC
350
3CC
  0
LAYOUT
  5
1D
102
{ACAD_REACTORS
330
19
102
}
330
19
100
AcDbPlotSettings
  1

  2
hp deskjet 980c series
  4

  6

 40
0.0
 41
0.0
 42
0.0
 43
0.0
 44
0.0
 45
0.0
 46
0.0
 47
0.0
 48
0.0
 49
0.0
140
0.0
141
0.0
142
1.0
143
1.0
 70
   688
 72
     0
 73
     0
 74
     5
  7

 75
    16
147
1.0
148
0.0
149
0.0
100
AcDbLayout
  1
Layout1
 70
     1
 71
     1
 10
0.0
 20
0.0
 11
12.0
 21
9.0
 12
0.0
 22
0.0
 32
0.0
 14
1.000000000000000E+20
 24
1.000000000000000E+20
 34
1.000000000000000E+20
 15
-1.000000000000000E+20
 25
-1.000000000000000E+20
 35
-1.000000000000000E+20
146
0.0
 13
0.0
 23
0.0
 33
0.0
 16
1.0
 26
0.0
 36
0.0
 17
0.0
 27
1.0
 37
0.0
 76
     0
330
1A
  0
LAYOUT
  5
21
102
{ACAD_REACTORS
330
19
102
}
330
19
100
AcDbPlotSettings
  1

  2
hp deskjet 980c series
  4

  6

 40
0.0
 41
0.0
 42
0.0
 43
0.0
 44
0.0
 45
0.0
 46
0.0
 47
0.0
 48
0.0
 49
0.0
140
0.0
141
0.0
142
1.0
143
1.0
 70
  1712
 72
     0
 73
     0
 74
     0
  7

 75
     0
147
1.0
148
0.0
149
0.0
100
AcDbLayout
  1
Model
 70
     1
 71
     0
 10
0.0
 20
0.0
 11
12.0
 21
9.0
 12
0.0
 22
0.0
 32
0.0
 14
0.0
 24
0.0
 34
0.0
 15
0.0
 25
0.0
 35
0.0
146
0.0
 13
0.0
 23
0.0
 33
0.0
 16
1.0
 26
0.0
 36
0.0
 17
0.0
 27
1.0
 37
0.0
 76
     0
330
1E
  0
MLINESTYLE
  5
17
102
{ACAD_REACTORS
330
16
102
}
330
16
100
AcDbMlineStyle
  2
STANDARD
 70
     0
  3

 62
   256
 51
90.0
 52
90.0
 71
     2
 49
0.5
 62
   256
  6
BYLAYER
 49
-0.5
 62
   256
  6
BYLAYER
  0
ACDBPLACEHOLDER
  5
F
102
{ACAD_REACTORS
330
E
102
}
330
E
  0
DICTIONARYVAR
  5
3CC
102
{ACAD_REACTORS
330
3CB
102
}
330
3CB
100
DictionaryVariables
280
     0
  1
1
  0
ENDSEC
  0
EOF
