  0
SECTION
  2
HEADER
  9
$ACADVER
  1
AC1015
  9
$ACADMAINTVER
 70
    13
  9
$DWGCODEPAGE
  3
ANSI_1252
  9
$INSBASE
 10
0.0
 20
0.0
 30
0.0
  9
$EXTMIN
 10
-0.0865000000000009
 20
0.0184999999999549
 30
0.0
  9
$EXTMAX
 10
246.0865
 20
936.9815
 30
0.0
  9
$LIMMIN
 10
0.0
 20
0.0
  9
$LIMMAX
 10
12.0
 20
9.0
  9
$ORTHOMODE
 70
     0
  9
$REGENMODE
 70
     1
  9
$FILLMODE
 70
     1
  9
$QTEXTMODE
 70
     0
  9
$MIRRTEXT
 70
     1
  9
$LTSCALE
 40
1.0
  9
$ATTMODE
 70
     1
  9
$TEXTSIZE
 40
0.2
  9
$TRACEWID
 40
0.05
  9
$TEXTSTYLE
  7
Standard
  9
$CLAYER
  8
0
  9
$CELTYPE
  6
Continuous
  9
$CECOLOR
 62
   256
  9
$CELTSCALE
 40
1.0
  9
$DISPSILH
 70
     0
  9
$DIMSCALE
 40
1.0
  9
$DIMASZ
 40
0.18
  9
$DIMEXO
 40
0.0625
  9
$DIMDLI
 40
0.38
  9
$DIMRND
 40
0.0
  9
$DIMDLE
 40
0.0
  9
$DIMEXE
 40
0.18
  9
$DIMTP
 40
0.0
  9
$DIMTM
 40
0.0
  9
$DIMTXT
 40
0.18
  9
$DIMCEN
 40
0.09
  9
$DIMTSZ
 40
0.0
  9
$DIMTOL
 70
     0
  9
$DIMLIM
 70
     0
  9
$DIMTIH
 70
     1
  9
$DIMTOH
 70
     1
  9
$DIMSE1
 70
     0
  9
$DIMSE2
 70
     0
  9
$DIMTAD
 70
     0
  9
$DIMZIN
 70
     0
  9
$DIMBLK
  1

  9
$DIMASO
 70
     1
  9
$DIMSHO
 70
     1
  9
$DIMPOST
  1

  9
$DIMAPOST
  1

  9
$DIMALT
 70
     0
  9
$DIMALTD
 70
     2
  9
$DIMALTF
 40
25.4
  9
$DIMLFAC
 40
1.0
  9
$DIMTOFL
 70
     0
  9
$DIMTVP
 40
0.0
  9
$DIMTIX
 70
     0
  9
$DIMSOXD
 70
     0
  9
$DIMSAH
 70
     0
  9
$DIMBLK1
  1

  9
$DIMBLK2
  1

  9
$DIMSTYLE
  2
Standard
  9
$DIMCLRD
 70
     0
  9
$DIMCLRE
 70
     0
  9
$DIMCLRT
 70
     0
  9
$DIMTFAC
 40
1.0
  9
$DIMGAP
 40
0.09
  9
$DIMJUST
 70
     0
  9
$DIMSD1
 70
     0
  9
$DIMSD2
 70
     0
  9
$DIMTOLJ
 70
     1
  9
$DIMTZIN
 70
     0
  9
$DIMALTZ
 70
     0
  9
$DIMALTTZ
 70
     0
  9
$DIMUPT
 70
     0
  9
$DIMDEC
 70
     4
  9
$DIMTDEC
 70
     4
  9
$DIMALTU
 70
     2
  9
$DIMALTTD
 70
     2
  9
$DIMTXSTY
  7
Standard
  9
$DIMAUNIT
 70
     0
  9
$DIMADEC
 70
     0
  9
$DIMALTRND
 40
0.0
  9
$DIMAZIN
 70
     0
  9
$DIMDSEP
 70
    46
  9
$DIMATFIT
 70
     3
  9
$DIMFRAC
 70
     0
  9
$DIMLDRBLK
  1

  9
$DIMLUNIT
 70
     2
  9
$DIMLWD
 70
    -2
  9
$DIMLWE
 70
    -2
  9
$DIMTMOVE
 70
     0
  9
$LUNITS
 70
     2
  9
$LUPREC
 70
     4
  9
$SKETCHINC
 40
0.1
  9
$FILLETRAD
 40
0.0
  9
$AUNITS
 70
     0
  9
$AUPREC
 70
     0
  9
$MENU
  1
.
  9
$ELEVATION
 40
0.0
  9
$PELEVATION
 40
0.0
  9
$THICKNESS
 40
0.0
  9
$LIMCHECK
 70
     0
  9
$CHAMFERA
 40
0.0
  9
$CHAMFERB
 40
0.0
  9
$CHAMFERC
 40
0.0
  9
$CHAMFERD
 40
0.0
  9
$SKPOLY
 70
     0
  9
$TDCREATE
 40
2454833.619746088
  9
$TDUCREATE
 40
2454833.578079421
  9
$TDUPDATE
 40
2454833.620849421
  9
$TDUUPDATE
 40
2454833.579182754
  9
$TDINDWG
 40
0.0011033333
  9
$TDUSRTIMER
 40
0.0011033333
  9
$USRTIMER
 70
     1
  9
$ANGBASE
 50
0.0
  9
$ANGDIR
 70
     0
  9
$PDMODE
 70
     0
  9
$PDSIZE
 40
0.0
  9
$PLINEWID
 40
0.0
  9
$SPLFRAME
 70
     0
  9
$SPLINETYPE
 70
     6
  9
$SPLINESEGS
 70
     8
  9
$HANDSEED
  5
7BE
  9
$SURFTAB1
 70
     6
  9
$SURFTAB2
 70
     6
  9
$SURFTYPE
 70
     6
  9
$SURFU
 70
     6
  9
$SURFV
 70
     6
  9
$UCSBASE
  2

  9
$UCSNAME
  2

  9
$UCSORG
 10
0.0
 20
0.0
 30
0.0
  9
$UCSXDIR
 10
1.0
 20
0.0
 30
0.0
  9
$UCSYDIR
 10
0.0
 20
1.0
 30
0.0
  9
$UCSORTHOREF
  2

  9
$UCSORTHOVIEW
 70
     1
  9
$UCSORGTOP
 10
0.0
 20
0.0
 30
0.0
  9
$UCSORGBOTTOM
 10
0.0
 20
0.0
 30
0.0
  9
$UCSORGLEFT
 10
0.0
 20
0.0
 30
0.0
  9
$UCSORGRIGHT
 10
0.0
 20
0.0
 30
0.0
  9
$UCSORGFRONT
 10
0.0
 20
0.0
 30
0.0
  9
$UCSORGBACK
 10
0.0
 20
0.0
 30
0.0
  9
$PUCSBASE
  2

  9
$PUCSNAME
  2

  9
$PUCSORG
 10
0.0
 20
0.0
 30
0.0
  9
$PUCSXDIR
 10
1.0
 20
0.0
 30
0.0
  9
$PUCSYDIR
 10
0.0
 20
1.0
 30
0.0
  9
$PUCSORTHOREF
  2

  9
$PUCSORTHOVIEW
 70
     0
  9
$PUCSORGTOP
 10
0.0
 20
0.0
 30
0.0
  9
$PUCSORGBOTTOM
 10
0.0
 20
0.0
 30
0.0
  9
$PUCSORGLEFT
 10
0.0
 20
0.0
 30
0.0
  9
$PUCSORGRIGHT
 10
0.0
 20
0.0
 30
0.0
  9
$PUCSORGFRONT
 10
0.0
 20
0.0
 30
0.0
  9
$PUCSORGBACK
 10
0.0
 20
0.0
 30
0.0
  9
$USERI1
 70
     0
  9
$USERI2
 70
     0
  9
$USERI3
 70
     0
  9
$USERI4
 70
     0
  9
$USERI5
 70
     0
  9
$USERR1
 40
0.0
  9
$USERR2
 40
0.0
  9
$USERR3
 40
0.0
  9
$USERR4
 40
0.0
  9
$USERR5
 40
0.0
  9
$WORLDVIEW
 70
     1
  9
$SHADEDGE
 70
     3
  9
$SHADEDIF
 70
    70
  9
$TILEMODE
 70
     1
  9
$MAXACTVP
 70
    64
  9
$PINSBASE
 10
0.0
 20
0.0
 30
0.0
  9
$PLIMCHECK
 70
     0
  9
$PEXTMIN
 10
1.000000000000000E+20
 20
1.000000000000000E+20
 30
1.000000000000000E+20
  9
$PEXTMAX
 10
-1.000000000000000E+20
 20
-1.000000000000000E+20
 30
-1.000000000000000E+20
  9
$PLIMMIN
 10
0.0
 20
0.0
  9
$PLIMMAX
 10
12.0
 20
9.0
  9
$UNITMODE
 70
     0
  9
$VISRETAIN
 70
     1
  9
$PLINEGEN
 70
     0
  9
$PSLTSCALE
 70
     1
  9
$TREEDEPTH
 70
  3020
  9
$CMLSTYLE
  2
Standard
  9
$CMLJUST
 70
     0
  9
$CMLSCALE
 40
1.0
  9
$PROXYGRAPHICS
 70
     1
  9
$MEASUREMENT
 70
     0
  9
$CELWEIGHT
370
    -1
  9
$ENDCAPS
280
     0
  9
$JOINSTYLE
280
     0
  9
$LWDISPLAY
290
     0
  9
$INSUNITS
 70
     0
  9
$HYPERLINKBASE
  1

  9
$STYLESHEET
  1

  9
$XEDIT
290
     1
  9
$CEPSNTYPE
380
     0
  9
$PSTYLEMODE
290
     1
  9
$FINGERPRINTGUID
  2
{BF5B2C02-5E04-4BE5-AF75-F37BA6AA4C46}
  9
$VERSIONGUID
  2
{1BF61AD7-8C6E-49F0-BAA7-88CDEF548459}
  9
$EXTNAMES
290
     1
  9
$PSVPSCALE
 40
0.0
  9
$OLESTARTUP
290
     0
  0
ENDSEC
  0
SECTION
  2
CLASSES
  0
CLASS
  1
ACDBDICTIONARYWDFLT
  2
AcDbDictionaryWithDefault
  3
AutoCAD 2000
 90
        0
280
     0
281
     0
  0
CLASS
  1
ACDBPLACEHOLDER
  2
AcDbPlaceHolder
  3
AutoCAD 2000
 90
        0
280
     0
281
     0
  0
CLASS
  1
LAYOUT
  2
AcDbLayout
  3
AutoCAD 2000
 90
        0
280
     0
281
     0
  0
CLASS
  1
DICTIONARYVAR
  2
AcDbDictionaryVar
  3
AutoCAD 2000
 90
        0
280
     0
281
     0
  0
ENDSEC
  0
SECTION
  2
TABLES
  0
TABLE
  2
VPORT
  5
8
330
0
100
AcDbSymbolTable
 70
     2
  0
VPORT
  5
7BD
330
8
100
AcDbSymbolTableRecord
100
AcDbViewportTableRecord
  2
*Active
 70
     0
 10
0.0
 20
0.0
 11
1.0
 21
1.0
 12
123.0
 22
468.5
 13
0.0
 23
0.0
 14
1.0
 24
1.0
 15
0.0
 25
0.0
 16
0.0
 26
0.0
 36
1.0
 17
0.0
 27
0.0
 37
0.0
 40
944.1519744245525
 41
2.078104993597951
 42
50.0
 43
0.0
 44
0.0
 50
0.0
 51
0.0
 71
     0
 72
   100
 73
     1
 74
     3
 75
     0
 76
     0
 77
     0
 78
     0
281
     0
 65
     1
110
0.0
120
0.0
130
0.0
111
1.0
121
0.0
131
0.0
112
0.0
122
1.0
132
0.0
 79
     1
146
0.0
  0
ENDTAB
  0
TABLE
  2
LTYPE
  5
5
330
0
100
AcDbSymbolTable
 70
     1
  0
LTYPE
  5
13
330
5
100
AcDbSymbolTableRecord
100
AcDbLinetypeTableRecord
  2
ByBlock
 70
     0
  3

 72
    65
 73
     0
 40
0.0
  0
LTYPE
  5
14
330
5
100
AcDbSymbolTableRecord
100
AcDbLinetypeTableRecord
  2
ByLayer
 70
     0
  3

 72
    65
 73
     0
 40
0.0
  0
LTYPE
  5
15
330
5
100
AcDbSymbolTableRecord
100
AcDbLinetypeTableRecord
  2
Continuous
 70
     0
  3
Solid line
 72
    65
 73
     0
 40
0.0
  0
ENDTAB
  0
TABLE
  2
LAYER
  5
2
330
0
100
AcDbSymbolTable
 70
     1
  0
LAYER
  5
10
330
2
100
AcDbSymbolTableRecord
100
AcDbLayerTableRecord
  2
0
 70
     0
 62
     7
  6
Continuous
370
    -3
390
F
  0
ENDTAB
  0
TABLE
  2
STYLE
  5
3
330
0
100
AcDbSymbolTable
 70
     1
  0
STYLE
  5
11
330
3
100
AcDbSymbolTableRecord
100
AcDbTextStyleTableRecord
  2
Standard
 70
     0
 40
0.0
 41
1.0
 50
0.0
 71
     0
 42
0.2
  3
txt
  4

  0
ENDTAB
  0
TABLE
  2
VIEW
  5
6
330
0
100
AcDbSymbolTable
 70
     0
  0
ENDTAB
  0
TABLE
  2
UCS
  5
7
330
0
100
AcDbSymbolTable
 70
     0
  0
ENDTAB
  0
TABLE
  2
APPID
  5
9
330
0
100
AcDbSymbolTable
 70
     1
  0
APPID
  5
12
330
9
100
AcDbSymbolTableRecord
100
AcDbRegAppTableRecord
  2
ACAD
 70
     0
  0
ENDTAB
  0
TABLE
  2
DIMSTYLE
  5
A
330
0
100
AcDbSymbolTable
 70
     1
100
AcDbDimStyleTable
 71
     0
  0
DIMSTYLE
105
3FF
330
A
100
AcDbSymbolTableRecord
100
AcDbDimStyleTableRecord
  2
Standard
 70
     0
340
11
  0
ENDTAB
  0
TABLE
  2
BLOCK_RECORD
  5
1
330
0
100
AcDbSymbolTable
 70
     1
  0
BLOCK_RECORD
  5
1E
330
1
100
AcDbSymbolTableRecord
100
AcDbBlockTableRecord
  2
*Model_Space
340
21
  0
BLOCK_RECORD
  5
1A
330
1
100
AcDbSymbolTableRecord
100
AcDbBlockTableRecord
  2
*Paper_Space
340
1D
  0
ENDTAB
  0
ENDSEC
  0
SECTION
  2
BLOCKS
  0
BLOCK
  5
1F
330
1E
100
AcDbEntity
  8
0
100
AcDbBlockBegin
  2
*Model_Space
 70
     0
 10
0.0
 20
0.0
 30
0.0
  3
*Model_Space
  1

  0
ENDBLK
  5
20
330
1E
100
AcDbEntity
  8
0
100
AcDbBlockEnd
  0
BLOCK
  5
1B
330
1A
100
AcDbEntity
 67
     1
  8
0
100
AcDbBlockBegin
  2
*Paper_Space
 70
     0
 10
0.0
 20
0.0
 30
0.0
  3
*Paper_Space
  1

  0
ENDBLK
  5
1C
330
1A
100
AcDbEntity
 67
     1
  8
0
100
AcDbBlockEnd
  0
ENDSEC
  0
SECTION
  2
ENTITIES
  0
LINE
  5
22
330
1E
100
AcDbEntity
  8
0
100
AcDbLine
 10
166.0304999999999
 20
686.4815
 30
0.0
 11
166.6964999999999
 21
681.8194999999999
 31
0.0
  0
LINE
  5
23
330
1E
100
AcDbEntity
  8
0
100
AcDbLine
 10
166.0304999999999
 20
686.4815
 30
0.0
 11
166.6964999999999
 21
691.1434999999999
 31
0.0
  0
LINE
  5
24
330
1E
100
AcDbEntity
  8
0
100
AcDbLine
 10
166.2525
 20
691.2174999999999
 30
0.0
 11
167.676631987623
 21
694.777829969057
 31
0.0
  0
LINE
  5
25
330
1E
100
AcDbEntity
  8
0
100
AcDbLine
 10
166.2525
 20
691.2174999999999
 30
0.0
 11
168.0285
 21
695.6575
 31
0.0
  0
LINE
  5
26
330
1E
100
AcDbEntity
  8
0
100
AcDbLine
 10
165.5865
 20
686.4815
 30
0.0
 11
166.2525
 21
681.7454999999999
 31
0.0
  0
LINE
  5
27
330
1E
100
AcDbEntity
  8
0
100
AcDbLine
 10
165.5865
 20
686.4815
 30
0.0
 11
166.2525
 21
691.2174999999999
 31
0.0
  0
LINE
  5
28
330
1E
100
AcDbEntity
  8
0
100
AcDbLine
 10
166.2525
 20
681.7454999999999
 30
0.0
 11
168.0285
 21
677.3055
 31
0.0
  0
LINE
  5
29
330
1E
100
AcDbEntity
  8
0
100
AcDbLine
 10
173.5864999999999
 20
267.9815
 30
0.0
 11
173.9864999999999
 21
267.9815
 31
0.0
  0
LINE
  5
2A
330
1E
100
AcDbEntity
  8
0
100
AcDbLine
 10
173.9864999999999
 20
267.9815
 30
0.0
 11
174.9864999999999
 21
267.9815
 31
0.0
  0
LINE
  5
2B
330
1E
100
AcDbEntity
  8
0
100
AcDbLine
 10
174.9864999999999
 20
267.9815
 30
0.0
 11
176.6864999999999
 21
267.9815
 31
0.0
  0
LINE
  5
2C
330
1E
100
AcDbEntity
  8
0
100
AcDbLine
 10
176.6864999999999
 20
267.9815
 30
0.0
 11
178.8865
 21
267.9815
 31
0.0
  0
LINE
  5
2D
330
1E
100
AcDbEntity
  8
0
100
AcDbLine
 10
173.4865
 20
268.4814999999999
 30
0.0
 11
174.5865
 21
268.4814999999999
 31
0.0
  0
LINE
  5
2E
330
1E
100
AcDbEntity
  8
0
100
AcDbLine
 10
174.5865
 20
268.4814999999999
 30
0.0
 11
176.2864999999999
 21
268.4814999999999
 31
0.0
  0
LINE
  5
2F
330
1E
100
AcDbEntity
  8
0
100
AcDbLine
 10
173.4865
 20
319.4814999999999
 30
0.0
 11
174.5865
 21
319.4814999999999
 31
0.0
  0
LINE
  5
30
330
1E
100
AcDbEntity
  8
0
100
AcDbLine
 10
176.2864999999999
 20
268.4814999999999
 30
0.0
 11
178.5865
 21
268.4814999999999
 31
0.0
  0
LINE
  5
31
330
1E
100
AcDbEntity
  8
0
100
AcDbLine
 10
178.5865
 20
268.4814999999999
 30
0.0
 11
181.2865
 21
268.4814999999999
 31
0.0
  0
LINE
  5
32
330
1E
100
AcDbEntity
  8
0
100
AcDbLine
 10
174.5865
 20
319.4814999999999
 30
0.0
 11
176.2864999999999
 21
319.4814999999999
 31
0.0
  0
LINE
  5
33
330
1E
100
AcDbEntity
  8
0
100
AcDbLine
 10
176.2864999999999
 20
319.4814999999999
 30
0.0
 11
178.5865
 21
319.4814999999999
 31
0.0
  0
LINE
  5
34
330
1E
100
AcDbEntity
  8
0
100
AcDbLine
 10
181.2865
 20
268.4814999999999
 30
0.0
 11
184.0864999999999
 21
268.4814999999999
 31
0.0
  0
LINE
  5
35
330
1E
100
AcDbEntity
  8
0
100
AcDbLine
 10
178.5865
 20
319.4814999999999
 30
0.0
 11
181.2865
 21
319.4814999999999
 31
0.0
  0
LINE
  5
36
330
1E
100
AcDbEntity
  8
0
100
AcDbLine
 10
181.2865
 20
319.4814999999999
 30
0.0
 11
184.0864999999999
 21
319.4814999999999
 31
0.0
  0
LINE
  5
37
330
1E
100
AcDbEntity
  8
0
100
AcDbLine
 10
173.0865
 20
268.4814999999999
 30
0.0
 11
173.5864999999999
 21
267.9815
 31
0.0
  0
LINE
  5
38
330
1E
100
AcDbEntity
  8
0
100
AcDbLine
 10
173.0865
 20
268.4814999999999
 30
0.0
 11
173.0865
 21
319.4814999999999
 31
0.0
  0
LINE
  5
39
330
1E
100
AcDbEntity
  8
0
100
AcDbLine
 10
173.0865
 20
268.4814999999999
 30
0.0
 11
173.4865
 21
268.4814999999999
 31
0.0
  0
LINE
  5
3A
330
1E
100
AcDbEntity
  8
0
100
AcDbLine
 10
178.8865
 20
267.9815
 30
0.0
 11
181.3865
 21
267.9815
 31
0.0
  0
LINE
  5
3B
330
1E
100
AcDbEntity
  8
0
100
AcDbLine
 10
181.3865
 20
267.9815
 30
0.0
 11
184.0864999999999
 21
267.9815
 31
0.0
  0
LINE
  5
3C
330
1E
100
AcDbEntity
  8
0
100
AcDbLine
 10
173.5864999999999
 20
319.9815
 30
0.0
 11
173.9864999999999
 21
319.9815
 31
0.0
  0
LINE
  5
3D
330
1E
100
AcDbEntity
  8
0
100
AcDbLine
 10
173.9864999999999
 20
319.9815
 30
0.0
 11
174.9864999999999
 21
319.9815
 31
0.0
  0
LINE
  5
3E
330
1E
100
AcDbEntity
  8
0
100
AcDbLine
 10
174.9864999999999
 20
319.9815
 30
0.0
 11
176.6864999999999
 21
319.9815
 31
0.0
  0
LINE
  5
3F
330
1E
100
AcDbEntity
  8
0
100
AcDbLine
 10
176.6864999999999
 20
319.9815
 30
0.0
 11
178.8865
 21
319.9815
 31
0.0
  0
LINE
  5
40
330
1E
100
AcDbEntity
  8
0
100
AcDbLine
 10
170.9884999999999
 20
673.3835
 30
0.0
 11
174.9105
 21
670.4234999999999
 31
0.0
  0
LINE
  5
41
330
1E
100
AcDbEntity
  8
0
100
AcDbLine
 10
171.3584999999999
 20
673.7535
 30
0.0
 11
175.1325
 21
670.8674999999999
 31
0.0
  0
LINE
  5
42
330
1E
100
AcDbEntity
  8
0
100
AcDbLine
 10
166.6964999999999
 20
691.1434999999999
 30
0.0
 11
168.4725
 21
695.4355
 31
0.0
  0
LINE
  5
43
330
1E
100
AcDbEntity
  8
0
100
AcDbLine
 10
168.4725
 20
695.4355
 30
0.0
 11
171.3584999999999
 21
699.2095
 31
0.0
  0
LINE
  5
44
330
1E
100
AcDbEntity
  8
0
100
AcDbLine
 10
168.0285
 20
695.6575
 30
0.0
 11
170.9884999999999
 21
699.5795000000001
 31
0.0
  0
LINE
  5
45
330
1E
100
AcDbEntity
  8
0
100
AcDbLine
 10
166.6964999999999
 20
681.8194999999999
 30
0.0
 11
168.4725
 21
677.5275
 31
0.0
  0
LINE
  5
46
330
1E
100
AcDbEntity
  8
0
100
AcDbLine
 10
168.4725
 20
677.5275
 30
0.0
 11
171.3584999999999
 21
673.7535
 31
0.0
  0
LINE
  5
47
330
1E
100
AcDbEntity
  8
0
100
AcDbLine
 10
168.0285
 20
677.3055
 30
0.0
 11
170.9884999999999
 21
673.3835
 31
0.0
  0
LINE
  5
48
330
1E
100
AcDbEntity
  8
0
100
AcDbLine
 10
173.4865
 20
320.4825
 30
0.0
 11
174.5865
 21
320.4825
 31
0.0
  0
LINE
  5
49
330
1E
100
AcDbEntity
  8
0
100
AcDbLine
 10
174.5865
 20
320.4825
 30
0.0
 11
176.2864999999999
 21
320.4825
 31
0.0
  0
LINE
  5
4A
330
1E
100
AcDbEntity
  8
0
100
AcDbLine
 10
176.2864999999999
 20
320.4825
 30
0.0
 11
178.5865
 21
320.4825
 31
0.0
  0
LINE
  5
4B
330
1E
100
AcDbEntity
  8
0
100
AcDbLine
 10
178.5865
 20
320.4825
 30
0.0
 11
181.2865
 21
320.4825
 31
0.0
  0
LINE
  5
4C
330
1E
100
AcDbEntity
  8
0
100
AcDbLine
 10
174.9105
 20
670.4234999999999
 30
0.0
 11
179.3505
 21
668.6475
 31
0.0
  0
LINE
  5
4D
330
1E
100
AcDbEntity
  8
0
100
AcDbLine
 10
175.1325
 20
670.8674999999999
 30
0.0
 11
179.4245
 21
669.0915
 31
0.0
  0
LINE
  5
4E
330
1E
100
AcDbEntity
  8
0
100
AcDbLine
 10
179.3505
 20
668.6475
 30
0.0
 11
184.0864999999999
 21
667.9814999999999
 31
0.0
  0
LINE
  5
4F
330
1E
100
AcDbEntity
  8
0
100
AcDbLine
 10
179.4245
 20
669.0915
 30
0.0
 11
184.0864999999999
 21
668.4255
 31
0.0
  0
LINE
  5
50
330
1E
100
AcDbEntity
  8
0
100
AcDbLine
 10
181.2865
 20
320.4825
 30
0.0
 11
184.0864999999999
 21
320.4825
 31
0.0
  0
LINE
  5
51
330
1E
100
AcDbEntity
  8
0
100
AcDbLine
 10
173.0865
 20
320.4825
 30
0.0
 11
173.5864999999999
 21
319.9815
 31
0.0
  0
LINE
  5
52
330
1E
100
AcDbEntity
  8
0
100
AcDbLine
 10
173.0865
 20
320.4825
 30
0.0
 11
173.0865
 21
671.800103773585
 31
0.0
  0
LINE
  5
53
330
1E
100
AcDbEntity
  8
0
100
AcDbLine
 10
173.0865
 20
320.4825
 30
0.0
 11
173.4865
 21
320.4825
 31
0.0
  0
LINE
  5
54
330
1E
100
AcDbEntity
  8
0
100
AcDbLine
 10
178.8865
 20
319.9815
 30
0.0
 11
181.3865
 21
319.9815
 31
0.0
  0
LINE
  5
55
330
1E
100
AcDbEntity
  8
0
100
AcDbLine
 10
181.3865
 20
319.9815
 30
0.0
 11
184.0864999999999
 21
319.9815
 31
0.0
  0
LINE
  5
56
330
1E
100
AcDbEntity
  8
0
100
AcDbLine
 10
173.0865
 20
319.4814999999999
 30
0.0
 11
173.5864999999999
 21
319.9815
 31
0.0
  0
LINE
  5
57
330
1E
100
AcDbEntity
  8
0
100
AcDbLine
 10
173.0865
 20
319.4814999999999
 30
0.0
 11
173.0865
 21
268.4814999999999
 31
0.0
  0
LINE
  5
58
330
1E
100
AcDbEntity
  8
0
100
AcDbLine
 10
173.0865
 20
319.4814999999999
 30
0.0
 11
173.4865
 21
319.4814999999999
 31
0.0
  0
LINE
  5
59
330
1E
100
AcDbEntity
  8
0
100
AcDbLine
 10
166.64253
 20
695.6235
 30
0.0
 11
166.974640895169
 21
695.864517621065
 31
0.0
  0
LINE
  5
5A
330
1E
100
AcDbEntity
  8
0
100
AcDbLine
 10
166.64253
 20
695.6235
 30
0.0
 11
166.99253
 21
695.8775000000001
 31
0.0
  0
LINE
  5
5B
330
1E
100
AcDbEntity
  8
0
100
AcDbLine
 10
165.567529
 20
696.1104999999999
 30
0.0
 11
166.574529
 21
696.8484999999999
 31
0.0
  0
LINE
  5
5C
330
1E
100
AcDbEntity
  8
0
100
AcDbLine
 10
166.974640895169
 20
695.864517621065
 30
0.0
 11
167.676631987623
 21
694.777829969057
 31
0.0
  0
LINE
  5
5D
330
1E
100
AcDbEntity
  8
0
100
AcDbLine
 10
169.47753
 20
697.6835
 30
0.0
 11
169.654822557582
 21
697.8123773887959
 31
0.0
  0
LINE
  5
5E
330
1E
100
AcDbEntity
  8
0
100
AcDbLine
 10
167.92453
 20
696.5555000000001
 30
0.0
 11
169.47753
 21
697.6835
 31
0.0
  0
LINE
  5
5F
330
1E
100
AcDbEntity
  8
0
100
AcDbLine
 10
166.99253
 20
695.8775000000001
 30
0.0
 11
167.92453
 21
696.5555000000001
 31
0.0
  0
LINE
  5
60
330
1E
100
AcDbEntity
  8
0
100
AcDbLine
 10
166.574529
 20
696.8484999999999
 30
0.0
 11
168.25153
 21
698.0785
 31
0.0
  0
LINE
  5
61
330
1E
100
AcDbEntity
  8
0
100
AcDbLine
 10
168.25153
 20
698.0785
 30
0.0
 11
170.47353
 21
699.7084999999999
 31
0.0
  0
LINE
  5
62
330
1E
100
AcDbEntity
  8
0
100
AcDbLine
 10
171.3584999999999
 20
699.2095
 30
0.0
 11
175.1325
 21
702.0955
 31
0.0
  0
LINE
  5
63
330
1E
100
AcDbEntity
  8
0
100
AcDbLine
 10
170.9884999999999
 20
699.5795000000001
 30
0.0
 11
174.9105
 21
702.5394999999999
 31
0.0
  0
LINE
  5
64
330
1E
100
AcDbEntity
  8
0
100
AcDbLine
 10
170.47353
 20
699.7084999999999
 30
0.0
 11
172.98953
 21
701.5534999999999
 31
0.0
  0
LINE
  5
65
330
1E
100
AcDbEntity
  8
0
100
AcDbLine
 10
175.1325
 20
702.0955
 30
0.0
 11
179.4245
 21
703.8714999999999
 31
0.0
  0
LINE
  5
66
330
1E
100
AcDbEntity
  8
0
100
AcDbLine
 10
174.9105
 20
702.5394999999999
 30
0.0
 11
179.3505
 21
704.3155
 31
0.0
  0
LINE
  5
67
330
1E
100
AcDbEntity
  8
0
100
AcDbLine
 10
177.6651350364969
 20
703.6413540145989
 30
0.0
 11
178.6154999999999
 21
704.3365
 31
0.0
  0
LINE
  5
68
330
1E
100
AcDbEntity
  8
0
100
AcDbLine
 10
175.54053
 20
703.4244999999999
 30
0.0
 11
178.2345
 21
705.3785
 31
0.0
  0
LINE
  5
69
330
1E
100
AcDbEntity
  8
0
100
AcDbLine
 10
179.4245
 20
703.8714999999999
 30
0.0
 11
184.0864999999999
 21
704.5374999999999
 31
0.0
  0
LINE
  5
6A
330
1E
100
AcDbEntity
  8
0
100
AcDbLine
 10
179.3505
 20
704.3155
 30
0.0
 11
184.0864999999999
 21
704.9814999999999
 31
0.0
  0
LINE
  5
6B
330
1E
100
AcDbEntity
  8
0
100
AcDbLine
 10
179.45139928117
 20
704.329688961414
 30
0.0
 11
181.2766
 21
705.3835
 31
0.0
  0
LINE
  5
6C
330
1E
100
AcDbEntity
  8
0
100
AcDbLine
 10
178.6154999999999
 20
704.3365
 30
0.0
 11
180.9395
 21
706.0375
 31
0.0
  0
LINE
  5
6D
330
1E
100
AcDbEntity
  8
0
100
AcDbLine
 10
178.2345
 20
705.3785
 30
0.0
 11
180.7595
 21
707.2095
 31
0.0
  0
LINE
  5
6E
330
1E
100
AcDbEntity
  8
0
100
AcDbLine
 10
181.2766
 20
705.3835
 30
0.0
 11
183.3550999999999
 21
706.5834999999999
 31
0.0
  0
LINE
  5
6F
330
1E
100
AcDbEntity
  8
0
100
AcDbLine
 10
180.9395
 20
706.0375
 30
0.0
 11
182.9925
 21
707.5395
 31
0.0
  0
LINE
  5
70
330
1E
100
AcDbEntity
  8
0
100
AcDbLine
 10
180.7595
 20
707.2095
 30
0.0
 11
182.9914999999999
 21
708.8275
 31
0.0
  0
LINE
  5
72
330
1E
100
AcDbEntity
  8
0
100
AcDbLine
 10
172.98953
 20
701.5534999999999
 30
0.0
 11
175.54053
 21
703.4244999999999
 31
0.0
  0
LINE
  5
76
330
1E
100
AcDbEntity
  8
0
100
AcDbLine
 10
165.190529
 20
695.8334999999999
 30
0.0
 11
166.64253
 21
695.6235
 31
0.0
  0
LINE
  5
77
330
1E
100
AcDbEntity
  8
0
100
AcDbLine
 10
165.190529
 20
695.8334999999999
 30
0.0
 11
165.567529
 21
696.1104999999999
 31
0.0
  0
LINE
  5
78
330
1E
100
AcDbEntity
  8
0
100
AcDbLine
 10
184.0864999999999
 20
268.4814999999999
 30
0.0
 11
216.961463136011
 21
268.4814999999999
 31
0.0
  0
LINE
  5
79
330
1E
100
AcDbEntity
  8
0
100
AcDbLine
 10
184.0864999999999
 20
319.4814999999999
 30
0.0
 11
216.9221801247349
 21
319.4814999999999
 31
0.0
  0
LINE
  5
7A
330
1E
100
AcDbEntity
  8
0
100
AcDbLine
 10
184.0864999999999
 20
320.4825
 30
0.0
 11
186.8865
 21
320.4825
 31
0.0
  0
LINE
  5
7B
330
1E
100
AcDbEntity
  8
0
100
AcDbLine
 10
184.0864999999999
 20
319.9815
 30
0.0
 11
216.921794997174
 21
319.9815
 31
0.0
  0
LINE
  5
7C
330
1E
100
AcDbEntity
  8
0
100
AcDbLine
 10
184.0864999999999
 20
667.9814999999999
 30
0.0
 11
188.8225
 21
668.6475
 31
0.0
  0
LINE
  5
7D
330
1E
100
AcDbEntity
  8
0
100
AcDbLine
 10
184.0864999999999
 20
704.5374999999999
 30
0.0
 11
188.7485
 21
703.8714999999999
 31
0.0
  0
LINE
  5
7E
330
1E
100
AcDbEntity
  8
0
100
AcDbLine
 10
184.0864999999999
 20
704.9814999999999
 30
0.0
 11
188.8225
 21
704.3155
 31
0.0
  0
LINE
  5
7F
330
1E
100
AcDbEntity
  8
0
100
AcDbLine
 10
184.0864999999999
 20
668.4255
 30
0.0
 11
188.7485
 21
669.0915
 31
0.0
  0
LINE
  5
80
330
1E
100
AcDbEntity
  8
0
100
AcDbLine
 10
184.0864999999999
 20
267.9815
 30
0.0
 11
216.9618482635729
 21
267.9815
 31
0.0
  0
LINE
  5
81
330
1E
100
AcDbEntity
  8
0
100
AcDbLine
 10
183.3550999999999
 20
706.5834999999999
 30
0.0
 11
185.0004999999999
 21
707.5334999999999
 31
0.0
  0
LINE
  5
82
330
1E
100
AcDbEntity
  8
0
100
AcDbLine
 10
182.9925
 20
707.5395
 30
0.0
 11
184.5415
 21
708.6735
 31
0.0
  0
LINE
  5
83
330
1E
100
AcDbEntity
  8
0
100
AcDbLine
 10
182.9914999999999
 20
708.8275
 30
0.0
 11
184.6745
 21
710.0484999999999
 31
0.0
  0
LINE
  5
328
330
1E
100
AcDbEntity
  8
0
100
AcDbLine
 10
173.0865
 20
730.25784569867
 30
0.0
 11
173.0865
 21
884.4815
 31
0.0
  0
LINE
  5
369
330
1E
100
AcDbEntity
  8
0
100
AcDbLine
 10
173.4865
 20
884.4815
 30
0.0
 11
174.5865
 21
884.4815
 31
0.0
  0
LINE
  5
36A
330
1E
100
AcDbEntity
  8
0
100
AcDbLine
 10
174.5865
 20
884.4815
 30
0.0
 11
176.2864999999999
 21
884.4815
 31
0.0
  0
LINE
  5
36B
330
1E
100
AcDbEntity
  8
0
100
AcDbLine
 10
176.2864999999999
 20
884.4815
 30
0.0
 11
178.5865
 21
884.4815
 31
0.0
  0
LINE
  5
36C
330
1E
100
AcDbEntity
  8
0
100
AcDbLine
 10
178.5865
 20
884.4815
 30
0.0
 11
181.2865
 21
884.4815
 31
0.0
  0
LINE
  5
36D
330
1E
100
AcDbEntity
  8
0
100
AcDbLine
 10
184.0864999999999
 20
884.4815
 30
0.0
 11
186.8865
 21
884.4815
 31
0.0
  0
LINE
  5
36E
330
1E
100
AcDbEntity
  8
0
100
AcDbLine
 10
181.2865
 20
884.4815
 30
0.0
 11
184.0864999999999
 21
884.4815
 31
0.0
  0
LINE
  5
36F
330
1E
100
AcDbEntity
  8
0
100
AcDbLine
 10
173.5864999999999
 20
884.9814999999999
 30
0.0
 11
173.9864999999999
 21
884.9814999999999
 31
0.0
  0
LINE
  5
370
330
1E
100
AcDbEntity
  8
0
100
AcDbLine
 10
173.9864999999999
 20
884.9814999999999
 30
0.0
 11
174.9864999999999
 21
884.9814999999999
 31
0.0
  0
LINE
  5
371
330
1E
100
AcDbEntity
  8
0
100
AcDbLine
 10
174.9864999999999
 20
884.9814999999999
 30
0.0
 11
176.6864999999999
 21
884.9814999999999
 31
0.0
  0
LINE
  5
372
330
1E
100
AcDbEntity
  8
0
100
AcDbLine
 10
176.6864999999999
 20
884.9814999999999
 30
0.0
 11
178.8865
 21
884.9814999999999
 31
0.0
  0
LINE
  5
373
330
1E
100
AcDbEntity
  8
0
100
AcDbLine
 10
173.0865
 20
885.4815
 30
0.0
 11
173.0865
 21
936.4815
 31
0.0
  0
LINE
  5
374
330
1E
100
AcDbEntity
  8
0
100
AcDbLine
 10
173.0865
 20
885.4815
 30
0.0
 11
173.5864999999999
 21
884.9814999999999
 31
0.0
  0
LINE
  5
375
330
1E
100
AcDbEntity
  8
0
100
AcDbLine
 10
173.0865
 20
885.4815
 30
0.0
 11
173.4865
 21
885.4815
 31
0.0
  0
LINE
  5
376
330
1E
100
AcDbEntity
  8
0
100
AcDbLine
 10
173.4865
 20
885.4815
 30
0.0
 11
174.5865
 21
885.4815
 31
0.0
  0
LINE
  5
377
330
1E
100
AcDbEntity
  8
0
100
AcDbLine
 10
173.4865
 20
936.4815
 30
0.0
 11
174.5865
 21
936.4815
 31
0.0
  0
LINE
  5
378
330
1E
100
AcDbEntity
  8
0
100
AcDbLine
 10
174.5865
 20
885.4815
 30
0.0
 11
176.2864999999999
 21
885.4815
 31
0.0
  0
LINE
  5
379
330
1E
100
AcDbEntity
  8
0
100
AcDbLine
 10
174.5865
 20
936.4815
 30
0.0
 11
176.2864999999999
 21
936.4815
 31
0.0
  0
LINE
  5
37A
330
1E
100
AcDbEntity
  8
0
100
AcDbLine
 10
173.5864999999999
 20
936.9815
 30
0.0
 11
173.9864999999999
 21
936.9815
 31
0.0
  0
LINE
  5
37B
330
1E
100
AcDbEntity
  8
0
100
AcDbLine
 10
173.9864999999999
 20
936.9815
 30
0.0
 11
174.9864999999999
 21
936.9815
 31
0.0
  0
LINE
  5
37C
330
1E
100
AcDbEntity
  8
0
100
AcDbLine
 10
176.2864999999999
 20
885.4815
 30
0.0
 11
178.5865
 21
885.4815
 31
0.0
  0
LINE
  5
37D
330
1E
100
AcDbEntity
  8
0
100
AcDbLine
 10
178.5865
 20
885.4815
 30
0.0
 11
181.2865
 21
885.4815
 31
0.0
  0
LINE
  5
37E
330
1E
100
AcDbEntity
  8
0
100
AcDbLine
 10
176.2864999999999
 20
936.4815
 30
0.0
 11
178.5865
 21
936.4815
 31
0.0
  0
LINE
  5
37F
330
1E
100
AcDbEntity
  8
0
100
AcDbLine
 10
178.5865
 20
936.4815
 30
0.0
 11
181.2865
 21
936.4815
 31
0.0
  0
LINE
  5
380
330
1E
100
AcDbEntity
  8
0
100
AcDbLine
 10
174.9864999999999
 20
936.9815
 30
0.0
 11
176.6864999999999
 21
936.9815
 31
0.0
  0
LINE
  5
381
330
1E
100
AcDbEntity
  8
0
100
AcDbLine
 10
176.6864999999999
 20
936.9815
 30
0.0
 11
178.8865
 21
936.9815
 31
0.0
  0
LINE
  5
382
330
1E
100
AcDbEntity
  8
0
100
AcDbLine
 10
181.2865
 20
885.4815
 30
0.0
 11
184.0864999999999
 21
885.4815
 31
0.0
  0
LINE
  5
383
330
1E
100
AcDbEntity
  8
0
100
AcDbLine
 10
181.2865
 20
936.4815
 30
0.0
 11
184.0864999999999
 21
936.4815
 31
0.0
  0
LINE
  5
384
330
1E
100
AcDbEntity
  8
0
100
AcDbLine
 10
178.8865
 20
936.9815
 30
0.0
 11
181.3865
 21
936.9815
 31
0.0
  0
LINE
  5
385
330
1E
100
AcDbEntity
  8
0
100
AcDbLine
 10
181.3865
 20
936.9815
 30
0.0
 11
184.0864999999999
 21
936.9815
 31
0.0
  0
LINE
  5
386
330
1E
100
AcDbEntity
  8
0
100
AcDbLine
 10
173.0865
 20
936.4815
 30
0.0
 11
173.5864999999999
 21
936.9815
 31
0.0
  0
LINE
  5
387
330
1E
100
AcDbEntity
  8
0
100
AcDbLine
 10
173.0865
 20
936.4815
 30
0.0
 11
173.4865
 21
936.4815
 31
0.0
  0
LINE
  5
388
330
1E
100
AcDbEntity
  8
0
100
AcDbLine
 10
173.0865
 20
936.4815
 30
0.0
 11
173.0865
 21
885.4815
 31
0.0
  0
LINE
  5
389
330
1E
100
AcDbEntity
  8
0
100
AcDbLine
 10
178.8865
 20
884.9814999999999
 30
0.0
 11
181.3865
 21
884.9814999999999
 31
0.0
  0
LINE
  5
38A
330
1E
100
AcDbEntity
  8
0
100
AcDbLine
 10
184.0864999999999
 20
885.4815
 30
0.0
 11
246.0865
 21
885.4815
 31
0.0
  0
LINE
  5
38B
330
1E
100
AcDbEntity
  8
0
100
AcDbLine
 10
184.0864999999999
 20
936.4815
 30
0.0
 11
246.0865
 21
936.4815
 31
0.0
  0
LINE
  5
38C
330
1E
100
AcDbEntity
  8
0
100
AcDbLine
 10
184.0864999999999
 20
936.9815
 30
0.0
 11
245.5865
 21
936.9815
 31
0.0
  0
LINE
  5
38D
330
1E
100
AcDbEntity
  8
0
100
AcDbLine
 10
184.0864999999999
 20
884.9814999999999
 30
0.0
 11
186.7864999999999
 21
884.9814999999999
 31
0.0
  0
LINE
  5
38E
330
1E
100
AcDbEntity
  8
0
100
AcDbLine
 10
184.0864999999999
 20
884.9814999999999
 30
0.0
 11
245.5865
 21
884.9814999999999
 31
0.0
  0
LINE
  5
38F
330
1E
100
AcDbEntity
  8
0
100
AcDbLine
 10
181.3865
 20
884.9814999999999
 30
0.0
 11
184.0864999999999
 21
884.9814999999999
 31
0.0
  0
LINE
  5
390
330
1E
100
AcDbEntity
  8
0
100
AcDbLine
 10
173.0865
 20
884.4815
 30
0.0
 11
173.5864999999999
 21
884.9814999999999
 31
0.0
  0
LINE
  5
391
330
1E
100
AcDbEntity
  8
0
100
AcDbLine
 10
173.0865
 20
884.4815
 30
0.0
 11
173.0865
 21
730.25784569867
 31
0.0
  0
LINE
  5
392
330
1E
100
AcDbEntity
  8
0
100
AcDbLine
 10
173.0865
 20
884.4815
 30
0.0
 11
173.4865
 21
884.4815
 31
0.0
  0
LINE
  5
399
330
1E
100
AcDbEntity
  8
0
100
AcDbLine
 10
194.5864999999999
 20
319.9815
 30
0.0
 11
195.0865
 21
320.4825
 31
0.0
  0
LINE
  5
39A
330
1E
100
AcDbEntity
  8
0
100
AcDbLine
 10
195.0865
 20
320.4825
 30
0.0
 11
195.0865
 21
645.088581331477
 31
0.0
  0
LINE
  5
39B
330
1E
100
AcDbEntity
  8
0
100
AcDbLine
 10
194.6865
 20
320.4825
 30
0.0
 11
195.0865
 21
320.4825
 31
0.0
  0
LINE
  5
39C
330
1E
100
AcDbEntity
  8
0
100
AcDbLine
 10
193.5864999999999
 20
320.4825
 30
0.0
 11
194.6865
 21
320.4825
 31
0.0
  0
LINE
  5
39D
330
1E
100
AcDbEntity
  8
0
100
AcDbLine
 10
191.8865
 20
320.4825
 30
0.0
 11
193.5864999999999
 21
320.4825
 31
0.0
  0
LINE
  5
39E
330
1E
100
AcDbEntity
  8
0
100
AcDbLine
 10
189.5865
 20
320.4825
 30
0.0
 11
191.8865
 21
320.4825
 31
0.0
  0
LINE
  5
39F
330
1E
100
AcDbEntity
  8
0
100
AcDbLine
 10
186.8865
 20
320.4825
 30
0.0
 11
189.5865
 21
320.4825
 31
0.0
  0
LINE
  5
3A0
330
1E
100
AcDbEntity
  8
0
100
AcDbLine
 10
193.3635999999999
 20
650.0594999999999
 30
0.0
 11
201.2646
 21
627.2635
 31
0.0
  0
LINE
  5
3A1
330
1E
100
AcDbEntity
  8
0
100
AcDbLine
 10
216.7635999999999
 20
525.3614999999999
 30
0.0
 11
217.1656
 21
3.45649999999997
 31
0.0
  0
LINE
  5
3A2
330
1E
100
AcDbEntity
  8
0
100
AcDbLine
 10
216.7635999999999
 20
525.3614999999999
 30
0.0
 11
217.1656
 21
3.456499999999949
 31
0.0
  0
LINE
  5
3A3
330
1E
100
AcDbEntity
  8
0
100
AcDbLine
 10
226.0816
 20
0.0184999999999549
 30
0.0
 11
228.9876
 21
0.5274999999999381
 31
0.0
  0
LINE
  5
3A4
330
1E
100
AcDbEntity
  8
0
100
AcDbLine
 10
231.3795999999999
 20
1.478499999999939
 30
0.0
 11
232.8086
 21
2.852499999999939
 31
0.0
  0
LINE
  5
3A5
330
1E
100
AcDbEntity
  8
0
100
AcDbLine
 10
228.9876
 20
0.5274999999999381
 30
0.0
 11
231.3795999999999
 21
1.478499999999939
 31
0.0
  0
LINE
  5
3A6
330
1E
100
AcDbEntity
  8
0
100
AcDbLine
 10
222.9386
 20
0.147499999999948
 30
0.0
 11
226.0816
 21
0.0184999999999549
 31
0.0
  0
LINE
  5
3A7
330
1E
100
AcDbEntity
  8
0
100
AcDbLine
 10
220.1395999999999
 20
0.8504999999999499
 30
0.0
 11
222.9386
 21
0.147499999999948
 31
0.0
  0
LINE
  5
3A8
330
1E
100
AcDbEntity
  8
0
100
AcDbLine
 10
232.0415999999999
 20
5.821499999999949
 30
0.0
 11
233.0715999999999
 21
4.393499999999949
 31
0.0
  0
LINE
  5
3A9
330
1E
100
AcDbEntity
  8
0
100
AcDbLine
 10
230.1055999999999
 20
6.997499999999929
 30
0.0
 11
232.0415999999999
 21
5.821499999999949
 31
0.0
  0
LINE
  5
3AA
330
1E
100
AcDbEntity
  8
0
100
AcDbLine
 10
227.3115999999999
 20
7.70149999999994
 30
0.0
 11
230.1055999999999
 21
6.997499999999929
 31
0.0
  0
LINE
  5
3AB
330
1E
100
AcDbEntity
  8
0
100
AcDbLine
 10
224.1686
 20
7.83249999999997
 30
0.0
 11
227.3115999999999
 21
7.70149999999994
 31
0.0
  0
LINE
  5
3AC
330
1E
100
AcDbEntity
  8
0
100
AcDbLine
 10
221.2585999999999
 20
7.327499999999929
 30
0.0
 11
224.1686
 21
7.83249999999997
 31
0.0
  0
LINE
  5
3AD
330
1E
100
AcDbEntity
  8
0
100
AcDbLine
 10
218.8635999999999
 20
6.375499999999949
 30
0.0
 11
221.2585999999999
 21
7.327499999999929
 31
0.0
  0
LINE
  5
3AE
330
1E
100
AcDbEntity
  8
0
100
AcDbLine
 10
217.4306
 20
5.00149999999995
 30
0.0
 11
218.8635999999999
 21
6.375499999999949
 31
0.0
  0
LINE
  5
3AF
330
1E
100
AcDbEntity
  8
0
100
AcDbLine
 10
232.7636
 20
525.3655
 30
0.0
 11
233.0715999999999
 21
4.393499999999949
 31
0.0
  0
LINE
  5
3B0
330
1E
100
AcDbEntity
  8
0
100
AcDbLine
 10
232.7636
 20
525.3655
 30
0.0
 11
233.0715999999999
 21
4.39349999999997
 31
0.0
  0
LINE
  5
3B1
330
1E
100
AcDbEntity
  8
0
100
AcDbLine
 10
232.9157660895399
 20
267.9815
 30
0.0
 11
245.5865
 21
267.9815
 31
0.0
  0
LINE
  5
3B2
330
1E
100
AcDbEntity
  8
0
100
AcDbLine
 10
232.9157660895399
 20
267.9815
 30
0.0
 11
245.5865
 21
267.9815
 31
0.0
  0
LINE
  5
3B3
330
1E
100
AcDbEntity
  8
0
100
AcDbLine
 10
232.915470488241
 20
268.4814999999999
 30
0.0
 11
246.0865
 21
268.4814999999999
 31
0.0
  0
LINE
  5
3B4
330
1E
100
AcDbEntity
  8
0
100
AcDbLine
 10
246.0865
 20
319.4814999999999
 30
0.0
 11
246.0865
 21
268.4814999999999
 31
0.0
  0
LINE
  5
3B5
330
1E
100
AcDbEntity
  8
0
100
AcDbLine
 10
246.0865
 20
268.4814999999999
 30
0.0
 11
246.0865
 21
319.4814999999999
 31
0.0
  0
LINE
  5
3B6
330
1E
100
AcDbEntity
  8
0
100
AcDbLine
 10
232.8853191557319
 20
319.4814999999999
 30
0.0
 11
246.0865
 21
319.4814999999999
 31
0.0
  0
LINE
  5
3B7
330
1E
100
AcDbEntity
  8
0
100
AcDbLine
 10
245.5865
 20
319.9815
 30
0.0
 11
246.0865
 21
319.4814999999999
 31
0.0
  0
LINE
  5
3B8
330
1E
100
AcDbEntity
  8
0
100
AcDbLine
 10
232.8850235544329
 20
319.9815
 30
0.0
 11
245.5865
 21
319.9815
 31
0.0
  0
LINE
  5
3B9
330
1E
100
AcDbEntity
  8
0
100
AcDbLine
 10
245.5865
 20
267.9815
 30
0.0
 11
246.0865
 21
268.4814999999999
 31
0.0
  0
LINE
  5
3BA
330
1E
100
AcDbEntity
  8
0
100
AcDbLine
 10
232.8086
 20
2.852499999999939
 30
0.0
 11
233.0715999999999
 21
4.393499999999949
 31
0.0
  0
LINE
  5
3BB
330
1E
100
AcDbEntity
  8
0
100
AcDbLine
 10
218.1996
 20
2.026499999999929
 30
0.0
 11
220.1395999999999
 21
0.8504999999999499
 31
0.0
  0
LINE
  5
3BC
330
1E
100
AcDbEntity
  8
0
100
AcDbLine
 10
217.1656
 20
3.456499999999949
 30
0.0
 11
218.1996
 21
2.026499999999929
 31
0.0
  0
LINE
  5
3BD
330
1E
100
AcDbEntity
  8
0
100
AcDbLine
 10
217.1656
 20
3.456499999999949
 30
0.0
 11
217.4306
 21
5.00149999999995
 31
0.0
  0
LINE
  5
3BE
330
1E
100
AcDbEntity
  8
0
100
AcDbLine
 10
230.7636
 20
559.7664999999999
 30
0.0
 11
232.7636
 21
525.3655
 31
0.0
  0
LINE
  5
3BF
330
1E
100
AcDbEntity
  8
0
100
AcDbLine
 10
214.9626
 20
556.9625
 30
0.0
 11
216.7635999999999
 21
525.3614999999999
 31
0.0
  0
LINE
  5
3C0
330
1E
100
AcDbEntity
  8
0
100
AcDbLine
 10
227.0636
 20
584.1644999999999
 30
0.0
 11
230.7636
 21
559.7664999999999
 31
0.0
  0
LINE
  5
3C1
330
1E
100
AcDbEntity
  8
0
100
AcDbLine
 10
212.0636
 20
578.6595
 30
0.0
 11
214.9626
 21
556.9625
 31
0.0
  0
LINE
  5
3C2
330
1E
100
AcDbEntity
  8
0
100
AcDbLine
 10
221.9636
 20
609.5615
 30
0.0
 11
227.0636
 21
584.1644999999999
 31
0.0
  0
LINE
  5
3C3
330
1E
100
AcDbEntity
  8
0
100
AcDbLine
 10
207.4645999999999
 20
602.8665
 30
0.0
 11
212.0636
 21
578.6595
 31
0.0
  0
LINE
  5
3C4
330
1E
100
AcDbEntity
  8
0
100
AcDbLine
 10
215.1635999999999
 20
635.2694999999999
 30
0.0
 11
221.9636
 21
609.5615
 31
0.0
  0
LINE
  5
3C5
330
1E
100
AcDbEntity
  8
0
100
AcDbLine
 10
201.2646
 20
627.2635
 30
0.0
 11
207.4645999999999
 21
602.8665
 31
0.0
  0
LINE
  5
3C6
330
1E
100
AcDbEntity
  8
0
100
AcDbLine
 10
185.7163952674929
 20
668.210704021991
 30
0.0
 11
193.3635999999999
 21
650.0594999999999
 31
0.0
  0
LINE
  5
3C7
330
1E
100
AcDbEntity
  8
0
100
AcDbLine
 10
188.8225
 20
668.6475
 30
0.0
 11
193.2624999999999
 21
670.4234999999999
 31
0.0
  0
LINE
  5
3C8
330
1E
100
AcDbEntity
  8
0
100
AcDbLine
 10
193.0405
 20
702.0955
 30
0.0
 11
196.8144999999999
 21
699.2095
 31
0.0
  0
LINE
  5
3C9
330
1E
100
AcDbEntity
  8
0
100
AcDbLine
 10
188.7485
 20
703.8714999999999
 30
0.0
 11
193.0405
 21
702.0955
 31
0.0
  0
LINE
  5
3CA
330
1E
100
AcDbEntity
  8
0
100
AcDbLine
 10
188.8225
 20
704.3155
 30
0.0
 11
193.2624999999999
 21
702.5394999999999
 31
0.0
  0
LINE
  5
3CB
330
1E
100
AcDbEntity
  8
0
100
AcDbLine
 10
193.2624999999999
 20
702.5394999999999
 30
0.0
 11
197.1845
 21
699.5795000000001
 31
0.0
  0
LINE
  5
3CC
330
1E
100
AcDbEntity
  8
0
100
AcDbLine
 10
193.2624999999999
 20
670.4234999999999
 30
0.0
 11
197.1845
 21
673.3835
 31
0.0
  0
LINE
  5
3CD
330
1E
100
AcDbEntity
  8
0
100
AcDbLine
 10
193.0405
 20
670.8674999999999
 30
0.0
 11
196.8144999999999
 21
673.7535
 31
0.0
  0
LINE
  5
3CE
330
1E
100
AcDbEntity
  8
0
100
AcDbLine
 10
188.7485
 20
669.0915
 30
0.0
 11
193.0405
 21
670.8674999999999
 31
0.0
  0
LINE
  5
3CF
330
1E
100
AcDbEntity
  8
0
100
AcDbLine
 10
197.1845
 20
673.3835
 30
0.0
 11
200.1444999999999
 21
677.3055
 31
0.0
  0
LINE
  5
3D0
330
1E
100
AcDbEntity
  8
0
100
AcDbLine
 10
196.8144999999999
 20
673.7535
 30
0.0
 11
199.7005
 21
677.5275
 31
0.0
  0
LINE
  5
3D1
330
1E
100
AcDbEntity
  8
0
100
AcDbLine
 10
196.8144999999999
 20
699.2095
 30
0.0
 11
199.7005
 21
695.4355
 31
0.0
  0
LINE
  5
3D2
330
1E
100
AcDbEntity
  8
0
100
AcDbLine
 10
197.1845
 20
699.5795000000001
 30
0.0
 11
200.1444999999999
 21
695.6575
 31
0.0
  0
LINE
  5
3D4
330
1E
100
AcDbEntity
  8
0
100
AcDbLine
 10
195.0865
 20
701.162896226415
 30
0.0
 11
195.0865
 21
884.4815
 31
0.0
  0
LINE
  5
3D6
330
1E
100
AcDbEntity
  8
0
100
AcDbLine
 10
200.1444999999999
 20
677.3055
 30
0.0
 11
201.9204999999999
 21
681.7454999999999
 31
0.0
  0
LINE
  5
3D7
330
1E
100
AcDbEntity
  8
0
100
AcDbLine
 10
201.4764999999999
 20
691.1434999999999
 30
0.0
 11
202.1425
 21
686.4815
 31
0.0
  0
LINE
  5
3D8
330
1E
100
AcDbEntity
  8
0
100
AcDbLine
 10
199.7005
 20
695.4355
 30
0.0
 11
201.4764999999999
 21
691.1434999999999
 31
0.0
  0
LINE
  5
3D9
330
1E
100
AcDbEntity
  8
0
100
AcDbLine
 10
201.4764999999999
 20
681.8194999999999
 30
0.0
 11
202.1425
 21
686.4815
 31
0.0
  0
LINE
  5
3DA
330
1E
100
AcDbEntity
  8
0
100
AcDbLine
 10
199.7005
 20
677.5275
 30
0.0
 11
201.4764999999999
 21
681.8194999999999
 31
0.0
  0
LINE
  5
3DB
330
1E
100
AcDbEntity
  8
0
100
AcDbLine
 10
201.9204999999999
 20
691.2174999999999
 30
0.0
 11
202.5865
 21
686.4815
 31
0.0
  0
LINE
  5
3DC
330
1E
100
AcDbEntity
  8
0
100
AcDbLine
 10
200.1444999999999
 20
695.6575
 30
0.0
 11
201.9204999999999
 21
691.2174999999999
 31
0.0
  0
LINE
  5
3DD
330
1E
100
AcDbEntity
  8
0
100
AcDbLine
 10
201.9204999999999
 20
681.7454999999999
 30
0.0
 11
202.5865
 21
686.4815
 31
0.0
  0
LINE
  5
3DE
330
1E
100
AcDbEntity
  8
0
100
AcDbLine
 10
206.7645999999999
 20
658.7555
 30
0.0
 11
215.1635999999999
 21
635.2694999999999
 31
0.0
  0
LINE
  5
3DF
330
1E
100
AcDbEntity
  8
0
100
AcDbLine
 10
198.9450602034909
 20
675.716242269626
 30
0.0
 11
206.7645999999999
 21
658.7555
 31
0.0
  0
LINE
  5
3E0
330
1E
100
AcDbEntity
  8
0
100
AcDbLine
 10
198.9450602034909
 20
675.716242269626
 30
0.0
 11
200.1444999999999
 21
677.3055
 31
0.0
  0
LINE
  5
3E2
330
1E
100
AcDbEntity
  8
0
100
AcDbLine
 10
185.0004999999999
 20
707.5334999999999
 30
0.0
 11
185.9532
 21
708.0834999999999
 31
0.0
  0
LINE
  5
3E3
330
1E
100
AcDbEntity
  8
0
100
AcDbLine
 10
184.8729014160179
 20
707.4598287621349
 30
0.0
 11
185.0004999999999
 21
707.5334999999999
 31
0.0
  0
LINE
  5
3E4
330
1E
100
AcDbEntity
  8
0
100
AcDbLine
 10
184.5415
 20
708.6735
 30
0.0
 11
185.4714999999999
 21
709.3545
 31
0.0
  0
LINE
  5
3E5
330
1E
100
AcDbEntity
  8
0
100
AcDbLine
 10
184.6745
 20
710.0484999999999
 30
0.0
 11
185.6854999999999
 21
710.7815
 31
0.0
  0
LINE
  5
3E6
330
1E
100
AcDbEntity
  8
0
100
AcDbLine
 10
185.4714999999999
 20
709.3545
 30
0.0
 11
185.8195
 21
709.6095
 31
0.0
  0
LINE
  5
3E7
330
1E
100
AcDbEntity
  8
0
100
AcDbLine
 10
186.2996
 20
708.2835
 30
0.0
 11
188.2953953070719
 21
704.3896240974429
 31
0.0
  0
LINE
  5
3E8
330
1E
100
AcDbEntity
  8
0
100
AcDbLine
 10
185.9532
 20
708.0834999999999
 30
0.0
 11
186.2996
 21
708.2835
 31
0.0
  0
LINE
  5
3E9
330
1E
100
AcDbEntity
  8
0
100
AcDbLine
 10
186.7864999999999
 20
884.9814999999999
 30
0.0
 11
189.2865
 21
884.9814999999999
 31
0.0
  0
LINE
  5
3EA
330
1E
100
AcDbEntity
  8
0
100
AcDbLine
 10
195.0865
 20
884.4815
 30
0.0
 11
195.0865
 21
701.162896226415
 31
0.0
  0
LINE
  5
3EB
330
1E
100
AcDbEntity
  8
0
100
AcDbLine
 10
194.6865
 20
884.4815
 30
0.0
 11
195.0865
 21
884.4815
 31
0.0
  0
LINE
  5
3EC
330
1E
100
AcDbEntity
  8
0
100
AcDbLine
 10
193.5864999999999
 20
884.4815
 30
0.0
 11
194.6865
 21
884.4815
 31
0.0
  0
LINE
  5
3ED
330
1E
100
AcDbEntity
  8
0
100
AcDbLine
 10
191.8865
 20
884.4815
 30
0.0
 11
193.5864999999999
 21
884.4815
 31
0.0
  0
LINE
  5
3EE
330
1E
100
AcDbEntity
  8
0
100
AcDbLine
 10
245.5865
 20
884.9814999999999
 30
0.0
 11
246.0865
 21
885.4815
 31
0.0
  0
LINE
  5
3EF
330
1E
100
AcDbEntity
  8
0
100
AcDbLine
 10
194.5864999999999
 20
884.9814999999999
 30
0.0
 11
195.0865
 21
884.4815
 31
0.0
  0
LINE
  5
3F0
330
1E
100
AcDbEntity
  8
0
100
AcDbLine
 10
194.5864999999999
 20
884.9814999999999
 30
0.0
 11
245.5865
 21
884.9814999999999
 31
0.0
  0
LINE
  5
3F1
330
1E
100
AcDbEntity
  8
0
100
AcDbLine
 10
194.1864999999999
 20
884.9814999999999
 30
0.0
 11
194.5864999999999
 21
884.9814999999999
 31
0.0
  0
LINE
  5
3F2
330
1E
100
AcDbEntity
  8
0
100
AcDbLine
 10
193.1864999999999
 20
884.9814999999999
 30
0.0
 11
194.1864999999999
 21
884.9814999999999
 31
0.0
  0
LINE
  5
3F3
330
1E
100
AcDbEntity
  8
0
100
AcDbLine
 10
246.0865
 20
885.4815
 30
0.0
 11
246.0865
 21
936.4815
 31
0.0
  0
LINE
  5
3F4
330
1E
100
AcDbEntity
  8
0
100
AcDbLine
 10
246.0865
 20
936.4815
 30
0.0
 11
246.0865
 21
885.4815
 31
0.0
  0
LINE
  5
3F5
330
1E
100
AcDbEntity
  8
0
100
AcDbLine
 10
245.5865
 20
936.9815
 30
0.0
 11
246.0865
 21
936.4815
 31
0.0
  0
LINE
  5
3F6
330
1E
100
AcDbEntity
  8
0
100
AcDbLine
 10
191.4864999999999
 20
884.9814999999999
 30
0.0
 11
193.1864999999999
 21
884.9814999999999
 31
0.0
  0
LINE
  5
3F7
330
1E
100
AcDbEntity
  8
0
100
AcDbLine
 10
189.2865
 20
884.9814999999999
 30
0.0
 11
191.4864999999999
 21
884.9814999999999
 31
0.0
  0
LINE
  5
3F8
330
1E
100
AcDbEntity
  8
0
100
AcDbLine
 10
189.5865
 20
884.4815
 30
0.0
 11
191.8865
 21
884.4815
 31
0.0
  0
LINE
  5
3F9
330
1E
100
AcDbEntity
  8
0
100
AcDbLine
 10
186.8865
 20
884.4815
 30
0.0
 11
189.5865
 21
884.4815
 31
0.0
  0
LINE
  5
3FA
330
1E
100
AcDbEntity
  8
0
100
AcDbLine
 10
185.8195
 20
709.6095
 30
0.0
 11
186.0645
 21
711.0565
 31
0.0
  0
LINE
  5
3FB
330
1E
100
AcDbEntity
  8
0
100
AcDbLine
 10
185.6854999999999
 20
710.7815
 30
0.0
 11
186.0645
 21
711.0565
 31
0.0
  0
LINE
  5
3FC
330
1E
100
AcDbEntity
  8
0
100
AcDbLine
 10
184.198777943224
 20
708.4225982489461
 30
0.0
 11
184.8729014160179
 21
707.4598287621349
 31
0.0
  0
LINE
  5
3FD
330
1E
100
AcDbEntity
  8
0
100
AcDbLine
 10
184.198777943224
 20
708.4225982489461
 30
0.0
 11
184.8729014160179
 21
707.4598287621349
 31
0.0
  0
LINE
  5
3FE
330
1E
100
AcDbEntity
  8
0
100
AcDbLine
 10
184.198777943224
 20
708.4225982489461
 30
0.0
 11
184.5415
 21
708.6735
 31
0.0
  0
LINE
  5
5E1
330
1E
100
AcDbEntity
  8
0
100
AcDbLine
 10
121.1375
 20
794.8705
 30
0.0
 11
132.0755
 21
783.0035
 31
0.0
  0
LINE
  5
5E2
330
1E
100
AcDbEntity
  8
0
100
AcDbLine
 10
117.1894999999999
 20
761.6145
 30
0.0
 11
123.2485
 21
749.8084999999999
 31
0.0
  0
LINE
  5
5E3
330
1E
100
AcDbEntity
  8
0
100
AcDbLine
 10
0.6944999999999482
 20
829.2315
 30
0.0
 11
64.7805
 21
792.2305
 31
0.0
  0
LINE
  5
5E4
330
1E
100
AcDbEntity
  8
0
100
AcDbLine
 10
45.07249999999999
 20
852.4615
 30
0.0
 11
54.2375
 21
847.9715
 31
0.0
  0
LINE
  5
5E5
330
1E
100
AcDbEntity
  8
0
100
AcDbLine
 10
44.0925
 20
792.3975
 30
0.0
 11
46.8079999214666
 21
791.784341653582
 31
0.0
  0
LINE
  5
5E6
330
1E
100
AcDbEntity
  8
0
100
AcDbLine
 10
38.73749999999999
 20
821.1214999999999
 30
0.0
 11
48.17750000000001
 21
815.6715
 31
0.0
  0
LINE
  5
5E7
330
1E
100
AcDbEntity
  8
0
100
AcDbLine
 10
38.48749999999999
 20
820.6915
 30
0.0
 11
47.75450000000001
 21
815.3415
 31
0.0
  0
LINE
  5
5E8
330
1E
100
AcDbEntity
  8
0
100
AcDbLine
 10
38.2375
 20
820.2614999999999
 30
0.0
 11
47.59049999999999
 21
814.8614999999999
 31
0.0
  0
LINE
  5
5E9
330
1E
100
AcDbEntity
  8
0
100
AcDbLine
 10
12.75649999999998
 20
836.1214999999999
 30
0.0
 11
20.46450000000001
 21
831.6715
 31
0.0
  0
LINE
  5
5EA
330
1E
100
AcDbEntity
  8
0
100
AcDbLine
 10
13.11350000000001
 20
835.3415
 30
0.0
 11
20.6475
 21
830.9915
 31
0.0
  0
LINE
  5
5EB
330
1E
100
AcDbEntity
  8
0
100
AcDbLine
 10
12.5165
 20
835.1115
 30
0.0
 11
20.0515
 21
830.7615
 31
0.0
  0
LINE
  5
5EC
330
1E
100
AcDbEntity
  8
0
100
AcDbLine
 10
-0.0865000000000009
 20
834.8815
 30
0.0
 11
0.3284999999999627
 21
830.6015
 31
0.0
  0
LINE
  5
5ED
330
1E
100
AcDbEntity
  8
0
100
AcDbLine
 10
7.292499999999989
 20
814.8514999999999
 30
0.0
 11
7.67149999999998
 21
814.3114999999999
 31
0.0
  0
LINE
  5
5EE
330
1E
100
AcDbEntity
  8
0
100
AcDbLine
 10
7.512499999999988
 20
814.4015000000001
 30
0.0
 11
7.76849999999996
 21
814.1214999999998
 31
0.0
  0
LINE
  5
5EF
330
1E
100
AcDbEntity
  8
0
100
AcDbLine
 10
1.792499999999989
 20
825.1314999999999
 30
0.0
 11
3.629843155425703
 21
821.6068257755189
 31
0.0
  0
LINE
  5
5F0
330
1E
100
AcDbEntity
  8
0
100
AcDbLine
 10
0.3284999999999627
 20
830.6015
 30
0.0
 11
0.6944999999999482
 21
829.2315
 31
0.0
  0
LINE
  5
5F1
330
1E
100
AcDbEntity
  8
0
100
AcDbLine
 10
0.8414999999999963
 20
828.6815
 30
0.0
 11
1.792499999999989
 21
825.1314999999999
 31
0.0
  0
LINE
  5
5F2
330
1E
100
AcDbEntity
  8
0
100
AcDbLine
 10
0.8414999999999963
 20
828.6815
 30
0.0
 11
1.127499999999969
 21
828.9815
 31
0.0
  0
LINE
  5
5F3
330
1E
100
AcDbEntity
  8
0
100
AcDbLine
 10
4.602499999999963
 20
819.1015
 30
0.0
 11
5.346373703202488
 21
819.5017525935949
 31
0.0
  0
LINE
  5
5F4
330
1E
100
AcDbEntity
  8
0
100
AcDbLine
 10
4.877707038471754
 20
819.249579345257
 30
0.0
 11
7.108524106461061
 21
816.100768079846
 31
0.0
  0
LINE
  5
5F5
330
1E
100
AcDbEntity
  8
0
100
AcDbLine
 10
4.602499999999963
 20
819.1015
 30
0.0
 11
4.62949999999995
 21
819.2815000000001
 31
0.0
  0
LINE
  5
5F6
330
1E
100
AcDbEntity
  8
0
100
AcDbLine
 10
3.595499999999958
 20
819.8714999999999
 30
0.0
 11
3.732499999999959
 21
819.6115
 31
0.0
  0
LINE
  5
5F7
330
1E
100
AcDbEntity
  8
0
100
AcDbLine
 10
3.732499999999959
 20
819.6115
 30
0.0
 11
4.117848499061921
 21
819.808725609756
 31
0.0
  0
LINE
  5
5F8
330
1E
100
AcDbEntity
  8
0
100
AcDbLine
 10
3.737499999999982
 20
820.8515
 30
0.0
 11
4.02449999999996
 21
820.5014999999999
 31
0.0
  0
LINE
  5
5F9
330
1E
100
AcDbEntity
  8
0
100
AcDbLine
 10
4.02449999999996
 20
820.5014999999999
 30
0.0
 11
4.394499999999965
 21
819.8515
 31
0.0
  0
LINE
  5
5FA
330
1E
100
AcDbEntity
  8
0
100
AcDbLine
 10
4.394499999999965
 20
819.8515
 30
0.0
 11
4.62949999999995
 21
819.2815000000001
 31
0.0
  0
LINE
  5
5FB
330
1E
100
AcDbEntity
  8
0
100
AcDbLine
 10
3.945499999999981
 20
820.1114999999999
 30
0.0
 11
4.315500000000014
 21
819.4615
 31
0.0
  0
LINE
  5
5FC
330
1E
100
AcDbEntity
  8
0
100
AcDbLine
 10
3.710499999999967
 20
820.6815
 30
0.0
 11
3.737499999999982
 21
820.8515
 31
0.0
  0
LINE
  5
5FD
330
1E
100
AcDbEntity
  8
0
100
AcDbLine
 10
3.710499999999967
 20
820.6815
 30
0.0
 11
3.945499999999981
 21
820.1114999999999
 31
0.0
  0
LINE
  5
5FE
330
1E
100
AcDbEntity
  8
0
100
AcDbLine
 10
4.315500000000014
 20
819.4615
 30
0.0
 11
4.602499999999963
 21
819.1015
 31
0.0
  0
LINE
  5
5FF
330
1E
100
AcDbEntity
  8
0
100
AcDbLine
 10
3.275499999999965
 20
820.5014999999999
 30
0.0
 11
3.595499999999958
 21
819.8714999999999
 31
0.0
  0
LINE
  5
600
330
1E
100
AcDbEntity
  8
0
100
AcDbLine
 10
2.817499999999995
 20
821.3815
 30
0.0
 11
3.549870612459329
 21
821.7602414072299
 31
0.0
  0
LINE
  5
601
330
1E
100
AcDbEntity
  8
0
100
AcDbLine
 10
2.817499999999995
 20
821.3815
 30
0.0
 11
3.549870612459329
 21
821.7602414072299
 31
0.0
  0
LINE
  5
602
330
1E
100
AcDbEntity
  8
0
100
AcDbLine
 10
2.817499999999995
 20
821.3815
 30
0.0
 11
3.275499999999965
 21
820.5014999999999
 31
0.0
  0
LINE
  5
603
330
1E
100
AcDbEntity
  8
0
100
AcDbLine
 10
2.817499999999995
 20
821.3815
 30
0.0
 11
2.954499999999967
 21
821.1214999999999
 31
0.0
  0
LINE
  5
604
330
1E
100
AcDbEntity
  8
0
100
AcDbLine
 10
2.954499999999967
 20
821.1214999999999
 30
0.0
 11
3.275499999999965
 21
820.5014999999999
 31
0.0
  0
LINE
  5
605
330
1E
100
AcDbEntity
  8
0
100
AcDbLine
 10
7.066499999999962
 20
814.9815
 30
0.0
 11
7.112418234912325
 21
815.0159386761838
 31
0.0
  0
LINE
  5
606
330
1E
100
AcDbEntity
  8
0
100
AcDbLine
 10
7.066499999999962
 20
814.9815
 30
0.0
 11
7.512499999999988
 21
814.4015000000001
 31
0.0
  0
LINE
  5
607
330
1E
100
AcDbEntity
  8
0
100
AcDbLine
 10
7.230499999999949
 20
818.2114999999999
 30
0.0
 11
7.352499999999992
 21
817.7015
 31
0.0
  0
LINE
  5
608
330
1E
100
AcDbEntity
  8
0
100
AcDbLine
 10
7.15749999999997
 20
817.6314999999998
 30
0.0
 11
7.352499999999992
 21
817.7015
 31
0.0
  0
LINE
  5
609
330
1E
100
AcDbEntity
  8
0
100
AcDbLine
 10
7.512499999999988
 20
814.4015000000001
 30
0.0
 11
7.565255417956592
 21
814.441066563468
 31
0.0
  0
LINE
  5
60A
330
1E
100
AcDbEntity
  8
0
100
AcDbLine
 10
6.687499999999971
 20
815.5215
 30
0.0
 11
6.732415254237253
 21
815.5551864406779
 31
0.0
  0
LINE
  5
60B
330
1E
100
AcDbEntity
  8
0
100
AcDbLine
 10
6.687499999999971
 20
815.5215
 30
0.0
 11
7.066499999999962
 21
814.9815
 31
0.0
  0
LINE
  5
60C
330
1E
100
AcDbEntity
  8
0
100
AcDbLine
 10
6.589499999999958
 20
815.7115000000001
 30
0.0
 11
7.278933272394851
 21
816.2285749542959
 31
0.0
  0
LINE
  5
60D
330
1E
100
AcDbEntity
  8
0
100
AcDbLine
 10
6.589499999999958
 20
815.7115000000001
 30
0.0
 11
6.845499999999987
 21
815.4315
 31
0.0
  0
LINE
  5
60E
330
1E
100
AcDbEntity
  8
0
100
AcDbLine
 10
6.589499999999958
 20
815.7115000000001
 30
0.0
 11
7.108524106461061
 21
816.100768079846
 31
0.0
  0
LINE
  5
60F
330
1E
100
AcDbEntity
  8
0
100
AcDbLine
 10
6.589499999999958
 20
815.7115000000001
 30
0.0
 11
6.687499999999971
 21
815.5215
 31
0.0
  0
LINE
  5
610
330
1E
100
AcDbEntity
  8
0
100
AcDbLine
 10
6.849499999999977
 20
818.8715
 30
0.0
 11
7.230499999999949
 21
818.2114999999999
 31
0.0
  0
LINE
  5
611
330
1E
100
AcDbEntity
  8
0
100
AcDbLine
 10
6.746499999999969
 20
818.0514999999999
 30
0.0
 11
7.15749999999997
 21
817.6314999999998
 31
0.0
  0
LINE
  5
612
330
1E
100
AcDbEntity
  8
0
100
AcDbLine
 10
6.438499999999976
 20
819.2915000000001
 30
0.0
 11
6.849499999999977
 21
818.8715
 31
0.0
  0
LINE
  5
613
330
1E
100
AcDbEntity
  8
0
100
AcDbLine
 10
6.364499999999964
 20
818.7115
 30
0.0
 11
6.746499999999969
 21
818.0514999999999
 31
0.0
  0
LINE
  5
614
330
1E
100
AcDbEntity
  8
0
100
AcDbLine
 10
6.242499999999978
 20
819.2215
 30
0.0
 11
6.438499999999976
 21
819.2915000000001
 31
0.0
  0
LINE
  5
615
330
1E
100
AcDbEntity
  8
0
100
AcDbLine
 10
6.242499999999978
 20
819.2215
 30
0.0
 11
6.364499999999964
 21
818.7115
 31
0.0
  0
LINE
  5
616
330
1E
100
AcDbEntity
  8
0
100
AcDbLine
 10
6.845499999999987
 20
815.4315
 30
0.0
 11
7.292499999999989
 21
814.8514999999999
 31
0.0
  0
LINE
  5
617
330
1E
100
AcDbEntity
  8
0
100
AcDbLine
 10
20.46450000000001
 20
831.6715
 30
0.0
 11
29.29749999999998
 21
826.5715
 31
0.0
  0
LINE
  5
618
330
1E
100
AcDbEntity
  8
0
100
AcDbLine
 10
20.6475
 20
830.9915
 30
0.0
 11
29.22149999999999
 21
826.0415
 31
0.0
  0
LINE
  5
619
330
1E
100
AcDbEntity
  8
0
100
AcDbLine
 10
20.0515
 20
830.7615
 30
0.0
 11
28.8845
 21
825.6615
 31
0.0
  0
LINE
  5
61A
330
1E
100
AcDbEntity
  8
0
100
AcDbLine
 10
26.73750000000001
 20
800.3415
 30
0.0
 11
27.77649999999999
 21
799.7415
 31
0.0
  0
LINE
  5
61B
330
1E
100
AcDbEntity
  8
0
100
AcDbLine
 10
16.65549999999998
 20
806.3114999999999
 30
0.0
 11
17.2504999999999
 21
805.8415
 31
0.0
  0
LINE
  5
61C
330
1E
100
AcDbEntity
  8
0
100
AcDbLine
 10
17.1825
 20
805.7415
 30
0.0
 11
17.62649999999999
 21
805.4315
 31
0.0
  0
LINE
  5
61D
330
1E
100
AcDbEntity
  8
0
100
AcDbLine
 10
12.22249999999999
 20
809.7315
 30
0.0
 11
12.5875
 21
809.4314999999999
 31
0.0
  0
LINE
  5
61E
330
1E
100
AcDbEntity
  8
0
100
AcDbLine
 10
12.11949999999998
 20
809.9814999999999
 30
0.0
 11
12.53649999999999
 21
809.5515
 31
0.0
  0
LINE
  5
61F
330
1E
100
AcDbEntity
  8
0
100
AcDbLine
 10
8.188290915316116
 20
814.433719493266
 30
0.0
 11
8.275499999999965
 21
814.2815
 31
0.0
  0
LINE
  5
620
330
1E
100
AcDbEntity
  8
0
100
AcDbLine
 10
8.464499999999958
 20
814.4914999999999
 30
0.0
 11
8.938500000000004
 21
813.9015
 31
0.0
  0
LINE
  5
621
330
1E
100
AcDbEntity
  8
0
100
AcDbLine
 10
8.000499999999959
 20
814.7615
 30
0.0
 11
8.275499999999965
 21
814.2815
 31
0.0
  0
LINE
  5
622
330
1E
100
AcDbEntity
  8
0
100
AcDbLine
 10
7.76849999999996
 20
814.1214999999998
 30
0.0
 11
8.188290915316116
 21
814.433719493266
 31
0.0
  0
LINE
  5
623
330
1E
100
AcDbEntity
  8
0
100
AcDbLine
 10
9.296682227163586
 20
813.443536125747
 30
0.0
 11
11.18350000000001
 21
811.4015
 31
0.0
  0
LINE
  5
624
330
1E
100
AcDbEntity
  8
0
100
AcDbLine
 10
9.296682227163586
 20
813.443536125747
 30
0.0
 11
11.18350000000001
 21
811.4015
 31
0.0
  0
LINE
  5
625
330
1E
100
AcDbEntity
  8
0
100
AcDbLine
 10
8.750499999999959
 20
813.6915
 30
0.0
 11
9.142499999999984
 21
813.3214999999999
 31
0.0
  0
LINE
  5
626
330
1E
100
AcDbEntity
  8
0
100
AcDbLine
 10
8.938500000000004
 20
813.9015
 30
0.0
 11
9.214499999999958
 21
813.4215000000001
 31
0.0
  0
LINE
  5
627
330
1E
100
AcDbEntity
  8
0
100
AcDbLine
 10
9.142499999999984
 20
813.3214999999999
 30
0.0
 11
9.214499999999958
 21
813.4215000000001
 31
0.0
  0
LINE
  5
628
330
1E
100
AcDbEntity
  8
0
100
AcDbLine
 10
8.275499999999965
 20
814.2815
 30
0.0
 11
8.750499999999959
 21
813.6915
 31
0.0
  0
LINE
  5
629
330
1E
100
AcDbEntity
  8
0
100
AcDbLine
 10
7.67149999999998
 20
814.3114999999999
 30
0.0
 11
7.76849999999996
 21
814.1214999999998
 31
0.0
  0
LINE
  5
62A
330
1E
100
AcDbEntity
  8
0
100
AcDbLine
 10
11.2535
 20
810.6715000000001
 30
0.0
 11
11.29506029122589
 21
810.715423048307
 31
0.0
  0
LINE
  5
62B
330
1E
100
AcDbEntity
  8
0
100
AcDbLine
 10
11.2535
 20
810.6715000000001
 30
0.0
 11
11.29506029122589
 21
810.715423048307
 31
0.0
  0
LINE
  5
62C
330
1E
100
AcDbEntity
  8
0
100
AcDbLine
 10
11.2535
 20
810.6715000000001
 30
0.0
 11
11.6705
 21
810.2415
 31
0.0
  0
LINE
  5
62D
330
1E
100
AcDbEntity
  8
0
100
AcDbLine
 10
11.20250000000001
 20
810.7915
 30
0.0
 11
11.62226591557819
 21
811.234807048498
 31
0.0
  0
LINE
  5
62E
330
1E
100
AcDbEntity
  8
0
100
AcDbLine
 10
11.20250000000001
 20
810.7915
 30
0.0
 11
11.2535
 21
810.6715000000001
 31
0.0
  0
LINE
  5
62F
330
1E
100
AcDbEntity
  8
0
100
AcDbLine
 10
11.20250000000001
 20
810.7915
 30
0.0
 11
11.56749999999999
 21
810.4915
 31
0.0
  0
LINE
  5
630
330
1E
100
AcDbEntity
  8
0
100
AcDbLine
 10
11.20250000000001
 20
810.7915
 30
0.0
 11
11.51669468432319
 21
811.12331521651
 31
0.0
  0
LINE
  5
631
330
1E
100
AcDbEntity
  8
0
100
AcDbLine
 10
11.43449999999998
 20
812.7815
 30
0.0
 11
11.89449999999999
 21
812.1914999999999
 31
0.0
  0
LINE
  5
632
330
1E
100
AcDbEntity
  8
0
100
AcDbLine
 10
11.89449999999999
 20
812.1914999999999
 30
0.0
 11
12.0385
 21
811.7914999999999
 31
0.0
  0
LINE
  5
633
330
1E
100
AcDbEntity
  8
0
100
AcDbLine
 10
11.79949999999999
 20
811.7914999999999
 30
0.0
 11
12.0385
 21
811.7914999999999
 31
0.0
  0
LINE
  5
634
330
1E
100
AcDbEntity
  8
0
100
AcDbLine
 10
11.30049999999999
 20
812.2115
 30
0.0
 11
11.79949999999999
 21
811.7914999999999
 31
0.0
  0
LINE
  5
635
330
1E
100
AcDbEntity
  8
0
100
AcDbLine
 10
10.93549999999999
 20
813.2015
 30
0.0
 11
11.43449999999998
 21
812.7815
 31
0.0
  0
LINE
  5
636
330
1E
100
AcDbEntity
  8
0
100
AcDbLine
 10
10.69550000000001
 20
813.2115
 30
0.0
 11
10.93549999999999
 21
813.2015
 31
0.0
  0
LINE
  5
637
330
1E
100
AcDbEntity
  8
0
100
AcDbLine
 10
10.69550000000001
 20
813.2115
 30
0.0
 11
10.84049999999999
 21
812.8015000000001
 31
0.0
  0
LINE
  5
638
330
1E
100
AcDbEntity
  8
0
100
AcDbLine
 10
10.84049999999999
 20
812.8015000000001
 30
0.0
 11
11.30049999999999
 21
812.2115
 31
0.0
  0
LINE
  5
639
330
1E
100
AcDbEntity
  8
0
100
AcDbLine
 10
11.18350000000001
 20
811.4015
 30
0.0
 11
11.51669468432319
 21
811.12331521651
 31
0.0
  0
LINE
  5
63A
330
1E
100
AcDbEntity
  8
0
100
AcDbLine
 10
11.56749999999999
 20
810.4915
 30
0.0
 11
12.11949999999998
 21
809.9814999999999
 31
0.0
  0
LINE
  5
63B
330
1E
100
AcDbEntity
  8
0
100
AcDbLine
 10
11.6705
 20
810.2415
 30
0.0
 11
12.22249999999999
 21
809.7315
 31
0.0
  0
LINE
  5
63C
330
1E
100
AcDbEntity
  8
0
100
AcDbLine
 10
8.071499999999986
 20
814.8614999999999
 30
0.0
 11
8.464499999999958
 21
814.4914999999999
 31
0.0
  0
LINE
  5
63D
330
1E
100
AcDbEntity
  8
0
100
AcDbLine
 10
8.000499999999959
 20
814.7615
 30
0.0
 11
8.091401542387217
 21
814.83291009769
 31
0.0
  0
LINE
  5
63E
330
1E
100
AcDbEntity
  8
0
100
AcDbLine
 10
8.000499999999959
 20
814.7615
 30
0.0
 11
8.091401542387217
 21
814.83291009769
 31
0.0
  0
LINE
  5
63F
330
1E
100
AcDbEntity
  8
0
100
AcDbLine
 10
8.000499999999959
 20
814.7615
 30
0.0
 11
8.071499999999986
 21
814.8614999999999
 31
0.0
  0
LINE
  5
640
330
1E
100
AcDbEntity
  8
0
100
AcDbLine
 10
11.2355
 20
815.2714999999998
 30
0.0
 11
11.59049999999999
 21
815.2614999999999
 31
0.0
  0
LINE
  5
641
330
1E
100
AcDbEntity
  8
0
100
AcDbLine
 10
11.59049999999999
 20
815.2614999999999
 30
0.0
 11
11.60349999999999
 21
815.6914999999999
 31
0.0
  0
LINE
  5
642
330
1E
100
AcDbEntity
  8
0
100
AcDbLine
 10
11.2485
 20
816.3315
 30
0.0
 11
11.60349999999999
 21
815.6914999999999
 31
0.0
  0
LINE
  5
643
330
1E
100
AcDbEntity
  8
0
100
AcDbLine
 10
10.73349999999999
 20
815.7515
 30
0.0
 11
11.2355
 21
815.2714999999998
 31
0.0
  0
LINE
  5
644
330
1E
100
AcDbEntity
  8
0
100
AcDbLine
 10
10.74649999999999
 20
816.8115
 30
0.0
 11
11.2485
 21
816.3315
 31
0.0
  0
LINE
  5
645
330
1E
100
AcDbEntity
  8
0
100
AcDbLine
 10
10.3915
 20
816.8215
 30
0.0
 11
10.74649999999999
 21
816.8115
 31
0.0
  0
LINE
  5
646
330
1E
100
AcDbEntity
  8
0
100
AcDbLine
 10
10.3785
 20
816.3914999999999
 30
0.0
 11
10.73349999999999
 21
815.7515
 31
0.0
  0
LINE
  5
647
330
1E
100
AcDbEntity
  8
0
100
AcDbLine
 10
10.3785
 20
816.3914999999999
 30
0.0
 11
10.3915
 21
816.8215
 31
0.0
  0
LINE
  5
648
330
1E
100
AcDbEntity
  8
0
100
AcDbLine
 10
14.60449999999988
 20
810.9515
 30
0.0
 11
14.99949999999998
 21
810.8615
 31
0.0
  0
LINE
  5
649
330
1E
100
AcDbEntity
  8
0
100
AcDbLine
 10
14.59749999999999
 20
810.6315
 30
0.0
 11
15.0035
 21
810.0815
 31
0.0
  0
LINE
  5
64A
330
1E
100
AcDbEntity
  8
0
100
AcDbLine
 10
13.00922426553708
 20
809.877199843315
 30
0.0
 11
16.49070484152218
 21
806.970506051903
 31
0.0
  0
LINE
  5
64B
330
1E
100
AcDbEntity
  8
0
100
AcDbLine
 10
12.53649999999999
 20
809.5515
 30
0.0
 11
12.5875
 21
809.4314999999999
 31
0.0
  0
LINE
  5
64C
330
1E
100
AcDbEntity
  8
0
100
AcDbLine
 10
12.5875
 20
809.4314999999999
 30
0.0
 11
13.11073873462859
 21
809.984485543157
 31
0.0
  0
LINE
  5
64D
330
1E
100
AcDbEntity
  8
0
100
AcDbLine
 10
14.59749999999999
 20
810.6315
 30
0.0
 11
14.60449999999988
 21
810.9515
 31
0.0
  0
LINE
  5
64E
330
1E
100
AcDbEntity
  8
0
100
AcDbLine
 10
16.6585
 20
806.0515
 30
0.0
 11
16.9675
 21
805.8115
 31
0.0
  0
LINE
  5
64F
330
1E
100
AcDbEntity
  8
0
100
AcDbLine
 10
16.08950000000001
 20
806.5115
 30
0.0
 11
16.6585
 21
806.0515
 31
0.0
  0
LINE
  5
650
330
1E
100
AcDbEntity
  8
0
100
AcDbLine
 10
16.53749999999999
 20
812.2115
 30
0.0
 11
17.03449999999989
 21
812.1114999999999
 31
0.0
  0
LINE
  5
651
330
1E
100
AcDbEntity
  8
0
100
AcDbLine
 10
17.03449999999989
 20
812.1114999999999
 30
0.0
 11
17.19449999999989
 21
812.4615
 31
0.0
  0
LINE
  5
652
330
1E
100
AcDbEntity
  8
0
100
AcDbLine
 10
16.90450000000001
 20
813.0615
 30
0.0
 11
17.19449999999989
 21
812.4615
 31
0.0
  0
LINE
  5
653
330
1E
100
AcDbEntity
  8
0
100
AcDbLine
 10
16.35150000000001
 20
813.5715000000001
 30
0.0
 11
16.90450000000001
 21
813.0615
 31
0.0
  0
LINE
  5
654
330
1E
100
AcDbEntity
  8
0
100
AcDbLine
 10
16.49350000000001
 20
807.1815
 30
0.0
 11
16.77950000000001
 21
807.1014999999999
 31
0.0
  0
LINE
  5
655
330
1E
100
AcDbEntity
  8
0
100
AcDbLine
 10
16.63149999999999
 20
807.3814999999999
 30
0.0
 11
16.77950000000001
 21
807.1014999999999
 31
0.0
  0
LINE
  5
656
330
1E
100
AcDbEntity
  8
0
100
AcDbLine
 10
16.11549999999999
 20
807.8714999999998
 30
0.0
 11
16.63149999999999
 21
807.3814999999999
 31
0.0
  0
LINE
  5
657
330
1E
100
AcDbEntity
  8
0
100
AcDbLine
 10
16.2115
 20
806.6214999999999
 30
0.0
 11
16.6291457142857
 21
807.1435571428571
 31
0.0
  0
LINE
  5
658
330
1E
100
AcDbEntity
  8
0
100
AcDbLine
 10
16.2115
 20
806.6214999999999
 30
0.0
 11
16.65549999999998
 21
806.3114999999999
 31
0.0
  0
LINE
  5
659
330
1E
100
AcDbEntity
  8
0
100
AcDbLine
 10
16.5875
 20
806.2215
 30
0.0
 11
17.1825
 21
805.7415
 31
0.0
  0
LINE
  5
65A
330
1E
100
AcDbEntity
  8
0
100
AcDbLine
 10
16.19149999999999
 20
806.5815
 30
0.0
 11
16.5875
 21
806.2215
 31
0.0
  0
LINE
  5
65B
330
1E
100
AcDbEntity
  8
0
100
AcDbLine
 10
15.5875
 20
806.9314999999999
 30
0.0
 11
16.08950000000001
 21
806.5115
 31
0.0
  0
LINE
  5
65C
330
1E
100
AcDbEntity
  8
0
100
AcDbLine
 10
15.43649999999999
 20
807.0714999999999
 30
0.0
 11
15.8475840435093
 21
807.574404709897
 31
0.0
  0
LINE
  5
65D
330
1E
100
AcDbEntity
  8
0
100
AcDbLine
 10
15.43649999999999
 20
807.0714999999999
 30
0.0
 11
15.5875
 21
806.9314999999999
 31
0.0
  0
LINE
  5
65E
330
1E
100
AcDbEntity
  8
0
100
AcDbLine
 10
15.92249999999998
 20
807.5915
 30
0.0
 11
16.49350000000001
 21
807.1815
 31
0.0
  0
LINE
  5
65F
330
1E
100
AcDbEntity
  8
0
100
AcDbLine
 10
15.5445
 20
808.2815
 30
0.0
 11
16.11549999999999
 21
807.8714999999998
 31
0.0
  0
LINE
  5
660
330
1E
100
AcDbEntity
  8
0
100
AcDbLine
 10
15.5695
 20
809.6114999999999
 30
0.0
 11
15.96549999999999
 21
809.5214999999999
 31
0.0
  0
LINE
  5
661
330
1E
100
AcDbEntity
  8
0
100
AcDbLine
 10
15.96549999999999
 20
809.5214999999999
 30
0.0
 11
15.97149999999999
 21
809.8414999999999
 31
0.0
  0
LINE
  5
662
330
1E
100
AcDbEntity
  8
0
100
AcDbLine
 10
15.98449999999999
 20
812.7214999999999
 30
0.0
 11
16.53749999999999
 21
812.2115
 31
0.0
  0
LINE
  5
663
330
1E
100
AcDbEntity
  8
0
100
AcDbLine
 10
15.8545
 20
813.6715
 30
0.0
 11
16.35150000000001
 21
813.5715000000001
 31
0.0
  0
LINE
  5
664
330
1E
100
AcDbEntity
  8
0
100
AcDbLine
 10
15.69449999999989
 20
813.3214999999999
 30
0.0
 11
15.98449999999999
 21
812.7214999999999
 31
0.0
  0
LINE
  5
665
330
1E
100
AcDbEntity
  8
0
100
AcDbLine
 10
15.69449999999989
 20
813.3214999999999
 30
0.0
 11
15.8545
 21
813.6715
 31
0.0
  0
LINE
  5
666
330
1E
100
AcDbEntity
  8
0
100
AcDbLine
 10
15.56550000000001
 20
810.3914999999998
 30
0.0
 11
15.97149999999999
 21
809.8414999999999
 31
0.0
  0
LINE
  5
667
330
1E
100
AcDbEntity
  8
0
100
AcDbLine
 10
15.25849999999988
 20
808.3614999999999
 30
0.0
 11
15.40649999999999
 21
808.0814999999999
 31
0.0
  0
LINE
  5
668
330
1E
100
AcDbEntity
  8
0
100
AcDbLine
 10
15.25849999999988
 20
808.3614999999999
 30
0.0
 11
15.5445
 21
808.2815
 31
0.0
  0
LINE
  5
669
330
1E
100
AcDbEntity
  8
0
100
AcDbLine
 10
15.0035
 20
810.0815
 30
0.0
 11
15.5695
 21
809.6114999999999
 31
0.0
  0
LINE
  5
66A
330
1E
100
AcDbEntity
  8
0
100
AcDbLine
 10
14.99949999999998
 20
810.8615
 30
0.0
 11
15.56550000000001
 21
810.3914999999998
 31
0.0
  0
LINE
  5
66B
330
1E
100
AcDbEntity
  8
0
100
AcDbLine
 10
15.40649999999999
 20
808.0814999999999
 30
0.0
 11
15.92249999999998
 21
807.5915
 31
0.0
  0
LINE
  5
66C
330
1E
100
AcDbEntity
  8
0
100
AcDbLine
 10
16.9675
 20
805.8115
 30
0.0
 11
17.01845618167681
 21
805.873837870244
 31
0.0
  0
LINE
  5
66D
330
1E
100
AcDbEntity
  8
0
100
AcDbLine
 10
21.8845
 20
803.1615
 30
0.0
 11
22.2965
 21
802.7915
 31
0.0
  0
LINE
  5
66E
330
1E
100
AcDbEntity
  8
0
100
AcDbLine
 10
21.95849999999998
 20
809.7115
 30
0.0
 11
22.15149999999999
 21
809.1615
 31
0.0
  0
LINE
  5
66F
330
1E
100
AcDbEntity
  8
0
100
AcDbLine
 10
21.95849999999998
 20
809.7115
 30
0.0
 11
22.2665
 21
809.9714999999999
 31
0.0
  0
LINE
  5
670
330
1E
100
AcDbEntity
  8
0
100
AcDbLine
 10
21.20729083364849
 20
803.6958551314111
 30
0.0
 11
22.84049999999999
 21
802.5914999999999
 31
0.0
  0
LINE
  5
671
330
1E
100
AcDbEntity
  8
0
100
AcDbLine
 10
19.43549999999999
 20
808.1615000000001
 30
0.0
 11
19.96350000000001
 21
807.9914999999999
 31
0.0
  0
LINE
  5
672
330
1E
100
AcDbEntity
  8
0
100
AcDbLine
 10
19.58349999999998
 20
807.4315
 30
0.0
 11
20.17549999999999
 21
806.9515
 31
0.0
  0
LINE
  5
673
330
1E
100
AcDbEntity
  8
0
100
AcDbLine
 10
19.4915
 20
804.6715
 30
0.0
 11
19.84049999999999
 21
804.5315
 31
0.0
  0
LINE
  5
674
330
1E
100
AcDbEntity
  8
0
100
AcDbLine
 10
19.5925
 20
804.4814999999999
 30
0.0
 11
20.10549999999989
 21
804.0615
 31
0.0
  0
LINE
  5
675
330
1E
100
AcDbEntity
  8
0
100
AcDbLine
 10
19.26949999999999
 20
807.9315000000001
 30
0.0
 11
19.58349999999998
 21
807.4315
 31
0.0
  0
LINE
  5
676
330
1E
100
AcDbEntity
  8
0
100
AcDbLine
 10
19.26949999999999
 20
807.9315000000001
 30
0.0
 11
19.43549999999999
 21
808.1615000000001
 31
0.0
  0
LINE
  5
677
330
1E
100
AcDbEntity
  8
0
100
AcDbLine
 10
18.9015
 20
804.6915
 30
0.0
 11
19.09149999999999
 21
804.6414999999999
 31
0.0
  0
LINE
  5
678
330
1E
100
AcDbEntity
  8
0
100
AcDbLine
 10
18.35349999999999
 20
805.0715
 30
0.0
 11
18.9015
 21
804.6915
 31
0.0
  0
LINE
  5
679
330
1E
100
AcDbEntity
  8
0
100
AcDbLine
 10
17.7775
 20
805.5315
 30
0.0
 11
18.35349999999999
 21
805.0715
 31
0.0
  0
LINE
  5
67A
330
1E
100
AcDbEntity
  8
0
100
AcDbLine
 10
17.73942753623188
 20
805.57265942029
 30
0.0
 11
17.7775
 21
805.5315
 31
0.0
  0
LINE
  5
67B
330
1E
100
AcDbEntity
  8
0
100
AcDbLine
 10
17.98245712371598
 20
805.8764464046449
 30
0.0
 11
19.5808572464148
 21
804.7956287029581
 31
0.0
  0
LINE
  5
67C
330
1E
100
AcDbEntity
  8
0
100
AcDbLine
 10
17.2504999999999
 20
805.8415
 30
0.0
 11
17.6465
 21
805.4814999999999
 31
0.0
  0
LINE
  5
67D
330
1E
100
AcDbEntity
  8
0
100
AcDbLine
 10
17.62649999999999
 20
805.4315
 30
0.0
 11
17.6465
 21
805.4814999999999
 31
0.0
  0
LINE
  5
67E
330
1E
100
AcDbEntity
  8
0
100
AcDbLine
 10
17.6465
 20
805.4814999999999
 30
0.0
 11
18.06554118801338
 21
806.0019437831899
 31
0.0
  0
LINE
  5
67F
330
1E
100
AcDbEntity
  8
0
100
AcDbLine
 10
19.09149999999999
 20
804.6414999999999
 30
0.0
 11
19.3363519687366
 21
804.960960041787
 31
0.0
  0
LINE
  5
680
330
1E
100
AcDbEntity
  8
0
100
AcDbLine
 10
19.4915
 20
804.6715
 30
0.0
 11
19.5925
 21
804.4814999999999
 31
0.0
  0
LINE
  5
681
330
1E
100
AcDbEntity
  8
0
100
AcDbLine
 10
21.8845
 20
803.1615
 30
0.0
 11
21.9195131395688
 21
803.214259525378
 31
0.0
  0
LINE
  5
682
330
1E
100
AcDbEntity
  8
0
100
AcDbLine
 10
20.55549999999999
 20
807.5115
 30
0.0
 11
20.86949999999998
 21
807.0114999999999
 31
0.0
  0
LINE
  5
683
330
1E
100
AcDbEntity
  8
0
100
AcDbLine
 10
19.96350000000001
 20
807.9914999999999
 30
0.0
 11
20.55549999999999
 21
807.5115
 31
0.0
  0
LINE
  5
684
330
1E
100
AcDbEntity
  8
0
100
AcDbLine
 10
20.17549999999999
 20
806.9515
 30
0.0
 11
20.70349999999999
 21
806.7915000000001
 31
0.0
  0
LINE
  5
685
330
1E
100
AcDbEntity
  8
0
100
AcDbLine
 10
20.70349999999999
 20
806.7915000000001
 30
0.0
 11
20.86949999999998
 21
807.0114999999999
 31
0.0
  0
LINE
  5
686
330
1E
100
AcDbEntity
  8
0
100
AcDbLine
 10
19.84049999999999
 20
804.5315
 30
0.0
 11
20.45349999999999
 21
804.1214999999999
 31
0.0
  0
LINE
  5
687
330
1E
100
AcDbEntity
  8
0
100
AcDbLine
 10
20.10549999999989
 20
804.0615
 30
0.0
 11
20.7175
 21
803.6515000000001
 31
0.0
  0
LINE
  5
688
330
1E
100
AcDbEntity
  8
0
100
AcDbLine
 10
20.45349999999999
 20
804.1214999999999
 30
0.0
 11
20.96649999999999
 21
803.6915
 31
0.0
  0
LINE
  5
689
330
1E
100
AcDbEntity
  8
0
100
AcDbLine
 10
20.7175
 20
803.6515000000001
 30
0.0
 11
21.06749999999999
 21
803.5014999999999
 31
0.0
  0
LINE
  5
68A
330
1E
100
AcDbEntity
  8
0
100
AcDbLine
 10
20.96649999999999
 20
803.6915
 30
0.0
 11
21.06749999999999
 21
803.5014999999999
 31
0.0
  0
LINE
  5
68B
330
1E
100
AcDbEntity
  8
0
100
AcDbLine
 10
21.06749999999999
 20
803.5014999999999
 30
0.0
 11
21.4887194912091
 21
804.0871333167929
 31
0.0
  0
LINE
  5
68C
330
1E
100
AcDbEntity
  8
0
100
AcDbLine
 10
23.01349999999999
 20
802.4915
 30
0.0
 11
24.50749999999999
 21
801.6515
 31
0.0
  0
LINE
  5
68D
330
1E
100
AcDbEntity
  8
0
100
AcDbLine
 10
22.2665
 20
809.9714999999999
 30
0.0
 11
22.87649999999999
 21
809.8015
 31
0.0
  0
LINE
  5
68E
330
1E
100
AcDbEntity
  8
0
100
AcDbLine
 10
22.7125
 20
808.6515
 30
0.0
 11
23.32249999999999
 21
808.4815
 31
0.0
  0
LINE
  5
68F
330
1E
100
AcDbEntity
  8
0
100
AcDbLine
 10
23.4375
 20
809.2915000000001
 30
0.0
 11
23.63149999999998
 21
808.7415
 31
0.0
  0
LINE
  5
690
330
1E
100
AcDbEntity
  8
0
100
AcDbLine
 10
22.87649999999999
 20
809.8015
 30
0.0
 11
23.4375
 21
809.2915000000001
 31
0.0
  0
LINE
  5
691
330
1E
100
AcDbEntity
  8
0
100
AcDbLine
 10
23.32249999999999
 20
808.4815
 30
0.0
 11
23.63149999999998
 21
808.7415
 31
0.0
  0
LINE
  5
692
330
1E
100
AcDbEntity
  8
0
100
AcDbLine
 10
22.15149999999999
 20
809.1615
 30
0.0
 11
22.7125
 21
808.6515
 31
0.0
  0
LINE
  5
693
330
1E
100
AcDbEntity
  8
0
100
AcDbLine
 10
22.49649999999999
 20
804.1814999999999
 30
0.0
 11
23.0525
 21
803.9514999999999
 31
0.0
  0
LINE
  5
694
330
1E
100
AcDbEntity
  8
0
100
AcDbLine
 10
22.3135
 20
804.0915
 30
0.0
 11
22.63249999999999
 21
803.7214999999999
 31
0.0
  0
LINE
  5
695
330
1E
100
AcDbEntity
  8
0
100
AcDbLine
 10
22.3135
 20
804.0915
 30
0.0
 11
22.49649999999999
 21
804.1814999999999
 31
0.0
  0
LINE
  5
696
330
1E
100
AcDbEntity
  8
0
100
AcDbLine
 10
22.63249999999999
 20
803.7214999999999
 30
0.0
 11
23.2475
 21
803.2815000000001
 31
0.0
  0
LINE
  5
697
330
1E
100
AcDbEntity
  8
0
100
AcDbLine
 10
23.0525
 20
803.9514999999999
 30
0.0
 11
23.66749999999999
 21
803.5114999999999
 31
0.0
  0
LINE
  5
698
330
1E
100
AcDbEntity
  8
0
100
AcDbLine
 10
23.2475
 20
803.2815000000001
 30
0.0
 11
23.80449999999999
 21
803.0415000000001
 31
0.0
  0
LINE
  5
699
330
1E
100
AcDbEntity
  8
0
100
AcDbLine
 10
23.66749999999999
 20
803.5114999999999
 30
0.0
 11
23.9865
 21
803.1314999999999
 31
0.0
  0
LINE
  5
69A
330
1E
100
AcDbEntity
  8
0
100
AcDbLine
 10
22.2965
 20
802.7915
 30
0.0
 11
22.92949999999998
 21
802.3714999999999
 31
0.0
  0
LINE
  5
69B
330
1E
100
AcDbEntity
  8
0
100
AcDbLine
 10
22.92949999999998
 20
802.3714999999999
 30
0.0
 11
23.41650000000001
 21
802.1414999999999
 31
0.0
  0
LINE
  5
69C
330
1E
100
AcDbEntity
  8
0
100
AcDbLine
 10
23.80449999999999
 20
803.0415000000001
 30
0.0
 11
23.9865
 21
803.1314999999999
 31
0.0
  0
LINE
  5
69D
330
1E
100
AcDbEntity
  8
0
100
AcDbLine
 10
22.84049999999999
 20
802.5914999999999
 30
0.0
 11
23.01349999999999
 21
802.4915
 31
0.0
  0
LINE
  5
69E
330
1E
100
AcDbEntity
  8
0
100
AcDbLine
 10
23.41650000000001
 20
802.1414999999999
 30
0.0
 11
23.47294615551459
 21
802.2265558507749
 31
0.0
  0
LINE
  5
69F
330
1E
100
AcDbEntity
  8
0
100
AcDbLine
 10
23.41650000000001
 20
802.1414999999999
 30
0.0
 11
23.47394549763029
 21
802.2259786729859
 31
0.0
  0
LINE
  5
6A0
330
1E
100
AcDbEntity
  8
0
100
AcDbLine
 10
24.87149999999999
 20
805.0214999999999
 30
0.0
 11
25.50049999999998
 21
804.8015000000001
 31
0.0
  0
LINE
  5
6A1
330
1E
100
AcDbEntity
  8
0
100
AcDbLine
 10
24.54749999999998
 20
804.8914999999999
 30
0.0
 11
24.73849999999998
 21
804.4615
 31
0.0
  0
LINE
  5
6A2
330
1E
100
AcDbEntity
  8
0
100
AcDbLine
 10
24.54749999999998
 20
804.8914999999999
 30
0.0
 11
24.87149999999999
 21
805.0214999999999
 31
0.0
  0
LINE
  5
6A3
330
1E
100
AcDbEntity
  8
0
100
AcDbLine
 10
25.50049999999998
 20
804.8015000000001
 30
0.0
 11
26.07349999999999
 21
804.3314999999999
 31
0.0
  0
LINE
  5
6A4
330
1E
100
AcDbEntity
  8
0
100
AcDbLine
 10
24.73849999999998
 20
804.4615
 30
0.0
 11
25.31149999999999
 21
803.9915
 31
0.0
  0
LINE
  5
6A5
330
1E
100
AcDbEntity
  8
0
100
AcDbLine
 10
25.31149999999999
 20
803.9915
 30
0.0
 11
25.94050000000001
 21
803.7614999999998
 31
0.0
  0
LINE
  5
6A6
330
1E
100
AcDbEntity
  8
0
100
AcDbLine
 10
25.94050000000001
 20
803.7614999999998
 30
0.0
 11
26.26449999999991
 21
803.9015
 31
0.0
  0
LINE
  5
6A7
330
1E
100
AcDbEntity
  8
0
100
AcDbLine
 10
26.07349999999999
 20
804.3314999999999
 30
0.0
 11
26.26449999999991
 21
803.9015
 31
0.0
  0
LINE
  5
6A8
330
1E
100
AcDbEntity
  8
0
100
AcDbLine
 10
24.74449999999999
 20
801.6415
 30
0.0
 11
25.3365
 21
801.3614999999999
 31
0.0
  0
LINE
  5
6A9
330
1E
100
AcDbEntity
  8
0
100
AcDbLine
 10
24.50749999999999
 20
801.6515
 30
0.0
 11
24.78649999999999
 21
801.3514999999999
 31
0.0
  0
LINE
  5
6AA
330
1E
100
AcDbEntity
  8
0
100
AcDbLine
 10
24.50749999999999
 20
801.6515
 30
0.0
 11
24.74449999999999
 21
801.6415
 31
0.0
  0
LINE
  5
6AB
330
1E
100
AcDbEntity
  8
0
100
AcDbLine
 10
24.78649999999999
 20
801.3514999999999
 30
0.0
 11
25.3965
 21
800.9415
 31
0.0
  0
LINE
  5
6AC
330
1E
100
AcDbEntity
  8
0
100
AcDbLine
 10
25.3965
 20
800.9415
 30
0.0
 11
25.98849999999998
 21
800.6615
 31
0.0
  0
LINE
  5
6AD
330
1E
100
AcDbEntity
  8
0
100
AcDbLine
 10
25.94649999999998
 20
800.9515
 30
0.0
 11
26.22550000000001
 21
800.6515
 31
0.0
  0
LINE
  5
6AE
330
1E
100
AcDbEntity
  8
0
100
AcDbLine
 10
25.3365
 20
801.3614999999999
 30
0.0
 11
25.94649999999998
 21
800.9515
 31
0.0
  0
LINE
  5
6AF
330
1E
100
AcDbEntity
  8
0
100
AcDbLine
 10
25.98849999999998
 20
800.6615
 30
0.0
 11
26.22550000000001
 21
800.6515
 31
0.0
  0
LINE
  5
6B0
330
1E
100
AcDbEntity
  8
0
100
AcDbLine
 10
26.19872714513269
 20
800.652629656324
 30
0.0
 11
26.73750000000001
 21
800.3415
 31
0.0
  0
LINE
  5
6B1
330
1E
100
AcDbEntity
  8
0
100
AcDbLine
 10
35.94749999999999
 20
801.0114999999998
 30
0.0
 11
36.6705
 21
800.7815
 31
0.0
  0
LINE
  5
6B2
330
1E
100
AcDbEntity
  8
0
100
AcDbLine
 10
36.14250000000001
 20
801.9614999999999
 30
0.0
 11
36.86549999999999
 21
801.7314999999999
 31
0.0
  0
LINE
  5
6B3
330
1E
100
AcDbEntity
  8
0
100
AcDbLine
 10
35.7475
 20
797.9635
 30
0.0
 11
36.45849999999998
 21
797.6905
 31
0.0
  0
LINE
  5
6B4
330
1E
100
AcDbEntity
  8
0
100
AcDbLine
 10
36.04249999999999
 20
798.5714999999999
 30
0.0
 11
36.7535
 21
798.3015
 31
0.0
  0
LINE
  5
6B5
330
1E
100
AcDbEntity
  8
0
100
AcDbLine
 10
36.20881331295569
 20
795.380292479282
 30
0.0
 11
36.58314064576149
 21
795.1982289634839
 31
0.0
  0
LINE
  5
6B6
330
1E
100
AcDbEntity
  8
0
100
AcDbLine
 10
36.36249999999998
 20
794.6135
 30
0.0
 11
36.5934557379397
 21
795.2255654188181
 31
0.0
  0
LINE
  5
6B7
330
1E
100
AcDbEntity
  8
0
100
AcDbLine
 10
36.36249999999998
 20
794.6135
 30
0.0
 11
36.72049999999998
 21
794.4634999999999
 31
0.0
  0
LINE
  5
6B8
330
1E
100
AcDbEntity
  8
0
100
AcDbLine
 10
36.36249999999998
 20
794.6135
 30
0.0
 11
36.56149999999999
 21
794.5555
 31
0.0
  0
LINE
  5
6B9
330
1E
100
AcDbEntity
  8
0
100
AcDbLine
 10
29.29749999999998
 20
826.5715
 30
0.0
 11
38.73749999999999
 21
821.1214999999999
 31
0.0
  0
LINE
  5
6BA
330
1E
100
AcDbEntity
  8
0
100
AcDbLine
 10
29.22149999999999
 20
826.0415
 30
0.0
 11
38.48749999999999
 21
820.6915
 31
0.0
  0
LINE
  5
6BB
330
1E
100
AcDbEntity
  8
0
100
AcDbLine
 10
28.8845
 20
825.6615
 30
0.0
 11
38.2375
 21
820.2614999999999
 31
0.0
  0
LINE
  5
6BC
330
1E
100
AcDbEntity
  8
0
100
AcDbLine
 10
31.0294999999999
 20
798.7915
 30
0.0
 11
31.71649999999999
 21
798.4715
 31
0.0
  0
LINE
  5
6BD
330
1E
100
AcDbEntity
  8
0
100
AcDbLine
 10
31.01750000000001
 20
799.2614999999999
 30
0.0
 11
31.70449999999991
 21
798.9514999999999
 31
0.0
  0
LINE
  5
6BE
330
1E
100
AcDbEntity
  8
0
100
AcDbLine
 10
31.21649999999999
 20
801.5015
 30
0.0
 11
31.72650000000001
 21
801.0614999999999
 31
0.0
  0
LINE
  5
6BF
330
1E
100
AcDbEntity
  8
0
100
AcDbLine
 10
31.30350000000001
 20
800.6714999999999
 30
0.0
 11
31.7725
 21
800.7215
 31
0.0
  0
LINE
  5
6C0
330
1E
100
AcDbEntity
  8
0
100
AcDbLine
 10
31.2175
 20
797.9614999999999
 30
0.0
 11
31.65549999999999
 21
797.6525
 31
0.0
  0
LINE
  5
6C1
330
1E
100
AcDbEntity
  8
0
100
AcDbLine
 10
31.60949999999999
 20
797.5465
 30
0.0
 11
31.65549999999999
 21
797.6525
 31
0.0
  0
LINE
  5
6C2
330
1E
100
AcDbEntity
  8
0
100
AcDbLine
 10
31.6377232018107
 20
797.6035571562798
 30
0.0
 11
34.4414691056379
 21
796.2398847981129
 31
0.0
  0
LINE
  5
6C3
330
1E
100
AcDbEntity
  8
0
100
AcDbLine
 10
29.19149999999999
 20
805.9715
 30
0.0
 11
29.87950000000001
 21
805.7615
 31
0.0
  0
LINE
  5
6C4
330
1E
100
AcDbEntity
  8
0
100
AcDbLine
 10
28.8125
 20
805.3115
 30
0.0
 11
29.3375
 21
804.8215
 31
0.0
  0
LINE
  5
6C5
330
1E
100
AcDbEntity
  8
0
100
AcDbLine
 10
28.64250000000001
 20
799.2415
 30
0.0
 11
29.50849999999999
 21
798.7414999999999
 31
0.0
  0
LINE
  5
6C6
330
1E
100
AcDbEntity
  8
0
100
AcDbLine
 10
28.7425
 20
805.7915000000001
 30
0.0
 11
28.8290118904774
 21
805.9416871106979
 31
0.0
  0
LINE
  5
6C7
330
1E
100
AcDbEntity
  8
0
100
AcDbLine
 10
28.7425
 20
805.7915000000001
 30
0.0
 11
28.8125
 21
805.3115
 31
0.0
  0
LINE
  5
6C8
330
1E
100
AcDbEntity
  8
0
100
AcDbLine
 10
28.7425
 20
805.7915000000001
 30
0.0
 11
29.19149999999999
 21
805.9715
 31
0.0
  0
LINE
  5
6C9
330
1E
100
AcDbEntity
  8
0
100
AcDbLine
 10
28.5925
 20
799.1615
 30
0.0
 11
28.63789170273361
 21
799.2441606797149
 31
0.0
  0
LINE
  5
6CA
330
1E
100
AcDbEntity
  8
0
100
AcDbLine
 10
28.5925
 20
799.1615
 30
0.0
 11
28.92964322111009
 21
799.0757129208369
 31
0.0
  0
LINE
  5
6CB
330
1E
100
AcDbEntity
  8
0
100
AcDbLine
 10
27.93350000000001
 20
799.4815
 30
0.0
 11
28.00411038526638
 21
799.6100852279059
 31
0.0
  0
LINE
  5
6CC
330
1E
100
AcDbEntity
  8
0
100
AcDbLine
 10
27.93350000000001
 20
799.4815
 30
0.0
 11
28.5925
 21
799.1615
 31
0.0
  0
LINE
  5
6CD
330
1E
100
AcDbEntity
  8
0
100
AcDbLine
 10
27.3905
 20
799.8515
 30
0.0
 11
27.43757324696829
 21
799.9372228602689
 31
0.0
  0
LINE
  5
6CE
330
1E
100
AcDbEntity
  8
0
100
AcDbLine
 10
27.3905
 20
799.8515
 30
0.0
 11
27.93350000000001
 21
799.4815
 31
0.0
  0
LINE
  5
6CF
330
1E
100
AcDbEntity
  8
0
100
AcDbLine
 10
27.2841714710253
 20
800.0258090638929
 30
0.0
 11
27.3905
 21
799.8515
 31
0.0
  0
LINE
  5
6D0
330
1E
100
AcDbEntity
  8
0
100
AcDbLine
 10
27.77649999999999
 20
799.7415
 30
0.0
 11
28.64250000000001
 21
799.2415
 31
0.0
  0
LINE
  5
6D1
330
1E
100
AcDbEntity
  8
0
100
AcDbLine
 10
29.3375
 20
804.8215
 30
0.0
 11
30.02549999999999
 21
804.6115
 31
0.0
  0
LINE
  5
6D2
330
1E
100
AcDbEntity
  8
0
100
AcDbLine
 10
30.40450000000001
 20
805.2714999999999
 30
0.0
 11
30.4745
 21
804.7914999999999
 31
0.0
  0
LINE
  5
6D3
330
1E
100
AcDbEntity
  8
0
100
AcDbLine
 10
29.87950000000001
 20
805.7615
 30
0.0
 11
30.40450000000001
 21
805.2714999999999
 31
0.0
  0
LINE
  5
6D4
330
1E
100
AcDbEntity
  8
0
100
AcDbLine
 10
30.02549999999999
 20
804.6115
 30
0.0
 11
30.4745
 21
804.7914999999999
 31
0.0
  0
LINE
  5
6D5
330
1E
100
AcDbEntity
  8
0
100
AcDbLine
 10
30.4745
 20
804.7914999999999
 30
0.0
 11
30.56484392706511
 21
804.9483396355709
 31
0.0
  0
LINE
  5
6D6
330
1E
100
AcDbEntity
  8
0
100
AcDbLine
 10
30.5455
 20
799.1515
 30
0.0
 11
31.0294999999999
 21
798.7915
 31
0.0
  0
LINE
  5
6D7
330
1E
100
AcDbEntity
  8
0
100
AcDbLine
 10
30.6115
 20
800.9315
 30
0.0
 11
31.30350000000001
 21
800.6714999999999
 31
0.0
  0
LINE
  5
6D8
330
1E
100
AcDbEntity
  8
0
100
AcDbLine
 10
30.53049999999998
 20
799.3515
 30
0.0
 11
31.01750000000001
 21
799.2614999999999
 31
0.0
  0
LINE
  5
6D9
330
1E
100
AcDbEntity
  8
0
100
AcDbLine
 10
30.53049999999998
 20
799.3515
 30
0.0
 11
30.5455
 21
799.1515
 31
0.0
  0
LINE
  5
6DA
330
1E
100
AcDbEntity
  8
0
100
AcDbLine
 10
30.10150000000001
 20
801.3614999999999
 30
0.0
 11
30.6115
 21
800.9315
 31
0.0
  0
LINE
  5
6DB
330
1E
100
AcDbEntity
  8
0
100
AcDbLine
 10
30.52449999999998
 20
801.7614999999999
 30
0.0
 11
31.21649999999999
 21
801.5015
 31
0.0
  0
LINE
  5
6DC
330
1E
100
AcDbEntity
  8
0
100
AcDbLine
 10
30.05549999999999
 20
801.7115
 30
0.0
 11
30.52449999999998
 21
801.7614999999999
 31
0.0
  0
LINE
  5
6DD
330
1E
100
AcDbEntity
  8
0
100
AcDbLine
 10
30.05549999999999
 20
801.7115
 30
0.0
 11
30.10150000000001
 21
801.3614999999999
 31
0.0
  0
LINE
  5
6DE
330
1E
100
AcDbEntity
  8
0
100
AcDbLine
 10
31.08349999999998
 20
797.7184999999999
 30
0.0
 11
31.60949999999999
 21
797.5465
 31
0.0
  0
LINE
  5
6DF
330
1E
100
AcDbEntity
  8
0
100
AcDbLine
 10
30.40049999999999
 20
798.0615
 30
0.0
 11
31.08349999999998
 21
797.7184999999999
 31
0.0
  0
LINE
  5
6E0
330
1E
100
AcDbEntity
  8
0
100
AcDbLine
 10
30.53450000000001
 20
798.3015
 30
0.0
 11
31.2175
 21
797.9614999999999
 31
0.0
  0
LINE
  5
6E1
330
1E
100
AcDbEntity
  8
0
100
AcDbLine
 10
29.9625
 20
798.3615
 30
0.0
 11
30.01498019514968
 21
798.467773887789
 31
0.0
  0
LINE
  5
6E2
330
1E
100
AcDbEntity
  8
0
100
AcDbLine
 10
29.9625
 20
798.3615
 30
0.0
 11
30.00849999999999
 21
798.4715
 31
0.0
  0
LINE
  5
6E3
330
1E
100
AcDbEntity
  8
0
100
AcDbLine
 10
29.9625
 20
798.3615
 30
0.0
 11
30.40049999999999
 21
798.0615
 31
0.0
  0
LINE
  5
6E4
330
1E
100
AcDbEntity
  8
0
100
AcDbLine
 10
30.00849999999999
 20
798.4715
 30
0.0
 11
30.53450000000001
 21
798.3015
 31
0.0
  0
LINE
  5
6E5
330
1E
100
AcDbEntity
  8
0
100
AcDbLine
 10
29.50849999999999
 20
798.7414999999999
 30
0.0
 11
30.00233299143229
 21
798.4567528055991
 31
0.0
  0
LINE
  5
6E6
330
1E
100
AcDbEntity
  8
0
100
AcDbLine
 10
33.9015
 20
796.2234999999999
 30
0.0
 11
34.1165
 21
796.2315
 31
0.0
  0
LINE
  5
6E7
330
1E
100
AcDbEntity
  8
0
100
AcDbLine
 10
33.27349999999998
 20
796.4534999999999
 30
0.0
 11
33.9015
 21
796.2234999999999
 31
0.0
  0
LINE
  5
6E8
330
1E
100
AcDbEntity
  8
0
100
AcDbLine
 10
32.61249999999998
 20
796.7785
 30
0.0
 11
33.27349999999998
 21
796.4534999999999
 31
0.0
  0
LINE
  5
6E9
330
1E
100
AcDbEntity
  8
0
100
AcDbLine
 10
32.3125
 20
797.0095
 30
0.0
 11
32.41051673210239
 21
797.227689580552
 31
0.0
  0
LINE
  5
6EA
330
1E
100
AcDbEntity
  8
0
100
AcDbLine
 10
32.3125
 20
797.0095
 30
0.0
 11
32.61249999999998
 21
796.7785
 31
0.0
  0
LINE
  5
6EB
330
1E
100
AcDbEntity
  8
0
100
AcDbLine
 10
32.18950000000001
 20
798.5915
 30
0.0
 11
32.20349999999999
 21
798.3814999999999
 31
0.0
  0
LINE
  5
6EC
330
1E
100
AcDbEntity
  8
0
100
AcDbLine
 10
31.70449999999991
 20
798.9514999999999
 30
0.0
 11
32.18950000000001
 21
798.5915
 31
0.0
  0
LINE
  5
6ED
330
1E
100
AcDbEntity
  8
0
100
AcDbLine
 10
31.71649999999999
 20
798.4715
 30
0.0
 11
32.20349999999999
 21
798.3814999999999
 31
0.0
  0
LINE
  5
6EE
330
1E
100
AcDbEntity
  8
0
100
AcDbLine
 10
31.72650000000001
 20
801.0614999999999
 30
0.0
 11
31.7725
 21
800.7215
 31
0.0
  0
LINE
  5
6EF
330
1E
100
AcDbEntity
  8
0
100
AcDbLine
 10
35.70349999999999
 20
794.9945
 30
0.0
 11
35.76972897617719
 21
795.1643202299499
 31
0.0
  0
LINE
  5
6F0
330
1E
100
AcDbEntity
  8
0
100
AcDbLine
 10
35.70349999999999
 20
794.9945
 30
0.0
 11
36.19649999999998
 21
794.7664999999999
 31
0.0
  0
LINE
  5
6F1
330
1E
100
AcDbEntity
  8
0
100
AcDbLine
 10
36.19649999999998
 20
794.7664999999999
 30
0.0
 11
36.3914322020781
 21
794.690174433553
 31
0.0
  0
LINE
  5
6F2
330
1E
100
AcDbEntity
  8
0
100
AcDbLine
 10
35.71549999999999
 20
795.1765
 30
0.0
 11
36.08950000000001
 21
795.0924999999999
 31
0.0
  0
LINE
  5
6F3
330
1E
100
AcDbEntity
  8
0
100
AcDbLine
 10
35.94749999999999
 20
795.2304999999999
 30
0.0
 11
36.08950000000001
 21
795.0924999999999
 31
0.0
  0
LINE
  5
6F4
330
1E
100
AcDbEntity
  8
0
100
AcDbLine
 10
34.1165
 20
796.2315
 30
0.0
 11
34.1779184534283
 21
796.368069288336
 31
0.0
  0
LINE
  5
6F5
330
1E
100
AcDbEntity
  8
0
100
AcDbLine
 10
35.49949999999998
 20
801.4514999999999
 30
0.0
 11
35.5695
 21
801.8515
 31
0.0
  0
LINE
  5
6F6
330
1E
100
AcDbEntity
  8
0
100
AcDbLine
 10
35.49949999999998
 20
801.4514999999999
 30
0.0
 11
35.94749999999999
 21
801.0114999999998
 31
0.0
  0
LINE
  5
6F7
330
1E
100
AcDbEntity
  8
0
100
AcDbLine
 10
35.5695
 20
801.8515
 30
0.0
 11
36.14250000000001
 21
801.9614999999999
 31
0.0
  0
LINE
  5
6F8
330
1E
100
AcDbEntity
  8
0
100
AcDbLine
 10
35.33850000000001
 20
798.3414999999999
 30
0.0
 11
35.4505
 21
798.5915
 31
0.0
  0
LINE
  5
6F9
330
1E
100
AcDbEntity
  8
0
100
AcDbLine
 10
35.33850000000001
 20
798.3414999999999
 30
0.0
 11
35.7475
 21
797.9635
 31
0.0
  0
LINE
  5
6FA
330
1E
100
AcDbEntity
  8
0
100
AcDbLine
 10
35.4505
 20
798.5915
 30
0.0
 11
36.04249999999999
 21
798.5714999999999
 31
0.0
  0
LINE
  5
6FB
330
1E
100
AcDbEntity
  8
0
100
AcDbLine
 10
35.35150000000001
 20
795.5185
 30
0.0
 11
35.94749999999999
 21
795.2304999999999
 31
0.0
  0
LINE
  5
6FC
330
1E
100
AcDbEntity
  8
0
100
AcDbLine
 10
34.66149999999998
 20
795.7844999999999
 30
0.0
 11
35.35150000000001
 21
795.5185
 31
0.0
  0
LINE
  5
6FD
330
1E
100
AcDbEntity
  8
0
100
AcDbLine
 10
34.28749999999999
 20
795.8685
 30
0.0
 11
34.55266535433159
 21
796.5080983218659
 31
0.0
  0
LINE
  5
6FE
330
1E
100
AcDbEntity
  8
0
100
AcDbLine
 10
34.28749999999999
 20
795.8685
 30
0.0
 11
34.42850000000001
 21
795.7304999999999
 31
0.0
  0
LINE
  5
6FF
330
1E
100
AcDbEntity
  8
0
100
AcDbLine
 10
34.28749999999999
 20
795.8685
 30
0.0
 11
34.66149999999998
 21
795.7844999999999
 31
0.0
  0
LINE
  5
700
330
1E
100
AcDbEntity
  8
0
100
AcDbLine
 10
34.42850000000001
 20
795.7304999999999
 30
0.0
 11
35.02549999999999
 21
795.4425
 31
0.0
  0
LINE
  5
701
330
1E
100
AcDbEntity
  8
0
100
AcDbLine
 10
35.02549999999999
 20
795.4425
 30
0.0
 11
35.71549999999999
 21
795.1765
 31
0.0
  0
LINE
  5
702
330
1E
100
AcDbEntity
  8
0
100
AcDbLine
 10
38.4303966543525
 20
794.4766154742481
 30
0.0
 11
41.8642649332726
 21
793.215704424166
 31
0.0
  0
LINE
  5
703
330
1E
100
AcDbEntity
  8
0
100
AcDbLine
 10
37.17850000000001
 20
794.3315
 30
0.0
 11
37.86249999999999
 21
794.0685
 31
0.0
  0
LINE
  5
704
330
1E
100
AcDbEntity
  8
0
100
AcDbLine
 10
36.72049999999998
 20
794.4634999999999
 30
0.0
 11
37.4045
 21
794.2015
 31
0.0
  0
LINE
  5
705
330
1E
100
AcDbEntity
  8
0
100
AcDbLine
 10
38.21949999999999
 20
793.9185
 30
0.0
 11
38.4594559716308
 21
794.553517854203
 31
0.0
  0
LINE
  5
706
330
1E
100
AcDbEntity
  8
0
100
AcDbLine
 10
37.86249999999999
 20
794.0685
 30
0.0
 11
38.21949999999999
 21
793.9185
 31
0.0
  0
LINE
  5
707
330
1E
100
AcDbEntity
  8
0
100
AcDbLine
 10
37.4045
 20
794.2015
 30
0.0
 11
38.02049999999999
 21
793.9775
 31
0.0
  0
LINE
  5
708
330
1E
100
AcDbEntity
  8
0
100
AcDbLine
 10
38.02049999999999
 20
793.9775
 30
0.0
 11
38.21949999999999
 21
793.9185
 31
0.0
  0
LINE
  5
709
330
1E
100
AcDbEntity
  8
0
100
AcDbLine
 10
43.55449999999999
 20
792.1095
 30
0.0
 11
43.7283541847492
 21
792.6943100344638
 31
0.0
  0
LINE
  5
70A
330
1E
100
AcDbEntity
  8
0
100
AcDbLine
 10
43.55449999999999
 20
792.1095
 30
0.0
 11
43.7283541847492
 21
792.6943100344638
 31
0.0
  0
LINE
  5
70B
330
1E
100
AcDbEntity
  8
0
100
AcDbLine
 10
42.12649999999999
 20
792.4624999999999
 30
0.0
 11
42.84649999999999
 21
792.2414999999999
 31
0.0
  0
LINE
  5
70C
330
1E
100
AcDbEntity
  8
0
100
AcDbLine
 10
43.1175
 20
792.2785
 30
0.0
 11
43.55449999999999
 21
792.1095
 31
0.0
  0
LINE
  5
70D
330
1E
100
AcDbEntity
  8
0
100
AcDbLine
 10
42.39849999999999
 20
792.5004999999999
 30
0.0
 11
43.1175
 21
792.2785
 31
0.0
  0
LINE
  5
70E
330
1E
100
AcDbEntity
  8
0
100
AcDbLine
 10
42.84649999999999
 20
792.2414999999999
 30
0.0
 11
43.4315
 21
792.0974999999999
 31
0.0
  0
LINE
  5
70F
330
1E
100
AcDbEntity
  8
0
100
AcDbLine
 10
43.4315
 20
792.0974999999999
 30
0.0
 11
43.55449999999999
 21
792.1095
 31
0.0
  0
LINE
  5
710
330
1E
100
AcDbEntity
  8
0
100
AcDbLine
 10
41.6905
 20
792.6314999999999
 30
0.0
 11
41.90623262370059
 21
793.3568014220379
 31
0.0
  0
LINE
  5
711
330
1E
100
AcDbEntity
  8
0
100
AcDbLine
 10
41.6905
 20
792.6314999999999
 30
0.0
 11
41.8125
 21
792.6445
 31
0.0
  0
LINE
  5
712
330
1E
100
AcDbEntity
  8
0
100
AcDbLine
 10
41.6905
 20
792.6314999999999
 30
0.0
 11
42.12649999999999
 21
792.4624999999999
 31
0.0
  0
LINE
  5
713
330
1E
100
AcDbEntity
  8
0
100
AcDbLine
 10
41.8125
 20
792.6445
 30
0.0
 11
42.39849999999999
 21
792.5004999999999
 31
0.0
  0
LINE
  5
714
330
1E
100
AcDbEntity
  8
0
100
AcDbLine
 10
45.1645
 20
793.3065
 30
0.0
 11
45.78249999999999
 21
793.0864999999999
 31
0.0
  0
LINE
  5
715
330
1E
100
AcDbEntity
  8
0
100
AcDbLine
 10
45.4805
 20
792.8024999999999
 30
0.0
 11
45.9025
 21
792.8795
 31
0.0
  0
LINE
  5
716
330
1E
100
AcDbEntity
  8
0
100
AcDbLine
 10
45.78249999999999
 20
793.0864999999999
 30
0.0
 11
45.9025
 21
792.8795
 31
0.0
  0
LINE
  5
717
330
1E
100
AcDbEntity
  8
0
100
AcDbLine
 10
44.42549999999999
 20
793.4115
 30
0.0
 11
45.1645
 21
793.3065
 31
0.0
  0
LINE
  5
718
330
1E
100
AcDbEntity
  8
0
100
AcDbLine
 10
44.0035
 20
793.3345
 30
0.0
 11
44.1235
 21
793.1275
 31
0.0
  0
LINE
  5
719
330
1E
100
AcDbEntity
  8
0
100
AcDbLine
 10
44.0035
 20
793.3345
 30
0.0
 11
44.42549999999999
 21
793.4115
 31
0.0
  0
LINE
  5
71A
330
1E
100
AcDbEntity
  8
0
100
AcDbLine
 10
44.1235
 20
793.1275
 30
0.0
 11
44.7415
 21
792.9085
 31
0.0
  0
LINE
  5
71B
330
1E
100
AcDbEntity
  8
0
100
AcDbLine
 10
44.7415
 20
792.9085
 30
0.0
 11
45.4805
 21
792.8024999999999
 31
0.0
  0
LINE
  5
71C
330
1E
100
AcDbEntity
  8
0
100
AcDbLine
 10
43.6846403012425
 20
792.547265442141
 30
0.0
 11
44.0925
 21
792.3975
 31
0.0
  0
LINE
  5
71D
330
1E
100
AcDbEntity
  8
0
100
AcDbLine
 10
41.0395
 20
795.0454999999999
 30
0.0
 11
41.7225
 21
794.9724999999999
 31
0.0
  0
LINE
  5
71E
330
1E
100
AcDbEntity
  8
0
100
AcDbLine
 10
41.0325
 20
795.6915
 30
0.0
 11
41.7185
 21
795.4335
 31
0.0
  0
LINE
  5
71F
330
1E
100
AcDbEntity
  8
0
100
AcDbLine
 10
38.5695
 20
794.9044999999999
 30
0.0
 11
39.2125
 21
794.6164999999999
 31
0.0
  0
LINE
  5
720
330
1E
100
AcDbEntity
  8
0
100
AcDbLine
 10
38.4275
 20
794.5984999999999
 30
0.0
 11
39.1105
 21
794.3985
 31
0.0
  0
LINE
  5
721
330
1E
100
AcDbEntity
  8
0
100
AcDbLine
 10
37.78450000000001
 20
794.8875000000001
 30
0.0
 11
38.4275
 21
794.5984999999999
 31
0.0
  0
LINE
  5
722
330
1E
100
AcDbEntity
  8
0
100
AcDbLine
 10
37.8865
 20
795.1055
 30
0.0
 11
38.5695
 21
794.9044999999999
 31
0.0
  0
LINE
  5
723
330
1E
100
AcDbEntity
  8
0
100
AcDbLine
 10
37.5695
 20
795.0934999999999
 30
0.0
 11
37.8865
 21
795.1055
 31
0.0
  0
LINE
  5
724
330
1E
100
AcDbEntity
  8
0
100
AcDbLine
 10
37.5695
 20
795.0934999999999
 30
0.0
 11
37.78450000000001
 21
794.8875000000001
 31
0.0
  0
LINE
  5
725
330
1E
100
AcDbEntity
  8
0
100
AcDbLine
 10
36.86549999999999
 20
801.7314999999999
 30
0.0
 11
37.3135
 21
801.2814999999999
 31
0.0
  0
LINE
  5
726
330
1E
100
AcDbEntity
  8
0
100
AcDbLine
 10
37.2425
 20
800.8815
 30
0.0
 11
37.3135
 21
801.2814999999999
 31
0.0
  0
LINE
  5
727
330
1E
100
AcDbEntity
  8
0
100
AcDbLine
 10
37.05049999999999
 20
797.6695
 30
0.0
 11
37.16249999999999
 21
797.9255000000001
 31
0.0
  0
LINE
  5
728
330
1E
100
AcDbEntity
  8
0
100
AcDbLine
 10
36.6705
 20
800.7815
 30
0.0
 11
37.2425
 21
800.8815
 31
0.0
  0
LINE
  5
729
330
1E
100
AcDbEntity
  8
0
100
AcDbLine
 10
36.7535
 20
798.3015
 30
0.0
 11
37.16249999999999
 21
797.9255000000001
 31
0.0
  0
LINE
  5
72A
330
1E
100
AcDbEntity
  8
0
100
AcDbLine
 10
36.45849999999998
 20
797.6905
 30
0.0
 11
37.05049999999999
 21
797.6695
 31
0.0
  0
LINE
  5
72B
330
1E
100
AcDbEntity
  8
0
100
AcDbLine
 10
36.56149999999999
 20
794.5555
 30
0.0
 11
37.17850000000001
 21
794.3315
 31
0.0
  0
LINE
  5
72C
330
1E
100
AcDbEntity
  8
0
100
AcDbLine
 10
39.2125
 20
794.6164999999999
 30
0.0
 11
39.42750000000001
 21
794.4094999999999
 31
0.0
  0
LINE
  5
72D
330
1E
100
AcDbEntity
  8
0
100
AcDbLine
 10
40.3535
 20
795.3044999999999
 30
0.0
 11
41.0395
 21
795.0454999999999
 31
0.0
  0
LINE
  5
72E
330
1E
100
AcDbEntity
  8
0
100
AcDbLine
 10
40.0775
 20
795.6014999999999
 30
0.0
 11
40.3485
 21
795.7654999999999
 31
0.0
  0
LINE
  5
72F
330
1E
100
AcDbEntity
  8
0
100
AcDbLine
 10
40.0775
 20
795.6014999999999
 30
0.0
 11
40.3535
 21
795.3044999999999
 31
0.0
  0
LINE
  5
730
330
1E
100
AcDbEntity
  8
0
100
AcDbLine
 10
40.3485
 20
795.7654999999999
 30
0.0
 11
41.0325
 21
795.6915
 31
0.0
  0
LINE
  5
731
330
1E
100
AcDbEntity
  8
0
100
AcDbLine
 10
39.1105
 20
794.3985
 30
0.0
 11
39.42750000000001
 21
794.4094999999999
 31
0.0
  0
LINE
  5
732
330
1E
100
AcDbEntity
  8
0
100
AcDbLine
 10
43.3915
 20
797.9605
 30
0.0
 11
43.72549999999999
 21
797.5795
 31
0.0
  0
LINE
  5
733
330
1E
100
AcDbEntity
  8
0
100
AcDbLine
 10
43.5065
 20
797.2685
 30
0.0
 11
43.72549999999999
 21
797.5795
 31
0.0
  0
LINE
  5
734
330
1E
100
AcDbEntity
  8
0
100
AcDbLine
 10
42.8365
 20
797.2175
 30
0.0
 11
43.5065
 21
797.2685
 31
0.0
  0
LINE
  5
735
330
1E
100
AcDbEntity
  8
0
100
AcDbLine
 10
42.67549999999999
 20
798.1815
 30
0.0
 11
43.3915
 21
797.9605
 31
0.0
  0
LINE
  5
736
330
1E
100
AcDbEntity
  8
0
100
AcDbLine
 10
41.7185
 20
795.4335
 30
0.0
 11
41.9945
 21
795.1365
 31
0.0
  0
LINE
  5
737
330
1E
100
AcDbEntity
  8
0
100
AcDbLine
 10
41.7225
 20
794.9724999999999
 30
0.0
 11
41.9945
 21
795.1365
 31
0.0
  0
LINE
  5
738
330
1E
100
AcDbEntity
  8
0
100
AcDbLine
 10
42.1215
 20
797.4425
 30
0.0
 11
42.8365
 21
797.2175
 31
0.0
  0
LINE
  5
739
330
1E
100
AcDbEntity
  8
0
100
AcDbLine
 10
42.0065
 20
798.1314999999999
 30
0.0
 11
42.67549999999999
 21
798.1815
 31
0.0
  0
LINE
  5
73A
330
1E
100
AcDbEntity
  8
0
100
AcDbLine
 10
41.78649999999999
 20
797.8234999999999
 30
0.0
 11
42.0065
 21
798.1314999999999
 31
0.0
  0
LINE
  5
73B
330
1E
100
AcDbEntity
  8
0
100
AcDbLine
 10
41.78649999999999
 20
797.8234999999999
 30
0.0
 11
42.1215
 21
797.4425
 31
0.0
  0
LINE
  5
73C
330
1E
100
AcDbEntity
  8
0
100
AcDbLine
 10
4.931499999999971
 20
847.5715
 30
0.0
 11
9.952499999999986
 21
850.6814999999999
 31
0.0
  0
LINE
  5
73D
330
1E
100
AcDbEntity
  8
0
100
AcDbLine
 10
6.867500000000006
 20
839.5215
 30
0.0
 11
12.75649999999998
 21
836.1214999999999
 31
0.0
  0
LINE
  5
73E
330
1E
100
AcDbEntity
  8
0
100
AcDbLine
 10
7.397499999999979
 20
838.6414999999999
 30
0.0
 11
13.11350000000001
 21
835.3415
 31
0.0
  0
LINE
  5
73F
330
1E
100
AcDbEntity
  8
0
100
AcDbLine
 10
6.800499999999971
 20
838.4115000000001
 30
0.0
 11
12.5165
 21
835.1115
 31
0.0
  0
LINE
  5
740
330
1E
100
AcDbEntity
  8
0
100
AcDbLine
 10
1.931499999999971
 20
842.3714999999999
 30
0.0
 11
3.230499999999949
 21
841.6214999999999
 31
0.0
  0
LINE
  5
741
330
1E
100
AcDbEntity
  8
0
100
AcDbLine
 10
1.931499999999971
 20
842.3714999999999
 30
0.0
 11
4.431499999999971
 21
846.7014999999999
 31
0.0
  0
LINE
  5
742
330
1E
100
AcDbEntity
  8
0
100
AcDbLine
 10
2.547499999999985
 20
841.4414999999999
 30
0.0
 11
3.846499999999991
 21
840.6914999999999
 31
0.0
  0
LINE
  5
743
330
1E
100
AcDbEntity
  8
0
100
AcDbLine
 10
1.864499999999935
 20
841.2614999999998
 30
0.0
 11
3.16349999999997
 21
840.5115
 31
0.0
  0
LINE
  5
744
330
1E
100
AcDbEntity
  8
0
100
AcDbLine
 10
0.2974999999999852
 20
837.5415
 30
0.0
 11
1.864499999999935
 21
841.2614999999998
 31
0.0
  0
LINE
  5
745
330
1E
100
AcDbEntity
  8
0
100
AcDbLine
 10
-0.0865000000000009
 20
834.8815
 30
0.0
 11
0.2974999999999852
 21
837.5415
 31
0.0
  0
LINE
  5
746
330
1E
100
AcDbEntity
  8
0
100
AcDbLine
 10
1.931499999999971
 20
842.3714999999999
 30
0.0
 11
2.547499999999985
 21
841.4414999999999
 31
0.0
  0
LINE
  5
747
330
1E
100
AcDbEntity
  8
0
100
AcDbLine
 10
1.864499999999935
 20
841.2614999999998
 30
0.0
 11
2.547499999999985
 21
841.4414999999999
 31
0.0
  0
LINE
  5
748
330
1E
100
AcDbEntity
  8
0
100
AcDbLine
 10
3.230499999999949
 20
841.6214999999999
 30
0.0
 11
6.867500000000006
 21
839.5215
 31
0.0
  0
LINE
  5
749
330
1E
100
AcDbEntity
  8
0
100
AcDbLine
 10
3.846499999999991
 20
840.6914999999999
 30
0.0
 11
7.397499999999979
 21
838.6414999999999
 31
0.0
  0
LINE
  5
74A
330
1E
100
AcDbEntity
  8
0
100
AcDbLine
 10
3.16349999999997
 20
840.5115
 30
0.0
 11
6.800499999999971
 21
838.4115000000001
 31
0.0
  0
LINE
  5
74B
330
1E
100
AcDbEntity
  8
0
100
AcDbLine
 10
4.931499999999971
 20
847.5715
 30
0.0
 11
5.114499999999964
 21
846.8914999999999
 31
0.0
  0
LINE
  5
74C
330
1E
100
AcDbEntity
  8
0
100
AcDbLine
 10
4.431499999999971
 20
846.7014999999999
 30
0.0
 11
5.114499999999964
 21
846.8914999999999
 31
0.0
  0
LINE
  5
74D
330
1E
100
AcDbEntity
  8
0
100
AcDbLine
 10
26.7835
 20
855.4015000000001
 30
0.0
 11
35.92150000000001
 21
854.9414999999999
 31
0.0
  0
LINE
  5
74E
330
1E
100
AcDbEntity
  8
0
100
AcDbLine
 10
9.952499999999986
 20
850.6814999999999
 30
0.0
 11
17.83349999999998
 21
854.1515
 31
0.0
  0
LINE
  5
74F
330
1E
100
AcDbEntity
  8
0
100
AcDbLine
 10
17.83349999999998
 20
854.1515
 30
0.0
 11
26.7835
 21
855.4015000000001
 31
0.0
  0
LINE
  5
750
330
1E
100
AcDbEntity
  8
0
100
AcDbLine
 10
35.92150000000001
 20
854.9414999999999
 30
0.0
 11
45.07249999999999
 21
852.4615
 31
0.0
  0
LINE
  5
751
330
1E
100
AcDbEntity
  8
0
100
AcDbLine
 10
72.12050000000001
 20
836.3015
 30
0.0
 11
83.5759
 21
828.1414999999999
 31
0.0
  0
LINE
  5
752
330
1E
100
AcDbEntity
  8
0
100
AcDbLine
 10
83.5759
 20
828.1414999999999
 30
0.0
 11
90.39649999999999
 21
822.7615
 31
0.0
  0
LINE
  5
753
330
1E
100
AcDbEntity
  8
0
100
AcDbLine
 10
76.6497
 20
799.4115
 30
0.0
 11
85.24230000000001
 21
795.2074999999999
 31
0.0
  0
LINE
  5
754
330
1E
100
AcDbEntity
  8
0
100
AcDbLine
 10
64.7185
 20
806.1215
 30
0.0
 11
70.60729999999999
 21
802.7214999999999
 31
0.0
  0
LINE
  5
755
330
1E
100
AcDbEntity
  8
0
100
AcDbLine
 10
63.8625
 20
806.0415
 30
0.0
 11
69.5779
 21
802.7414999999999
 31
0.0
  0
LINE
  5
756
330
1E
100
AcDbEntity
  8
0
100
AcDbLine
 10
63.9585
 20
805.4115000000001
 30
0.0
 11
69.6743
 21
802.1114999999999
 31
0.0
  0
LINE
  5
757
330
1E
100
AcDbEntity
  8
0
100
AcDbLine
 10
64.7805
 20
792.2305
 30
0.0
 11
66.14650000000001
 21
792.5964999999999
 31
0.0
  0
LINE
  5
758
330
1E
100
AcDbEntity
  8
0
100
AcDbLine
 10
55.5555
 20
790.7494999999999
 30
0.0
 11
56.00450000000001
 21
790.6775
 31
0.0
  0
LINE
  5
759
330
1E
100
AcDbEntity
  8
0
100
AcDbLine
 10
55.25549999999999
 20
790.4855
 30
0.0
 11
55.8695
 21
790.5685
 31
0.0
  0
LINE
  5
75A
330
1E
100
AcDbEntity
  8
0
100
AcDbLine
 10
55.2265
 20
790.0644999999999
 30
0.0
 11
55.9255
 21
790.0984999999999
 31
0.0
  0
LINE
  5
75B
330
1E
100
AcDbEntity
  8
0
100
AcDbLine
 10
48.17750000000001
 20
815.6715
 30
0.0
 11
57.01050000000001
 21
810.5715
 31
0.0
  0
LINE
  5
75C
330
1E
100
AcDbEntity
  8
0
100
AcDbLine
 10
47.75450000000001
 20
815.3415
 30
0.0
 11
56.3275
 21
810.3914999999998
 31
0.0
  0
LINE
  5
75D
330
1E
100
AcDbEntity
  8
0
100
AcDbLine
 10
47.59049999999999
 20
814.8614999999999
 30
0.0
 11
56.4245
 21
809.7614999999999
 31
0.0
  0
LINE
  5
75E
330
1E
100
AcDbEntity
  8
0
100
AcDbLine
 10
48.82249999999999
 20
794.1994999999999
 30
0.0
 11
49.1885
 21
794.4255
 31
0.0
  0
LINE
  5
75F
330
1E
100
AcDbEntity
  8
0
100
AcDbLine
 10
47.42449999999999
 20
794.3814999999999
 30
0.0
 11
48.08850000000001
 21
794.1855
 31
0.0
  0
LINE
  5
760
330
1E
100
AcDbEntity
  8
0
100
AcDbLine
 10
50.2037422384535
 20
791.2191286392089
 30
0.0
 11
54.0462765207471
 21
790.8629229064709
 31
0.0
  0
LINE
  5
761
330
1E
100
AcDbEntity
  8
0
100
AcDbLine
 10
48.3715
 20
790.8125
 30
0.0
 11
49.02750000000001
 21
790.7544999999999
 31
0.0
  0
LINE
  5
762
330
1E
100
AcDbEntity
  8
0
100
AcDbLine
 10
48.1545
 20
790.8005000000001
 30
0.0
 11
48.52949999999999
 21
790.7214999999999
 31
0.0
  0
LINE
  5
763
330
1E
100
AcDbEntity
  8
0
100
AcDbLine
 10
48.1345
 20
791.5915
 30
0.0
 11
48.64650000000001
 21
791.4335
 31
0.0
  0
LINE
  5
764
330
1E
100
AcDbEntity
  8
0
100
AcDbLine
 10
48.08850000000001
 20
794.1855
 30
0.0
 11
48.82249999999999
 21
794.1994999999999
 31
0.0
  0
LINE
  5
765
330
1E
100
AcDbEntity
  8
0
100
AcDbLine
 10
48.0445
 20
791.3224999999999
 30
0.0
 11
48.5985
 21
791.3235
 31
0.0
  0
LINE
  5
766
330
1E
100
AcDbEntity
  8
0
100
AcDbLine
 10
48.1545
 20
790.8005000000001
 30
0.0
 11
48.216661038507
 21
791.3228107599969
 31
0.0
  0
LINE
  5
767
330
1E
100
AcDbEntity
  8
0
100
AcDbLine
 10
48.1545
 20
790.8005000000001
 30
0.0
 11
48.3715
 21
790.8125
 31
0.0
  0
LINE
  5
768
330
1E
100
AcDbEntity
  8
0
100
AcDbLine
 10
46.7805
 20
791.5934999999999
 30
0.0
 11
46.82849999999999
 21
791.7034999999999
 31
0.0
  0
LINE
  5
769
330
1E
100
AcDbEntity
  8
0
100
AcDbLine
 10
46.7805
 20
791.5934999999999
 30
0.0
 11
46.8079999214666
 21
791.784341653582
 31
0.0
  0
LINE
  5
76A
330
1E
100
AcDbEntity
  8
0
100
AcDbLine
 10
46.7805
 20
791.5934999999999
 30
0.0
 11
47.29249999999999
 21
791.4355
 31
0.0
  0
LINE
  5
76B
330
1E
100
AcDbEntity
  8
0
100
AcDbLine
 10
47.29249999999999
 20
791.4355
 30
0.0
 11
48.0445
 21
791.3224999999999
 31
0.0
  0
LINE
  5
76C
330
1E
100
AcDbEntity
  8
0
100
AcDbLine
 10
47.3815
 20
791.7045
 30
0.0
 11
48.1345
 21
791.5915
 31
0.0
  0
LINE
  5
76D
330
1E
100
AcDbEntity
  8
0
100
AcDbLine
 10
46.82849999999999
 20
791.7034999999999
 30
0.0
 11
47.3815
 21
791.7045
 31
0.0
  0
LINE
  5
76E
330
1E
100
AcDbEntity
  8
0
100
AcDbLine
 10
48.52949999999999
 20
790.7214999999999
 30
0.0
 11
49.2535
 21
790.6235
 31
0.0
  0
LINE
  5
76F
330
1E
100
AcDbEntity
  8
0
100
AcDbLine
 10
48.5985
 20
791.3235
 30
0.0
 11
48.64650000000001
 21
791.4335
 31
0.0
  0
LINE
  5
770
330
1E
100
AcDbEntity
  8
0
100
AcDbLine
 10
49.02750000000001
 20
790.7544999999999
 30
0.0
 11
49.75249999999999
 21
790.6575
 31
0.0
  0
LINE
  5
771
330
1E
100
AcDbEntity
  8
0
100
AcDbLine
 10
49.2535
 20
790.6235
 30
0.0
 11
49.9105
 21
790.5655
 31
0.0
  0
LINE
  5
772
330
1E
100
AcDbEntity
  8
0
100
AcDbLine
 10
49.9105
 20
790.5655
 30
0.0
 11
50.1275
 21
790.5784999999999
 31
0.0
  0
LINE
  5
773
330
1E
100
AcDbEntity
  8
0
100
AcDbLine
 10
49.75249999999999
 20
790.6575
 30
0.0
 11
50.1275
 21
790.5784999999999
 31
0.0
  0
LINE
  5
774
330
1E
100
AcDbEntity
  8
0
100
AcDbLine
 10
50.1275
 20
790.5784999999999
 30
0.0
 11
50.2289717727254
 21
791.431120869977
 31
0.0
  0
LINE
  5
775
330
1E
100
AcDbEntity
  8
0
100
AcDbLine
 10
52.73050000000001
 20
792.3804999999999
 30
0.0
 11
53.30449999999999
 21
792.2365
 31
0.0
  0
LINE
  5
776
330
1E
100
AcDbEntity
  8
0
100
AcDbLine
 10
52.83549999999999
 20
791.8825
 30
0.0
 11
53.3365
 21
792.0304999999999
 31
0.0
  0
LINE
  5
777
330
1E
100
AcDbEntity
  8
0
100
AcDbLine
 10
51.9695
 20
792.3825
 30
0.0
 11
52.73050000000001
 21
792.3804999999999
 31
0.0
  0
LINE
  5
778
330
1E
100
AcDbEntity
  8
0
100
AcDbLine
 10
51.4685
 20
792.2335
 30
0.0
 11
51.5015
 21
792.0275
 31
0.0
  0
LINE
  5
779
330
1E
100
AcDbEntity
  8
0
100
AcDbLine
 10
51.4685
 20
792.2335
 30
0.0
 11
51.9695
 21
792.3825
 31
0.0
  0
LINE
  5
77A
330
1E
100
AcDbEntity
  8
0
100
AcDbLine
 10
51.5015
 20
792.0275
 30
0.0
 11
52.07550000000001
 21
791.8835
 31
0.0
  0
LINE
  5
77B
330
1E
100
AcDbEntity
  8
0
100
AcDbLine
 10
52.07550000000001
 20
791.8835
 30
0.0
 11
52.83549999999999
 21
791.8825
 31
0.0
  0
LINE
  5
77C
330
1E
100
AcDbEntity
  8
0
100
AcDbLine
 10
54.0565
 20
790.5515
 30
0.0
 11
54.19249999999999
 21
790.6615
 31
0.0
  0
LINE
  5
77D
330
1E
100
AcDbEntity
  8
0
100
AcDbLine
 10
54.0565
 20
790.5515
 30
0.0
 11
54.5065
 21
790.4805
 31
0.0
  0
LINE
  5
77E
330
1E
100
AcDbEntity
  8
0
100
AcDbLine
 10
54.5065
 20
790.4805
 30
0.0
 11
55.25549999999999
 21
790.4855
 31
0.0
  0
LINE
  5
77F
330
1E
100
AcDbEntity
  8
0
100
AcDbLine
 10
54.5065
 20
790.4805
 30
0.0
 11
54.90644595744649
 21
790.483169866205
 31
0.0
  0
LINE
  5
780
330
1E
100
AcDbEntity
  8
0
100
AcDbLine
 10
54.90644595744649
 20
790.483169866205
 30
0.0
 11
54.9275
 21
790.0495
 31
0.0
  0
LINE
  5
781
330
1E
100
AcDbEntity
  8
0
100
AcDbLine
 10
54.8065
 20
790.7445
 30
0.0
 11
55.5555
 21
790.7494999999999
 31
0.0
  0
LINE
  5
782
330
1E
100
AcDbEntity
  8
0
100
AcDbLine
 10
54.19249999999999
 20
790.6615
 30
0.0
 11
54.8065
 21
790.7445
 31
0.0
  0
LINE
  5
783
330
1E
100
AcDbEntity
  8
0
100
AcDbLine
 10
54.9275
 20
790.0495
 30
0.0
 11
55.2265
 21
790.0644999999999
 31
0.0
  0
LINE
  5
784
330
1E
100
AcDbEntity
  8
0
100
AcDbLine
 10
54.0462765207471
 20
790.8629229064709
 30
0.0
 11
54.0565
 21
790.5515
 31
0.0
  0
LINE
  5
785
330
1E
100
AcDbEntity
  8
0
100
AcDbLine
 10
53.30449999999999
 20
792.2365
 30
0.0
 11
53.3365
 21
792.0304999999999
 31
0.0
  0
LINE
  5
786
330
1E
100
AcDbEntity
  8
0
100
AcDbLine
 10
48.3305
 20
794.9205
 30
0.0
 11
48.99549999999999
 21
794.7245
 31
0.0
  0
LINE
  5
787
330
1E
100
AcDbEntity
  8
0
100
AcDbLine
 10
47.23149999999999
 20
794.6805
 30
0.0
 11
47.59749999999999
 21
794.9065
 31
0.0
  0
LINE
  5
788
330
1E
100
AcDbEntity
  8
0
100
AcDbLine
 10
47.23149999999999
 20
794.6805
 30
0.0
 11
47.42449999999999
 21
794.3814999999999
 31
0.0
  0
LINE
  5
789
330
1E
100
AcDbEntity
  8
0
100
AcDbLine
 10
47.59749999999999
 20
794.9065
 30
0.0
 11
48.3305
 21
794.9205
 31
0.0
  0
LINE
  5
78A
330
1E
100
AcDbEntity
  8
0
100
AcDbLine
 10
48.99549999999999
 20
794.7245
 30
0.0
 11
49.1885
 21
794.4255
 31
0.0
  0
LINE
  5
78B
330
1E
100
AcDbEntity
  8
0
100
AcDbLine
 10
56.88458624847209
 20
790.968640985079
 30
0.0
 11
60.6825
 21
791.1325
 31
0.0
  0
LINE
  5
78C
330
1E
100
AcDbEntity
  8
0
100
AcDbLine
 10
56.88458624847209
 20
790.968640985079
 30
0.0
 11
56.9245
 21
790.1464999999999
 31
0.0
  0
LINE
  5
78D
330
1E
100
AcDbEntity
  8
0
100
AcDbLine
 10
55.8695
 20
790.5685
 30
0.0
 11
56.00450000000001
 21
790.6775
 31
0.0
  0
LINE
  5
78E
330
1E
100
AcDbEntity
  8
0
100
AcDbLine
 10
56.6255
 20
790.1314999999999
 30
0.0
 11
56.9245
 21
790.1464999999999
 31
0.0
  0
LINE
  5
78F
330
1E
100
AcDbEntity
  8
0
100
AcDbLine
 10
55.9255
 20
790.0984999999999
 30
0.0
 11
56.6255
 21
790.1314999999999
 31
0.0
  0
LINE
  5
790
330
1E
100
AcDbEntity
  8
0
100
AcDbLine
 10
60.6825
 20
791.1325
 30
0.0
 11
64.23449999999999
 21
792.0845
 31
0.0
  0
LINE
  5
791
330
1E
100
AcDbEntity
  8
0
100
AcDbLine
 10
64.34748912093279
 20
792.4804618751281
 30
0.0
 11
64.7805
 21
792.2305
 31
0.0
  0
LINE
  5
792
330
1E
100
AcDbEntity
  8
0
100
AcDbLine
 10
64.23449999999999
 20
792.0845
 30
0.0
 11
64.34748912093279
 21
792.4804618751281
 31
0.0
  0
LINE
  5
793
330
1E
100
AcDbEntity
  8
0
100
AcDbLine
 10
57.01050000000001
 20
810.5715
 30
0.0
 11
64.7185
 21
806.1215
 31
0.0
  0
LINE
  5
794
330
1E
100
AcDbEntity
  8
0
100
AcDbLine
 10
56.3275
 20
810.3914999999998
 30
0.0
 11
63.8625
 21
806.0415
 31
0.0
  0
LINE
  5
795
330
1E
100
AcDbEntity
  8
0
100
AcDbLine
 10
56.4245
 20
809.7614999999999
 30
0.0
 11
63.9585
 21
805.4115000000001
 31
0.0
  0
LINE
  5
796
330
1E
100
AcDbEntity
  8
0
100
AcDbLine
 10
74.42759999999999
 20
799.9414999999999
 30
0.0
 11
75.5437
 21
799.8714999999999
 31
0.0
  0
LINE
  5
797
330
1E
100
AcDbEntity
  8
0
100
AcDbLine
 10
74.2446
 20
800.6214999999999
 30
0.0
 11
75.5437
 21
799.8714999999999
 31
0.0
  0
LINE
  5
798
330
1E
100
AcDbEntity
  8
0
100
AcDbLine
 10
66.14650000000001
 20
792.5964999999999
 30
0.0
 11
70.0616
 21
794.3775
 31
0.0
  0
LINE
  5
799
330
1E
100
AcDbEntity
  8
0
100
AcDbLine
 10
69.5779
 20
802.7414999999999
 30
0.0
 11
73.1286
 21
800.6915000000001
 31
0.0
  0
LINE
  5
79A
330
1E
100
AcDbEntity
  8
0
100
AcDbLine
 10
69.6743
 20
802.1114999999999
 30
0.0
 11
73.3116
 21
800.0114999999999
 31
0.0
  0
LINE
  5
79B
330
1E
100
AcDbEntity
  8
0
100
AcDbLine
 10
70.0616
 20
794.3775
 30
0.0
 11
72.1776
 21
796.0425
 31
0.0
  0
LINE
  5
79C
330
1E
100
AcDbEntity
  8
0
100
AcDbLine
 10
70.60729999999999
 20
802.7214999999999
 30
0.0
 11
74.2446
 21
800.6214999999999
 31
0.0
  0
LINE
  5
79D
330
1E
100
AcDbEntity
  8
0
100
AcDbLine
 10
72.1776
 20
796.0425
 30
0.0
 11
74.6106
 21
799.2614999999999
 31
0.0
  0
LINE
  5
79E
330
1E
100
AcDbEntity
  8
0
100
AcDbLine
 10
74.42759999999999
 20
799.9414999999999
 30
0.0
 11
74.6106
 21
799.2614999999999
 31
0.0
  0
LINE
  5
79F
330
1E
100
AcDbEntity
  8
0
100
AcDbLine
 10
73.1286
 20
800.6915000000001
 30
0.0
 11
74.42759999999999
 21
799.9414999999999
 31
0.0
  0
LINE
  5
7A0
330
1E
100
AcDbEntity
  8
0
100
AcDbLine
 10
73.3116
 20
800.0114999999999
 30
0.0
 11
74.6106
 21
799.2614999999999
 31
0.0
  0
LINE
  5
7A1
330
1E
100
AcDbEntity
  8
0
100
AcDbLine
 10
75.5437
 20
799.8714999999999
 30
0.0
 11
75.6042541055574
 21
799.976379710826
 31
0.0
  0
LINE
  5
7A2
330
1E
100
AcDbEntity
  8
0
100
AcDbLine
 10
75.5725437259123
 20
799.993513596165
 30
0.0
 11
76.6497
 21
799.4115
 31
0.0
  0
LINE
  5
7A3
330
1E
100
AcDbEntity
  8
0
100
AcDbLine
 10
98.9155
 20
815.9715
 30
0.0
 11
106.0314999999999
 21
809.4115
 31
0.0
  0
LINE
  5
7A4
330
1E
100
AcDbEntity
  8
0
100
AcDbLine
 10
100.8275
 20
784.6385
 30
0.0
 11
106.9795
 21
777.9634999999999
 31
0.0
  0
LINE
  5
7A5
330
1E
100
AcDbEntity
  8
0
100
AcDbLine
 10
90.39649999999999
 20
822.7615
 30
0.0
 11
98.9155
 21
815.9715
 31
0.0
  0
LINE
  5
7A6
330
1E
100
AcDbEntity
  8
0
100
AcDbLine
 10
92.25050000000001
 20
790.9044999999999
 30
0.0
 11
100.8275
 21
784.6385
 31
0.0
  0
LINE
  5
7A7
330
1E
100
AcDbEntity
  8
0
100
AcDbLine
 10
85.24230000000001
 20
795.2074999999999
 30
0.0
 11
92.25050000000001
 21
790.9044999999999
 31
0.0
  0
LINE
  5
7A8
330
1E
100
AcDbEntity
  8
0
100
AcDbLine
 10
106.0314999999999
 20
809.4115
 30
0.0
 11
114.9175
 21
800.9914999999999
 31
0.0
  0
LINE
  5
7A9
330
1E
100
AcDbEntity
  8
0
100
AcDbLine
 10
113.3705
 20
768.7525
 30
0.0
 11
117.1894999999999
 21
761.6145
 31
0.0
  0
LINE
  5
7AA
330
1E
100
AcDbEntity
  8
0
100
AcDbLine
 10
106.9795
 20
777.9634999999999
 30
0.0
 11
113.3705
 21
768.7525
 31
0.0
  0
LINE
  5
7AB
330
1E
100
AcDbEntity
  8
0
100
AcDbLine
 10
114.9175
 20
800.9914999999999
 30
0.0
 11
121.1375
 21
794.8705
 31
0.0
  0
LINE
  5
7AC
330
1E
100
AcDbEntity
  8
0
100
AcDbLine
 10
59.87149999999999
 20
844.1214999999999
 30
0.0
 11
72.12050000000001
 21
836.3015
 31
0.0
  0
LINE
  5
7AD
330
1E
100
AcDbEntity
  8
0
100
AcDbLine
 10
54.2375
 20
847.9715
 30
0.0
 11
62.7085
 21
842.2814999999999
 31
0.0
  0
LINE
  5
7AE
330
1E
100
AcDbEntity
  8
0
100
AcDbLine
 10
59.5622128488784
 20
844.314576784563
 30
0.0
 11
59.87149999999999
 21
844.1214999999999
 31
0.0
  0
LINE
  5
7AF
330
1E
100
AcDbEntity
  8
0
100
AcDbLine
 10
161.3565299999999
 20
747.1644999999999
 30
0.0
 11
169.37553
 21
735.5534999999999
 31
0.0
  0
LINE
  5
7B0
330
1E
100
AcDbEntity
  8
0
100
AcDbLine
 10
155.0455
 20
706.3905
 30
0.0
 11
165.190529
 21
695.8334999999999
 31
0.0
  0
LINE
  5
7B1
330
1E
100
AcDbEntity
  8
0
100
AcDbLine
 10
138.4584999999999
 20
775.8655
 30
0.0
 11
146.6385
 21
765.5795
 31
0.0
  0
LINE
  5
7B2
330
1E
100
AcDbEntity
  8
0
100
AcDbLine
 10
136.0405
 20
729.3015
 30
0.0
 11
145.0105
 21
717.9915
 31
0.0
  0
LINE
  5
7B3
330
1E
100
AcDbEntity
  8
0
100
AcDbLine
 10
128.5124999999999
 20
740.7155
 30
0.0
 11
136.0405
 21
729.3015
 31
0.0
  0
LINE
  5
7B4
330
1E
100
AcDbEntity
  8
0
100
AcDbLine
 10
123.2485
 20
749.8084999999999
 30
0.0
 11
128.5124999999999
 21
740.7155
 31
0.0
  0
LINE
  5
7B5
330
1E
100
AcDbEntity
  8
0
100
AcDbLine
 10
132.0755
 20
783.0035
 30
0.0
 11
138.4584999999999
 21
775.8655
 31
0.0
  0
LINE
  5
7B6
330
1E
100
AcDbEntity
  8
0
100
AcDbLine
 10
153.1044999999999
 20
757.5344999999999
 30
0.0
 11
161.3565299999999
 21
747.1644999999999
 31
0.0
  0
LINE
  5
7B7
330
1E
100
AcDbEntity
  8
0
100
AcDbLine
 10
145.0105
 20
717.9915
 30
0.0
 11
155.0455
 21
706.3905
 31
0.0
  0
LINE
  5
7B8
330
1E
100
AcDbEntity
  8
0
100
AcDbLine
 10
146.6385
 20
765.5795
 30
0.0
 11
153.1044999999999
 21
757.5344999999999
 31
0.0
  0
LINE
  5
7B9
330
1E
100
AcDbEntity
  8
0
100
AcDbLine
 10
178.0424999999999
 20
723.1855
 30
0.0
 11
186.0645
 21
711.0565
 31
0.0
  0
LINE
  5
7BA
330
1E
100
AcDbEntity
  8
0
100
AcDbLine
 10
169.37553
 20
735.5534999999999
 30
0.0
 11
178.0424999999999
 21
723.1855
 31
0.0
  0
ENDSEC
  0
SECTION
  2
OBJECTS
  0
DICTIONARY
  5
C
330
0
100
AcDbDictionary
281
     1
  3
ACAD_GROUP
350
D
  3
ACAD_LAYOUT
350
19
  3
ACAD_MLINESTYLE
350
16
  3
ACAD_PLOTSETTINGS
350
18
  3
ACAD_PLOTSTYLENAME
350
E
  3
AcDbVariableDictionary
350
7BB
  0
DICTIONARY
  5
D
102
{ACAD_REACTORS
330
C
102
}
330
C
100
AcDbDictionary
281
     1
  0
DICTIONARY
  5
19
102
{ACAD_REACTORS
330
C
102
}
330
C
100
AcDbDictionary
281
     1
  3
Layout1
350
1D
  3
Model
350
21
  0
DICTIONARY
  5
16
102
{ACAD_REACTORS
330
C
102
}
330
C
100
AcDbDictionary
281
     1
  3
Standard
350
17
  0
DICTIONARY
  5
18
102
{ACAD_REACTORS
330
C
102
}
330
C
100
AcDbDictionary
281
     1
  0
ACDBDICTIONARYWDFLT
  5
E
102
{ACAD_REACTORS
330
C
102
}
330
C
100
AcDbDictionary
281
     1
  3
Normal
350
F
100
AcDbDictionaryWithDefault
340
F
  0
DICTIONARY
  5
7BB
102
{ACAD_REACTORS
330
C
102
}
330
C
100
AcDbDictionary
281
     1
  3
DIMASSOC
350
7BC
  0
LAYOUT
  5
1D
102
{ACAD_REACTORS
330
19
102
}
330
19
100
AcDbPlotSettings
  1

  2
hp deskjet 980c series
  4

  6

 40
0.0
 41
0.0
 42
0.0
 43
0.0
 44
0.0
 45
0.0
 46
0.0
 47
0.0
 48
0.0
 49
0.0
140
0.0
141
0.0
142
1.0
143
1.0
 70
   688
 72
     0
 73
     0
 74
     5
  7

 75
    16
147
1.0
148
0.0
149
0.0
100
AcDbLayout
  1
Layout1
 70
     1
 71
     1
 10
0.0
 20
0.0
 11
12.0
 21
9.0
 12
0.0
 22
0.0
 32
0.0
 14
1.000000000000000E+20
 24
1.000000000000000E+20
 34
1.000000000000000E+20
 15
-1.000000000000000E+20
 25
-1.000000000000000E+20
 35
-1.000000000000000E+20
146
0.0
 13
0.0
 23
0.0
 33
0.0
 16
1.0
 26
0.0
 36
0.0
 17
0.0
 27
1.0
 37
0.0
 76
     0
330
1A
  0
LAYOUT
  5
21
102
{ACAD_REACTORS
330
19
102
}
330
19
100
AcDbPlotSettings
  1

  2
hp deskjet 980c series
  4

  6

 40
0.0
 41
0.0
 42
0.0
 43
0.0
 44
0.0
 45
0.0
 46
0.0
 47
0.0
 48
0.0
 49
0.0
140
0.0
141
0.0
142
1.0
143
1.0
 70
  1712
 72
     0
 73
     0
 74
     0
  7

 75
     0
147
1.0
148
0.0
149
0.0
100
AcDbLayout
  1
Model
 70
     1
 71
     0
 10
0.0
 20
0.0
 11
12.0
 21
9.0
 12
0.0
 22
0.0
 32
0.0
 14
0.0
 24
0.0
 34
0.0
 15
0.0
 25
0.0
 35
0.0
146
0.0
 13
0.0
 23
0.0
 33
0.0
 16
1.0
 26
0.0
 36
0.0
 17
0.0
 27
1.0
 37
0.0
 76
     0
330
1E
  0
MLINESTYLE
  5
17
102
{ACAD_REACTORS
330
16
102
}
330
16
100
AcDbMlineStyle
  2
STANDARD
 70
     0
  3

 62
   256
 51
90.0
 52
90.0
 71
     2
 49
0.5
 62
   256
  6
BYLAYER
 49
-0.5
 62
   256
  6
BYLAYER
  0
ACDBPLACEHOLDER
  5
F
102
{ACAD_REACTORS
330
E
102
}
330
E
  0
DICTIONARYVAR
  5
7BC
102
{ACAD_REACTORS
330
7BB
102
}
330
7BB
100
DictionaryVariables
280
     0
  1
1
  0
ENDSEC
  0
EOF
