  0
SECTION
  2
HEADER
  9
$ACADVER
  1
AC1014
  9
$ACADMAINTVER
 70
     9
  9
$DWGCODEPAGE
  3
ANSI_1252
  9
$INSBASE
 10
0.0
 20
0.0
 30
0.0
  9
$EXTMIN
 10
-0.170974999999996
 20
0.0926999999999783
 30
0.0
  9
$EXTMAX
 10
189.170975
 20
165.9073
 30
0.0
  9
$LIMMIN
 10
0.0
 20
0.0
  9
$LIMMAX
 10
12.0
 20
9.0
  9
$ORTHOMODE
 70
     0
  9
$REGENMODE
 70
     1
  9
$FILLMODE
 70
     1
  9
$QTEXTMODE
 70
     0
  9
$MIRRTEXT
 70
     1
  9
$DRAGMODE
 70
     2
  9
$LTSCALE
 40
1.0
  9
$OSMODE
 70
    37
  9
$ATTMODE
 70
     1
  9
$TEXTSIZE
 40
0.2
  9
$TRACEWID
 40
0.05
  9
$TEXTSTYLE
  7
STANDARD
  9
$CLAYER
  8
0
  9
$CELTYPE
  6
CONTINUOUS
  9
$CECOLOR
 62
   256
  9
$CELTSCALE
 40
1.0
  9
$DELOBJ
 70
     1
  9
$DISPSILH
 70
     0
  9
$DIMSCALE
 40
1.0
  9
$DIMASZ
 40
0.18
  9
$DIMEXO
 40
0.0625
  9
$DIMDLI
 40
0.38
  9
$DIMRND
 40
0.0
  9
$DIMDLE
 40
0.0
  9
$DIMEXE
 40
0.18
  9
$DIMTP
 40
0.0
  9
$DIMTM
 40
0.0
  9
$DIMTXT
 40
0.18
  9
$DIMCEN
 40
0.09
  9
$DIMTSZ
 40
0.0
  9
$DIMTOL
 70
     0
  9
$DIMLIM
 70
     0
  9
$DIMTIH
 70
     1
  9
$DIMTOH
 70
     1
  9
$DIMSE1
 70
     0
  9
$DIMSE2
 70
     0
  9
$DIMTAD
 70
     0
  9
$DIMZIN
 70
     0
  9
$DIMBLK
  1

  9
$DIMASO
 70
     1
  9
$DIMSHO
 70
     1
  9
$DIMPOST
  1

  9
$DIMAPOST
  1

  9
$DIMALT
 70
     0
  9
$DIMALTD
 70
     2
  9
$DIMALTF
 40
25.4
  9
$DIMLFAC
 40
1.0
  9
$DIMTOFL
 70
     0
  9
$DIMTVP
 40
0.0
  9
$DIMTIX
 70
     0
  9
$DIMSOXD
 70
     0
  9
$DIMSAH
 70
     0
  9
$DIMBLK1
  1

  9
$DIMBLK2
  1

  9
$DIMSTYLE
  2
STANDARD
  9
$DIMCLRD
 70
     0
  9
$DIMCLRE
 70
     0
  9
$DIMCLRT
 70
     0
  9
$DIMTFAC
 40
1.0
  9
$DIMGAP
 40
0.09
  9
$DIMJUST
 70
     0
  9
$DIMSD1
 70
     0
  9
$DIMSD2
 70
     0
  9
$DIMTOLJ
 70
     1
  9
$DIMTZIN
 70
     0
  9
$DIMALTZ
 70
     0
  9
$DIMALTTZ
 70
     0
  9
$DIMFIT
 70
     3
  9
$DIMUPT
 70
     0
  9
$DIMUNIT
 70
     2
  9
$DIMDEC
 70
     4
  9
$DIMTDEC
 70
     4
  9
$DIMALTU
 70
     2
  9
$DIMALTTD
 70
     2
  9
$DIMTXSTY
  7
STANDARD
  9
$DIMAUNIT
 70
     0
  9
$LUNITS
 70
     2
  9
$LUPREC
 70
     4
  9
$SKETCHINC
 40
0.1
  9
$FILLETRAD
 40
0.0
  9
$AUNITS
 70
     0
  9
$AUPREC
 70
     0
  9
$MENU
  1
.
  9
$ELEVATION
 40
0.0
  9
$PELEVATION
 40
0.0
  9
$THICKNESS
 40
0.0
  9
$LIMCHECK
 70
     0
  9
$BLIPMODE
 70
     0
  9
$CHAMFERA
 40
0.0
  9
$CHAMFERB
 40
0.0
  9
$CHAMFERC
 40
0.0
  9
$CHAMFERD
 40
0.0
  9
$SKPOLY
 70
     0
  9
$TDCREATE
 40
2454699.399044954
  9
$TDUPDATE
 40
2454699.401119607
  9
$TDINDWG
 40
0.0020748380
  9
$TDUSRTIMER
 40
0.0020748380
  9
$USRTIMER
 70
     1
  9
$ANGBASE
 50
0.0
  9
$ANGDIR
 70
     0
  9
$PDMODE
 70
     0
  9
$PDSIZE
 40
0.0
  9
$PLINEWID
 40
0.0
  9
$COORDS
 70
     1
  9
$SPLFRAME
 70
     0
  9
$SPLINETYPE
 70
     6
  9
$SPLINESEGS
 70
     8
  9
$ATTDIA
 70
     0
  9
$ATTREQ
 70
     1
  9
$HANDLING
 70
 22529
  9
$HANDSEED
  5
32D
  9
$SURFTAB1
 70
     6
  9
$SURFTAB2
 70
     6
  9
$SURFTYPE
 70
     6
  9
$SURFU
 70
     6
  9
$SURFV
 70
     6
  9
$UCSNAME
  2

  9
$UCSORG
 10
0.0
 20
0.0
 30
0.0
  9
$UCSXDIR
 10
1.0
 20
0.0
 30
0.0
  9
$UCSYDIR
 10
0.0
 20
1.0
 30
0.0
  9
$PUCSNAME
  2

  9
$PUCSORG
 10
0.0
 20
0.0
 30
0.0
  9
$PUCSXDIR
 10
1.0
 20
0.0
 30
0.0
  9
$PUCSYDIR
 10
0.0
 20
1.0
 30
0.0
  9
$USERI1
 70
     0
  9
$USERI2
 70
     0
  9
$USERI3
 70
     0
  9
$USERI4
 70
     0
  9
$USERI5
 70
     0
  9
$USERR1
 40
0.0
  9
$USERR2
 40
0.0
  9
$USERR3
 40
0.0
  9
$USERR4
 40
0.0
  9
$USERR5
 40
0.0
  9
$WORLDVIEW
 70
     1
  9
$SHADEDGE
 70
     3
  9
$SHADEDIF
 70
    70
  9
$TILEMODE
 70
     1
  9
$MAXACTVP
 70
    64
  9
$PINSBASE
 10
0.0
 20
0.0
 30
0.0
  9
$PLIMCHECK
 70
     0
  9
$PEXTMIN
 10
1.000000000000000E+20
 20
1.000000000000000E+20
 30
1.000000000000000E+20
  9
$PEXTMAX
 10
-1.000000000000000E+20
 20
-1.000000000000000E+20
 30
-1.000000000000000E+20
  9
$PLIMMIN
 10
0.0
 20
0.0
  9
$PLIMMAX
 10
12.0
 20
9.0
  9
$UNITMODE
 70
     0
  9
$VISRETAIN
 70
     1
  9
$PLINEGEN
 70
     0
  9
$PSLTSCALE
 70
     1
  9
$TREEDEPTH
 70
  3020
  9
$PICKSTYLE
 70
     1
  9
$CMLSTYLE
  2
STANDARD
  9
$CMLJUST
 70
     0
  9
$CMLSCALE
 40
1.0
  9
$PROXYGRAPHICS
 70
     1
  9
$MEASUREMENT
 70
     0
  0
ENDSEC
  0
SECTION
  2
CLASSES
  0
CLASS
  1
ACDBDICTIONARYWDFLT
  2
AcDbDictionaryWithDefault
  3
AutoCAD 2000
 90
        0
280
     0
281
     0
  0
CLASS
  1
ACDBPLACEHOLDER
  2
AcDbPlaceHolder
  3
AutoCAD 2000
 90
        0
280
     0
281
     0
  0
CLASS
  1
LAYOUT
  2
AcDbLayout
  3
AutoCAD 2000
 90
        0
280
     0
281
     0
  0
CLASS
  1
DICTIONARYVAR
  2
AcDbDictionaryVar
  3
AutoCAD 2000
 90
        0
280
     0
281
     0
  0
CLASS
  1
LONG_TRANSACTION
  2
AcDbLongTransaction
  3
AutoCAD 2000
 90
        0
280
     0
281
     0
  0
CLASS
  1
LWPOLYLINE
  2
AcDbPolyline
  3
AutoCAD 2000
 90
        0
280
     0
281
     1
  0
CLASS
  1
HATCH
  2
AcDbHatch
  3
AutoCAD 2000
 90
        0
280
     0
281
     1
  0
CLASS
  1
XRECORD
  2
AcDbXrecord
  3
AutoCAD 2000
 90
        0
280
     0
281
     0
  0
ENDSEC
  0
SECTION
  2
TABLES
  0
TABLE
  2
VPORT
  5
8
330
0
100
AcDbSymbolTable
 70
     2
  0
VPORT
  5
308
330
8
100
AcDbSymbolTableRecord
100
AcDbViewportTableRecord
  2
*ACTIVE
 70
     0
 10
0.0
 20
0.0
 11
1.0
 21
1.0
 12
94.50000000000001
 22
82.99999999999998
 13
0.0
 23
0.0
 14
1.0
 24
1.0
 15
0.0
 25
0.0
 16
0.0
 26
0.0
 36
1.0
 17
0.0
 27
0.0
 37
0.0
 40
167.0868347826087
 41
2.078104993597951
 42
50.0
 43
0.0
 44
0.0
 50
0.0
 51
0.0
 71
     0
 72
   100
 73
     1
 74
     3
 75
     0
 76
     0
 77
     0
 78
     0
  0
ENDTAB
  0
TABLE
  2
LTYPE
  5
5
330
0
100
AcDbSymbolTable
 70
     1
  0
LTYPE
  5
13
330
5
100
AcDbSymbolTableRecord
100
AcDbLinetypeTableRecord
  2
BYBLOCK
 70
     0
  3

 72
    65
 73
     0
 40
0.0
  0
LTYPE
  5
14
330
5
100
AcDbSymbolTableRecord
100
AcDbLinetypeTableRecord
  2
BYLAYER
 70
     0
  3

 72
    65
 73
     0
 40
0.0
  0
LTYPE
  5
15
330
5
100
AcDbSymbolTableRecord
100
AcDbLinetypeTableRecord
  2
CONTINUOUS
 70
     0
  3
Solid line
 72
    65
 73
     0
 40
0.0
  0
ENDTAB
  0
TABLE
  2
LAYER
  5
2
330
0
100
AcDbSymbolTable
 70
     1
  0
LAYER
  5
10
330
2
100
AcDbSymbolTableRecord
100
AcDbLayerTableRecord
  2
0
 70
     0
 62
     7
  6
CONTINUOUS
  0
ENDTAB
  0
TABLE
  2
STYLE
  5
3
330
0
100
AcDbSymbolTable
 70
     1
  0
STYLE
  5
11
330
3
100
AcDbSymbolTableRecord
100
AcDbTextStyleTableRecord
  2
STANDARD
 70
     0
 40
0.0
 41
1.0
 50
0.0
 71
     0
 42
0.2
  3
txt
  4

  0
ENDTAB
  0
TABLE
  2
VIEW
  5
6
330
0
100
AcDbSymbolTable
 70
     0
  0
ENDTAB
  0
TABLE
  2
UCS
  5
7
330
0
100
AcDbSymbolTable
 70
     0
  0
ENDTAB
  0
TABLE
  2
APPID
  5
9
330
0
100
AcDbSymbolTable
 70
     1
  0
APPID
  5
12
330
9
100
AcDbSymbolTableRecord
100
AcDbRegAppTableRecord
  2
ACAD
 70
     0
  0
ENDTAB
  0
TABLE
  2
DIMSTYLE
  5
A
330
0
100
AcDbSymbolTable
 70
     1
  0
DIMSTYLE
105
2FF
330
A
100
AcDbSymbolTableRecord
100
AcDbDimStyleTableRecord
  2
STANDARD
 70
     0
  3

  4

  5

  6

  7

 40
1.0
 41
0.18
 42
0.0625
 43
0.38
 44
0.18
 45
0.0
 46
0.0
 47
0.0
 48
0.0
140
0.18
141
0.09
142
0.0
143
25.4
144
1.0
145
0.0
146
1.0
147
0.09
 71
     0
 72
     0
 73
     1
 74
     1
 75
     0
 76
     0
 77
     0
 78
     0
170
     0
171
     2
172
     0
173
     0
174
     0
175
     0
176
     0
177
     0
178
     0
270
     2
271
     4
272
     4
273
     2
274
     2
340
11
275
     0
280
     0
281
     0
282
     0
283
     1
284
     0
285
     0
286
     0
287
     3
288
     0
  0
ENDTAB
  0
TABLE
  2
BLOCK_RECORD
  5
1
330
0
100
AcDbSymbolTable
 70
     0
  0
BLOCK_RECORD
  5
1E
102
{ACAD_XDICTIONARY
360
32B
102
}
330
1
100
AcDbSymbolTableRecord
100
AcDbBlockTableRecord
  2
*MODEL_SPACE
  0
BLOCK_RECORD
  5
1A
102
{ACAD_XDICTIONARY
360
329
102
}
330
1
100
AcDbSymbolTableRecord
100
AcDbBlockTableRecord
  2
*PAPER_SPACE
  0
ENDTAB
  0
ENDSEC
  0
SECTION
  2
BLOCKS
  0
BLOCK
  5
1F
330
1E
100
AcDbEntity
  8
0
100
AcDbBlockBegin
  2
*MODEL_SPACE
 70
     0
 10
0.0
 20
0.0
 30
0.0
  3
*MODEL_SPACE
  1

  0
ENDBLK
  5
20
330
1E
100
AcDbEntity
  8
0
100
AcDbBlockEnd
  0
BLOCK
  5
1B
330
1A
100
AcDbEntity
 67
     1
  8
0
100
AcDbBlockBegin
  2
*PAPER_SPACE
 70
     0
 10
0.0
 20
0.0
 30
0.0
  3
*PAPER_SPACE
  1

  0
ENDBLK
  5
1C
330
1A
100
AcDbEntity
 67
     1
  8
0
100
AcDbBlockEnd
  0
ENDSEC
  0
SECTION
  2
ENTITIES
  0
LINE
  5
22
330
1E
100
AcDbEntity
  8
0
100
AcDbLine
 10
-0.170974999999996
 20
145.3842999999999
 30
0.0
 11
0.212975000000005
 21
148.0492999999999
 31
0.0
  0
LINE
  5
23
330
1E
100
AcDbEntity
  8
0
100
AcDbLine
 10
-0.170974999999996
 20
145.3842999999999
 30
0.0
 11
0.244075000000003
 21
141.1032999999999
 31
0.0
  0
LINE
  5
24
330
1E
100
AcDbEntity
  8
0
100
AcDbLine
 10
-0.170974999999996
 20
145.3842999999999
 30
0.0
 11
0.212975000000005
 21
148.0492999999999
 31
0.0
  0
LINE
  5
25
330
1E
100
AcDbEntity
  8
0
100
AcDbLine
 10
-0.170974999999996
 20
145.3842999999999
 30
0.0
 11
0.244075000000003
 21
141.1032999999999
 31
0.0
  0
LINE
  5
26
330
1E
100
AcDbEntity
  8
0
100
AcDbLine
 10
1.708174999999999
 20
135.6392999999999
 30
0.0
 11
3.464933742185059
 21
132.2688558580339
 31
0.0
  0
LINE
  5
28
330
1E
100
AcDbEntity
  8
0
100
AcDbLine
 10
1.73597499998524
 20
139.087300000009
 30
0.0
 11
63.570175
 21
103.3873
 31
0.0
  0
LINE
  5
2A
330
1E
100
AcDbEntity
  8
0
100
AcDbLine
 10
1.73597499998524
 20
139.087300000009
 30
0.0
 11
63.570175
 21
103.3873
 31
0.0
  0
LINE
  5
2B
330
1E
100
AcDbEntity
  8
0
100
AcDbLine
 10
0.7564750000000052
 20
139.1913
 30
0.0
 11
1.04315293008524
 21
139.4872772141789
 31
0.0
  0
LINE
  5
2C
330
1E
100
AcDbEntity
  8
0
100
AcDbLine
 10
0.7564750000000052
 20
139.1913
 30
0.0
 11
1.708174999999999
 21
135.6392999999999
 31
0.0
  0
LINE
  5
2D
330
1E
100
AcDbEntity
  8
0
100
AcDbLine
 10
0.7564750000000052
 20
139.1913
 30
0.0
 11
1.968975
 21
138.4913
 31
0.0
  0
LINE
  5
2E
330
1E
100
AcDbEntity
  8
0
100
AcDbLine
 10
0.6100750000000029
 20
139.7372999999999
 30
0.0
 11
1.04315293008524
 21
139.4872772141789
 31
0.0
  0
LINE
  5
2F
330
1E
100
AcDbEntity
  8
0
100
AcDbLine
 10
0.6100750000000029
 20
139.7372999999999
 30
0.0
 11
1.735975
 21
139.0873
 31
0.0
  0
LINE
  5
30
330
1E
100
AcDbEntity
  8
0
100
AcDbLine
 10
0.212975000000005
 20
148.0492999999999
 30
0.0
 11
1.779975
 21
151.7642999999999
 31
0.0
  0
LINE
  5
31
330
1E
100
AcDbEntity
  8
0
100
AcDbLine
 10
0.244075000000003
 20
141.1032999999999
 30
0.0
 11
0.6100750000000029
 21
139.7372999999999
 31
0.0
  0
LINE
  5
32
330
1E
100
AcDbEntity
  8
0
100
AcDbLine
 10
0.6100750000000029
 20
139.7372999999999
 30
0.0
 11
1.04315293008524
 21
139.4872772141789
 31
0.0
  0
LINE
  5
33
330
1E
100
AcDbEntity
  8
0
100
AcDbLine
 10
0.6100750000000029
 20
139.7372999999999
 30
0.0
 11
1.735975
 21
139.0873
 31
0.0
  0
LINE
  5
34
330
1E
100
AcDbEntity
  8
0
100
AcDbLine
 10
0.212975000000005
 20
148.0492999999999
 30
0.0
 11
1.779975
 21
151.7642999999999
 31
0.0
  0
LINE
  5
35
330
1E
100
AcDbEntity
  8
0
100
AcDbLine
 10
1.779975
 20
151.7642999999999
 30
0.0
 11
2.462975
 21
151.9473
 31
0.0
  0
LINE
  5
36
330
1E
100
AcDbEntity
  8
0
100
AcDbLine
 10
1.779975
 20
151.7642999999999
 30
0.0
 11
3.079075
 21
151.0143
 31
0.0
  0
LINE
  5
3A
330
1E
100
AcDbEntity
  8
0
100
AcDbLine
 10
2.732975
 20
131.8923
 30
0.0
 11
2.870175
 21
131.6253
 31
0.0
  0
LINE
  5
3B
330
1E
100
AcDbEntity
  8
0
100
AcDbLine
 10
2.732975
 20
131.8923
 30
0.0
 11
3.464933742185059
 21
132.2688558580339
 31
0.0
  0
LINE
  5
3C
330
1E
100
AcDbEntity
  8
0
100
AcDbLine
 10
4.792442236141959
 20
129.75791509866
 30
0.0
 11
7.02249212242549
 21
126.607893373185
 31
0.0
  0
LINE
  5
3F
330
1E
100
AcDbEntity
  8
0
100
AcDbLine
 10
4.517974999999999
 20
129.6113
 30
0.0
 11
4.792442236141959
 21
129.75791509866
 31
0.0
  0
LINE
  5
40
330
1E
100
AcDbEntity
  8
0
100
AcDbLine
 10
4.517974999999999
 20
129.6113
 30
0.0
 11
4.545074999999999
 21
129.7833
 31
0.0
  0
LINE
  5
42
330
1E
100
AcDbEntity
  8
0
100
AcDbLine
 10
4.309475000000009
 20
130.3563
 30
0.0
 11
4.545074999999999
 21
129.7833
 31
0.0
  0
LINE
  5
44
330
1E
100
AcDbEntity
  8
0
100
AcDbLine
 10
4.231275
 20
129.9643
 30
0.0
 11
4.517974999999999
 21
129.6113
 31
0.0
  0
LINE
  5
45
330
1E
100
AcDbEntity
  8
0
100
AcDbLine
 10
3.647775
 20
130.1133
 30
0.0
 11
4.03373793182937
 21
130.311858463187
 31
0.0
  0
LINE
  5
46
330
1E
100
AcDbEntity
  8
0
100
AcDbLine
 10
3.079075
 20
151.0143
 30
0.0
 11
6.716375
 21
148.9143
 31
0.0
  0
LINE
  5
47
330
1E
100
AcDbEntity
  8
0
100
AcDbLine
 10
3.625675
 20
131.1892999999999
 30
0.0
 11
3.861275
 21
130.6152999999999
 31
0.0
  0
LINE
  5
48
330
1E
100
AcDbEntity
  8
0
100
AcDbLine
 10
3.625675
 20
131.1892999999999
 30
0.0
 11
3.652775
 21
131.3612999999999
 31
0.0
  0
LINE
  5
49
330
1E
100
AcDbEntity
  8
0
100
AcDbLine
 10
3.861275
 20
130.6152999999999
 30
0.0
 11
4.231275
 21
129.9643
 31
0.0
  0
LINE
  5
4A
330
1E
100
AcDbEntity
  8
0
100
AcDbLine
 10
3.939474999999999
 20
131.0082999999999
 30
0.0
 11
4.309475000000009
 21
130.3563
 31
0.0
  0
LINE
  5
4C
330
1E
100
AcDbEntity
  8
0
100
AcDbLine
 10
3.652775
 20
131.3612999999999
 30
0.0
 11
3.939474999999999
 21
131.0082999999999
 31
0.0
  0
LINE
  5
4E
330
1E
100
AcDbEntity
  8
0
100
AcDbLine
 10
3.190475
 20
131.0033
 30
0.0
 11
3.510574999999999
 21
130.3803
 31
0.0
  0
LINE
  5
50
330
1E
100
AcDbEntity
  8
0
100
AcDbLine
 10
3.510574999999999
 20
130.3803
 30
0.0
 11
3.647775
 21
130.1133
 31
0.0
  0
LINE
  5
52
330
1E
100
AcDbEntity
  8
0
100
AcDbLine
 10
2.870175
 20
131.6253
 30
0.0
 11
3.190475
 21
131.0033
 31
0.0
  0
LINE
  5
54
330
1E
100
AcDbEntity
  8
0
100
AcDbLine
 10
3.762074999999999
 20
151.1973
 30
0.0
 11
7.312775
 21
149.1473
 31
0.0
  0
LINE
  5
55
330
1E
100
AcDbEntity
  8
0
100
AcDbLine
 10
2.462975
 20
151.9473
 30
0.0
 11
3.762074999999999
 21
151.1973
 31
0.0
  0
LINE
  5
56
330
1E
100
AcDbEntity
  8
0
100
AcDbLine
 10
3.145974999999999
 20
152.1303
 30
0.0
 11
6.783274999999999
 21
150.0303
 31
0.0
  0
LINE
  5
57
330
1E
100
AcDbEntity
  8
0
100
AcDbLine
 10
1.846975
 20
152.8803
 30
0.0
 11
4.346974999999999
 21
157.2103
 31
0.0
  0
LINE
  5
58
330
1E
100
AcDbEntity
  8
0
100
AcDbLine
 10
1.846975
 20
152.8803
 30
0.0
 11
2.462975
 21
151.9473
 31
0.0
  0
LINE
  5
59
330
1E
100
AcDbEntity
  8
0
100
AcDbLine
 10
1.846975
 20
152.8803
 30
0.0
 11
3.145974999999999
 21
152.1303
 31
0.0
  0
LINE
  5
5A
330
1E
100
AcDbEntity
  8
0
100
AcDbLine
 10
4.346974999999999
 20
157.2103
 30
0.0
 11
5.029975
 21
157.3933
 31
0.0
  0
LINE
  5
5B
330
1E
100
AcDbEntity
  8
0
100
AcDbLine
 10
4.346974999999999
 20
157.2103
 30
0.0
 11
5.645974999999999
 21
156.4602999999999
 31
0.0
  0
LINE
  5
5E
330
1E
100
AcDbEntity
  8
0
100
AcDbLine
 10
6.158375
 20
129.7273
 30
0.0
 11
6.280375
 21
129.2193
 31
0.0
  0
LINE
  5
5F
330
1E
100
AcDbEntity
  8
0
100
AcDbLine
 10
6.158375
 20
129.7273
 30
0.0
 11
6.353475
 21
129.8023
 31
0.0
  0
LINE
  5
61
330
1E
100
AcDbEntity
  8
0
100
AcDbLine
 10
6.280375
 20
129.2193
 30
0.0
 11
6.662175
 21
128.5612999999999
 31
0.0
  0
LINE
  5
62
330
1E
100
AcDbEntity
  8
0
100
AcDbLine
 10
5.645974999999999
 20
156.4602999999999
 30
0.0
 11
9.283274999999999
 21
154.3603
 31
0.0
  0
LINE
  5
63
330
1E
100
AcDbEntity
  8
0
100
AcDbLine
 10
6.145974999999999
 20
157.3263
 30
0.0
 11
9.783274999999999
 21
155.2263
 31
0.0
  0
LINE
  5
64
330
1E
100
AcDbEntity
  8
0
100
AcDbLine
 10
7.207874999999999
 20
125.3573
 30
0.0
 11
7.586574999999999
 21
124.8172999999999
 31
0.0
  0
LINE
  5
66
330
1E
100
AcDbEntity
  8
0
100
AcDbLine
 10
6.353475
 20
129.8023
 30
0.0
 11
6.764675
 21
129.3772999999999
 31
0.0
  0
LINE
  5
68
330
1E
100
AcDbEntity
  8
0
100
AcDbLine
 10
6.505374999999999
 20
126.2213
 30
0.0
 11
6.603074999999999
 21
126.0272999999999
 31
0.0
  0
LINE
  5
69
330
1E
100
AcDbEntity
  8
0
100
AcDbLine
 10
6.505374999999999
 20
126.2213
 30
0.0
 11
7.02249212242549
 21
126.607893373185
 31
0.0
  0
LINE
  5
6A
330
1E
100
AcDbEntity
  8
0
100
AcDbLine
 10
6.505374999999999
 20
126.2213
 30
0.0
 11
6.761275
 21
125.9363
 31
0.0
  0
LINE
  5
6B
330
1E
100
AcDbEntity
  8
0
100
AcDbLine
 10
6.505374999999999
 20
126.2213
 30
0.0
 11
7.133594491473569
 21
126.6909527764739
 31
0.0
  0
LINE
  5
6C
330
1E
100
AcDbEntity
  8
0
100
AcDbLine
 10
6.716375
 20
148.9143
 30
0.0
 11
12.432075
 21
145.6142999999999
 31
0.0
  0
LINE
  5
6D
330
1E
100
AcDbEntity
  8
0
100
AcDbLine
 10
6.662175
 20
128.5612999999999
 30
0.0
 11
7.073174999999999
 21
128.1363
 31
0.0
  0
LINE
  5
6F
330
1E
100
AcDbEntity
  8
0
100
AcDbLine
 10
7.073174999999999
 20
128.1363
 30
0.0
 11
7.268374999999999
 21
128.2113
 31
0.0
  0
LINE
  5
70
330
1E
100
AcDbEntity
  8
0
100
AcDbLine
 10
7.146374999999999
 20
128.7193
 30
0.0
 11
7.268374999999999
 21
128.2113
 31
0.0
  0
LINE
  5
72
330
1E
100
AcDbEntity
  8
0
100
AcDbLine
 10
6.764675
 20
129.3772999999999
 30
0.0
 11
7.146374999999999
 21
128.7193
 31
0.0
  0
LINE
  5
74
330
1E
100
AcDbEntity
  8
0
100
AcDbLine
 10
6.761275
 20
125.9363
 30
0.0
 11
7.207874999999999
 21
125.3573
 31
0.0
  0
LINE
  5
76
330
1E
100
AcDbEntity
  8
0
100
AcDbLine
 10
6.603074999999999
 20
126.0272999999999
 30
0.0
 11
6.981775000000009
 21
125.4873
 31
0.0
  0
LINE
  5
77
330
1E
100
AcDbEntity
  8
0
100
AcDbLine
 10
6.981775000000009
 20
125.4873
 30
0.0
 11
7.428374999999999
 21
124.9093
 31
0.0
  0
LINE
  5
78
330
1E
100
AcDbEntity
  8
0
100
AcDbLine
 10
7.428374999999999
 20
124.9093
 30
0.0
 11
7.684275000000009
 21
124.6232999999999
 31
0.0
  0
LINE
  5
79
330
1E
100
AcDbEntity
  8
0
100
AcDbLine
 10
8.665675
 20
124.1943
 30
0.0
 11
9.058275000000008
 21
123.8302999999999
 31
0.0
  0
LINE
  5
7A
330
1E
100
AcDbEntity
  8
0
100
AcDbLine
 10
9.209782820268198
 20
123.949590584039
 30
0.0
 11
11.098575
 21
121.9043
 31
0.0
  0
LINE
  5
7C
330
1E
100
AcDbEntity
  8
0
100
AcDbLine
 10
9.058275000000008
 20
123.8302999999999
 30
0.0
 11
9.129575
 21
123.9263
 31
0.0
  0
LINE
  5
7E
330
1E
100
AcDbEntity
  8
0
100
AcDbLine
 10
8.853975
 20
124.4072999999999
 30
0.0
 11
9.129575
 21
123.9263
 31
0.0
  0
LINE
  5
80
330
1E
100
AcDbEntity
  8
0
100
AcDbLine
 10
8.191174999999999
 20
124.7892999999999
 30
0.0
 11
8.665675
 21
124.1943
 31
0.0
  0
LINE
  5
81
330
1E
100
AcDbEntity
  8
0
100
AcDbLine
 10
7.684275000000009
 20
124.6232999999999
 30
0.0
 11
8.10562501960781
 21
124.938298514471
 31
0.0
  0
LINE
  5
82
330
1E
100
AcDbEntity
  8
0
100
AcDbLine
 10
7.586574999999999
 20
124.8172999999999
 30
0.0
 11
7.684275000000009
 21
124.6232999999999
 31
0.0
  0
LINE
  5
84
330
1E
100
AcDbEntity
  8
0
100
AcDbLine
 10
7.915574999999999
 20
125.2693
 30
0.0
 11
8.191174999999999
 21
124.7892999999999
 31
0.0
  0
LINE
  5
85
330
1E
100
AcDbEntity
  8
0
100
AcDbLine
 10
7.915574999999999
 20
125.2693
 30
0.0
 11
7.986775000000009
 21
125.3662999999999
 31
0.0
  0
LINE
  5
86
330
1E
100
AcDbEntity
  8
0
100
AcDbLine
 10
8.379575
 20
125.0013
 30
0.0
 11
8.853975
 21
124.4072999999999
 31
0.0
  0
LINE
  5
88
330
1E
100
AcDbEntity
  8
0
100
AcDbLine
 10
7.986775000000009
 20
125.3662999999999
 30
0.0
 11
8.379575
 21
125.0013
 31
0.0
  0
LINE
  5
8A
330
1E
100
AcDbEntity
  8
0
100
AcDbLine
 10
8.10562501960781
 20
124.938298514471
 30
0.0
 11
8.191174999999999
 21
124.7892999999999
 31
0.0
  0
LINE
  5
8B
330
1E
100
AcDbEntity
  8
0
100
AcDbLine
 10
7.312775
 20
149.1473
 30
0.0
 11
13.028475
 21
145.8472999999999
 31
0.0
  0
LINE
  5
8C
330
1E
100
AcDbEntity
  8
0
100
AcDbLine
 10
6.783274999999999
 20
150.0303
 30
0.0
 11
12.672275
 21
146.6303
 31
0.0
  0
LINE
  5
8D
330
1E
100
AcDbEntity
  8
0
100
AcDbLine
 10
16.502775
 20
116.7262999999999
 30
0.0
 11
17.097575
 21
116.2513
 31
0.0
  0
LINE
  5
8E
330
1E
100
AcDbEntity
  8
0
100
AcDbLine
 10
16.570775
 20
116.8193
 30
0.0
 11
17.165575
 21
116.3443
 31
0.0
  0
LINE
  5
90
330
1E
100
AcDbEntity
  8
0
100
AcDbLine
 10
15.459775
 20
118.7883
 30
0.0
 11
16.03077499999999
 21
118.3753
 31
0.0
  0
LINE
  5
92
330
1E
100
AcDbEntity
  8
0
100
AcDbLine
 10
15.321975
 20
118.5902999999999
 30
0.0
 11
15.837775
 21
118.0992999999999
 31
0.0
  0
LINE
  5
93
330
1E
100
AcDbEntity
  8
0
100
AcDbLine
 10
15.173475
 20
118.8703
 30
0.0
 11
15.459775
 21
118.7883
 31
0.0
  0
LINE
  5
94
330
1E
100
AcDbEntity
  8
0
100
AcDbLine
 10
15.173475
 20
118.8703
 30
0.0
 11
15.321975
 21
118.5902999999999
 31
0.0
  0
LINE
  5
96
330
1E
100
AcDbEntity
  8
0
100
AcDbLine
 10
15.485375
 20
120.1192999999999
 30
0.0
 11
15.880675
 21
120.0293
 31
0.0
  0
LINE
  5
97
330
1E
100
AcDbEntity
  8
0
100
AcDbLine
 10
12.502475
 20
119.9413
 30
0.0
 11
12.99546465838639
 21
120.4622028672009
 31
0.0
  0
LINE
  5
98
330
1E
100
AcDbEntity
  8
0
100
AcDbLine
 10
12.451875
 20
120.0532999999999
 30
0.0
 11
12.502475
 21
119.9413
 31
0.0
  0
LINE
  5
9A
330
1E
100
AcDbEntity
  8
0
100
AcDbLine
 10
15.352175
 20
117.5793
 30
0.0
 11
15.502675
 21
117.4363
 31
0.0
  0
LINE
  5
9B
330
1E
100
AcDbEntity
  8
0
100
AcDbLine
 10
15.352175
 20
117.5793
 30
0.0
 11
15.7301126975533
 21
118.040723422078
 31
0.0
  0
LINE
  5
9C
330
1E
100
AcDbEntity
  8
0
100
AcDbLine
 10
16.10677499999999
 20
117.0873
 30
0.0
 11
16.502775
 21
116.7262999999999
 31
0.0
  0
LINE
  5
9D
330
1E
100
AcDbEntity
  8
0
100
AcDbLine
 10
16.126475
 20
117.1323
 30
0.0
 11
16.570775
 21
116.8193
 31
0.0
  0
LINE
  5
9E
330
1E
100
AcDbEntity
  8
0
100
AcDbLine
 10
16.126475
 20
117.1323
 30
0.0
 11
16.5401034531687
 21
117.6486727003499
 31
0.0
  0
LINE
  5
9F
330
1E
100
AcDbEntity
  8
0
100
AcDbLine
 10
16.546675
 20
117.8833
 30
0.0
 11
16.694975
 21
117.6042999999999
 31
0.0
  0
LINE
  5
A1
330
1E
100
AcDbEntity
  8
0
100
AcDbLine
 10
16.408775
 20
117.6862999999999
 30
0.0
 11
16.694975
 21
117.6042999999999
 31
0.0
  0
LINE
  5
A2
330
1E
100
AcDbEntity
  8
0
100
AcDbLine
 10
15.880675
 20
120.0293
 30
0.0
 11
15.887175
 21
120.3462999999999
 31
0.0
  0
LINE
  5
A4
330
1E
100
AcDbEntity
  8
0
100
AcDbLine
 10
16.03077499999999
 20
118.3753
 30
0.0
 11
16.546675
 21
117.8833
 31
0.0
  0
LINE
  5
A6
330
1E
100
AcDbEntity
  8
0
100
AcDbLine
 10
15.837775
 20
118.0992999999999
 30
0.0
 11
16.408775
 21
117.6862999999999
 31
0.0
  0
LINE
  5
A7
330
1E
100
AcDbEntity
  8
0
100
AcDbLine
 10
15.502675
 20
117.4363
 30
0.0
 11
16.00467499999999
 21
117.0143
 31
0.0
  0
LINE
  5
A9
330
1E
100
AcDbEntity
  8
0
100
AcDbLine
 10
16.00467499999999
 20
117.0143
 30
0.0
 11
16.574275
 21
116.5532999999999
 31
0.0
  0
LINE
  5
AB
330
1E
100
AcDbEntity
  8
0
100
AcDbLine
 10
17.561475
 20
115.9833
 30
0.0
 11
17.9724914889475
 21
116.496411930914
 31
0.0
  0
LINE
  5
AD
330
1E
100
AcDbEntity
  8
0
100
AcDbLine
 10
17.097575
 20
116.2513
 30
0.0
 11
17.541875
 21
115.9383
 31
0.0
  0
LINE
  5
AE
330
1E
100
AcDbEntity
  8
0
100
AcDbLine
 10
17.6555617484372
 20
116.080237618451
 30
0.0
 11
17.693175
 21
116.0393
 31
0.0
  0
LINE
  5
AF
330
1E
100
AcDbEntity
  8
0
100
AcDbLine
 10
17.693175
 20
116.0393
 30
0.0
 11
18.268675
 21
115.5753
 31
0.0
  0
LINE
  5
B1
330
1E
100
AcDbEntity
  8
0
100
AcDbLine
 10
18.268675
 20
115.5753
 30
0.0
 11
18.816575
 21
115.2023
 31
0.0
  0
LINE
  5
B3
330
1E
100
AcDbEntity
  8
0
100
AcDbLine
 10
20.982475
 20
114.0083
 30
0.0
 11
21.33257134863039
 21
114.4944106532159
 31
0.0
  0
LINE
  5
B4
330
1E
100
AcDbEntity
  8
0
100
AcDbLine
 10
21.121490184125
 20
114.2013233269389
 30
0.0
 11
22.75597499999999
 21
113.0952999999999
 31
0.0
  0
LINE
  5
B5
330
1E
100
AcDbEntity
  8
0
100
AcDbLine
 10
20.881675
 20
114.1982999999999
 30
0.0
 11
20.982475
 21
114.0083
 31
0.0
  0
LINE
  5
B7
330
1E
100
AcDbEntity
  8
0
100
AcDbLine
 10
20.632975
 20
114.1533
 30
0.0
 11
20.982475
 21
114.0083
 31
0.0
  0
LINE
  5
B8
330
1E
100
AcDbEntity
  8
0
100
AcDbLine
 10
19.756175
 20
115.0363
 30
0.0
 11
20.368675
 21
114.6263
 31
0.0
  0
LINE
  5
BA
330
1E
100
AcDbEntity
  8
0
100
AcDbLine
 10
20.368675
 20
114.6263
 30
0.0
 11
20.881675
 21
114.1982999999999
 31
0.0
  0
LINE
  5
BC
330
1E
100
AcDbEntity
  8
0
100
AcDbLine
 10
20.020575
 20
114.5632999999999
 30
0.0
 11
20.632975
 21
114.1533
 31
0.0
  0
LINE
  5
BD
330
1E
100
AcDbEntity
  8
0
100
AcDbLine
 10
19.50757499999999
 20
114.9912999999999
 30
0.0
 11
20.020575
 21
114.5632999999999
 31
0.0
  0
LINE
  5
BE
330
1E
100
AcDbEntity
  8
0
100
AcDbLine
 10
19.40677499999999
 20
115.1823
 30
0.0
 11
19.756175
 21
115.0363
 31
0.0
  0
LINE
  5
BF
330
1E
100
AcDbEntity
  8
0
100
AcDbLine
 10
19.40677499999999
 20
115.1823
 30
0.0
 11
19.50757499999999
 21
114.9912999999999
 31
0.0
  0
LINE
  5
C1
330
1E
100
AcDbEntity
  8
0
100
AcDbLine
 10
19.006775
 20
115.1483
 30
0.0
 11
19.25106615205219
 21
115.467002023155
 31
0.0
  0
LINE
  5
C2
330
1E
100
AcDbEntity
  8
0
100
AcDbLine
 10
18.816575
 20
115.2023
 30
0.0
 11
19.006775
 21
115.1483
 31
0.0
  0
LINE
  5
C4
330
1E
100
AcDbEntity
  8
0
100
AcDbLine
 10
17.89783055105879
 20
116.382709606979
 30
0.0
 11
19.4936131808255
 21
115.302875278692
 31
0.0
  0
LINE
  5
C5
330
1E
100
AcDbEntity
  8
0
100
AcDbLine
 10
17.165575
 20
116.3443
 30
0.0
 11
17.561475
 21
115.9833
 31
0.0
  0
LINE
  5
C8
330
1E
100
AcDbEntity
  8
0
100
AcDbLine
 10
19.184975
 20
118.4422999999999
 30
0.0
 11
19.351075
 21
118.6673
 31
0.0
  0
LINE
  5
C9
330
1E
100
AcDbEntity
  8
0
100
AcDbLine
 10
19.184975
 20
118.4422999999999
 30
0.0
 11
19.498875
 21
117.9402999999999
 31
0.0
  0
LINE
  5
CB
330
1E
100
AcDbEntity
  8
0
100
AcDbLine
 10
20.61907499999999
 20
117.2933
 30
0.0
 11
20.78517499999999
 21
117.5183
 31
0.0
  0
LINE
  5
CD
330
1E
100
AcDbEntity
  8
0
100
AcDbLine
 10
20.090675
 20
117.4603
 30
0.0
 11
20.61907499999999
 21
117.2933
 31
0.0
  0
LINE
  5
CE
330
1E
100
AcDbEntity
  8
0
100
AcDbLine
 10
19.879375
 20
118.5003
 30
0.0
 11
20.471175
 21
118.0203
 31
0.0
  0
LINE
  5
D0
330
1E
100
AcDbEntity
  8
0
100
AcDbLine
 10
20.471175
 20
118.0203
 30
0.0
 11
20.78517499999999
 21
117.5183
 31
0.0
  0
LINE
  5
D2
330
1E
100
AcDbEntity
  8
0
100
AcDbLine
 10
19.498875
 20
117.9402999999999
 30
0.0
 11
20.090675
 21
117.4603
 31
0.0
  0
LINE
  5
D3
330
1E
100
AcDbEntity
  8
0
100
AcDbLine
 10
19.351075
 20
118.6673
 30
0.0
 11
19.879375
 21
118.5003
 31
0.0
  0
LINE
  5
D5
330
1E
100
AcDbEntity
  8
0
100
AcDbLine
 10
16.883075
 20
116.3182999999999
 30
0.0
 11
16.9347178956453
 21
116.3813556902629
 31
0.0
  0
LINE
  5
D6
330
1E
100
AcDbEntity
  8
0
100
AcDbLine
 10
16.574275
 20
116.5532999999999
 30
0.0
 11
16.883075
 21
116.3182999999999
 31
0.0
  0
LINE
  5
D8
330
1E
100
AcDbEntity
  8
0
100
AcDbLine
 10
10.29417499999999
 20
126.9013
 30
0.0
 11
10.306975
 21
127.3312999999999
 31
0.0
  0
LINE
  5
D9
330
1E
100
AcDbEntity
  8
0
100
AcDbLine
 10
10.29417499999999
 20
126.9013
 30
0.0
 11
10.648775
 21
126.2593
 31
0.0
  0
LINE
  5
DC
330
1E
100
AcDbEntity
  8
0
100
AcDbLine
 10
10.306975
 20
127.3312999999999
 30
0.0
 11
10.662375
 21
127.3143
 31
0.0
  0
LINE
  5
DE
330
1E
100
AcDbEntity
  8
0
100
AcDbLine
 10
10.662375
 20
127.3143
 30
0.0
 11
11.16437499999999
 21
126.8362999999999
 31
0.0
  0
LINE
  5
E0
330
1E
100
AcDbEntity
  8
0
100
AcDbLine
 10
10.648775
 20
126.2593
 30
0.0
 11
11.150675
 21
125.7813
 31
0.0
  0
LINE
  5
E1
330
1E
100
AcDbEntity
  8
0
100
AcDbLine
 10
10.611375
 20
123.7133
 30
0.0
 11
10.755575
 21
123.3092999999999
 31
0.0
  0
LINE
  5
E2
330
1E
100
AcDbEntity
  8
0
100
AcDbLine
 10
10.611375
 20
123.7133
 30
0.0
 11
10.85087499999999
 21
123.7122999999999
 31
0.0
  0
LINE
  5
E4
330
1E
100
AcDbEntity
  8
0
100
AcDbLine
 10
10.755575
 20
123.3092999999999
 30
0.0
 11
11.21617499999999
 21
122.7223
 31
0.0
  0
LINE
  5
E5
330
1E
100
AcDbEntity
  8
0
100
AcDbLine
 10
11.098575
 20
121.9043
 30
0.0
 11
11.43226562934769
 21
121.62593903567
 31
0.0
  0
LINE
  5
E6
330
1E
100
AcDbEntity
  8
0
100
AcDbLine
 10
11.16437499999999
 20
126.8362999999999
 30
0.0
 11
11.51887499999999
 21
126.1943
 31
0.0
  0
LINE
  5
E8
330
1E
100
AcDbEntity
  8
0
100
AcDbLine
 10
11.150675
 20
125.7813
 30
0.0
 11
11.506075
 21
125.7643
 31
0.0
  0
LINE
  5
E9
330
1E
100
AcDbEntity
  8
0
100
AcDbLine
 10
10.85087499999999
 20
123.7122999999999
 30
0.0
 11
11.34947499999999
 21
123.2873
 31
0.0
  0
LINE
  5
EA
330
1E
100
AcDbEntity
  8
0
100
AcDbLine
 10
11.118375
 20
121.2943
 30
0.0
 11
11.169175
 21
121.1823
 31
0.0
  0
LINE
  5
EB
330
1E
100
AcDbEntity
  8
0
100
AcDbLine
 10
11.118375
 20
121.2943
 30
0.0
 11
11.482875
 21
121.0013
 31
0.0
  0
LINE
  5
EC
330
1E
100
AcDbEntity
  8
0
100
AcDbLine
 10
11.118375
 20
121.2943
 30
0.0
 11
11.5378089064024
 21
121.7374500759859
 31
0.0
  0
LINE
  5
ED
330
1E
100
AcDbEntity
  8
0
100
AcDbLine
 10
11.586275
 20
120.7473
 30
0.0
 11
12.137975
 21
120.2353
 31
0.0
  0
LINE
  5
EE
330
1E
100
AcDbEntity
  8
0
100
AcDbLine
 10
11.482875
 20
121.0013
 30
0.0
 11
12.034575
 21
120.4882999999999
 31
0.0
  0
LINE
  5
F0
330
1E
100
AcDbEntity
  8
0
100
AcDbLine
 10
11.21617499999999
 20
122.7223
 30
0.0
 11
11.714875
 21
122.2963
 31
0.0
  0
LINE
  5
F1
330
1E
100
AcDbEntity
  8
0
100
AcDbLine
 10
11.714875
 20
122.2963
 30
0.0
 11
11.954275
 21
122.2963
 31
0.0
  0
LINE
  5
F2
330
1E
100
AcDbEntity
  8
0
100
AcDbLine
 10
12.921281145862
 20
120.38381906398
 30
0.0
 11
16.4039100765218
 21
117.478649238158
 31
0.0
  0
LINE
  5
F4
330
1E
100
AcDbEntity
  8
0
100
AcDbLine
 10
14.914775
 20
121.3662999999999
 30
0.0
 11
15.481375
 21
120.9013
 31
0.0
  0
LINE
  5
F6
330
1E
100
AcDbEntity
  8
0
100
AcDbLine
 10
15.481375
 20
120.9013
 30
0.0
 11
15.887175
 21
120.3462999999999
 31
0.0
  0
LINE
  5
F8
330
1E
100
AcDbEntity
  8
0
100
AcDbLine
 10
14.918775
 20
120.5842999999999
 30
0.0
 11
15.485375
 21
120.1192999999999
 31
0.0
  0
LINE
  5
F9
330
1E
100
AcDbEntity
  8
0
100
AcDbLine
 10
14.513075
 20
121.1393
 30
0.0
 11
14.519475
 21
121.4573
 31
0.0
  0
LINE
  5
FA
330
1E
100
AcDbEntity
  8
0
100
AcDbLine
 10
14.513075
 20
121.1393
 30
0.0
 11
14.918775
 21
120.5842999999999
 31
0.0
  0
LINE
  5
FB
330
1E
100
AcDbEntity
  8
0
100
AcDbLine
 10
14.519475
 20
121.4573
 30
0.0
 11
14.914775
 21
121.3662999999999
 31
0.0
  0
LINE
  5
FD
330
1E
100
AcDbEntity
  8
0
100
AcDbLine
 10
12.034575
 20
120.4882999999999
 30
0.0
 11
12.451875
 21
120.0532999999999
 31
0.0
  0
LINE
  5
FF
330
1E
100
AcDbEntity
  8
0
100
AcDbLine
 10
16.950375
 20
122.6212999999999
 30
0.0
 11
17.10997499999999
 21
122.9663
 31
0.0
  0
LINE
  5
101
330
1E
100
AcDbEntity
  8
0
100
AcDbLine
 10
16.453375
 20
122.7203
 30
0.0
 11
16.950375
 21
122.6212999999999
 31
0.0
  0
LINE
  5
102
330
1E
100
AcDbEntity
  8
0
100
AcDbLine
 10
15.900375
 20
123.2272999999999
 30
0.0
 11
16.453375
 21
122.7203
 31
0.0
  0
LINE
  5
104
330
1E
100
AcDbEntity
  8
0
100
AcDbLine
 10
11.80997499999999
 20
122.7003
 30
0.0
 11
11.954275
 21
122.2963
 31
0.0
  0
LINE
  5
106
330
1E
100
AcDbEntity
  8
0
100
AcDbLine
 10
15.609975
 20
123.8323
 30
0.0
 11
15.769675
 21
124.1782999999999
 31
0.0
  0
LINE
  5
107
330
1E
100
AcDbEntity
  8
0
100
AcDbLine
 10
15.609975
 20
123.8323
 30
0.0
 11
15.900375
 21
123.2272999999999
 31
0.0
  0
LINE
  5
108
330
1E
100
AcDbEntity
  8
0
100
AcDbLine
 10
16.26677499999999
 20
124.0782999999999
 30
0.0
 11
16.819675
 21
123.5713
 31
0.0
  0
LINE
  5
10A
330
1E
100
AcDbEntity
  8
0
100
AcDbLine
 10
16.819675
 20
123.5713
 30
0.0
 11
17.10997499999999
 21
122.9663
 31
0.0
  0
LINE
  5
10C
330
1E
100
AcDbEntity
  8
0
100
AcDbLine
 10
15.769675
 20
124.1782999999999
 30
0.0
 11
16.26677499999999
 21
124.0782999999999
 31
0.0
  0
LINE
  5
111
330
1E
100
AcDbEntity
  8
0
100
AcDbLine
 10
11.506075
 20
125.7643
 30
0.0
 11
11.51887499999999
 21
126.1943
 31
0.0
  0
LINE
  5
113
330
1E
100
AcDbEntity
  8
0
100
AcDbLine
 10
11.34947499999999
 20
123.2873
 30
0.0
 11
11.80997499999999
 21
122.7003
 31
0.0
  0
LINE
  5
115
330
1E
100
AcDbEntity
  8
0
100
AcDbLine
 10
11.169175
 20
121.1823
 30
0.0
 11
11.586275
 21
120.7473
 31
0.0
  0
LINE
  5
116
330
1E
100
AcDbEntity
  8
0
100
AcDbLine
 10
12.137975
 20
120.2353
 30
0.0
 11
12.502475
 21
119.9413
 31
0.0
  0
LINE
  5
117
330
1E
100
AcDbEntity
  8
0
100
AcDbLine
 10
22.75597499999999
 20
113.0952999999999
 30
0.0
 11
22.929175
 21
112.9952999999999
 31
0.0
  0
LINE
  5
118
330
1E
100
AcDbEntity
  8
0
100
AcDbLine
 10
23.881775
 20
112.4453
 30
0.0
 11
24.46676447487949
 21
112.1075462616169
 31
0.0
  0
LINE
  5
119
330
1E
100
AcDbEntity
  8
0
100
AcDbLine
 10
24.423275
 20
112.1533
 30
0.0
 11
24.659975
 21
112.1493
 31
0.0
  0
LINE
  5
11A
330
1E
100
AcDbEntity
  8
0
100
AcDbLine
 10
24.423275
 20
112.1533
 30
0.0
 11
24.701775
 21
111.8603
 31
0.0
  0
LINE
  5
11B
330
1E
100
AcDbEntity
  8
0
100
AcDbLine
 10
24.423275
 20
112.1533
 30
0.0
 11
24.6732988680125
 21
112.565650062731
 31
0.0
  0
LINE
  5
11C
330
1E
100
AcDbEntity
  8
0
100
AcDbLine
 10
26.653075
 20
110.8452999999999
 30
0.0
 11
27.69227499999999
 21
110.2453
 31
0.0
  0
LINE
  5
11D
330
1E
100
AcDbEntity
  8
0
100
AcDbLine
 10
26.14047499999999
 20
111.1623
 30
0.0
 11
26.4714657251271
 21
111.707807379142
 31
0.0
  0
LINE
  5
11E
330
1E
100
AcDbEntity
  8
0
100
AcDbLine
 10
25.862075
 20
111.4552999999999
 30
0.0
 11
26.14047499999999
 21
111.1623
 31
0.0
  0
LINE
  5
120
330
1E
100
AcDbEntity
  8
0
100
AcDbLine
 10
25.903775
 20
111.1663
 30
0.0
 11
26.14047499999999
 21
111.1623
 31
0.0
  0
LINE
  5
121
330
1E
100
AcDbEntity
  8
0
100
AcDbLine
 10
25.311775
 20
111.4522999999999
 30
0.0
 11
25.903775
 21
111.1663
 31
0.0
  0
LINE
  5
122
330
1E
100
AcDbEntity
  8
0
100
AcDbLine
 10
25.252075
 20
111.8632999999999
 30
0.0
 11
25.862075
 21
111.4552999999999
 31
0.0
  0
LINE
  5
124
330
1E
100
AcDbEntity
  8
0
100
AcDbLine
 10
24.701775
 20
111.8603
 30
0.0
 11
25.311775
 21
111.4522999999999
 31
0.0
  0
LINE
  5
125
330
1E
100
AcDbEntity
  8
0
100
AcDbLine
 10
24.659975
 20
112.1493
 30
0.0
 11
25.252075
 21
111.8632999999999
 31
0.0
  0
LINE
  5
127
330
1E
100
AcDbEntity
  8
0
100
AcDbLine
 10
27.2035524230689
 20
110.527472388528
 30
0.0
 11
27.306075
 21
110.3572999999999
 31
0.0
  0
LINE
  5
128
330
1E
100
AcDbEntity
  8
0
100
AcDbLine
 10
27.306075
 20
110.3572999999999
 30
0.0
 11
27.849075
 21
109.9873
 31
0.0
  0
LINE
  5
129
330
1E
100
AcDbEntity
  8
0
100
AcDbLine
 10
27.306075
 20
110.3572999999999
 30
0.0
 11
27.3523320106134
 21
110.441571933826
 31
0.0
  0
LINE
  5
12A
330
1E
100
AcDbEntity
  8
0
100
AcDbLine
 10
27.849075
 20
109.9873
 30
0.0
 11
28.508175
 21
109.6633
 31
0.0
  0
LINE
  5
12B
330
1E
100
AcDbEntity
  8
0
100
AcDbLine
 10
27.849075
 20
109.9873
 30
0.0
 11
27.91888290540439
 21
110.1144640269029
 31
0.0
  0
LINE
  5
12C
330
1E
100
AcDbEntity
  8
0
100
AcDbLine
 10
28.558275
 20
109.7453
 30
0.0
 11
29.924275
 21
108.9773
 31
0.0
  0
LINE
  5
12D
330
1E
100
AcDbEntity
  8
0
100
AcDbLine
 10
28.508175
 20
109.6633
 30
0.0
 11
28.83884630410399
 21
109.583326033885
 31
0.0
  0
LINE
  5
12E
330
1E
100
AcDbEntity
  8
0
100
AcDbLine
 10
28.508175
 20
109.6633
 30
0.0
 11
28.55440617343239
 21
109.747533733584
 31
0.0
  0
LINE
  5
12F
330
1E
100
AcDbEntity
  8
0
100
AcDbLine
 10
23.275575
 20
112.7952999999999
 30
0.0
 11
23.881775
 21
112.4453
 31
0.0
  0
LINE
  5
130
330
1E
100
AcDbEntity
  8
0
100
AcDbLine
 10
22.929175
 20
112.9952999999999
 30
0.0
 11
23.275575
 21
112.7952999999999
 31
0.0
  0
LINE
  5
131
330
1E
100
AcDbEntity
  8
0
100
AcDbLine
 10
23.331675
 20
112.6522999999999
 30
0.0
 11
23.3891535226055
 21
112.7297234857939
 31
0.0
  0
LINE
  5
132
330
1E
100
AcDbEntity
  8
0
100
AcDbLine
 10
23.331675
 20
112.6522999999999
 30
0.0
 11
23.38483132034289
 21
112.732218983636
 31
0.0
  0
LINE
  5
133
330
1E
100
AcDbEntity
  8
0
100
AcDbLine
 10
22.845075
 20
112.8762999999999
 30
0.0
 11
23.331675
 21
112.6522999999999
 31
0.0
  0
LINE
  5
134
330
1E
100
AcDbEntity
  8
0
100
AcDbLine
 10
22.845075
 20
112.8762999999999
 30
0.0
 11
22.92560391530479
 21
112.997361827191
 31
0.0
  0
LINE
  5
136
330
1E
100
AcDbEntity
  8
0
100
AcDbLine
 10
23.582875
 20
114.0152999999999
 30
0.0
 11
23.90217499999999
 21
113.6373
 31
0.0
  0
LINE
  5
138
330
1E
100
AcDbEntity
  8
0
100
AcDbLine
 10
23.719475
 20
113.5483
 30
0.0
 11
23.90217499999999
 21
113.6373
 31
0.0
  0
LINE
  5
139
330
1E
100
AcDbEntity
  8
0
100
AcDbLine
 10
23.16317499999999
 20
113.7863
 30
0.0
 11
23.719475
 21
113.5483
 31
0.0
  0
LINE
  5
13A
330
1E
100
AcDbEntity
  8
0
100
AcDbLine
 10
22.96807499999999
 20
114.4533
 30
0.0
 11
23.582875
 21
114.0152999999999
 31
0.0
  0
LINE
  5
13D
330
1E
100
AcDbEntity
  8
0
100
AcDbLine
 10
22.548375
 20
114.2243
 30
0.0
 11
23.16317499999999
 21
113.7863
 31
0.0
  0
LINE
  5
13E
330
1E
100
AcDbEntity
  8
0
100
AcDbLine
 10
22.229075
 20
114.6023
 30
0.0
 11
22.411775
 21
114.6913
 31
0.0
  0
LINE
  5
13F
330
1E
100
AcDbEntity
  8
0
100
AcDbLine
 10
22.229075
 20
114.6023
 30
0.0
 11
22.548375
 21
114.2243
 31
0.0
  0
LINE
  5
141
330
1E
100
AcDbEntity
  8
0
100
AcDbLine
 10
22.411775
 20
114.6913
 30
0.0
 11
22.96807499999999
 21
114.4533
 31
0.0
  0
LINE
  5
144
330
1E
100
AcDbEntity
  8
0
100
AcDbLine
 10
25.988775
 20
114.8352999999999
 30
0.0
 11
26.180075
 21
114.4033
 31
0.0
  0
LINE
  5
146
330
1E
100
AcDbEntity
  8
0
100
AcDbLine
 10
25.856075
 20
114.2692999999999
 30
0.0
 11
26.180075
 21
114.4033
 31
0.0
  0
LINE
  5
147
330
1E
100
AcDbEntity
  8
0
100
AcDbLine
 10
25.226675
 20
114.4953
 30
0.0
 11
25.856075
 21
114.2692999999999
 31
0.0
  0
LINE
  5
148
330
1E
100
AcDbEntity
  8
0
100
AcDbLine
 10
25.416275
 20
115.3032999999999
 30
0.0
 11
25.988775
 21
114.8352999999999
 31
0.0
  0
LINE
  5
14A
330
1E
100
AcDbEntity
  8
0
100
AcDbLine
 10
24.65397499999999
 20
114.9633
 30
0.0
 11
25.226675
 21
114.4953
 31
0.0
  0
LINE
  5
14B
330
1E
100
AcDbEntity
  8
0
100
AcDbLine
 10
24.462775
 20
115.3953
 30
0.0
 11
24.78677499999999
 21
115.5293
 31
0.0
  0
LINE
  5
14C
330
1E
100
AcDbEntity
  8
0
100
AcDbLine
 10
24.462775
 20
115.3953
 30
0.0
 11
24.65397499999999
 21
114.9633
 31
0.0
  0
LINE
  5
14E
330
1E
100
AcDbEntity
  8
0
100
AcDbLine
 10
24.78677499999999
 20
115.5293
 30
0.0
 11
25.416275
 21
115.3032999999999
 31
0.0
  0
LINE
  5
150
330
1E
100
AcDbEntity
  8
0
100
AcDbLine
 10
28.728075
 20
115.8212999999999
 30
0.0
 11
29.253075
 21
115.3302999999999
 31
0.0
  0
LINE
  5
151
330
1E
100
AcDbEntity
  8
0
100
AcDbLine
 10
22.066775
 20
119.6673
 30
0.0
 11
22.62777499999999
 21
119.1553
 31
0.0
  0
LINE
  5
152
330
1E
100
AcDbEntity
  8
0
100
AcDbLine
 10
21.873475
 20
120.2163
 30
0.0
 11
22.182075
 21
120.4752999999999
 31
0.0
  0
LINE
  5
153
330
1E
100
AcDbEntity
  8
0
100
AcDbLine
 10
21.873475
 20
120.2163
 30
0.0
 11
22.066775
 21
119.6673
 31
0.0
  0
LINE
  5
154
330
1E
100
AcDbEntity
  8
0
100
AcDbLine
 10
23.23797499999999
 20
118.9903
 30
0.0
 11
23.546575
 21
119.2503
 31
0.0
  0
LINE
  5
155
330
1E
100
AcDbEntity
  8
0
100
AcDbLine
 10
22.792275
 20
120.3113
 30
0.0
 11
23.35317499999999
 21
119.7993
 31
0.0
  0
LINE
  5
15A
330
1E
100
AcDbEntity
  8
0
100
AcDbLine
 10
28.79997499999999
 20
136.1642999999999
 30
0.0
 11
38.153075
 21
130.7642999999999
 31
0.0
  0
LINE
  5
15B
330
1E
100
AcDbEntity
  8
0
100
AcDbLine
 10
23.35317499999999
 20
119.7993
 30
0.0
 11
23.546575
 21
119.2503
 31
0.0
  0
LINE
  5
15C
330
1E
100
AcDbEntity
  8
0
100
AcDbLine
 10
22.62777499999999
 20
119.1553
 30
0.0
 11
23.23797499999999
 21
118.9903
 31
0.0
  0
LINE
  5
15D
330
1E
100
AcDbEntity
  8
0
100
AcDbLine
 10
22.182075
 20
120.4752999999999
 30
0.0
 11
22.792275
 21
120.3113
 31
0.0
  0
LINE
  5
15E
330
1E
100
AcDbEntity
  8
0
100
AcDbLine
 10
28.657775
 20
116.2992999999999
 30
0.0
 11
29.107175
 21
116.4773
 31
0.0
  0
LINE
  5
15F
330
1E
100
AcDbEntity
  8
0
100
AcDbLine
 10
28.657775
 20
116.2992999999999
 30
0.0
 11
28.728075
 21
115.8212999999999
 31
0.0
  0
LINE
  5
161
330
1E
100
AcDbEntity
  8
0
100
AcDbLine
 10
29.107175
 20
116.4773
 30
0.0
 11
29.794575
 21
116.2682999999999
 31
0.0
  0
LINE
  5
162
330
1E
100
AcDbEntity
  8
0
100
AcDbLine
 10
22.211475
 20
113.2983
 30
0.0
 11
22.845075
 21
112.8762999999999
 31
0.0
  0
LINE
  5
163
330
1E
100
AcDbEntity
  8
0
100
AcDbLine
 10
22.211475
 20
113.2983
 30
0.0
 11
22.2873382927327
 21
113.4124171277109
 31
0.0
  0
LINE
  5
164
330
1E
100
AcDbEntity
  8
0
100
AcDbLine
 10
21.799775
 20
113.6683
 30
0.0
 11
22.211475
 21
113.2983
 31
0.0
  0
LINE
  5
165
330
1E
100
AcDbEntity
  8
0
100
AcDbLine
 10
21.799775
 20
113.6683
 30
0.0
 11
21.8337366373118
 21
113.719360335235
 31
0.0
  0
LINE
  5
166
330
1E
100
AcDbEntity
  8
0
100
AcDbLine
 10
19.96647499999999
 20
141.2642999999999
 30
0.0
 11
28.79997499999999
 21
136.1642999999999
 31
0.0
  0
LINE
  5
167
330
1E
100
AcDbEntity
  8
0
100
AcDbLine
 10
29.136575
 20
136.5473
 30
0.0
 11
38.403075
 21
131.1973
 31
0.0
  0
LINE
  5
168
330
1E
100
AcDbEntity
  8
0
100
AcDbLine
 10
29.924275
 20
108.9773
 30
0.0
 11
30.450375
 21
108.8063
 31
0.0
  0
LINE
  5
16A
330
1E
100
AcDbEntity
  8
0
100
AcDbLine
 10
29.87827499999999
 20
108.8722999999999
 30
0.0
 11
30.315775
 21
108.5633
 31
0.0
  0
LINE
  5
16B
330
1E
100
AcDbEntity
  8
0
100
AcDbLine
 10
29.87827499999999
 20
108.8722999999999
 30
0.0
 11
29.924275
 21
108.9773
 31
0.0
  0
LINE
  5
16C
330
1E
100
AcDbEntity
  8
0
100
AcDbLine
 10
30.450375
 20
108.8063
 30
0.0
 11
31.133075
 21
108.4683
 31
0.0
  0
LINE
  5
16E
330
1E
100
AcDbEntity
  8
0
100
AcDbLine
 10
30.315775
 20
108.5633
 30
0.0
 11
30.998475
 21
108.2253
 31
0.0
  0
LINE
  5
16F
330
1E
100
AcDbEntity
  8
0
100
AcDbLine
 10
30.998475
 20
108.2253
 30
0.0
 11
31.524475
 21
108.0532999999999
 31
0.0
  0
LINE
  5
170
330
1E
100
AcDbEntity
  8
0
100
AcDbLine
 10
31.5518786312788
 20
108.108587754328
 30
0.0
 11
34.3566870313274
 21
106.745774889883
 31
0.0
  0
LINE
  5
172
330
1E
100
AcDbEntity
  8
0
100
AcDbLine
 10
31.524475
 20
108.0532999999999
 30
0.0
 11
31.570475
 21
108.1593
 31
0.0
  0
LINE
  5
174
330
1E
100
AcDbEntity
  8
0
100
AcDbLine
 10
31.133075
 20
108.4683
 30
0.0
 11
31.570475
 21
108.1593
 31
0.0
  0
LINE
  5
176
330
1E
100
AcDbEntity
  8
0
100
AcDbLine
 10
29.97117499999999
 20
112.2152999999999
 30
0.0
 11
30.017175
 21
111.8673
 31
0.0
  0
LINE
  5
177
330
1E
100
AcDbEntity
  8
0
100
AcDbLine
 10
29.97117499999999
 20
112.2152999999999
 30
0.0
 11
30.44037499999999
 21
112.2652999999999
 31
0.0
  0
LINE
  5
179
330
1E
100
AcDbEntity
  8
0
100
AcDbLine
 10
30.44037499999999
 20
112.2652999999999
 30
0.0
 11
31.132075
 21
112.0033
 31
0.0
  0
LINE
  5
17B
330
1E
100
AcDbEntity
  8
0
100
AcDbLine
 10
30.017175
 20
111.8673
 30
0.0
 11
30.527375
 21
111.4352999999999
 31
0.0
  0
LINE
  5
17C
330
1E
100
AcDbEntity
  8
0
100
AcDbLine
 10
30.445975
 20
109.8583
 30
0.0
 11
30.46067499999999
 21
109.6562999999999
 31
0.0
  0
LINE
  5
17D
330
1E
100
AcDbEntity
  8
0
100
AcDbLine
 10
30.445975
 20
109.8583
 30
0.0
 11
30.933375
 21
109.7712999999999
 31
0.0
  0
LINE
  5
17F
330
1E
100
AcDbEntity
  8
0
100
AcDbLine
 10
30.527375
 20
111.4352999999999
 30
0.0
 11
31.219175
 21
111.1733
 31
0.0
  0
LINE
  5
180
330
1E
100
AcDbEntity
  8
0
100
AcDbLine
 10
31.219175
 20
111.1733
 30
0.0
 11
31.688375
 21
111.2233
 31
0.0
  0
LINE
  5
181
330
1E
100
AcDbEntity
  8
0
100
AcDbLine
 10
31.132075
 20
112.0033
 30
0.0
 11
31.642375
 21
111.5712999999999
 31
0.0
  0
LINE
  5
183
330
1E
100
AcDbEntity
  8
0
100
AcDbLine
 10
30.933375
 20
109.7712999999999
 30
0.0
 11
31.620175
 21
109.4582999999999
 31
0.0
  0
LINE
  5
185
330
1E
100
AcDbEntity
  8
0
100
AcDbLine
 10
30.46067499999999
 20
109.6562999999999
 30
0.0
 11
30.944975
 21
109.2933
 31
0.0
  0
LINE
  5
186
330
1E
100
AcDbEntity
  8
0
100
AcDbLine
 10
30.944975
 20
109.2933
 30
0.0
 11
31.631775
 21
108.9803
 31
0.0
  0
LINE
  5
188
330
1E
100
AcDbEntity
  8
0
100
AcDbLine
 10
31.642375
 20
111.5712999999999
 30
0.0
 11
31.688375
 21
111.2233
 31
0.0
  0
LINE
  5
18A
330
1E
100
AcDbEntity
  8
0
100
AcDbLine
 10
31.631775
 20
108.9803
 30
0.0
 11
32.119075
 21
108.8923
 31
0.0
  0
LINE
  5
18B
330
1E
100
AcDbEntity
  8
0
100
AcDbLine
 10
31.620175
 20
109.4582999999999
 30
0.0
 11
32.104475
 21
109.0953
 31
0.0
  0
LINE
  5
18E
330
1E
100
AcDbEntity
  8
0
100
AcDbLine
 10
29.940575
 20
115.1213
 30
0.0
 11
30.389875
 21
115.2993
 31
0.0
  0
LINE
  5
18F
330
1E
100
AcDbEntity
  8
0
100
AcDbLine
 10
29.794575
 20
116.2682999999999
 30
0.0
 11
30.319575
 21
115.7772999999999
 31
0.0
  0
LINE
  5
190
330
1E
100
AcDbEntity
  8
0
100
AcDbLine
 10
30.319575
 20
115.7772999999999
 30
0.0
 11
30.389875
 21
115.2993
 31
0.0
  0
LINE
  5
191
330
1E
100
AcDbEntity
  8
0
100
AcDbLine
 10
29.253075
 20
115.3302999999999
 30
0.0
 11
29.940575
 21
115.1213
 31
0.0
  0
LINE
  5
192
330
1E
100
AcDbEntity
  8
0
100
AcDbLine
 10
29.21337499999999
 20
137.0802999999999
 30
0.0
 11
38.653075
 21
131.6303
 31
0.0
  0
LINE
  5
193
330
1E
100
AcDbEntity
  8
0
100
AcDbLine
 10
20.562975
 20
141.4972999999999
 30
0.0
 11
29.136575
 21
136.5473
 31
0.0
  0
LINE
  5
194
330
1E
100
AcDbEntity
  8
0
100
AcDbLine
 10
20.37987499999999
 20
142.1802999999999
 30
0.0
 11
29.21337499999999
 21
137.0802999999999
 31
0.0
  0
LINE
  5
195
330
1E
100
AcDbEntity
  8
0
100
AcDbLine
 10
31.71337499999999
 20
141.4103
 30
0.0
 11
41.153075
 21
135.9602999999999
 31
0.0
  0
LINE
  5
196
330
1E
100
AcDbEntity
  8
0
100
AcDbLine
 10
34.941175
 20
105.9493
 30
0.0
 11
35.630975
 21
105.6833
 31
0.0
  0
LINE
  5
197
330
1E
100
AcDbEntity
  8
0
100
AcDbLine
 10
34.344275
 20
106.2373
 30
0.0
 11
34.941175
 21
105.9493
 31
0.0
  0
LINE
  5
198
330
1E
100
AcDbEntity
  8
0
100
AcDbLine
 10
34.20307499999999
 20
106.3752999999999
 30
0.0
 11
34.576675
 21
106.2912999999999
 31
0.0
  0
LINE
  5
199
330
1E
100
AcDbEntity
  8
0
100
AcDbLine
 10
34.20307499999999
 20
106.3752999999999
 30
0.0
 11
34.344275
 21
106.2373
 31
0.0
  0
LINE
  5
19A
330
1E
100
AcDbEntity
  8
0
100
AcDbLine
 10
34.20307499999999
 20
106.3752999999999
 30
0.0
 11
34.4333547838356
 21
106.930678877693
 31
0.0
  0
LINE
  5
19B
330
1E
100
AcDbEntity
  8
0
100
AcDbLine
 10
34.576675
 20
106.2912999999999
 30
0.0
 11
35.266475
 21
106.0253
 31
0.0
  0
LINE
  5
19D
330
1E
100
AcDbEntity
  8
0
100
AcDbLine
 10
35.266475
 20
106.0253
 30
0.0
 11
35.863275
 21
105.7373
 31
0.0
  0
LINE
  5
1A0
330
1E
100
AcDbEntity
  8
0
100
AcDbLine
 10
32.104475
 20
109.0953
 30
0.0
 11
32.119075
 21
108.8923
 31
0.0
  0
LINE
  5
1A4
330
1E
100
AcDbEntity
  8
0
100
AcDbLine
 10
32.227475
 20
107.5163
 30
0.0
 11
32.527875
 21
107.2853
 31
0.0
  0
LINE
  5
1A5
330
1E
100
AcDbEntity
  8
0
100
AcDbLine
 10
32.227475
 20
107.5163
 30
0.0
 11
32.3250384899937
 21
107.732921380214
 31
0.0
  0
LINE
  5
1A6
330
1E
100
AcDbEntity
  8
0
100
AcDbLine
 10
32.527875
 20
107.2853
 30
0.0
 11
33.189375
 21
106.9603
 31
0.0
  0
LINE
  5
1A8
330
1E
100
AcDbEntity
  8
0
100
AcDbLine
 10
35.366075
 20
109.1003
 30
0.0
 11
35.95797499999999
 21
109.0793
 31
0.0
  0
LINE
  5
1AA
330
1E
100
AcDbEntity
  8
0
100
AcDbLine
 10
35.25417499999999
 20
108.8432999999999
 30
0.0
 11
35.663375
 21
108.4702999999999
 31
0.0
  0
LINE
  5
1AB
330
1E
100
AcDbEntity
  8
0
100
AcDbLine
 10
35.25417499999999
 20
108.8432999999999
 30
0.0
 11
35.366075
 21
109.1003
 31
0.0
  0
LINE
  5
1AD
330
1E
100
AcDbEntity
  8
0
100
AcDbLine
 10
35.48517499999999
 20
112.3572999999999
 30
0.0
 11
36.057575
 21
112.4643
 31
0.0
  0
LINE
  5
1AE
330
1E
100
AcDbEntity
  8
0
100
AcDbLine
 10
35.414775
 20
111.9603
 30
0.0
 11
35.862575
 21
111.5142999999999
 31
0.0
  0
LINE
  5
1AF
330
1E
100
AcDbEntity
  8
0
100
AcDbLine
 10
35.414775
 20
111.9603
 30
0.0
 11
35.48517499999999
 21
112.3572999999999
 31
0.0
  0
LINE
  5
1B0
330
1E
100
AcDbEntity
  8
0
100
AcDbLine
 10
34.031875
 20
106.7382999999999
 30
0.0
 11
34.0929555682633
 21
106.873917914061
 31
0.0
  0
LINE
  5
1B1
330
1E
100
AcDbEntity
  8
0
100
AcDbLine
 10
33.189375
 20
106.9603
 30
0.0
 11
33.81667499999999
 21
106.7303
 31
0.0
  0
LINE
  5
1B3
330
1E
100
AcDbEntity
  8
0
100
AcDbLine
 10
33.81667499999999
 20
106.7303
 30
0.0
 11
34.031875
 21
106.7382999999999
 31
0.0
  0
LINE
  5
1B5
330
1E
100
AcDbEntity
  8
0
100
AcDbLine
 10
38.135375
 20
104.4252999999999
 30
0.0
 11
38.3641896253762
 21
105.0316052883149
 31
0.0
  0
LINE
  5
1B6
330
1E
100
AcDbEntity
  8
0
100
AcDbLine
 10
37.935875
 20
104.4842999999999
 30
0.0
 11
38.135375
 21
104.4252999999999
 31
0.0
  0
LINE
  5
1B7
330
1E
100
AcDbEntity
  8
0
100
AcDbLine
 10
36.635575
 20
104.9703
 30
0.0
 11
37.319575
 21
104.7082999999999
 31
0.0
  0
LINE
  5
1B8
330
1E
100
AcDbEntity
  8
0
100
AcDbLine
 10
36.277875
 20
105.1203
 30
0.0
 11
36.477375
 21
105.0622999999999
 31
0.0
  0
LINE
  5
1B9
330
1E
100
AcDbEntity
  8
0
100
AcDbLine
 10
36.277875
 20
105.1203
 30
0.0
 11
36.635575
 21
104.9703
 31
0.0
  0
LINE
  5
1BA
330
1E
100
AcDbEntity
  8
0
100
AcDbLine
 10
36.277875
 20
105.1203
 30
0.0
 11
36.5086352431556
 21
105.731847329949
 31
0.0
  0
LINE
  5
1BB
330
1E
100
AcDbEntity
  8
0
100
AcDbLine
 10
36.477375
 20
105.0622999999999
 30
0.0
 11
37.093575
 21
104.8383
 31
0.0
  0
LINE
  5
1BD
330
1E
100
AcDbEntity
  8
0
100
AcDbLine
 10
37.319575
 20
104.7082999999999
 30
0.0
 11
37.935875
 21
104.4842999999999
 31
0.0
  0
LINE
  5
1BE
330
1E
100
AcDbEntity
  8
0
100
AcDbLine
 10
37.093575
 20
104.8383
 30
0.0
 11
37.77757499999999
 21
104.5752999999999
 31
0.0
  0
LINE
  5
1C0
330
1E
100
AcDbEntity
  8
0
100
AcDbLine
 10
37.77757499999999
 20
104.5752999999999
 30
0.0
 11
38.135375
 21
104.4252999999999
 31
0.0
  0
LINE
  5
1C2
330
1E
100
AcDbEntity
  8
0
100
AcDbLine
 10
38.3460156439307
 20
104.983448484343
 30
0.0
 11
41.7795372473803
 21
103.722523571471
 31
0.0
  0
LINE
  5
1C3
330
1E
100
AcDbEntity
  8
0
100
AcDbLine
 10
38.342475
 20
105.1053
 30
0.0
 11
39.02627499999999
 21
104.9053
 31
0.0
  0
LINE
  5
1C5
330
1E
100
AcDbEntity
  8
0
100
AcDbLine
 10
36.12384037602559
 20
105.887142510017
 30
0.0
 11
36.4985362606403
 21
105.7050835958329
 31
0.0
  0
LINE
  5
1C6
330
1E
100
AcDbEntity
  8
0
100
AcDbLine
 10
35.863275
 20
105.7373
 30
0.0
 11
36.004475
 21
105.5992999999999
 31
0.0
  0
LINE
  5
1C8
330
1E
100
AcDbEntity
  8
0
100
AcDbLine
 10
35.630975
 20
105.6833
 30
0.0
 11
36.004475
 21
105.5992999999999
 31
0.0
  0
LINE
  5
1C9
330
1E
100
AcDbEntity
  8
0
100
AcDbLine
 10
35.95797499999999
 20
109.0793
 30
0.0
 11
36.668875
 21
108.8063
 31
0.0
  0
LINE
  5
1CB
330
1E
100
AcDbEntity
  8
0
100
AcDbLine
 10
35.663375
 20
108.4702999999999
 30
0.0
 11
36.37427499999999
 21
108.1973
 31
0.0
  0
LINE
  5
1CC
330
1E
100
AcDbEntity
  8
0
100
AcDbLine
 10
36.37427499999999
 20
108.1973
 30
0.0
 11
36.966175
 21
108.1763
 31
0.0
  0
LINE
  5
1CD
330
1E
100
AcDbEntity
  8
0
100
AcDbLine
 10
36.668875
 20
108.8063
 30
0.0
 11
37.07807499999999
 21
108.4322999999999
 31
0.0
  0
LINE
  5
1CF
330
1E
100
AcDbEntity
  8
0
100
AcDbLine
 10
36.057575
 20
112.4643
 30
0.0
 11
36.780875
 21
112.2343
 31
0.0
  0
LINE
  5
1D0
330
1E
100
AcDbEntity
  8
0
100
AcDbLine
 10
35.862575
 20
111.5142999999999
 30
0.0
 11
36.585875
 21
111.2843
 31
0.0
  0
LINE
  5
1D1
330
1E
100
AcDbEntity
  8
0
100
AcDbLine
 10
36.585875
 20
111.2843
 30
0.0
 11
37.158275
 21
111.3912999999999
 31
0.0
  0
LINE
  5
1D3
330
1E
100
AcDbEntity
  8
0
100
AcDbLine
 10
36.966175
 20
108.1763
 30
0.0
 11
37.07807499999999
 21
108.4322999999999
 31
0.0
  0
LINE
  5
1D4
330
1E
100
AcDbEntity
  8
0
100
AcDbLine
 10
37.158275
 20
111.3912999999999
 30
0.0
 11
37.228675
 21
111.7883
 31
0.0
  0
LINE
  5
1D6
330
1E
100
AcDbEntity
  8
0
100
AcDbLine
 10
36.780875
 20
112.2343
 30
0.0
 11
37.228675
 21
111.7883
 31
0.0
  0
LINE
  5
1D8
330
1E
100
AcDbEntity
  8
0
100
AcDbLine
 10
37.485175
 20
105.6003
 30
0.0
 11
37.699475
 21
105.3943
 31
0.0
  0
LINE
  5
1D9
330
1E
100
AcDbEntity
  8
0
100
AcDbLine
 10
37.485175
 20
105.6003
 30
0.0
 11
37.801475
 21
105.6123
 31
0.0
  0
LINE
  5
1DB
330
1E
100
AcDbEntity
  8
0
100
AcDbLine
 10
38.48537499999999
 20
105.4113
 30
0.0
 11
39.128375
 21
105.1233
 31
0.0
  0
LINE
  5
1DD
330
1E
100
AcDbEntity
  8
0
100
AcDbLine
 10
38.153075
 20
130.7642999999999
 30
0.0
 11
47.50617499999999
 21
125.3643
 31
0.0
  0
LINE
  5
1DE
330
1E
100
AcDbEntity
  8
0
100
AcDbLine
 10
37.801475
 20
105.6123
 30
0.0
 11
38.48537499999999
 21
105.4113
 31
0.0
  0
LINE
  5
1E0
330
1E
100
AcDbEntity
  8
0
100
AcDbLine
 10
37.699475
 20
105.3943
 30
0.0
 11
38.342475
 21
105.1053
 31
0.0
  0
LINE
  5
1E1
330
1E
100
AcDbEntity
  8
0
100
AcDbLine
 10
36.112375
 20
105.2733
 30
0.0
 11
36.3068397936259
 21
105.197060805771
 31
0.0
  0
LINE
  5
1E3
330
1E
100
AcDbEntity
  8
0
100
AcDbLine
 10
35.619075
 20
105.5012999999999
 30
0.0
 11
36.112375
 21
105.2733
 31
0.0
  0
LINE
  5
1E4
330
1E
100
AcDbEntity
  8
0
100
AcDbLine
 10
35.619075
 20
105.5012999999999
 30
0.0
 11
35.6853068593246
 21
105.6710807866579
 31
0.0
  0
LINE
  5
1E5
330
1E
100
AcDbEntity
  8
0
100
AcDbLine
 10
38.403075
 20
131.1973
 30
0.0
 11
47.669575
 21
125.8473
 31
0.0
  0
LINE
  5
1E7
330
1E
100
AcDbEntity
  8
0
100
AcDbLine
 10
39.02627499999999
 20
104.9053
 30
0.0
 11
39.342675
 21
104.9163
 31
0.0
  0
LINE
  5
1E8
330
1E
100
AcDbEntity
  8
0
100
AcDbLine
 10
40.947875
 20
106.1983
 30
0.0
 11
41.633575
 21
105.9402999999999
 31
0.0
  0
LINE
  5
1EB
330
1E
100
AcDbEntity
  8
0
100
AcDbLine
 10
40.264075
 20
106.2723
 30
0.0
 11
40.947875
 21
106.1983
 31
0.0
  0
LINE
  5
1ED
330
1E
100
AcDbEntity
  8
0
100
AcDbLine
 10
39.992575
 20
106.1082999999999
 30
0.0
 11
40.268775
 21
105.8113
 31
0.0
  0
LINE
  5
1EE
330
1E
100
AcDbEntity
  8
0
100
AcDbLine
 10
39.992575
 20
106.1082999999999
 30
0.0
 11
40.264075
 21
106.2723
 31
0.0
  0
LINE
  5
1F0
330
1E
100
AcDbEntity
  8
0
100
AcDbLine
 10
40.268775
 20
105.8113
 30
0.0
 11
40.954475
 21
105.5522999999999
 31
0.0
  0
LINE
  5
1F1
330
1E
100
AcDbEntity
  8
0
100
AcDbLine
 10
40.954475
 20
105.5522999999999
 30
0.0
 11
41.63817499999999
 21
105.4792999999999
 31
0.0
  0
LINE
  5
1F2
330
1E
100
AcDbEntity
  8
0
100
AcDbLine
 10
39.128375
 20
105.1233
 30
0.0
 11
39.342675
 21
104.9163
 31
0.0
  0
LINE
  5
1F4
330
1E
100
AcDbEntity
  8
0
100
AcDbLine
 10
38.653075
 20
131.6303
 30
0.0
 11
48.092775
 21
126.1803
 31
0.0
  0
LINE
  5
1F5
330
1E
100
AcDbEntity
  8
0
100
AcDbLine
 10
41.153075
 20
135.9602999999999
 30
0.0
 11
50.592775
 21
130.5103
 31
0.0
  0
LINE
  5
1F6
330
1E
100
AcDbEntity
  8
0
100
AcDbLine
 10
47.960075
 20
101.8293
 30
0.0
 11
48.513575
 21
101.8302999999999
 31
0.0
  0
LINE
  5
1F7
330
1E
100
AcDbEntity
  8
0
100
AcDbLine
 10
47.207575
 20
101.9422999999999
 30
0.0
 11
47.960075
 21
101.8293
 31
0.0
  0
LINE
  5
1F8
330
1E
100
AcDbEntity
  8
0
100
AcDbLine
 10
48.049575
 20
102.0982999999999
 30
0.0
 11
48.561475
 21
101.9403
 31
0.0
  0
LINE
  5
1FA
330
1E
100
AcDbEntity
  8
0
100
AcDbLine
 10
46.743675
 20
102.2102999999999
 30
0.0
 11
47.297175
 21
102.2113
 31
0.0
  0
LINE
  5
1FC
330
1E
100
AcDbEntity
  8
0
100
AcDbLine
 10
47.297175
 20
102.2113
 30
0.0
 11
48.049575
 21
102.0982999999999
 31
0.0
  0
LINE
  5
1FE
330
1E
100
AcDbEntity
  8
0
100
AcDbLine
 10
46.69577499999999
 20
102.1003
 30
0.0
 11
47.207575
 21
101.9422999999999
 31
0.0
  0
LINE
  5
1FF
330
1E
100
AcDbEntity
  8
0
100
AcDbLine
 10
46.69577499999999
 20
102.1003
 30
0.0
 11
46.7232988084557
 21
102.2911044390639
 31
0.0
  0
LINE
  5
200
330
1E
100
AcDbEntity
  8
0
100
AcDbLine
 10
46.69577499999999
 20
102.1003
 30
0.0
 11
46.743675
 21
102.2102999999999
 31
0.0
  0
LINE
  5
202
330
1E
100
AcDbEntity
  8
0
100
AcDbLine
 10
48.069775
 20
101.3072999999999
 30
0.0
 11
48.444875
 21
101.2283
 31
0.0
  0
LINE
  5
203
330
1E
100
AcDbEntity
  8
0
100
AcDbLine
 10
48.069775
 20
101.3072999999999
 30
0.0
 11
48.1318833172651
 21
101.8296104034639
 31
0.0
  0
LINE
  5
204
330
1E
100
AcDbEntity
  8
0
100
AcDbLine
 10
48.069775
 20
101.3072999999999
 30
0.0
 11
48.286675
 21
101.3193
 31
0.0
  0
LINE
  5
205
330
1E
100
AcDbEntity
  8
0
100
AcDbLine
 10
44.007575
 20
102.9043
 30
0.0
 11
46.7232988084557
 21
102.2911044390639
 31
0.0
  0
LINE
  5
206
330
1E
100
AcDbEntity
  8
0
100
AcDbLine
 10
43.469775
 20
102.6162999999999
 30
0.0
 11
43.6437158173031
 21
103.201195861416
 31
0.0
  0
LINE
  5
207
330
1E
100
AcDbEntity
  8
0
100
AcDbLine
 10
43.033275
 20
102.7853
 30
0.0
 11
43.469775
 21
102.6162999999999
 31
0.0
  0
LINE
  5
209
330
1E
100
AcDbEntity
  8
0
100
AcDbLine
 10
43.34697499999999
 20
102.6043
 30
0.0
 11
43.469775
 21
102.6162999999999
 31
0.0
  0
LINE
  5
20A
330
1E
100
AcDbEntity
  8
0
100
AcDbLine
 10
42.761875
 20
102.7482999999999
 30
0.0
 11
43.34697499999999
 21
102.6043
 31
0.0
  0
LINE
  5
20B
330
1E
100
AcDbEntity
  8
0
100
AcDbLine
 10
41.72837499999999
 20
103.1513
 30
0.0
 11
42.313575
 21
103.0073
 31
0.0
  0
LINE
  5
20D
330
1E
100
AcDbEntity
  8
0
100
AcDbLine
 10
43.59994134465369
 20
103.0539991982909
 30
0.0
 11
44.007575
 21
102.9043
 31
0.0
  0
LINE
  5
20F
330
1E
100
AcDbEntity
  8
0
100
AcDbLine
 10
45.39557499999999
 20
103.3093
 30
0.0
 11
45.817775
 21
103.3862999999999
 31
0.0
  0
LINE
  5
210
330
1E
100
AcDbEntity
  8
0
100
AcDbLine
 10
45.697475
 20
103.5932999999999
 30
0.0
 11
45.817775
 21
103.3862999999999
 31
0.0
  0
LINE
  5
212
330
1E
100
AcDbEntity
  8
0
100
AcDbLine
 10
44.65707499999999
 20
103.4153
 30
0.0
 11
45.39557499999999
 21
103.3093
 31
0.0
  0
LINE
  5
213
330
1E
100
AcDbEntity
  8
0
100
AcDbLine
 10
44.039275
 20
103.6343
 30
0.0
 11
44.65707499999999
 21
103.4153
 31
0.0
  0
LINE
  5
214
330
1E
100
AcDbEntity
  8
0
100
AcDbLine
 10
43.918875
 20
103.8413
 30
0.0
 11
44.341175
 21
103.9182999999999
 31
0.0
  0
LINE
  5
215
330
1E
100
AcDbEntity
  8
0
100
AcDbLine
 10
43.918875
 20
103.8413
 30
0.0
 11
44.039275
 21
103.6343
 31
0.0
  0
LINE
  5
217
330
1E
100
AcDbEntity
  8
0
100
AcDbLine
 10
47.146675
 20
105.1873
 30
0.0
 11
47.339575
 21
104.8883
 31
0.0
  0
LINE
  5
218
330
1E
100
AcDbEntity
  8
0
100
AcDbLine
 10
47.146675
 20
105.1873
 30
0.0
 11
47.512875
 21
105.4132999999999
 31
0.0
  0
LINE
  5
21A
330
1E
100
AcDbEntity
  8
0
100
AcDbLine
 10
47.512875
 20
105.4132999999999
 30
0.0
 11
48.246375
 21
105.4273
 31
0.0
  0
LINE
  5
21C
330
1E
100
AcDbEntity
  8
0
100
AcDbLine
 10
47.339575
 20
104.8883
 30
0.0
 11
48.00397499999999
 21
104.6923
 31
0.0
  0
LINE
  5
21D
330
1E
100
AcDbEntity
  8
0
100
AcDbLine
 10
48.00397499999999
 20
104.6923
 30
0.0
 11
48.73757499999999
 21
104.7063
 31
0.0
  0
LINE
  5
21E
330
1E
100
AcDbEntity
  8
0
100
AcDbLine
 10
44.341175
 20
103.9182999999999
 30
0.0
 11
45.07977499999999
 21
103.8132999999999
 31
0.0
  0
LINE
  5
220
330
1E
100
AcDbEntity
  8
0
100
AcDbLine
 10
45.07977499999999
 20
103.8132999999999
 30
0.0
 11
45.697475
 21
103.5932999999999
 31
0.0
  0
LINE
  5
222
330
1E
100
AcDbEntity
  8
0
100
AcDbLine
 10
42.313575
 20
103.0073
 30
0.0
 11
43.033275
 21
102.7853
 31
0.0
  0
LINE
  5
224
330
1E
100
AcDbEntity
  8
0
100
AcDbLine
 10
41.702375
 20
108.3302999999999
 30
0.0
 11
42.03697499999999
 21
107.9493
 31
0.0
  0
LINE
  5
225
330
1E
100
AcDbEntity
  8
0
100
AcDbLine
 10
41.702375
 20
108.3302999999999
 30
0.0
 11
41.92177499999999
 21
108.6413
 31
0.0
  0
LINE
  5
227
330
1E
100
AcDbEntity
  8
0
100
AcDbLine
 10
42.03697499999999
 20
107.9493
 30
0.0
 11
42.752375
 21
107.7242999999999
 31
0.0
  0
LINE
  5
228
330
1E
100
AcDbEntity
  8
0
100
AcDbLine
 10
42.752375
 20
107.7242999999999
 30
0.0
 11
43.421775
 21
107.7752999999999
 31
0.0
  0
LINE
  5
22A
330
1E
100
AcDbEntity
  8
0
100
AcDbLine
 10
43.421775
 20
107.7752999999999
 30
0.0
 11
43.641075
 21
108.0862999999999
 31
0.0
  0
LINE
  5
22B
330
1E
100
AcDbEntity
  8
0
100
AcDbLine
 10
47.50617499999999
 20
125.3643
 30
0.0
 11
56.33957500000001
 21
120.2643
 31
0.0
  0
LINE
  5
22C
330
1E
100
AcDbEntity
  8
0
100
AcDbLine
 10
42.59107499999999
 20
108.6923
 30
0.0
 11
43.306475
 21
108.4672999999999
 31
0.0
  0
LINE
  5
22E
330
1E
100
AcDbEntity
  8
0
100
AcDbLine
 10
41.92177499999999
 20
108.6413
 30
0.0
 11
42.59107499999999
 21
108.6923
 31
0.0
  0
LINE
  5
22F
330
1E
100
AcDbEntity
  8
0
100
AcDbLine
 10
43.306475
 20
108.4672999999999
 30
0.0
 11
43.641075
 21
108.0862999999999
 31
0.0
  0
LINE
  5
232
330
1E
100
AcDbEntity
  8
0
100
AcDbLine
 10
41.63817499999999
 20
105.4792999999999
 30
0.0
 11
41.909775
 21
105.6432999999999
 31
0.0
  0
LINE
  5
233
330
1E
100
AcDbEntity
  8
0
100
AcDbLine
 10
41.633575
 20
105.9402999999999
 30
0.0
 11
41.909775
 21
105.6432999999999
 31
0.0
  0
LINE
  5
235
330
1E
100
AcDbEntity
  8
0
100
AcDbLine
 10
42.042175
 20
102.9692999999999
 30
0.0
 11
42.761875
 21
102.7482999999999
 31
0.0
  0
LINE
  5
236
330
1E
100
AcDbEntity
  8
0
100
AcDbLine
 10
41.60567499999999
 20
103.1382999999999
 30
0.0
 11
42.042175
 21
102.9692999999999
 31
0.0
  0
LINE
  5
237
330
1E
100
AcDbEntity
  8
0
100
AcDbLine
 10
41.60567499999999
 20
103.1382999999999
 30
0.0
 11
41.7795372473803
 21
103.722523571471
 31
0.0
  0
LINE
  5
238
330
1E
100
AcDbEntity
  8
0
100
AcDbLine
 10
41.60567499999999
 20
103.1382999999999
 30
0.0
 11
41.72837499999999
 21
103.1513
 31
0.0
  0
LINE
  5
23A
330
1E
100
AcDbEntity
  8
0
100
AcDbLine
 10
47.669575
 20
125.8473
 30
0.0
 11
56.243175
 21
120.8973
 31
0.0
  0
LINE
  5
23B
330
1E
100
AcDbEntity
  8
0
100
AcDbLine
 10
50.042875
 20
101.0853
 30
0.0
 11
50.1443038936955
 21
101.9379218575589
 31
0.0
  0
LINE
  5
23C
330
1E
100
AcDbEntity
  8
0
100
AcDbLine
 10
49.826075
 20
101.0723
 30
0.0
 11
50.042875
 21
101.0853
 31
0.0
  0
LINE
  5
23D
330
1E
100
AcDbEntity
  8
0
100
AcDbLine
 10
49.667775
 20
101.1643
 30
0.0
 11
50.042875
 21
101.0853
 31
0.0
  0
LINE
  5
23F
330
1E
100
AcDbEntity
  8
0
100
AcDbLine
 10
49.169375
 20
101.1303
 30
0.0
 11
49.826075
 21
101.0723
 31
0.0
  0
LINE
  5
240
330
1E
100
AcDbEntity
  8
0
100
AcDbLine
 10
48.246375
 20
105.4273
 30
0.0
 11
48.910775
 21
105.2313
 31
0.0
  0
LINE
  5
242
330
1E
100
AcDbEntity
  8
0
100
AcDbLine
 10
48.286675
 20
101.3193
 30
0.0
 11
48.943375
 21
101.2612999999999
 31
0.0
  0
LINE
  5
244
330
1E
100
AcDbEntity
  8
0
100
AcDbLine
 10
50.1190834047234
 20
101.72591579723
 30
0.0
 11
53.9621218115724
 21
101.369669832616
 31
0.0
  0
LINE
  5
245
330
1E
100
AcDbEntity
  8
0
100
AcDbLine
 10
48.943375
 20
101.2612999999999
 30
0.0
 11
49.667775
 21
101.1643
 31
0.0
  0
LINE
  5
248
330
1E
100
AcDbEntity
  8
0
100
AcDbLine
 10
48.73757499999999
 20
104.7063
 30
0.0
 11
49.103775
 21
104.9323
 31
0.0
  0
LINE
  5
24A
330
1E
100
AcDbEntity
  8
0
100
AcDbLine
 10
48.910775
 20
105.2313
 30
0.0
 11
49.103775
 21
104.9323
 31
0.0
  0
LINE
  5
24D
330
1E
100
AcDbEntity
  8
0
100
AcDbLine
 10
48.513575
 20
101.8302999999999
 30
0.0
 11
48.561475
 21
101.9403
 31
0.0
  0
LINE
  5
24E
330
1E
100
AcDbEntity
  8
0
100
AcDbLine
 10
48.444875
 20
101.2283
 30
0.0
 11
49.169375
 21
101.1303
 31
0.0
  0
LINE
  5
24F
330
1E
100
AcDbEntity
  8
0
100
AcDbLine
 10
48.092775
 20
126.1803
 30
0.0
 11
56.926175
 21
121.0803
 31
0.0
  0
LINE
  5
250
330
1E
100
AcDbEntity
  8
0
100
AcDbLine
 10
50.592775
 20
130.5103
 30
0.0
 11
59.426175
 21
125.4103
 31
0.0
  0
LINE
  5
251
330
1E
100
AcDbEntity
  8
0
100
AcDbLine
 10
51.990575
 20
102.3903
 30
0.0
 11
52.751375
 21
102.3893
 31
0.0
  0
LINE
  5
252
330
1E
100
AcDbEntity
  8
0
100
AcDbLine
 10
51.417175
 20
102.5343
 30
0.0
 11
51.990575
 21
102.3903
 31
0.0
  0
LINE
  5
253
330
1E
100
AcDbEntity
  8
0
100
AcDbLine
 10
51.384375
 20
102.7403
 30
0.0
 11
51.885375
 21
102.8893
 31
0.0
  0
LINE
  5
254
330
1E
100
AcDbEntity
  8
0
100
AcDbLine
 10
51.384375
 20
102.7403
 30
0.0
 11
51.417175
 21
102.5343
 31
0.0
  0
LINE
  5
256
330
1E
100
AcDbEntity
  8
0
100
AcDbLine
 10
51.885375
 20
102.8893
 30
0.0
 11
52.64617499999999
 21
102.8872999999999
 31
0.0
  0
LINE
  5
25A
330
1E
100
AcDbEntity
  8
0
100
AcDbLine
 10
53.219675
 20
102.7433
 30
0.0
 11
53.252375
 21
102.5373
 31
0.0
  0
LINE
  5
25C
330
1E
100
AcDbEntity
  8
0
100
AcDbLine
 10
52.751375
 20
102.3893
 30
0.0
 11
53.252375
 21
102.5373
 31
0.0
  0
LINE
  5
25D
330
1E
100
AcDbEntity
  8
0
100
AcDbLine
 10
52.64617499999999
 20
102.8872999999999
 30
0.0
 11
53.219675
 21
102.7433
 31
0.0
  0
LINE
  5
25F
330
1E
100
AcDbEntity
  8
0
100
AcDbLine
 10
53.9621218115724
 20
101.369669832616
 30
0.0
 11
53.972375
 21
101.0583
 31
0.0
  0
LINE
  5
260
330
1E
100
AcDbEntity
  8
0
100
AcDbLine
 10
54.421475
 20
100.9873
 30
0.0
 11
55.17057499999999
 21
100.9923
 31
0.0
  0
LINE
  5
261
330
1E
100
AcDbEntity
  8
0
100
AcDbLine
 10
54.107675
 20
101.1683
 30
0.0
 11
54.722275
 21
101.2512999999999
 31
0.0
  0
LINE
  5
264
330
1E
100
AcDbEntity
  8
0
100
AcDbLine
 10
54.722275
 20
101.2512999999999
 30
0.0
 11
55.471275
 21
101.2562999999999
 31
0.0
  0
LINE
  5
266
330
1E
100
AcDbEntity
  8
0
100
AcDbLine
 10
54.8214209747441
 20
100.9899695099099
 30
0.0
 11
54.842475
 21
100.5562999999999
 31
0.0
  0
LINE
  5
267
330
1E
100
AcDbEntity
  8
0
100
AcDbLine
 10
55.785175
 20
101.0753
 30
0.0
 11
55.92037499999999
 21
101.1843
 31
0.0
  0
LINE
  5
268
330
1E
100
AcDbEntity
  8
0
100
AcDbLine
 10
55.17057499999999
 20
100.9923
 30
0.0
 11
55.785175
 21
101.0753
 31
0.0
  0
LINE
  5
26B
330
1E
100
AcDbEntity
  8
0
100
AcDbLine
 10
56.33957500000001
 20
120.2643
 30
0.0
 11
63.873975
 21
115.9143
 31
0.0
  0
LINE
  5
26D
330
1E
100
AcDbEntity
  8
0
100
AcDbLine
 10
55.471275
 20
101.2562999999999
 30
0.0
 11
55.92037499999999
 21
101.1843
 31
0.0
  0
LINE
  5
270
330
1E
100
AcDbEntity
  8
0
100
AcDbLine
 10
56.8002194366578
 20
101.475454640141
 30
0.0
 11
56.840175
 21
100.6533
 31
0.0
  0
LINE
  5
271
330
1E
100
AcDbEntity
  8
0
100
AcDbLine
 10
56.8002194366578
 20
101.475454640141
 30
0.0
 11
60.597875
 21
101.6393
 31
0.0
  0
LINE
  5
272
330
1E
100
AcDbEntity
  8
0
100
AcDbLine
 10
56.540575
 20
100.6383
 30
0.0
 11
56.840175
 21
100.6533
 31
0.0
  0
LINE
  5
273
330
1E
100
AcDbEntity
  8
0
100
AcDbLine
 10
55.84127500000001
 20
100.6053
 30
0.0
 11
56.540575
 21
100.6383
 31
0.0
  0
LINE
  5
274
330
1E
100
AcDbEntity
  8
0
100
AcDbLine
 10
55.142175
 20
100.5712999999999
 30
0.0
 11
55.84127500000001
 21
100.6053
 31
0.0
  0
LINE
  5
275
330
1E
100
AcDbEntity
  8
0
100
AcDbLine
 10
54.842475
 20
100.5562999999999
 30
0.0
 11
55.142175
 21
100.5712999999999
 31
0.0
  0
LINE
  5
276
330
1E
100
AcDbEntity
  8
0
100
AcDbLine
 10
53.972375
 20
101.0583
 30
0.0
 11
54.421475
 21
100.9873
 31
0.0
  0
LINE
  5
277
330
1E
100
AcDbEntity
  8
0
100
AcDbLine
 10
53.972375
 20
101.0583
 30
0.0
 11
54.107675
 21
101.1683
 31
0.0
  0
LINE
  5
278
330
1E
100
AcDbEntity
  8
0
100
AcDbLine
 10
56.243175
 20
120.8973
 30
0.0
 11
63.777575
 21
116.5473
 31
0.0
  0
LINE
  5
279
330
1E
100
AcDbEntity
  8
0
100
AcDbLine
 10
56.926175
 20
121.0803
 30
0.0
 11
64.63377499999999
 21
116.6303
 31
0.0
  0
LINE
  5
27A
330
1E
100
AcDbEntity
  8
0
100
AcDbLine
 10
59.426175
 20
125.4103
 30
0.0
 11
67.13377499999999
 21
120.9602999999999
 31
0.0
  0
LINE
  5
27B
330
1E
100
AcDbEntity
  8
0
100
AcDbLine
 10
135.955975
 20
39.8078
 30
0.0
 11
144.9259749999999
 21
28.49769999999999
 31
0.0
  0
LINE
  5
27D
330
1E
100
AcDbEntity
  8
0
100
AcDbLine
 10
144.9259749999999
 20
28.49769999999999
 30
0.0
 11
154.9609749999999
 21
16.897
 31
0.0
  0
LINE
  5
27E
330
1E
100
AcDbEntity
  8
0
100
AcDbLine
 10
154.9609749999999
 20
16.897
 30
0.0
 11
165.1059749999999
 21
6.340399999999981
 31
0.0
  0
LINE
  5
27F
330
1E
100
AcDbEntity
  8
0
100
AcDbLine
 10
154.9609749999999
 20
16.897
 30
0.0
 11
165.1059749999999
 21
6.340399999999981
 31
0.0
  0
LINE
  5
281
330
1E
100
AcDbEntity
  8
0
100
AcDbLine
 10
173.475975
 20
0.29919999999998
 30
0.0
 11
174.261975
 21
0.8497999999999789
 31
0.0
  0
LINE
  5
282
330
1E
100
AcDbEntity
  8
0
100
AcDbLine
 10
175.539975
 20
1.744599999999979
 30
0.0
 11
177.210975
 21
2.914699999999979
 31
0.0
  0
LINE
  5
283
330
1E
100
AcDbEntity
  8
0
100
AcDbLine
 10
174.261975
 20
0.8497999999999789
 30
0.0
 11
175.539975
 21
1.744599999999979
 31
0.0
  0
LINE
  5
284
330
1E
100
AcDbEntity
  8
0
100
AcDbLine
 10
173.475975
 20
0.29919999999998
 30
0.0
 11
174.261975
 21
0.8497999999999789
 31
0.0
  0
LINE
  5
285
330
1E
100
AcDbEntity
  8
0
100
AcDbLine
 10
173.180975
 20
0.0926999999999783
 30
0.0
 11
173.475975
 21
0.29919999999998
 31
0.0
  0
LINE
  5
286
330
1E
100
AcDbEntity
  8
0
100
AcDbLine
 10
177.210975
 20
2.914699999999979
 30
0.0
 11
179.111975
 21
4.245399999999979
 31
0.0
  0
LINE
  5
287
330
1E
100
AcDbEntity
  8
0
100
AcDbLine
 10
172.666975
 20
0.4086999999999811
 30
0.0
 11
173.180975
 21
0.0926999999999783
 31
0.0
  0
LINE
  5
288
330
1E
100
AcDbEntity
  8
0
100
AcDbLine
 10
167.9517447415749
 20
7.14303997700579
 30
0.0
 11
172.666975
 21
0.4086999999999811
 31
0.0
  0
LINE
  5
289
330
1E
100
AcDbEntity
  8
0
100
AcDbLine
 10
167.9517447415749
 20
7.14303997700579
 30
0.0
 11
172.666975
 21
0.4086999999999811
 31
0.0
  0
LINE
  5
28A
330
1E
100
AcDbEntity
  8
0
100
AcDbLine
 10
167.839975
 20
7.061799999999981
 30
0.0
 11
169.392975
 21
8.19059999999998
 31
0.0
  0
LINE
  5
28B
330
1E
100
AcDbEntity
  8
0
100
AcDbLine
 10
166.9079749999999
 20
6.38449999999998
 30
0.0
 11
167.839975
 21
7.061799999999981
 31
0.0
  0
LINE
  5
28C
330
1E
100
AcDbEntity
  8
0
100
AcDbLine
 10
165.482975
 20
6.61719999999998
 30
0.0
 11
166.489975
 21
7.355199999999981
 31
0.0
  0
LINE
  5
28D
330
1E
100
AcDbEntity
  8
0
100
AcDbLine
 10
166.489975
 20
7.355199999999981
 30
0.0
 11
168.166975
 21
8.58529999999998
 31
0.0
  0
LINE
  5
28E
330
1E
100
AcDbEntity
  8
0
100
AcDbLine
 10
171.4509749999999
 20
9.686199999999981
 30
0.0
 11
173.779975
 21
11.3794
 31
0.0
  0
LINE
  5
28F
330
1E
100
AcDbEntity
  8
0
100
AcDbLine
 10
169.392975
 20
8.19059999999998
 30
0.0
 11
171.4509749999999
 21
9.686199999999981
 31
0.0
  0
LINE
  5
290
330
1E
100
AcDbEntity
  8
0
100
AcDbLine
 10
168.166975
 20
8.58529999999998
 30
0.0
 11
170.3889749999999
 21
10.21509999999999
 31
0.0
  0
LINE
  5
291
330
1E
100
AcDbEntity
  8
0
100
AcDbLine
 10
170.3889749999999
 20
10.21509999999999
 30
0.0
 11
172.904975
 21
12.0602
 31
0.0
  0
LINE
  5
292
330
1E
100
AcDbEntity
  8
0
100
AcDbLine
 10
175.455975
 20
13.9311
 30
0.0
 11
178.149975
 21
15.8848
 31
0.0
  0
LINE
  5
293
330
1E
100
AcDbEntity
  8
0
100
AcDbLine
 10
176.0509749999999
 20
13.02929999999999
 30
0.0
 11
178.530975
 21
14.8434
 31
0.0
  0
LINE
  5
294
330
1E
100
AcDbEntity
  8
0
100
AcDbLine
 10
173.779975
 20
11.3794
 30
0.0
 11
176.0509749999999
 21
13.02929999999999
 31
0.0
  0
LINE
  5
295
330
1E
100
AcDbEntity
  8
0
100
AcDbLine
 10
172.904975
 20
12.0602
 30
0.0
 11
175.455975
 21
13.9311
 31
0.0
  0
LINE
  5
296
330
1E
100
AcDbEntity
  8
0
100
AcDbLine
 10
166.557975
 20
6.13059999999998
 30
0.0
 11
166.9079749999999
 21
6.38449999999998
 31
0.0
  0
LINE
  5
297
330
1E
100
AcDbEntity
  8
0
100
AcDbLine
 10
165.1059749999999
 20
6.340399999999981
 30
0.0
 11
166.557975
 21
6.13059999999998
 31
0.0
  0
LINE
  5
298
330
1E
100
AcDbEntity
  8
0
100
AcDbLine
 10
165.1059749999999
 20
6.340399999999981
 30
0.0
 11
165.482975
 21
6.61719999999998
 31
0.0
  0
LINE
  5
299
330
1E
100
AcDbEntity
  8
0
100
AcDbLine
 10
117.1049749999999
 20
72.1209
 30
0.0
 11
123.163975
 21
60.315
 31
0.0
  0
LINE
  5
29A
330
1E
100
AcDbEntity
  8
0
100
AcDbLine
 10
128.427975
 20
51.2223
 30
0.0
 11
135.955975
 21
39.8078
 31
0.0
  0
LINE
  5
29B
330
1E
100
AcDbEntity
  8
0
100
AcDbLine
 10
123.163975
 20
60.315
 30
0.0
 11
128.427975
 21
51.2223
 31
0.0
  0
LINE
  5
29C
330
1E
100
AcDbEntity
  8
0
100
AcDbLine
 10
113.2859749999999
 20
79.2596
 30
0.0
 11
117.1049749999999
 21
72.1209
 31
0.0
  0
LINE
  5
29D
330
1E
100
AcDbEntity
  8
0
100
AcDbLine
 10
146.553975
 20
76.0861
 30
0.0
 11
153.0199749999999
 21
68.0408
 31
0.0
  0
LINE
  5
29E
330
1E
100
AcDbEntity
  8
0
100
AcDbLine
 10
153.0199749999999
 20
68.0408
 30
0.0
 11
161.271975
 21
57.6707
 31
0.0
  0
LINE
  5
29F
330
1E
100
AcDbEntity
  8
0
100
AcDbLine
 10
100.742975
 20
95.1453
 30
0.0
 11
106.894975
 21
88.4703
 31
0.0
  0
LINE
  5
2A0
330
1E
100
AcDbEntity
  8
0
100
AcDbLine
 10
106.894975
 20
88.4703
 30
0.0
 11
113.2859749999999
 21
79.2596
 31
0.0
  0
LINE
  5
2A1
330
1E
100
AcDbEntity
  8
0
100
AcDbLine
 10
60.597875
 20
101.6393
 30
0.0
 11
64.14957499999999
 21
102.5913
 31
0.0
  0
LINE
  5
2A2
330
1E
100
AcDbEntity
  8
0
100
AcDbLine
 10
64.14957499999999
 20
102.5913
 30
0.0
 11
64.262975
 21
102.9873
 31
0.0
  0
LINE
  5
2A3
330
1E
100
AcDbEntity
  8
0
100
AcDbLine
 10
1.968975
 20
138.4913
 30
0.0
 11
64.14957499999999
 21
102.5913
 31
0.0
  0
LINE
  5
2A4
330
1E
100
AcDbEntity
  8
0
100
AcDbLine
 10
63.570175
 20
103.3873
 30
0.0
 11
64.695975
 21
102.7373
 31
0.0
  0
LINE
  5
2A5
330
1E
100
AcDbEntity
  8
0
100
AcDbLine
 10
63.570175
 20
103.3873
 30
0.0
 11
64.262975
 21
102.9873
 31
0.0
  0
LINE
  5
2A6
330
1E
100
AcDbEntity
  8
0
100
AcDbLine
 10
64.695975
 20
102.7373
 30
0.0
 11
66.061975
 21
103.1033
 31
0.0
  0
LINE
  5
2A7
330
1E
100
AcDbEntity
  8
0
100
AcDbLine
 10
66.061975
 20
103.1033
 30
0.0
 11
69.977075
 21
104.8842999999999
 31
0.0
  0
LINE
  5
2A9
330
1E
100
AcDbEntity
  8
0
100
AcDbLine
 10
69.977075
 20
104.8842999999999
 30
0.0
 11
72.093075
 21
106.5493
 31
0.0
  0
LINE
  5
2AA
330
1E
100
AcDbEntity
  8
0
100
AcDbLine
 10
72.093075
 20
106.5493
 30
0.0
 11
74.526075
 21
109.7643
 31
0.0
  0
LINE
  5
2AB
330
1E
100
AcDbEntity
  8
0
100
AcDbLine
 10
76.56517499999999
 20
109.9153
 30
0.0
 11
85.157775
 21
105.7142999999999
 31
0.0
  0
LINE
  5
2AC
330
1E
100
AcDbEntity
  8
0
100
AcDbLine
 10
85.157775
 20
105.7142999999999
 30
0.0
 11
92.165975
 21
101.4113
 31
0.0
  0
LINE
  5
2AD
330
1E
100
AcDbEntity
  8
0
100
AcDbLine
 10
92.165975
 20
101.4113
 30
0.0
 11
100.742975
 21
95.1453
 31
0.0
  0
LINE
  5
2AE
330
1E
100
AcDbEntity
  8
0
100
AcDbLine
 10
131.9909749999999
 20
93.51029999999999
 30
0.0
 11
138.3739749999999
 21
86.3723
 31
0.0
  0
LINE
  5
2AF
330
1E
100
AcDbEntity
  8
0
100
AcDbLine
 10
121.052975
 20
105.3773
 30
0.0
 11
131.9909749999999
 21
93.51029999999999
 31
0.0
  0
LINE
  5
2B0
330
1E
100
AcDbEntity
  8
0
100
AcDbLine
 10
138.3739749999999
 20
86.3723
 30
0.0
 11
146.553975
 21
76.0861
 31
0.0
  0
LINE
  5
2B1
330
1E
100
AcDbEntity
  8
0
100
AcDbLine
 10
161.271975
 20
57.6707
 30
0.0
 11
169.290975
 21
46.0599
 31
0.0
  0
LINE
  5
2B2
330
1E
100
AcDbEntity
  8
0
100
AcDbLine
 10
169.290975
 20
46.0599
 30
0.0
 11
177.957975
 21
33.6921
 31
0.0
  0
LINE
  5
2B3
330
1E
100
AcDbEntity
  8
0
100
AcDbLine
 10
178.149975
 20
15.8848
 30
0.0
 11
180.6749749999999
 21
17.7164
 31
0.0
  0
LINE
  5
2B4
330
1E
100
AcDbEntity
  8
0
100
AcDbLine
 10
181.175975
 20
5.69079999999998
 30
0.0
 11
183.239975
 21
7.136199999999981
 31
0.0
  0
LINE
  5
2B5
330
1E
100
AcDbEntity
  8
0
100
AcDbLine
 10
179.111975
 20
4.245399999999979
 30
0.0
 11
181.175975
 21
5.69079999999998
 31
0.0
  0
LINE
  5
2B6
330
1E
100
AcDbEntity
  8
0
100
AcDbLine
 10
178.530975
 20
14.8434
 30
0.0
 11
180.854975
 21
16.5442
 31
0.0
  0
LINE
  5
2B7
330
1E
100
AcDbEntity
  8
0
100
AcDbLine
 10
180.6749749999999
 20
17.7164
 30
0.0
 11
182.906975
 21
19.33429999999999
 31
0.0
  0
LINE
  5
2B8
330
1E
100
AcDbEntity
  8
0
100
AcDbLine
 10
180.854975
 20
16.5442
 30
0.0
 11
182.907975
 21
18.0465
 31
0.0
  0
LINE
  5
2B9
330
1E
100
AcDbEntity
  8
0
100
AcDbLine
 10
183.239975
 20
7.136199999999981
 30
0.0
 11
185.140975
 21
8.466899999999981
 31
0.0
  0
LINE
  5
2BA
330
1E
100
AcDbEntity
  8
0
100
AcDbLine
 10
182.907975
 20
18.0465
 30
0.0
 11
184.4569749999999
 21
19.18029999999999
 31
0.0
  0
LINE
  5
2BB
330
1E
100
AcDbEntity
  8
0
100
AcDbLine
 10
182.906975
 20
19.33429999999999
 30
0.0
 11
184.589975
 21
20.5554
 31
0.0
  0
LINE
  5
2BC
330
1E
100
AcDbEntity
  8
0
100
AcDbLine
 10
184.114267262414
 20
18.92945298071319
 30
0.0
 11
184.4569749999999
 21
19.18029999999999
 31
0.0
  0
LINE
  5
2BD
330
1E
100
AcDbEntity
  8
0
100
AcDbLine
 10
184.114267262414
 20
18.92945298071319
 30
0.0
 11
189.049975
 21
11.8803
 31
0.0
  0
LINE
  5
2BE
330
1E
100
AcDbEntity
  8
0
100
AcDbLine
 10
185.140975
 20
8.466899999999981
 30
0.0
 11
186.8119749999999
 21
9.63699999999998
 31
0.0
  0
LINE
  5
2BF
330
1E
100
AcDbEntity
  8
0
100
AcDbLine
 10
188.089975
 20
10.5318
 30
0.0
 11
188.875975
 21
11.0824
 31
0.0
  0
LINE
  5
2C0
330
1E
100
AcDbEntity
  8
0
100
AcDbLine
 10
188.875975
 20
11.0824
 30
0.0
 11
189.170975
 21
11.28889999999999
 31
0.0
  0
LINE
  5
2C1
330
1E
100
AcDbEntity
  8
0
100
AcDbLine
 10
186.8119749999999
 20
9.63699999999998
 30
0.0
 11
188.089975
 21
10.5318
 31
0.0
  0
LINE
  5
2C2
330
1E
100
AcDbEntity
  8
0
100
AcDbLine
 10
189.049975
 20
11.8803
 30
0.0
 11
189.170975
 21
11.28889999999999
 31
0.0
  0
LINE
  5
2C3
330
1E
100
AcDbEntity
  8
0
100
AcDbLine
 10
184.4569749999999
 20
19.18029999999999
 30
0.0
 11
185.386975
 21
19.8607
 31
0.0
  0
LINE
  5
2C4
330
1E
100
AcDbEntity
  8
0
100
AcDbLine
 10
184.589975
 20
20.5554
 30
0.0
 11
185.600975
 21
21.2881
 31
0.0
  0
LINE
  5
2C5
330
1E
100
AcDbEntity
  8
0
100
AcDbLine
 10
185.600975
 20
21.2881
 30
0.0
 11
185.979975
 21
21.5628
 31
0.0
  0
LINE
  5
2C6
330
1E
100
AcDbEntity
  8
0
100
AcDbLine
 10
185.734975
 20
20.11579999999999
 30
0.0
 11
185.979975
 21
21.5628
 31
0.0
  0
LINE
  5
2C7
330
1E
100
AcDbEntity
  8
0
100
AcDbLine
 10
185.386975
 20
19.8607
 30
0.0
 11
185.734975
 21
20.11579999999999
 31
0.0
  0
LINE
  5
2C8
330
1E
100
AcDbEntity
  8
0
100
AcDbLine
 10
177.957975
 20
33.6921
 30
0.0
 11
185.979975
 21
21.5628
 31
0.0
  0
LINE
  5
2C9
330
1E
100
AcDbEntity
  8
0
100
AcDbLine
 10
63.873975
 20
115.9143
 30
0.0
 11
69.589775
 21
112.6143
 31
0.0
  0
LINE
  5
2CA
330
1E
100
AcDbEntity
  8
0
100
AcDbLine
 10
63.777575
 20
116.5473
 30
0.0
 11
69.493375
 21
113.2473
 31
0.0
  0
LINE
  5
2CB
330
1E
100
AcDbEntity
  8
0
100
AcDbLine
 10
64.63377499999999
 20
116.6303
 30
0.0
 11
70.52277499999999
 21
113.2303
 31
0.0
  0
LINE
  5
2CC
330
1E
100
AcDbEntity
  8
0
100
AcDbLine
 10
69.589775
 20
112.6143
 30
0.0
 11
73.22707499999999
 21
110.5142999999999
 31
0.0
  0
LINE
  5
2CD
330
1E
100
AcDbEntity
  8
0
100
AcDbLine
 10
73.22707499999999
 20
110.5142999999999
 30
0.0
 11
74.526075
 21
109.7643
 31
0.0
  0
LINE
  5
2CE
330
1E
100
AcDbEntity
  8
0
100
AcDbLine
 10
73.044075
 20
111.1973
 30
0.0
 11
74.343075
 21
110.4473
 31
0.0
  0
LINE
  5
2CF
330
1E
100
AcDbEntity
  8
0
100
AcDbLine
 10
69.493375
 20
113.2473
 30
0.0
 11
73.044075
 21
111.1973
 31
0.0
  0
LINE
  5
2D0
330
1E
100
AcDbEntity
  8
0
100
AcDbLine
 10
70.52277499999999
 20
113.2303
 30
0.0
 11
74.160075
 21
111.1303
 31
0.0
  0
LINE
  5
2D1
330
1E
100
AcDbEntity
  8
0
100
AcDbLine
 10
74.160075
 20
111.1303
 30
0.0
 11
75.459175
 21
110.3803
 31
0.0
  0
LINE
  5
2D2
330
1E
100
AcDbEntity
  8
0
100
AcDbLine
 10
67.13377499999999
 20
120.9602999999999
 30
0.0
 11
73.02277499999999
 21
117.5602999999999
 31
0.0
  0
LINE
  5
2D3
330
1E
100
AcDbEntity
  8
0
100
AcDbLine
 10
67.123975
 20
121.5432999999999
 30
0.0
 11
72.839775
 21
118.2433
 31
0.0
  0
LINE
  5
2D4
330
1E
100
AcDbEntity
  8
0
100
AcDbLine
 10
67.633775
 20
121.8263
 30
0.0
 11
73.52277499999999
 21
118.4263
 31
0.0
  0
LINE
  5
2D5
330
1E
100
AcDbEntity
  8
0
100
AcDbLine
 10
75.51783617366901
 20
110.4819011527949
 30
0.0
 11
76.56517499999999
 21
109.9153
 31
0.0
  0
LINE
  5
2D6
330
1E
100
AcDbEntity
  8
0
100
AcDbLine
 10
105.9469749999999
 20
119.9173
 30
0.0
 11
114.832975
 21
111.4943
 31
0.0
  0
LINE
  5
2D7
330
1E
100
AcDbEntity
  8
0
100
AcDbLine
 10
114.832975
 20
111.4943
 30
0.0
 11
121.052975
 21
105.3773
 31
0.0
  0
LINE
  5
2D8
330
1E
100
AcDbEntity
  8
0
100
AcDbLine
 10
74.343075
 20
110.4473
 30
0.0
 11
75.459175
 21
110.3803
 31
0.0
  0
LINE
  5
2D9
330
1E
100
AcDbEntity
  8
0
100
AcDbLine
 10
74.343075
 20
110.4473
 30
0.0
 11
74.526075
 21
109.7643
 31
0.0
  0
LINE
  5
2DA
330
1E
100
AcDbEntity
  8
0
100
AcDbLine
 10
75.459175
 20
110.3803
 30
0.0
 11
75.51783617366901
 21
110.4819011527949
 31
0.0
  0
LINE
  5
2DB
330
1E
100
AcDbEntity
  8
0
100
AcDbLine
 10
59.589575
 20
125.8933
 30
0.0
 11
67.123975
 21
121.5432999999999
 31
0.0
  0
LINE
  5
2DC
330
1E
100
AcDbEntity
  8
0
100
AcDbLine
 10
98.83097499999999
 20
126.4753
 30
0.0
 11
105.9469749999999
 21
119.9173
 31
0.0
  0
LINE
  5
2DD
330
1E
100
AcDbEntity
  8
0
100
AcDbLine
 10
59.926175
 20
126.2763
 30
0.0
 11
67.633775
 21
121.8263
 31
0.0
  0
LINE
  5
2DE
330
1E
100
AcDbEntity
  8
0
100
AcDbLine
 10
50.75617499999999
 20
130.9933
 30
0.0
 11
59.589575
 21
125.8933
 31
0.0
  0
LINE
  5
2DF
330
1E
100
AcDbEntity
  8
0
100
AcDbLine
 10
90.31197500000001
 20
133.2632999999999
 30
0.0
 11
98.83097499999999
 21
126.4753
 31
0.0
  0
LINE
  5
2E0
330
1E
100
AcDbEntity
  8
0
100
AcDbLine
 10
51.09277500000001
 20
131.3762999999999
 30
0.0
 11
59.926175
 21
126.2763
 31
0.0
  0
LINE
  5
2E1
330
1E
100
AcDbEntity
  8
0
100
AcDbLine
 10
41.403075
 20
136.3933
 30
0.0
 11
50.75617499999999
 21
130.9933
 31
0.0
  0
LINE
  5
2E2
330
1E
100
AcDbEntity
  8
0
100
AcDbLine
 10
83.49137500000001
 20
138.6473
 30
0.0
 11
90.31197500000001
 21
133.2632999999999
 31
0.0
  0
LINE
  5
2E3
330
1E
100
AcDbEntity
  8
0
100
AcDbLine
 10
41.65307499999999
 20
136.8263
 30
0.0
 11
51.09277500000001
 21
131.3762999999999
 31
0.0
  0
LINE
  5
2E4
330
1E
100
AcDbEntity
  8
0
100
AcDbLine
 10
32.049975
 20
141.7932999999999
 30
0.0
 11
41.403075
 21
136.3933
 31
0.0
  0
LINE
  5
2E5
330
1E
100
AcDbEntity
  8
0
100
AcDbLine
 10
12.432075
 20
145.6142999999999
 30
0.0
 11
19.96647499999999
 21
141.2642999999999
 31
0.0
  0
LINE
  5
2E6
330
1E
100
AcDbEntity
  8
0
100
AcDbLine
 10
13.028475
 20
145.8472999999999
 30
0.0
 11
20.562975
 21
141.4972999999999
 31
0.0
  0
LINE
  5
2E7
330
1E
100
AcDbEntity
  8
0
100
AcDbLine
 10
12.672275
 20
146.6303
 30
0.0
 11
20.37987499999999
 21
142.1802999999999
 31
0.0
  0
LINE
  5
2E8
330
1E
100
AcDbEntity
  8
0
100
AcDbLine
 10
15.172275
 20
150.9603
 30
0.0
 11
22.87987499999999
 21
146.5103
 31
0.0
  0
LINE
  5
2E9
330
1E
100
AcDbEntity
  8
0
100
AcDbLine
 10
22.87987499999999
 20
146.5103
 30
0.0
 11
31.71337499999999
 21
141.4103
 31
0.0
  0
LINE
  5
2EA
330
1E
100
AcDbEntity
  8
0
100
AcDbLine
 10
15.672275
 20
151.8263
 30
0.0
 11
23.379875
 21
147.3762999999999
 31
0.0
  0
LINE
  5
2EB
330
1E
100
AcDbEntity
  8
0
100
AcDbLine
 10
15.68207499999999
 20
151.2433
 30
0.0
 11
23.216475
 21
146.8932999999999
 31
0.0
  0
LINE
  5
2EC
330
1E
100
AcDbEntity
  8
0
100
AcDbLine
 10
72.03597499999999
 20
146.8062999999999
 30
0.0
 11
83.49137500000001
 21
138.6473
 31
0.0
  0
LINE
  5
2ED
330
1E
100
AcDbEntity
  8
0
100
AcDbLine
 10
60.8097406566992
 20
153.9760374719479
 30
0.0
 11
72.03597499999999
 21
146.8062999999999
 31
0.0
  0
LINE
  5
2EE
330
1E
100
AcDbEntity
  8
0
100
AcDbLine
 10
23.379875
 20
147.3762999999999
 30
0.0
 11
32.213375
 21
142.2762999999999
 31
0.0
  0
LINE
  5
2EF
330
1E
100
AcDbEntity
  8
0
100
AcDbLine
 10
23.216475
 20
146.8932999999999
 30
0.0
 11
32.049975
 21
141.7932999999999
 31
0.0
  0
LINE
  5
2F0
330
1E
100
AcDbEntity
  8
0
100
AcDbLine
 10
32.213375
 20
142.2762999999999
 30
0.0
 11
41.65307499999999
 21
136.8263
 31
0.0
  0
LINE
  5
2F1
330
1E
100
AcDbEntity
  8
0
100
AcDbLine
 10
9.283274999999999
 20
154.3603
 30
0.0
 11
15.172275
 21
150.9603
 31
0.0
  0
LINE
  5
2F2
330
1E
100
AcDbEntity
  8
0
100
AcDbLine
 10
9.783274999999999
 20
155.2263
 30
0.0
 11
15.672275
 21
151.8263
 31
0.0
  0
LINE
  5
2F3
330
1E
100
AcDbEntity
  8
0
100
AcDbLine
 10
9.966375000000009
 20
154.5432999999999
 30
0.0
 11
15.68207499999999
 21
151.2433
 31
0.0
  0
LINE
  5
2F4
330
1E
100
AcDbEntity
  8
0
100
AcDbLine
 10
6.329074999999999
 20
156.6433
 30
0.0
 11
9.966375000000009
 21
154.5432999999999
 31
0.0
  0
LINE
  5
2F5
330
1E
100
AcDbEntity
  8
0
100
AcDbLine
 10
9.868075000000009
 20
161.1913
 30
0.0
 11
17.749275
 21
164.6593
 31
0.0
  0
LINE
  5
2F6
330
1E
100
AcDbEntity
  8
0
100
AcDbLine
 10
17.749275
 20
164.6593
 30
0.0
 11
26.699375
 21
165.9073
 31
0.0
  0
LINE
  5
2F7
330
1E
100
AcDbEntity
  8
0
100
AcDbLine
 10
26.699375
 20
165.9073
 30
0.0
 11
35.83687499999999
 21
165.4433
 31
0.0
  0
LINE
  5
2F8
330
1E
100
AcDbEntity
  8
0
100
AcDbLine
 10
35.83687499999999
 20
165.4433
 30
0.0
 11
44.988175
 21
162.9662999999999
 31
0.0
  0
LINE
  5
2F9
330
1E
100
AcDbEntity
  8
0
100
AcDbLine
 10
44.988175
 20
162.9662999999999
 30
0.0
 11
54.153075
 21
158.4763
 31
0.0
  0
LINE
  5
2FA
330
1E
100
AcDbEntity
  8
0
100
AcDbLine
 10
54.153075
 20
158.4763
 30
0.0
 11
62.623575
 21
152.7843
 31
0.0
  0
LINE
  5
2FB
330
1E
100
AcDbEntity
  8
0
100
AcDbLine
 10
5.029975
 20
157.3933
 30
0.0
 11
6.329074999999999
 21
156.6433
 31
0.0
  0
LINE
  5
2FC
330
1E
100
AcDbEntity
  8
0
100
AcDbLine
 10
4.846974999999999
 20
158.0763
 30
0.0
 11
5.029975
 21
157.3933
 31
0.0
  0
LINE
  5
2FD
330
1E
100
AcDbEntity
  8
0
100
AcDbLine
 10
4.846974999999999
 20
158.0763
 30
0.0
 11
6.145974999999999
 21
157.3263
 31
0.0
  0
LINE
  5
2FE
330
1E
100
AcDbEntity
  8
0
100
AcDbLine
 10
4.846974999999999
 20
158.0763
 30
0.0
 11
9.868075000000009
 21
161.1913
 31
0.0
  0
LINE
  5
303
330
1E
100
AcDbEntity
  8
0
100
AcDbLine
 10
75.51783617366901
 20
110.4819011527949
 30
0.0
 11
73.02277499999999
 21
117.5602999999999
 31
0.0
  0
LINE
  5
304
330
1E
100
AcDbEntity
  8
0
100
AcDbLine
 10
73.02277499999999
 20
117.5602999999999
 30
0.0
 11
72.839775
 21
118.2433
 31
0.0
  0
LINE
  5
305
330
1E
100
AcDbEntity
  8
0
100
AcDbLine
 10
72.839775
 20
118.2433
 30
0.0
 11
73.52277499999999
 21
118.4263
 31
0.0
  0
ENDSEC
  0
SECTION
  2
OBJECTS
  0
DICTIONARY
  5
C
330
0
100
AcDbDictionary
  3
ACAD_GROUP
350
D
  3
ACAD_LAYOUT
350
19
  3
ACAD_MLINESTYLE
350
16
  3
ACAD_PLOTSETTINGS
350
18
  3
ACAD_PLOTSTYLENAME
350
E
  3
ACDBHEADERROUNDTRIPXREC
350
309
  3
ACDBVARIABLEDICTIONARY
350
306
  0
DICTIONARY
  5
32B
330
1E
100
AcDbDictionary
280
     1
  3
ACAD_LAYOUTSELFREF
360
32C
  0
DICTIONARY
  5
329
330
1A
100
AcDbDictionary
280
     1
  3
ACAD_LAYOUTSELFREF
360
32A
  0
DICTIONARY
  5
D
102
{ACAD_REACTORS
330
C
102
}
330
C
100
AcDbDictionary
  0
DICTIONARY
  5
19
102
{ACAD_REACTORS
330
C
102
}
330
C
100
AcDbDictionary
  0
DICTIONARY
  5
16
102
{ACAD_REACTORS
330
C
102
}
330
C
100
AcDbDictionary
  3
STANDARD
350
17
  0
DICTIONARY
  5
18
102
{ACAD_REACTORS
330
C
102
}
330
C
100
AcDbDictionary
  0
ACDBDICTIONARYWDFLT
  5
E
102
{ACAD_REACTORS
330
C
102
}
330
C
100
AcDbDictionary
281
     1
  3
Normal
350
F
100
AcDbDictionaryWithDefault
340
F
  0
DICTIONARY
  5
309
102
{ACAD_REACTORS
330
C
102
}
330
C
100
AcDbDictionary
  3
CEPSNTYPE
350
313
  3
FINGERPRINTGUID
350
314
  3
HYPERLINKBASE
350
30C
  3
INSUNITS
350
312
  3
LAYOUTDICT
350
30E
  3
LWETCUNION
350
311
  3
PLOTSETDICT
350
30F
  3
PLOTSTYLNAMDICT
350
310
  3
PSVPSCALE
350
316
  3
PUCSBASE
350
319
  3
PUCSORGBACK
350
31F
  3
PUCSORGBOTTOM
350
31B
  3
PUCSORGFRONT
350
31E
  3
PUCSORGLEFT
350
31C
  3
PUCSORGRIGHT
350
31D
  3
PUCSORGTOP
350
31A
  3
PUCSORTHOREF
350
317
  3
PUCSORTHOVIEW
350
318
  3
STYLESHEET
350
30D
  3
TSTACKALIGN
350
30A
  3
TSTACKSIZE
350
30B
  3
UCSBASE
350
322
  3
UCSORGBACK
350
328
  3
UCSORGBOTTOM
350
324
  3
UCSORGFRONT
350
327
  3
UCSORGLEFT
350
325
  3
UCSORGRIGHT
350
326
  3
UCSORGTOP
350
323
  3
UCSORTHOREF
350
320
  3
UCSORTHOVIEW
350
321
  3
VERSIONGUID
350
315
  0
DICTIONARY
  5
306
102
{ACAD_REACTORS
330
C
102
}
330
C
100
AcDbDictionary
  3
DIMASSOC
350
307
  0
XRECORD
  5
32C
102
{ACAD_REACTORS
330
32B
102
}
330
32B
100
AcDbXrecord
340
1E
  0
XRECORD
  5
32A
102
{ACAD_REACTORS
330
329
102
}
330
329
100
AcDbXrecord
340
1A
  0
MLINESTYLE
  5
17
102
{ACAD_REACTORS
330
16
102
}
330
16
100
AcDbMlineStyle
  2
STANDARD
 70
     0
  3

 62
   256
 51
90.0
 52
90.0
 71
     2
 49
0.5
 62
   256
  6
BYLAYER
 49
-0.5
 62
   256
  6
BYLAYER
  0
ACDBPLACEHOLDER
  5
F
102
{ACAD_REACTORS
330
E
102
}
330
E
100
AcDbPlaceHolder
280
     0
  0
XRECORD
  5
313
102
{ACAD_REACTORS
330
309
102
}
330
309
100
AcDbXrecord
 90
        0
  0
XRECORD
  5
314
102
{ACAD_REACTORS
330
309
102
}
330
309
100
AcDbXrecord
  1
{A089E70E-E2DC-4662-B2EF-5166C8DFEABA}
  0
XRECORD
  5
30C
102
{ACAD_REACTORS
330
309
102
}
330
309
100
AcDbXrecord
  1

  0
XRECORD
  5
312
102
{ACAD_REACTORS
330
309
102
}
330
309
100
AcDbXrecord
 90
        0
  0
XRECORD
  5
30E
102
{ACAD_REACTORS
330
309
102
}
330
309
100
AcDbXrecord
340
19
  0
XRECORD
  5
311
102
{ACAD_REACTORS
330
309
102
}
330
309
100
AcDbXrecord
 90
    10781
  0
XRECORD
  5
30F
102
{ACAD_REACTORS
330
309
102
}
330
309
100
AcDbXrecord
340
18
  0
XRECORD
  5
310
102
{ACAD_REACTORS
330
309
102
}
330
309
100
AcDbXrecord
340
E
  0
XRECORD
  5
316
102
{ACAD_REACTORS
330
309
102
}
330
309
100
AcDbXrecord
 40
0.0
  0
XRECORD
  5
319
102
{ACAD_REACTORS
330
309
102
}
330
309
100
AcDbXrecord
340
0
  0
XRECORD
  5
31F
102
{ACAD_REACTORS
330
309
102
}
330
309
100
AcDbXrecord
 10
0.0
 20
0.0
 30
0.0
  0
XRECORD
  5
31B
102
{ACAD_REACTORS
330
309
102
}
330
309
100
AcDbXrecord
 10
0.0
 20
0.0
 30
0.0
  0
XRECORD
  5
31E
102
{ACAD_REACTORS
330
309
102
}
330
309
100
AcDbXrecord
 10
0.0
 20
0.0
 30
0.0
  0
XRECORD
  5
31C
102
{ACAD_REACTORS
330
309
102
}
330
309
100
AcDbXrecord
 10
0.0
 20
0.0
 30
0.0
  0
XRECORD
  5
31D
102
{ACAD_REACTORS
330
309
102
}
330
309
100
AcDbXrecord
 10
0.0
 20
0.0
 30
0.0
  0
XRECORD
  5
31A
102
{ACAD_REACTORS
330
309
102
}
330
309
100
AcDbXrecord
 10
0.0
 20
0.0
 30
0.0
  0
XRECORD
  5
317
102
{ACAD_REACTORS
330
309
102
}
330
309
100
AcDbXrecord
340
0
  0
XRECORD
  5
318
102
{ACAD_REACTORS
330
309
102
}
330
309
100
AcDbXrecord
 70
     0
  0
XRECORD
  5
30D
102
{ACAD_REACTORS
330
309
102
}
330
309
100
AcDbXrecord
  1

  0
XRECORD
  5
30A
102
{ACAD_REACTORS
330
309
102
}
330
309
100
AcDbXrecord
 90
        1
  0
XRECORD
  5
30B
102
{ACAD_REACTORS
330
309
102
}
330
309
100
AcDbXrecord
 90
       70
  0
XRECORD
  5
322
102
{ACAD_REACTORS
330
309
102
}
330
309
100
AcDbXrecord
340
0
  0
XRECORD
  5
328
102
{ACAD_REACTORS
330
309
102
}
330
309
100
AcDbXrecord
 10
0.0
 20
0.0
 30
0.0
  0
XRECORD
  5
324
102
{ACAD_REACTORS
330
309
102
}
330
309
100
AcDbXrecord
 10
0.0
 20
0.0
 30
0.0
  0
XRECORD
  5
327
102
{ACAD_REACTORS
330
309
102
}
330
309
100
AcDbXrecord
 10
0.0
 20
0.0
 30
0.0
  0
XRECORD
  5
325
102
{ACAD_REACTORS
330
309
102
}
330
309
100
AcDbXrecord
 10
0.0
 20
0.0
 30
0.0
  0
XRECORD
  5
326
102
{ACAD_REACTORS
330
309
102
}
330
309
100
AcDbXrecord
 10
0.0
 20
0.0
 30
0.0
  0
XRECORD
  5
323
102
{ACAD_REACTORS
330
309
102
}
330
309
100
AcDbXrecord
 10
0.0
 20
0.0
 30
0.0
  0
XRECORD
  5
320
102
{ACAD_REACTORS
330
309
102
}
330
309
100
AcDbXrecord
340
0
  0
XRECORD
  5
321
102
{ACAD_REACTORS
330
309
102
}
330
309
100
AcDbXrecord
 70
     1
  0
XRECORD
  5
315
102
{ACAD_REACTORS
330
309
102
}
330
309
100
AcDbXrecord
  1
{E683A466-1A6D-4B46-9CE3-E3BAE74E69C0}
  0
DICTIONARYVAR
  5
307
102
{ACAD_REACTORS
330
306
102
}
330
306
100
DictionaryVariables
280
     0
  1
1
  0
ENDSEC
  0
EOF
