  0
SECTION
  2
HEADER
  9
$ACADVER
  1
AC1014
  9
$ACADMAINTVER
 70
     9
  9
$DWGCODEPAGE
  3
ANSI_1252
  9
$INSBASE
 10
0.0
 20
0.0
 30
0.0
  9
$EXTMIN
 10
0.0000000000000032
 20
-0.164575000000013
 30
0.0
  9
$EXTMAX
 10
114.0
 20
174.164575
 30
0.0
  9
$LIMMIN
 10
0.0
 20
0.0
  9
$LIMMAX
 10
12.0
 20
9.0
  9
$ORTHOMODE
 70
     0
  9
$REGENMODE
 70
     1
  9
$FILLMODE
 70
     1
  9
$QTEXTMODE
 70
     0
  9
$MIRRTEXT
 70
     1
  9
$DRAGMODE
 70
     2
  9
$LTSCALE
 40
1.0
  9
$OSMODE
 70
    37
  9
$ATTMODE
 70
     1
  9
$TEXTSIZE
 40
0.2
  9
$TRACEWID
 40
0.05
  9
$TEXTSTYLE
  7
STANDARD
  9
$CLAYER
  8
0
  9
$CELTYPE
  6
CONTINUOUS
  9
$CECOLOR
 62
   256
  9
$CELTSCALE
 40
1.0
  9
$DELOBJ
 70
     1
  9
$DISPSILH
 70
     0
  9
$DIMSCALE
 40
1.0
  9
$DIMASZ
 40
0.18
  9
$DIMEXO
 40
0.0625
  9
$DIMDLI
 40
0.38
  9
$DIMRND
 40
0.0
  9
$DIMDLE
 40
0.0
  9
$DIMEXE
 40
0.18
  9
$DIMTP
 40
0.0
  9
$DIMTM
 40
0.0
  9
$DIMTXT
 40
0.18
  9
$DIMCEN
 40
0.09
  9
$DIMTSZ
 40
0.0
  9
$DIMTOL
 70
     0
  9
$DIMLIM
 70
     0
  9
$DIMTIH
 70
     1
  9
$DIMTOH
 70
     1
  9
$DIMSE1
 70
     0
  9
$DIMSE2
 70
     0
  9
$DIMTAD
 70
     0
  9
$DIMZIN
 70
     0
  9
$DIMBLK
  1

  9
$DIMASO
 70
     1
  9
$DIMSHO
 70
     1
  9
$DIMPOST
  1

  9
$DIMAPOST
  1

  9
$DIMALT
 70
     0
  9
$DIMALTD
 70
     2
  9
$DIMALTF
 40
25.4
  9
$DIMLFAC
 40
1.0
  9
$DIMTOFL
 70
     0
  9
$DIMTVP
 40
0.0
  9
$DIMTIX
 70
     0
  9
$DIMSOXD
 70
     0
  9
$DIMSAH
 70
     0
  9
$DIMBLK1
  1

  9
$DIMBLK2
  1

  9
$DIMSTYLE
  2
STANDARD
  9
$DIMCLRD
 70
     0
  9
$DIMCLRE
 70
     0
  9
$DIMCLRT
 70
     0
  9
$DIMTFAC
 40
1.0
  9
$DIMGAP
 40
0.09
  9
$DIMJUST
 70
     0
  9
$DIMSD1
 70
     0
  9
$DIMSD2
 70
     0
  9
$DIMTOLJ
 70
     1
  9
$DIMTZIN
 70
     0
  9
$DIMALTZ
 70
     0
  9
$DIMALTTZ
 70
     0
  9
$DIMFIT
 70
     3
  9
$DIMUPT
 70
     0
  9
$DIMUNIT
 70
     2
  9
$DIMDEC
 70
     4
  9
$DIMTDEC
 70
     4
  9
$DIMALTU
 70
     2
  9
$DIMALTTD
 70
     2
  9
$DIMTXSTY
  7
STANDARD
  9
$DIMAUNIT
 70
     0
  9
$LUNITS
 70
     2
  9
$LUPREC
 70
     4
  9
$SKETCHINC
 40
0.1
  9
$FILLETRAD
 40
0.0
  9
$AUNITS
 70
     0
  9
$AUPREC
 70
     0
  9
$MENU
  1
.
  9
$ELEVATION
 40
0.0
  9
$PELEVATION
 40
0.0
  9
$THICKNESS
 40
0.0
  9
$LIMCHECK
 70
     0
  9
$BLIPMODE
 70
     0
  9
$CHAMFERA
 40
0.0
  9
$CHAMFERB
 40
0.0
  9
$CHAMFERC
 40
0.0
  9
$CHAMFERD
 40
0.0
  9
$SKPOLY
 70
     0
  9
$TDCREATE
 40
2454698.442447187
  9
$TDUPDATE
 40
2454698.448892500
  9
$TDINDWG
 40
0.0064453125
  9
$TDUSRTIMER
 40
0.0064453125
  9
$USRTIMER
 70
     1
  9
$ANGBASE
 50
0.0
  9
$ANGDIR
 70
     0
  9
$PDMODE
 70
     0
  9
$PDSIZE
 40
0.0
  9
$PLINEWID
 40
0.0
  9
$COORDS
 70
     1
  9
$SPLFRAME
 70
     0
  9
$SPLINETYPE
 70
     6
  9
$SPLINESEGS
 70
     8
  9
$ATTDIA
 70
     0
  9
$ATTREQ
 70
     1
  9
$HANDLING
 70
 22529
  9
$HANDSEED
  5
7C7
  9
$SURFTAB1
 70
     6
  9
$SURFTAB2
 70
     6
  9
$SURFTYPE
 70
     6
  9
$SURFU
 70
     6
  9
$SURFV
 70
     6
  9
$UCSNAME
  2

  9
$UCSORG
 10
0.0
 20
0.0
 30
0.0
  9
$UCSXDIR
 10
1.0
 20
0.0
 30
0.0
  9
$UCSYDIR
 10
0.0
 20
1.0
 30
0.0
  9
$PUCSNAME
  2

  9
$PUCSORG
 10
0.0
 20
0.0
 30
0.0
  9
$PUCSXDIR
 10
1.0
 20
0.0
 30
0.0
  9
$PUCSYDIR
 10
0.0
 20
1.0
 30
0.0
  9
$USERI1
 70
     0
  9
$USERI2
 70
     0
  9
$USERI3
 70
     0
  9
$USERI4
 70
     0
  9
$USERI5
 70
     0
  9
$USERR1
 40
0.0
  9
$USERR2
 40
0.0
  9
$USERR3
 40
0.0
  9
$USERR4
 40
0.0
  9
$USERR5
 40
0.0
  9
$WORLDVIEW
 70
     1
  9
$SHADEDGE
 70
     3
  9
$SHADEDIF
 70
    70
  9
$TILEMODE
 70
     1
  9
$MAXACTVP
 70
    64
  9
$PINSBASE
 10
0.0
 20
0.0
 30
0.0
  9
$PLIMCHECK
 70
     0
  9
$PEXTMIN
 10
1.000000000000000E+20
 20
1.000000000000000E+20
 30
1.000000000000000E+20
  9
$PEXTMAX
 10
-1.000000000000000E+20
 20
-1.000000000000000E+20
 30
-1.000000000000000E+20
  9
$PLIMMIN
 10
0.0
 20
0.0
  9
$PLIMMAX
 10
12.0
 20
9.0
  9
$UNITMODE
 70
     0
  9
$VISRETAIN
 70
     1
  9
$PLINEGEN
 70
     0
  9
$PSLTSCALE
 70
     1
  9
$TREEDEPTH
 70
  3020
  9
$PICKSTYLE
 70
     1
  9
$CMLSTYLE
  2
STANDARD
  9
$CMLJUST
 70
     0
  9
$CMLSCALE
 40
1.0
  9
$PROXYGRAPHICS
 70
     1
  9
$MEASUREMENT
 70
     0
  0
ENDSEC
  0
SECTION
  2
CLASSES
  0
CLASS
  1
ACDBDICTIONARYWDFLT
  2
AcDbDictionaryWithDefault
  3
AutoCAD 2000
 90
        0
280
     0
281
     0
  0
CLASS
  1
ACDBPLACEHOLDER
  2
AcDbPlaceHolder
  3
AutoCAD 2000
 90
        0
280
     0
281
     0
  0
CLASS
  1
LAYOUT
  2
AcDbLayout
  3
AutoCAD 2000
 90
        0
280
     0
281
     0
  0
CLASS
  1
DICTIONARYVAR
  2
AcDbDictionaryVar
  3
AutoCAD 2000
 90
        0
280
     0
281
     0
  0
CLASS
  1
LONG_TRANSACTION
  2
AcDbLongTransaction
  3
AutoCAD 2000
 90
        0
280
     0
281
     0
  0
CLASS
  1
LWPOLYLINE
  2
AcDbPolyline
  3
AutoCAD 2000
 90
        0
280
     0
281
     1
  0
CLASS
  1
HATCH
  2
AcDbHatch
  3
AutoCAD 2000
 90
        0
280
     0
281
     1
  0
CLASS
  1
XRECORD
  2
AcDbXrecord
  3
AutoCAD 2000
 90
        0
280
     0
281
     0
  0
ENDSEC
  0
SECTION
  2
TABLES
  0
TABLE
  2
VPORT
  5
8
330
0
100
AcDbSymbolTable
 70
     2
  0
VPORT
  5
7A2
330
8
100
AcDbSymbolTableRecord
100
AcDbViewportTableRecord
  2
*ACTIVE
 70
     0
 10
0.0
 20
0.0
 11
1.0
 21
1.0
 12
57.0
 22
87.0
 13
0.0
 23
0.0
 14
1.0
 24
1.0
 15
0.0
 25
0.0
 16
0.0
 26
0.0
 36
1.0
 17
0.0
 27
0.0
 37
0.0
 40
175.6667138107417
 41
2.078104993597951
 42
50.0
 43
0.0
 44
0.0
 50
0.0
 51
0.0
 71
     0
 72
   100
 73
     1
 74
     3
 75
     0
 76
     0
 77
     0
 78
     0
  0
ENDTAB
  0
TABLE
  2
LTYPE
  5
5
330
0
100
AcDbSymbolTable
 70
     1
  0
LTYPE
  5
13
330
5
100
AcDbSymbolTableRecord
100
AcDbLinetypeTableRecord
  2
BYBLOCK
 70
     0
  3

 72
    65
 73
     0
 40
0.0
  0
LTYPE
  5
14
330
5
100
AcDbSymbolTableRecord
100
AcDbLinetypeTableRecord
  2
BYLAYER
 70
     0
  3

 72
    65
 73
     0
 40
0.0
  0
LTYPE
  5
15
330
5
100
AcDbSymbolTableRecord
100
AcDbLinetypeTableRecord
  2
CONTINUOUS
 70
     0
  3
Solid line
 72
    65
 73
     0
 40
0.0
  0
ENDTAB
  0
TABLE
  2
LAYER
  5
2
330
0
100
AcDbSymbolTable
 70
     1
  0
LAYER
  5
10
330
2
100
AcDbSymbolTableRecord
100
AcDbLayerTableRecord
  2
0
 70
     0
 62
     7
  6
CONTINUOUS
  0
ENDTAB
  0
TABLE
  2
STYLE
  5
3
330
0
100
AcDbSymbolTable
 70
     1
  0
STYLE
  5
11
330
3
100
AcDbSymbolTableRecord
100
AcDbTextStyleTableRecord
  2
STANDARD
 70
     0
 40
0.0
 41
1.0
 50
0.0
 71
     0
 42
0.2
  3
txt
  4

  0
ENDTAB
  0
TABLE
  2
VIEW
  5
6
330
0
100
AcDbSymbolTable
 70
     0
  0
ENDTAB
  0
TABLE
  2
UCS
  5
7
330
0
100
AcDbSymbolTable
 70
     0
  0
ENDTAB
  0
TABLE
  2
APPID
  5
9
330
0
100
AcDbSymbolTable
 70
     1
  0
APPID
  5
12
330
9
100
AcDbSymbolTableRecord
100
AcDbRegAppTableRecord
  2
ACAD
 70
     0
  0
ENDTAB
  0
TABLE
  2
DIMSTYLE
  5
A
330
0
100
AcDbSymbolTable
 70
     1
  0
DIMSTYLE
105
79A
330
A
100
AcDbSymbolTableRecord
100
AcDbDimStyleTableRecord
  2
STANDARD
 70
     0
  3

  4

  5

  6

  7

 40
1.0
 41
0.18
 42
0.0625
 43
0.38
 44
0.18
 45
0.0
 46
0.0
 47
0.0
 48
0.0
140
0.18
141
0.09
142
0.0
143
25.4
144
1.0
145
0.0
146
1.0
147
0.09
 71
     0
 72
     0
 73
     1
 74
     1
 75
     0
 76
     0
 77
     0
 78
     0
170
     0
171
     2
172
     0
173
     0
174
     0
175
     0
176
     0
177
     0
178
     0
270
     2
271
     4
272
     4
273
     2
274
     2
340
11
275
     0
280
     0
281
     0
282
     0
283
     1
284
     0
285
     0
286
     0
287
     3
288
     0
  0
ENDTAB
  0
TABLE
  2
BLOCK_RECORD
  5
1
330
0
100
AcDbSymbolTable
 70
     0
  0
BLOCK_RECORD
  5
1E
102
{ACAD_XDICTIONARY
360
7C5
102
}
330
1
100
AcDbSymbolTableRecord
100
AcDbBlockTableRecord
  2
*MODEL_SPACE
  0
BLOCK_RECORD
  5
1A
102
{ACAD_XDICTIONARY
360
7C3
102
}
330
1
100
AcDbSymbolTableRecord
100
AcDbBlockTableRecord
  2
*PAPER_SPACE
  0
ENDTAB
  0
ENDSEC
  0
SECTION
  2
BLOCKS
  0
BLOCK
  5
1F
330
1E
100
AcDbEntity
  8
0
100
AcDbBlockBegin
  2
*MODEL_SPACE
 70
     0
 10
0.0
 20
0.0
 30
0.0
  3
*MODEL_SPACE
  1

  0
ENDBLK
  5
20
330
1E
100
AcDbEntity
  8
0
100
AcDbBlockEnd
  0
BLOCK
  5
1B
330
1A
100
AcDbEntity
 67
     1
  8
0
100
AcDbBlockBegin
  2
*PAPER_SPACE
 70
     0
 10
0.0
 20
0.0
 30
0.0
  3
*PAPER_SPACE
  1

  0
ENDBLK
  5
1C
330
1A
100
AcDbEntity
 67
     1
  8
0
100
AcDbBlockEnd
  0
ENDSEC
  0
SECTION
  2
ENTITIES
  0
LINE
  5
22
330
1E
100
AcDbEntity
  8
0
100
AcDbLine
 10
44.9
 20
11.852375
 30
0.0
 11
47.09999999999999
 21
10.272775
 31
0.0
  0
LINE
  5
23
330
1E
100
AcDbEntity
  8
0
100
AcDbLine
 10
43.0
 20
15.749075
 30
0.0
 11
43.5
 21
17.709975
 31
0.0
  0
LINE
  5
24
330
1E
100
AcDbEntity
  8
0
100
AcDbLine
 10
43.0
 20
15.749075
 30
0.0
 11
43.0
 21
15.665275
 31
0.0
  0
LINE
  5
25
330
1E
100
AcDbEntity
  8
0
100
AcDbLine
 10
43.5
 20
17.709975
 30
0.0
 11
43.7
 21
17.961575
 31
0.0
  0
LINE
  5
26
330
1E
100
AcDbEntity
  8
0
100
AcDbLine
 10
43.7
 20
17.961575
 30
0.0
 11
45.0
 21
19.75907499999999
 31
0.0
  0
LINE
  5
27
330
1E
100
AcDbEntity
  8
0
100
AcDbLine
 10
43.5
 20
13.704375
 30
0.0
 11
44.9
 21
11.852375
 31
0.0
  0
LINE
  5
28
330
1E
100
AcDbEntity
  8
0
100
AcDbLine
 10
43.0
 20
15.665275
 30
0.0
 11
43.5
 21
13.704375
 31
0.0
  0
LINE
  5
29
330
1E
100
AcDbEntity
  8
0
100
AcDbLine
 10
43.0
 20
15.665275
 30
0.0
 11
43.0
 21
15.749075
 31
0.0
  0
LINE
  5
2B
330
1E
100
AcDbEntity
  8
0
100
AcDbLine
 10
45.0
 20
18.18117499999999
 30
0.0
 11
45.0
 21
19.858475
 31
0.0
  0
LINE
  5
2C
330
1E
100
AcDbEntity
  8
0
100
AcDbLine
 10
45.0
 20
39.320675
 30
0.0
 11
45.0
 21
28.717475
 31
0.0
  0
LINE
  5
2D
330
1E
100
AcDbEntity
  8
0
100
AcDbLine
 10
45.0
 20
39.320675
 30
0.0
 11
45.0
 21
50.708075
 31
0.0
  0
LINE
  5
2E
330
1E
100
AcDbEntity
  8
0
100
AcDbLine
 10
45.0
 20
28.717475
 30
0.0
 11
45.0
 21
39.320675
 31
0.0
  0
LINE
  5
2F
330
1E
100
AcDbEntity
  8
0
100
AcDbLine
 10
45.0
 20
28.717475
 30
0.0
 11
45.0
 21
19.858475
 31
0.0
  0
LINE
  5
30
330
1E
100
AcDbEntity
  8
0
100
AcDbLine
 10
45.0
 20
19.858475
 30
0.0
 11
45.0
 21
28.717475
 31
0.0
  0
LINE
  5
31
330
1E
100
AcDbEntity
  8
0
100
AcDbLine
 10
45.0
 20
19.858475
 30
0.0
 11
45.0
 21
18.18117499999999
 31
0.0
  0
LINE
  5
32
330
1E
100
AcDbEntity
  8
0
100
AcDbLine
 10
46.0
 20
6.06296499999999
 30
0.0
 11
46.396
 21
4.52911499999999
 31
0.0
  0
LINE
  5
33
330
1E
100
AcDbEntity
  8
0
100
AcDbLine
 10
46.0
 20
6.06296499999999
 30
0.0
 11
46.0
 21
11.062575
 31
0.0
  0
LINE
  5
34
330
1E
100
AcDbEntity
  8
0
100
AcDbLine
 10
57.0
 20
-0.164575000000013
 30
0.0
 11
59.77199999999999
 21
0.051124999999987
 31
0.0
  0
LINE
  5
35
330
1E
100
AcDbEntity
  8
0
100
AcDbLine
 10
57.0
 20
-0.164575000000013
 30
0.0
 11
59.77199999999999
 21
0.051124999999987
 31
0.0
  0
LINE
  5
37
330
1E
100
AcDbEntity
  8
0
100
AcDbLine
 10
47.09999999999999
 20
10.272775
 30
0.0
 11
50.0
 21
9.07447499999999
 31
0.0
  0
LINE
  5
38
330
1E
100
AcDbEntity
  8
0
100
AcDbLine
 10
50.0
 20
9.07447499999999
 30
0.0
 11
53.39999999999999
 21
8.311974999999989
 31
0.0
  0
LINE
  5
39
330
1E
100
AcDbEntity
  8
0
100
AcDbLine
 10
47.716
 20
2.78329499999999
 30
0.0
 11
49.432
 21
1.561004999999989
 31
0.0
  0
LINE
  5
3A
330
1E
100
AcDbEntity
  8
0
100
AcDbLine
 10
47.45199999999999
 20
3.09112499999999
 30
0.0
 11
47.716
 21
2.78329499999999
 31
0.0
  0
LINE
  5
3B
330
1E
100
AcDbEntity
  8
0
100
AcDbLine
 10
49.432
 20
1.561004999999989
 30
0.0
 11
51.676
 21
0.6263149999999871
 31
0.0
  0
LINE
  5
3C
330
1E
100
AcDbEntity
  8
0
100
AcDbLine
 10
57.0
 20
8.03957499999999
 30
0.0
 11
60.6
 21
8.311974999999989
 31
0.0
  0
LINE
  5
3D
330
1E
100
AcDbEntity
  8
0
100
AcDbLine
 10
53.39999999999999
 20
8.311974999999989
 30
0.0
 11
57.0
 21
8.03957499999999
 31
0.0
  0
LINE
  5
3E
330
1E
100
AcDbEntity
  8
0
100
AcDbLine
 10
54.228
 20
0.051124999999987
 30
0.0
 11
57.0
 21
-0.164575000000013
 31
0.0
  0
LINE
  5
3F
330
1E
100
AcDbEntity
  8
0
100
AcDbLine
 10
51.676
 20
0.6263149999999871
 30
0.0
 11
54.228
 21
0.051124999999987
 31
0.0
  0
LINE
  5
40
330
1E
100
AcDbEntity
  8
0
100
AcDbLine
 10
51.676
 20
0.6263149999999871
 30
0.0
 11
54.228
 21
0.051124999999987
 31
0.0
  0
LINE
  5
41
330
1E
100
AcDbEntity
  8
0
100
AcDbLine
 10
54.228
 20
0.051124999999987
 30
0.0
 11
57.0
 21
-0.164575000000013
 31
0.0
  0
LINE
  5
42
330
1E
100
AcDbEntity
  8
0
100
AcDbLine
 10
46.396
 20
4.52911499999999
 30
0.0
 11
47.45199999999999
 21
3.09112499999999
 31
0.0
  0
LINE
  5
43
330
1E
100
AcDbEntity
  8
0
100
AcDbLine
 10
46.0
 20
11.062575
 30
0.0
 11
46.0
 21
6.06296499999999
 31
0.0
  0
LINE
  5
44
330
1E
100
AcDbEntity
  8
0
100
AcDbLine
 10
45.0
 20
50.708075
 30
0.0
 11
45.0
 21
61.038175
 31
0.0
  0
LINE
  5
45
330
1E
100
AcDbEntity
  8
0
100
AcDbLine
 10
45.0
 20
50.708075
 30
0.0
 11
45.0
 21
39.320675
 31
0.0
  0
LINE
  5
46
330
1E
100
AcDbEntity
  8
0
100
AcDbLine
 10
43.0
 20
93.29707500000001
 30
0.0
 11
43.5
 21
90.54277500000001
 31
0.0
  0
LINE
  5
47
330
1E
100
AcDbEntity
  8
0
100
AcDbLine
 10
43.0
 20
93.29707500000001
 30
0.0
 11
43.0
 21
93.361475
 31
0.0
  0
LINE
  5
49
330
1E
100
AcDbEntity
  8
0
100
AcDbLine
 10
44.9
 20
87.941575
 30
0.0
 11
47.09999999999999
 21
85.72287499999999
 31
0.0
  0
LINE
  5
4A
330
1E
100
AcDbEntity
  8
0
100
AcDbLine
 10
43.5
 20
90.54277500000001
 30
0.0
 11
44.9
 21
87.941575
 31
0.0
  0
LINE
  5
4B
330
1E
100
AcDbEntity
  8
0
100
AcDbLine
 10
45.0
 20
87.824875
 30
0.0
 11
45.0
 21
82.26107500000001
 31
0.0
  0
LINE
  5
4C
330
1E
100
AcDbEntity
  8
0
100
AcDbLine
 10
43.0
 20
93.361475
 30
0.0
 11
43.0
 21
93.29707500000001
 31
0.0
  0
LINE
  5
4D
330
1E
100
AcDbEntity
  8
0
100
AcDbLine
 10
43.0
 20
93.361475
 30
0.0
 11
43.0
 21
93.425875
 31
0.0
  0
LINE
  5
4E
330
1E
100
AcDbEntity
  8
0
100
AcDbLine
 10
28.9
 20
100.715575
 30
0.0
 11
35.4
 21
99.115575
 31
0.0
  0
LINE
  5
4F
330
1E
100
AcDbEntity
  8
0
100
AcDbLine
 10
35.4
 20
99.115575
 30
0.0
 11
42.4
 21
97.91557500000001
 31
0.0
  0
LINE
  5
50
330
1E
100
AcDbEntity
  8
0
100
AcDbLine
 10
42.4
 20
97.91557500000001
 30
0.0
 11
49.7
 21
97.21557500000001
 31
0.0
  0
LINE
  5
53
330
1E
100
AcDbEntity
  8
0
100
AcDbLine
 10
43.5
 20
96.180075
 30
0.0
 11
44.33415210593389
 21
97.73010835970502
 31
0.0
  0
LINE
  5
54
330
1E
100
AcDbEntity
  8
0
100
AcDbLine
 10
43.0
 20
93.425875
 30
0.0
 11
43.5
 21
96.180075
 31
0.0
  0
LINE
  5
55
330
1E
100
AcDbEntity
  8
0
100
AcDbLine
 10
43.0
 20
93.425875
 30
0.0
 11
43.0
 21
93.361475
 31
0.0
  0
LINE
  5
58
330
1E
100
AcDbEntity
  8
0
100
AcDbLine
 10
45.0
 20
70.74497499999999
 30
0.0
 11
45.0
 21
82.26107500000001
 31
0.0
  0
LINE
  5
59
330
1E
100
AcDbEntity
  8
0
100
AcDbLine
 10
45.0
 20
70.74497499999999
 30
0.0
 11
45.0
 21
61.038175
 31
0.0
  0
LINE
  5
5A
330
1E
100
AcDbEntity
  8
0
100
AcDbLine
 10
47.09999999999999
 20
85.72287499999999
 30
0.0
 11
50.0
 21
84.039675
 31
0.0
  0
LINE
  5
5B
330
1E
100
AcDbEntity
  8
0
100
AcDbLine
 10
57.0
 20
82.54587499999999
 30
0.0
 11
60.6
 21
82.928475
 31
0.0
  0
LINE
  5
5C
330
1E
100
AcDbEntity
  8
0
100
AcDbLine
 10
50.0
 20
84.039675
 30
0.0
 11
50.1
 21
83.92297499999999
 31
0.0
  0
LINE
  5
5D
330
1E
100
AcDbEntity
  8
0
100
AcDbLine
 10
50.1
 20
83.92297499999999
 30
0.0
 11
53.39999999999999
 21
82.928475
 31
0.0
  0
LINE
  5
5E
330
1E
100
AcDbEntity
  8
0
100
AcDbLine
 10
53.39999999999999
 20
82.928475
 30
0.0
 11
57.0
 21
82.54587499999999
 31
0.0
  0
LINE
  5
60
330
1E
100
AcDbEntity
  8
0
100
AcDbLine
 10
49.7
 20
97.21557500000001
 30
0.0
 11
57.0
 21
96.91557500000001
 31
0.0
  0
LINE
  5
61
330
1E
100
AcDbEntity
  8
0
100
AcDbLine
 10
45.0
 20
82.26107500000001
 30
0.0
 11
45.0
 21
70.74497499999999
 31
0.0
  0
LINE
  5
62
330
1E
100
AcDbEntity
  8
0
100
AcDbLine
 10
45.0
 20
82.26107500000001
 30
0.0
 11
45.0
 21
87.824875
 31
0.0
  0
LINE
  5
63
330
1E
100
AcDbEntity
  8
0
100
AcDbLine
 10
45.0
 20
61.038175
 30
0.0
 11
45.0
 21
70.74497499999999
 31
0.0
  0
LINE
  5
64
330
1E
100
AcDbEntity
  8
0
100
AcDbLine
 10
45.0
 20
61.038175
 30
0.0
 11
45.0
 21
50.708075
 31
0.0
  0
LINE
  5
65
330
1E
100
AcDbEntity
  8
0
100
AcDbLine
 10
59.77199999999999
 20
0.051124999999987
 30
0.0
 11
62.324
 21
0.6263149999999871
 31
0.0
  0
LINE
  5
66
330
1E
100
AcDbEntity
  8
0
100
AcDbLine
 10
59.77199999999999
 20
0.051124999999987
 30
0.0
 11
62.324
 21
0.6263149999999871
 31
0.0
  0
LINE
  5
67
330
1E
100
AcDbEntity
  8
0
100
AcDbLine
 10
60.6
 20
8.311974999999989
 30
0.0
 11
64.0
 21
9.07447499999999
 31
0.0
  0
LINE
  5
68
330
1E
100
AcDbEntity
  8
0
100
AcDbLine
 10
62.324
 20
0.6263149999999871
 30
0.0
 11
64.568
 21
1.561004999999989
 31
0.0
  0
LINE
  5
69
330
1E
100
AcDbEntity
  8
0
100
AcDbLine
 10
64.0
 20
9.07447499999999
 30
0.0
 11
66.90000000000001
 21
10.272775
 31
0.0
  0
LINE
  5
6A
330
1E
100
AcDbEntity
  8
0
100
AcDbLine
 10
66.28399999999999
 20
2.78329499999999
 30
0.0
 11
66.548
 21
3.09112499999999
 31
0.0
  0
LINE
  5
6B
330
1E
100
AcDbEntity
  8
0
100
AcDbLine
 10
64.568
 20
1.561004999999989
 30
0.0
 11
66.28399999999999
 21
2.78329499999999
 31
0.0
  0
LINE
  5
6C
330
1E
100
AcDbEntity
  8
0
100
AcDbLine
 10
67.604
 20
4.52911499999999
 30
0.0
 11
68.0
 21
6.06296499999999
 31
0.0
  0
LINE
  5
6D
330
1E
100
AcDbEntity
  8
0
100
AcDbLine
 10
66.548
 20
3.09112499999999
 30
0.0
 11
67.604
 21
4.52911499999999
 31
0.0
  0
LINE
  5
6E
330
1E
100
AcDbEntity
  8
0
100
AcDbLine
 10
68.0
 20
6.06296499999999
 30
0.0
 11
68.0
 21
11.062575
 31
0.0
  0
LINE
  5
70
330
1E
100
AcDbEntity
  8
0
100
AcDbLine
 10
69.0
 20
19.75907499999999
 30
0.0
 11
70.3
 21
17.961575
 31
0.0
  0
LINE
  5
71
330
1E
100
AcDbEntity
  8
0
100
AcDbLine
 10
69.0
 20
18.18117499999999
 30
0.0
 11
69.0
 21
19.858475
 31
0.0
  0
LINE
  5
72
330
1E
100
AcDbEntity
  8
0
100
AcDbLine
 10
69.0
 20
19.858475
 30
0.0
 11
69.0
 21
28.717475
 31
0.0
  0
LINE
  5
73
330
1E
100
AcDbEntity
  8
0
100
AcDbLine
 10
69.0
 20
19.858475
 30
0.0
 11
69.0
 21
18.18117499999999
 31
0.0
  0
LINE
  5
74
330
1E
100
AcDbEntity
  8
0
100
AcDbLine
 10
69.0
 20
28.717475
 30
0.0
 11
69.0
 21
39.320675
 31
0.0
  0
LINE
  5
75
330
1E
100
AcDbEntity
  8
0
100
AcDbLine
 10
69.0
 20
28.717475
 30
0.0
 11
69.0
 21
19.858475
 31
0.0
  0
LINE
  5
76
330
1E
100
AcDbEntity
  8
0
100
AcDbLine
 10
69.0
 20
39.320675
 30
0.0
 11
69.0
 21
50.708075
 31
0.0
  0
LINE
  5
77
330
1E
100
AcDbEntity
  8
0
100
AcDbLine
 10
69.0
 20
39.320675
 30
0.0
 11
69.0
 21
28.717475
 31
0.0
  0
LINE
  5
78
330
1E
100
AcDbEntity
  8
0
100
AcDbLine
 10
68.0
 20
11.062575
 30
0.0
 11
68.0
 21
6.06296499999999
 31
0.0
  0
LINE
  5
79
330
1E
100
AcDbEntity
  8
0
100
AcDbLine
 10
66.90000000000001
 20
10.272775
 30
0.0
 11
69.1
 21
11.852375
 31
0.0
  0
LINE
  5
7B
330
1E
100
AcDbEntity
  8
0
100
AcDbLine
 10
69.0
 20
70.74497499999999
 30
0.0
 11
69.0
 21
82.26107500000001
 31
0.0
  0
LINE
  5
7C
330
1E
100
AcDbEntity
  8
0
100
AcDbLine
 10
69.0
 20
70.74497499999999
 30
0.0
 11
69.0
 21
61.038175
 31
0.0
  0
LINE
  5
7D
330
1E
100
AcDbEntity
  8
0
100
AcDbLine
 10
69.0
 20
82.26107500000001
 30
0.0
 11
69.0
 21
70.74497499999999
 31
0.0
  0
LINE
  5
7E
330
1E
100
AcDbEntity
  8
0
100
AcDbLine
 10
69.0
 20
82.26107500000001
 30
0.0
 11
69.0
 21
87.824875
 31
0.0
  0
LINE
  5
7F
330
1E
100
AcDbEntity
  8
0
100
AcDbLine
 10
69.0
 20
50.708075
 30
0.0
 11
69.0
 21
61.038175
 31
0.0
  0
LINE
  5
80
330
1E
100
AcDbEntity
  8
0
100
AcDbLine
 10
69.0
 20
50.708075
 30
0.0
 11
69.0
 21
39.320675
 31
0.0
  0
LINE
  5
81
330
1E
100
AcDbEntity
  8
0
100
AcDbLine
 10
70.3
 20
17.961575
 30
0.0
 11
70.5
 21
17.709975
 31
0.0
  0
LINE
  5
82
330
1E
100
AcDbEntity
  8
0
100
AcDbLine
 10
70.5
 20
17.709975
 30
0.0
 11
71.0
 21
15.749075
 31
0.0
  0
LINE
  5
83
330
1E
100
AcDbEntity
  8
0
100
AcDbLine
 10
71.0
 20
15.665275
 30
0.0
 11
71.0
 21
15.749075
 31
0.0
  0
LINE
  5
84
330
1E
100
AcDbEntity
  8
0
100
AcDbLine
 10
71.0
 20
15.749075
 30
0.0
 11
71.0
 21
15.665275
 31
0.0
  0
LINE
  5
85
330
1E
100
AcDbEntity
  8
0
100
AcDbLine
 10
70.5
 20
13.704375
 30
0.0
 11
71.0
 21
15.665275
 31
0.0
  0
LINE
  5
86
330
1E
100
AcDbEntity
  8
0
100
AcDbLine
 10
69.1
 20
11.852375
 30
0.0
 11
70.5
 21
13.704375
 31
0.0
  0
LINE
  5
87
330
1E
100
AcDbEntity
  8
0
100
AcDbLine
 10
69.0
 20
61.038175
 30
0.0
 11
69.0
 21
50.708075
 31
0.0
  0
LINE
  5
88
330
1E
100
AcDbEntity
  8
0
100
AcDbLine
 10
69.0
 20
61.038175
 30
0.0
 11
69.0
 21
70.74497499999999
 31
0.0
  0
LINE
  5
8B
330
1E
100
AcDbEntity
  8
0
100
AcDbLine
 10
66.90000000000001
 20
85.72287499999999
 30
0.0
 11
69.1
 21
87.941575
 31
0.0
  0
LINE
  5
8C
330
1E
100
AcDbEntity
  8
0
100
AcDbLine
 10
69.1
 20
87.941575
 30
0.0
 11
70.5
 21
90.54277500000001
 31
0.0
  0
LINE
  5
8D
330
1E
100
AcDbEntity
  8
0
100
AcDbLine
 10
71.0
 20
93.425875
 30
0.0
 11
71.0
 21
93.361475
 31
0.0
  0
LINE
  5
8E
330
1E
100
AcDbEntity
  8
0
100
AcDbLine
 10
70.5
 20
90.54277500000001
 30
0.0
 11
71.0
 21
93.29707500000001
 31
0.0
  0
LINE
  5
8F
330
1E
100
AcDbEntity
  8
0
100
AcDbLine
 10
69.0
 20
87.824875
 30
0.0
 11
69.0
 21
82.26107500000001
 31
0.0
  0
LINE
  5
90
330
1E
100
AcDbEntity
  8
0
100
AcDbLine
 10
71.0
 20
93.361475
 30
0.0
 11
71.0
 21
93.425875
 31
0.0
  0
LINE
  5
91
330
1E
100
AcDbEntity
  8
0
100
AcDbLine
 10
71.0
 20
93.361475
 30
0.0
 11
71.0
 21
93.29707500000001
 31
0.0
  0
LINE
  5
92
330
1E
100
AcDbEntity
  8
0
100
AcDbLine
 10
70.5
 20
96.180075
 30
0.0
 11
71.0
 21
93.425875
 31
0.0
  0
LINE
  5
94
330
1E
100
AcDbEntity
  8
0
100
AcDbLine
 10
71.0
 20
93.29707500000001
 30
0.0
 11
71.0
 21
93.361475
 31
0.0
  0
LINE
  5
97
330
1E
100
AcDbEntity
  8
0
100
AcDbLine
 10
64.0
 20
84.039675
 30
0.0
 11
66.90000000000001
 21
85.72287499999999
 31
0.0
  0
LINE
  5
98
330
1E
100
AcDbEntity
  8
0
100
AcDbLine
 10
63.9
 20
83.92297499999999
 30
0.0
 11
64.0
 21
84.039675
 31
0.0
  0
LINE
  5
99
330
1E
100
AcDbEntity
  8
0
100
AcDbLine
 10
60.6
 20
82.928475
 30
0.0
 11
63.9
 21
83.92297499999999
 31
0.0
  0
LINE
  5
9A
330
1E
100
AcDbEntity
  8
0
100
AcDbLine
 10
69.6658478940661
 20
97.73010835970502
 30
0.0
 11
70.5
 21
96.180075
 31
0.0
  0
LINE
  5
9C
330
1E
100
AcDbEntity
  8
0
100
AcDbLine
 10
85.09999999999999
 20
100.715575
 30
0.0
 11
91.3
 21
102.815575
 31
0.0
  0
LINE
  5
9D
330
1E
100
AcDbEntity
  8
0
100
AcDbLine
 10
78.59999999999999
 20
99.115575
 30
0.0
 11
85.09999999999999
 21
100.715575
 31
0.0
  0
LINE
  5
9E
330
1E
100
AcDbEntity
  8
0
100
AcDbLine
 10
71.6
 20
97.91557500000001
 30
0.0
 11
78.59999999999999
 21
99.115575
 31
0.0
  0
LINE
  5
9F
330
1E
100
AcDbEntity
  8
0
100
AcDbLine
 10
64.29999999999999
 20
97.21557500000001
 30
0.0
 11
71.6
 21
97.91557500000001
 31
0.0
  0
LINE
  5
A0
330
1E
100
AcDbEntity
  8
0
100
AcDbLine
 10
57.0
 20
96.91557500000001
 30
0.0
 11
64.29999999999999
 21
97.21557500000001
 31
0.0
  0
LINE
  5
A1
330
1E
100
AcDbEntity
  8
0
100
AcDbLine
 10
22.7
 20
102.815575
 30
0.0
 11
28.9
 21
100.715575
 31
0.0
  0
LINE
  5
A2
330
1E
100
AcDbEntity
  8
0
100
AcDbLine
 10
17.1
 20
105.215575
 30
0.0
 11
22.7
 21
102.815575
 31
0.0
  0
LINE
  5
A3
330
1E
100
AcDbEntity
  8
0
100
AcDbLine
 10
35.0
 20
105.680575
 30
0.0
 11
35.7562
 21
105.635575
 31
0.0
  0
LINE
  5
A4
330
1E
100
AcDbEntity
  8
0
100
AcDbLine
 10
35.7562
 20
105.635575
 30
0.0
 11
36.366
 21
105.863575
 31
0.0
  0
LINE
  5
A5
330
1E
100
AcDbEntity
  8
0
100
AcDbLine
 10
36.366
 20
105.863575
 30
0.0
 11
36.4562
 21
106.2415749999999
 31
0.0
  0
LINE
  5
AB
330
1E
100
AcDbEntity
  8
0
100
AcDbLine
 10
36.0
 20
106.5465749999999
 30
0.0
 11
36.4562
 21
106.2415749999999
 31
0.0
  0
LINE
  5
B2
330
1E
100
AcDbEntity
  8
0
100
AcDbLine
 10
35.2438
 20
106.591575
 30
0.0
 11
36.0
 21
106.5465749999999
 31
0.0
  0
LINE
  5
B4
330
1E
100
AcDbEntity
  8
0
100
AcDbLine
 10
34.634
 20
106.3635749999999
 30
0.0
 11
35.2438
 21
106.591575
 31
0.0
  0
LINE
  5
B6
330
1E
100
AcDbEntity
  8
0
100
AcDbLine
 10
34.5438
 20
105.985575
 30
0.0
 11
35.0
 21
105.680575
 31
0.0
  0
LINE
  5
B7
330
1E
100
AcDbEntity
  8
0
100
AcDbLine
 10
34.5438
 20
105.985575
 30
0.0
 11
34.634
 21
106.3635749999999
 31
0.0
  0
LINE
  5
B9
330
1E
100
AcDbEntity
  8
0
100
AcDbLine
 10
29.0
 20
107.398575
 30
0.0
 11
34.1
 21
105.698575
 31
0.0
  0
LINE
  5
BA
330
1E
100
AcDbEntity
  8
0
100
AcDbLine
 10
34.1
 20
105.698575
 30
0.0
 11
39.39999999999999
 21
104.398575
 31
0.0
  0
LINE
  5
BB
330
1E
100
AcDbEntity
  8
0
100
AcDbLine
 10
28.39999999999999
 20
106.998575
 30
0.0
 11
33.6
 21
105.2485749999999
 31
0.0
  0
LINE
  5
BC
330
1E
100
AcDbEntity
  8
0
100
AcDbLine
 10
33.6
 20
105.2485749999999
 30
0.0
 11
39.0
 21
103.948575
 31
0.0
  0
LINE
  5
BD
330
1E
100
AcDbEntity
  8
0
100
AcDbLine
 10
45.61199999999999
 20
103.4825749999999
 30
0.0
 11
46.3658
 21
103.5365749999999
 31
0.0
  0
LINE
  5
C0
330
1E
100
AcDbEntity
  8
0
100
AcDbLine
 10
44.9049
 20
104.094575
 30
0.0
 11
45.0135
 21
103.717575
 31
0.0
  0
LINE
  5
C1
330
1E
100
AcDbEntity
  8
0
100
AcDbLine
 10
44.9049
 20
104.094575
 30
0.0
 11
45.3758
 21
104.394575
 31
0.0
  0
LINE
  5
C4
330
1E
100
AcDbEntity
  8
0
100
AcDbLine
 10
46.7281
 20
104.212575
 30
0.0
 11
46.8367
 21
103.836575
 31
0.0
  0
LINE
  5
CD
330
1E
100
AcDbEntity
  8
0
100
AcDbLine
 10
46.1296
 20
104.4485749999999
 30
0.0
 11
46.7281
 21
104.212575
 31
0.0
  0
LINE
  5
CF
330
1E
100
AcDbEntity
  8
0
100
AcDbLine
 10
45.3758
 20
104.394575
 30
0.0
 11
46.1296
 21
104.4485749999999
 31
0.0
  0
LINE
  5
D1
330
1E
100
AcDbEntity
  8
0
100
AcDbLine
 10
45.0135
 20
103.717575
 30
0.0
 11
45.61199999999999
 21
103.4825749999999
 31
0.0
  0
LINE
  5
D2
330
1E
100
AcDbEntity
  8
0
100
AcDbLine
 10
46.3658
 20
103.5365749999999
 30
0.0
 11
46.8367
 21
103.836575
 31
0.0
  0
LINE
  5
D3
330
1E
100
AcDbEntity
  8
0
100
AcDbLine
 10
39.39999999999999
 20
104.398575
 30
0.0
 11
45.1
 21
103.4485749999999
 31
0.0
  0
LINE
  5
D4
330
1E
100
AcDbEntity
  8
0
100
AcDbLine
 10
45.1
 20
103.4485749999999
 30
0.0
 11
51.0
 21
102.8485749999999
 31
0.0
  0
LINE
  5
D5
330
1E
100
AcDbEntity
  8
0
100
AcDbLine
 10
39.0
 20
103.948575
 30
0.0
 11
44.9
 21
102.948575
 31
0.0
  0
LINE
  5
D6
330
1E
100
AcDbEntity
  8
0
100
AcDbLine
 10
44.9
 20
102.948575
 30
0.0
 11
50.89999999999999
 21
102.348575
 31
0.0
  0
LINE
  5
D7
330
1E
100
AcDbEntity
  8
0
100
AcDbLine
 10
57.0
 20
102.7325749999999
 30
0.0
 11
57.7
 21
102.8825749999999
 31
0.0
  0
LINE
  5
D8
330
1E
100
AcDbEntity
  8
0
100
AcDbLine
 10
52.5621
 20
107.8785749999999
 30
0.0
 11
53.2953
 21
107.981575
 31
0.0
  0
LINE
  5
D9
330
1E
100
AcDbEntity
  8
0
100
AcDbLine
 10
53.2953
 20
107.981575
 30
0.0
 11
53.6841
 21
108.308575
 31
0.0
  0
LINE
  5
DC
330
1E
100
AcDbEntity
  8
0
100
AcDbLine
 10
57.7
 20
102.8825749999999
 30
0.0
 11
58.0
 21
103.232575
 31
0.0
  0
LINE
  5
DD
330
1E
100
AcDbEntity
  8
0
100
AcDbLine
 10
56.29999999999999
 20
103.582575
 30
0.0
 11
57.0
 21
103.7325749999999
 31
0.0
  0
LINE
  5
E5
330
1E
100
AcDbEntity
  8
0
100
AcDbLine
 10
57.0
 20
103.7325749999999
 30
0.0
 11
57.7
 21
103.582575
 31
0.0
  0
LINE
  5
E8
330
1E
100
AcDbEntity
  8
0
100
AcDbLine
 10
61.4379
 20
107.8785749999999
 30
0.0
 11
62.0927
 21
108.072575
 31
0.0
  0
LINE
  5
E9
330
1E
100
AcDbEntity
  8
0
100
AcDbLine
 10
60.7047
 20
107.981575
 30
0.0
 11
61.4379
 21
107.8785749999999
 31
0.0
  0
LINE
  5
EB
330
1E
100
AcDbEntity
  8
0
100
AcDbLine
 10
57.7
 20
103.582575
 30
0.0
 11
58.0
 21
103.232575
 31
0.0
  0
LINE
  5
ED
330
1E
100
AcDbEntity
  8
0
100
AcDbLine
 10
56.29999999999999
 20
102.8825749999999
 30
0.0
 11
57.0
 21
102.7325749999999
 31
0.0
  0
LINE
  5
EE
330
1E
100
AcDbEntity
  8
0
100
AcDbLine
 10
56.0
 20
103.232575
 30
0.0
 11
56.29999999999999
 21
102.8825749999999
 31
0.0
  0
LINE
  5
EF
330
1E
100
AcDbEntity
  8
0
100
AcDbLine
 10
56.0
 20
103.232575
 30
0.0
 11
56.29999999999999
 21
103.582575
 31
0.0
  0
LINE
  5
F1
330
1E
100
AcDbEntity
  8
0
100
AcDbLine
 10
51.0
 20
102.8485749999999
 30
0.0
 11
57.0
 21
102.598575
 31
0.0
  0
LINE
  5
F2
330
1E
100
AcDbEntity
  8
0
100
AcDbLine
 10
63.0
 20
102.8485749999999
 30
0.0
 11
68.9
 21
103.4485749999999
 31
0.0
  0
LINE
  5
F3
330
1E
100
AcDbEntity
  8
0
100
AcDbLine
 10
57.0
 20
102.598575
 30
0.0
 11
63.0
 21
102.8485749999999
 31
0.0
  0
LINE
  5
F4
330
1E
100
AcDbEntity
  8
0
100
AcDbLine
 10
50.89999999999999
 20
102.348575
 30
0.0
 11
57.0
 21
102.0985749999999
 31
0.0
  0
LINE
  5
F5
330
1E
100
AcDbEntity
  8
0
100
AcDbLine
 10
25.88729999999999
 20
109.1765749999999
 30
0.0
 11
26.5944
 21
109.035575
 31
0.0
  0
LINE
  5
F6
330
1E
100
AcDbEntity
  8
0
100
AcDbLine
 10
43.9888
 20
109.0265749999999
 30
0.0
 11
44.7503
 21
109.031575
 31
0.0
  0
LINE
  5
F7
330
1E
100
AcDbEntity
  8
0
100
AcDbLine
 10
62.0927
 20
108.072575
 30
0.0
 11
62.2988
 21
108.439575
 31
0.0
  0
LINE
  5
F8
330
1E
100
AcDbEntity
  8
0
100
AcDbLine
 10
60.3159
 20
108.308575
 30
0.0
 11
60.7047
 21
107.981575
 31
0.0
  0
LINE
  5
F9
330
1E
100
AcDbEntity
  8
0
100
AcDbLine
 10
60.3159
 20
108.308575
 30
0.0
 11
60.522
 21
108.675575
 31
0.0
  0
LINE
  5
FB
330
1E
100
AcDbEntity
  8
0
100
AcDbLine
 10
60.522
 20
108.675575
 30
0.0
 11
61.1768
 21
108.869575
 31
0.0
  0
LINE
  5
FE
330
1E
100
AcDbEntity
  8
0
100
AcDbLine
 10
61.90999999999999
 20
108.7665749999999
 30
0.0
 11
62.2988
 21
108.439575
 31
0.0
  0
LINE
  5
101
330
1E
100
AcDbEntity
  8
0
100
AcDbLine
 10
53.478
 20
108.675575
 30
0.0
 11
53.6841
 21
108.308575
 31
0.0
  0
LINE
  5
105
330
1E
100
AcDbEntity
  8
0
100
AcDbLine
 10
61.1768
 20
108.869575
 30
0.0
 11
61.90999999999999
 21
108.7665749999999
 31
0.0
  0
LINE
  5
108
330
1E
100
AcDbEntity
  8
0
100
AcDbLine
 10
52.8232
 20
108.869575
 30
0.0
 11
53.478
 21
108.675575
 31
0.0
  0
LINE
  5
10A
330
1E
100
AcDbEntity
  8
0
100
AcDbLine
 10
52.09
 20
108.7665749999999
 30
0.0
 11
52.8232
 21
108.869575
 31
0.0
  0
LINE
  5
10C
330
1E
100
AcDbEntity
  8
0
100
AcDbLine
 10
51.7012
 20
108.439575
 30
0.0
 11
51.9073
 21
108.072575
 31
0.0
  0
LINE
  5
10D
330
1E
100
AcDbEntity
  8
0
100
AcDbLine
 10
51.7012
 20
108.439575
 30
0.0
 11
52.09
 21
108.7665749999999
 31
0.0
  0
LINE
  5
10F
330
1E
100
AcDbEntity
  8
0
100
AcDbLine
 10
51.9073
 20
108.072575
 30
0.0
 11
52.5621
 21
107.8785749999999
 31
0.0
  0
LINE
  5
110
330
1E
100
AcDbEntity
  8
0
100
AcDbLine
 10
44.7503
 20
109.031575
 30
0.0
 11
45.2953
 21
109.2975749999999
 31
0.0
  0
LINE
  5
115
330
1E
100
AcDbEntity
  8
0
100
AcDbLine
 10
43.4569
 20
109.299575
 30
0.0
 11
43.9888
 21
109.0265749999999
 31
0.0
  0
LINE
  5
116
330
1E
100
AcDbEntity
  8
0
100
AcDbLine
 10
27.3015
 20
109.1765749999999
 30
0.0
 11
27.5844
 21
109.530575
 31
0.0
  0
LINE
  5
117
330
1E
100
AcDbEntity
  8
0
100
AcDbLine
 10
26.5944
 20
109.035575
 30
0.0
 11
27.3015
 21
109.1765749999999
 31
0.0
  0
LINE
  5
126
330
1E
100
AcDbEntity
  8
0
100
AcDbLine
 10
45.28599999999999
 20
109.678575
 30
0.0
 11
45.2953
 21
109.2975749999999
 31
0.0
  0
LINE
  5
128
330
1E
100
AcDbEntity
  8
0
100
AcDbLine
 10
43.44759999999999
 20
109.680575
 30
0.0
 11
43.4569
 21
109.299575
 31
0.0
  0
LINE
  5
129
330
1E
100
AcDbEntity
  8
0
100
AcDbLine
 10
43.44759999999999
 20
109.680575
 30
0.0
 11
43.9926
 21
109.946575
 31
0.0
  0
LINE
  5
12C
330
1E
100
AcDbEntity
  8
0
100
AcDbLine
 10
27.3015
 20
109.8835749999999
 30
0.0
 11
27.5844
 21
109.530575
 31
0.0
  0
LINE
  5
137
330
1E
100
AcDbEntity
  8
0
100
AcDbLine
 10
44.7541
 20
109.950575
 30
0.0
 11
45.28599999999999
 21
109.678575
 31
0.0
  0
LINE
  5
139
330
1E
100
AcDbEntity
  8
0
100
AcDbLine
 10
43.9926
 20
109.946575
 30
0.0
 11
44.7541
 21
109.950575
 31
0.0
  0
LINE
  5
13C
330
1E
100
AcDbEntity
  8
0
100
AcDbLine
 10
36.3021
 20
111.245575
 30
0.0
 11
37.0401
 21
111.1515749999999
 31
0.0
  0
LINE
  5
141
330
1E
100
AcDbEntity
  8
0
100
AcDbLine
 10
37.0401
 20
111.1515749999999
 30
0.0
 11
37.7042
 21
111.338575
 31
0.0
  0
LINE
  5
144
330
1E
100
AcDbEntity
  8
0
100
AcDbLine
 10
26.5944
 20
110.025575
 30
0.0
 11
27.3015
 21
109.8835749999999
 31
0.0
  0
LINE
  5
146
330
1E
100
AcDbEntity
  8
0
100
AcDbLine
 10
25.88729999999999
 20
109.8835749999999
 30
0.0
 11
26.5944
 21
110.025575
 31
0.0
  0
LINE
  5
148
330
1E
100
AcDbEntity
  8
0
100
AcDbLine
 10
25.6045
 20
109.530575
 30
0.0
 11
25.88729999999999
 21
109.1765749999999
 31
0.0
  0
LINE
  5
149
330
1E
100
AcDbEntity
  8
0
100
AcDbLine
 10
25.6045
 20
109.530575
 30
0.0
 11
25.88729999999999
 21
109.8835749999999
 31
0.0
  0
LINE
  5
14B
330
1E
100
AcDbEntity
  8
0
100
AcDbLine
 10
24.5
 20
109.3485749999999
 30
0.0
 11
29.0
 21
107.398575
 31
0.0
  0
LINE
  5
14C
330
1E
100
AcDbEntity
  8
0
100
AcDbLine
 10
23.8
 20
108.998575
 30
0.0
 11
28.39999999999999
 21
106.998575
 31
0.0
  0
LINE
  5
14D
330
1E
100
AcDbEntity
  8
0
100
AcDbLine
 10
12.3
 20
108.015575
 30
0.0
 11
17.1
 21
105.215575
 31
0.0
  0
LINE
  5
14E
330
1E
100
AcDbEntity
  8
0
100
AcDbLine
 10
8.099999999999999
 20
111.1155749999999
 30
0.0
 11
12.3
 21
108.015575
 31
0.0
  0
LINE
  5
14F
330
1E
100
AcDbEntity
  8
0
100
AcDbLine
 10
37.7042
 20
111.338575
 30
0.0
 11
37.8924
 21
111.707575
 31
0.0
  0
LINE
  5
151
330
1E
100
AcDbEntity
  8
0
100
AcDbLine
 10
35.9294
 20
111.577575
 30
0.0
 11
36.3021
 21
111.245575
 31
0.0
  0
LINE
  5
152
330
1E
100
AcDbEntity
  8
0
100
AcDbLine
 10
35.9294
 20
111.577575
 30
0.0
 11
36.1175
 21
111.946575
 31
0.0
  0
LINE
  5
154
330
1E
100
AcDbEntity
  8
0
100
AcDbLine
 10
20.6
 20
111.5985749999999
 30
0.0
 11
24.5
 21
109.3485749999999
 31
0.0
  0
LINE
  5
155
330
1E
100
AcDbEntity
  8
0
100
AcDbLine
 10
19.8
 20
111.2985749999999
 30
0.0
 11
23.8
 21
108.998575
 31
0.0
  0
LINE
  5
156
330
1E
100
AcDbEntity
  8
0
100
AcDbLine
 10
68.9865
 20
103.717575
 30
0.0
 11
69.0951
 21
104.094575
 31
0.0
  0
LINE
  5
157
330
1E
100
AcDbEntity
  8
0
100
AcDbLine
 10
68.388
 20
103.4825749999999
 30
0.0
 11
68.9865
 21
103.717575
 31
0.0
  0
LINE
  5
158
330
1E
100
AcDbEntity
  8
0
100
AcDbLine
 10
67.6342
 20
103.5365749999999
 30
0.0
 11
68.388
 21
103.4825749999999
 31
0.0
  0
LINE
  5
159
330
1E
100
AcDbEntity
  8
0
100
AcDbLine
 10
67.2719
 20
104.212575
 30
0.0
 11
67.87040000000001
 21
104.4485749999999
 31
0.0
  0
LINE
  5
163
330
1E
100
AcDbEntity
  8
0
100
AcDbLine
 10
67.87040000000001
 20
104.4485749999999
 30
0.0
 11
68.6242
 21
104.394575
 31
0.0
  0
LINE
  5
168
330
1E
100
AcDbEntity
  8
0
100
AcDbLine
 10
70.0112
 20
109.0265749999999
 30
0.0
 11
70.5431
 21
109.299575
 31
0.0
  0
LINE
  5
169
330
1E
100
AcDbEntity
  8
0
100
AcDbLine
 10
68.714
 20
109.678575
 30
0.0
 11
69.24590000000001
 21
109.950575
 31
0.0
  0
LINE
  5
171
330
1E
100
AcDbEntity
  8
0
100
AcDbLine
 10
69.24590000000001
 20
109.950575
 30
0.0
 11
70.0074
 21
109.946575
 31
0.0
  0
LINE
  5
173
330
1E
100
AcDbEntity
  8
0
100
AcDbLine
 10
70.0074
 20
109.946575
 30
0.0
 11
70.55240000000001
 21
109.680575
 31
0.0
  0
LINE
  5
177
330
1E
100
AcDbEntity
  8
0
100
AcDbLine
 10
70.5431
 20
109.299575
 30
0.0
 11
70.55240000000001
 21
109.680575
 31
0.0
  0
LINE
  5
178
330
1E
100
AcDbEntity
  8
0
100
AcDbLine
 10
69.2497
 20
109.031575
 30
0.0
 11
70.0112
 21
109.0265749999999
 31
0.0
  0
LINE
  5
179
330
1E
100
AcDbEntity
  8
0
100
AcDbLine
 10
68.7047
 20
109.2975749999999
 30
0.0
 11
69.2497
 21
109.031575
 31
0.0
  0
LINE
  5
17A
330
1E
100
AcDbEntity
  8
0
100
AcDbLine
 10
68.7047
 20
109.2975749999999
 30
0.0
 11
68.714
 21
109.678575
 31
0.0
  0
LINE
  5
17D
330
1E
100
AcDbEntity
  8
0
100
AcDbLine
 10
68.6242
 20
104.394575
 30
0.0
 11
69.0951
 21
104.094575
 31
0.0
  0
LINE
  5
17F
330
1E
100
AcDbEntity
  8
0
100
AcDbLine
 10
67.16330000000001
 20
103.836575
 30
0.0
 11
67.6342
 21
103.5365749999999
 31
0.0
  0
LINE
  5
180
330
1E
100
AcDbEntity
  8
0
100
AcDbLine
 10
67.16330000000001
 20
103.836575
 30
0.0
 11
67.2719
 21
104.212575
 31
0.0
  0
LINE
  5
182
330
1E
100
AcDbEntity
  8
0
100
AcDbLine
 10
74.59999999999999
 20
104.398575
 30
0.0
 11
79.90000000000001
 21
105.698575
 31
0.0
  0
LINE
  5
183
330
1E
100
AcDbEntity
  8
0
100
AcDbLine
 10
68.9
 20
103.4485749999999
 30
0.0
 11
74.59999999999999
 21
104.398575
 31
0.0
  0
LINE
  5
184
330
1E
100
AcDbEntity
  8
0
100
AcDbLine
 10
79.0
 20
105.680575
 30
0.0
 11
79.45619999999999
 21
105.985575
 31
0.0
  0
LINE
  5
185
330
1E
100
AcDbEntity
  8
0
100
AcDbLine
 10
78.24379999999999
 20
105.635575
 30
0.0
 11
79.0
 21
105.680575
 31
0.0
  0
LINE
  5
186
330
1E
100
AcDbEntity
  8
0
100
AcDbLine
 10
77.54380000000001
 20
106.2415749999999
 30
0.0
 11
78.0
 21
106.5465749999999
 31
0.0
  0
LINE
  5
187
330
1E
100
AcDbEntity
  8
0
100
AcDbLine
 10
77.54380000000001
 20
106.2415749999999
 30
0.0
 11
77.634
 21
105.863575
 31
0.0
  0
LINE
  5
189
330
1E
100
AcDbEntity
  8
0
100
AcDbLine
 10
78.0
 20
106.5465749999999
 30
0.0
 11
78.75620000000001
 21
106.591575
 31
0.0
  0
LINE
  5
18F
330
1E
100
AcDbEntity
  8
0
100
AcDbLine
 10
76.10769999999999
 20
111.707575
 30
0.0
 11
76.4804
 21
112.0395749999999
 31
0.0
  0
LINE
  5
190
330
1E
100
AcDbEntity
  8
0
100
AcDbLine
 10
76.10769999999999
 20
111.707575
 30
0.0
 11
76.2958
 21
111.338575
 31
0.0
  0
LINE
  5
193
330
1E
100
AcDbEntity
  8
0
100
AcDbLine
 10
77.6979
 20
111.245575
 30
0.0
 11
78.07059999999999
 21
111.577575
 31
0.0
  0
LINE
  5
194
330
1E
100
AcDbEntity
  8
0
100
AcDbLine
 10
76.9599
 20
111.1515749999999
 30
0.0
 11
77.6979
 21
111.245575
 31
0.0
  0
LINE
  5
195
330
1E
100
AcDbEntity
  8
0
100
AcDbLine
 10
76.2958
 20
111.338575
 30
0.0
 11
76.9599
 21
111.1515749999999
 31
0.0
  0
LINE
  5
19A
330
1E
100
AcDbEntity
  8
0
100
AcDbLine
 10
78.75620000000001
 20
106.591575
 30
0.0
 11
79.366
 21
106.3635749999999
 31
0.0
  0
LINE
  5
19E
330
1E
100
AcDbEntity
  8
0
100
AcDbLine
 10
79.366
 20
106.3635749999999
 30
0.0
 11
79.45619999999999
 21
105.985575
 31
0.0
  0
LINE
  5
1A0
330
1E
100
AcDbEntity
  8
0
100
AcDbLine
 10
77.634
 20
105.863575
 30
0.0
 11
78.24379999999999
 21
105.635575
 31
0.0
  0
LINE
  5
1A1
330
1E
100
AcDbEntity
  8
0
100
AcDbLine
 10
85.0
 20
107.398575
 30
0.0
 11
89.50000000000001
 21
109.3485749999999
 31
0.0
  0
LINE
  5
1A2
330
1E
100
AcDbEntity
  8
0
100
AcDbLine
 10
79.90000000000001
 20
105.698575
 30
0.0
 11
85.0
 21
107.398575
 31
0.0
  0
LINE
  5
1A3
330
1E
100
AcDbEntity
  8
0
100
AcDbLine
 10
88.1127
 20
109.1765749999999
 30
0.0
 11
88.3955
 21
109.530575
 31
0.0
  0
LINE
  5
1A4
330
1E
100
AcDbEntity
  8
0
100
AcDbLine
 10
87.4056
 20
109.035575
 30
0.0
 11
88.1127
 21
109.1765749999999
 31
0.0
  0
LINE
  5
1A5
330
1E
100
AcDbEntity
  8
0
100
AcDbLine
 10
86.6985
 20
109.1765749999999
 30
0.0
 11
87.4056
 21
109.035575
 31
0.0
  0
LINE
  5
1A6
330
1E
100
AcDbEntity
  8
0
100
AcDbLine
 10
86.4156
 20
109.530575
 30
0.0
 11
86.6985
 21
109.8835749999999
 31
0.0
  0
LINE
  5
1A7
330
1E
100
AcDbEntity
  8
0
100
AcDbLine
 10
86.4156
 20
109.530575
 30
0.0
 11
86.6985
 21
109.1765749999999
 31
0.0
  0
LINE
  5
1A9
330
1E
100
AcDbEntity
  8
0
100
AcDbLine
 10
86.6985
 20
109.8835749999999
 30
0.0
 11
87.4056
 21
110.025575
 31
0.0
  0
LINE
  5
1B3
330
1E
100
AcDbEntity
  8
0
100
AcDbLine
 10
87.4056
 20
110.025575
 30
0.0
 11
88.1127
 21
109.8835749999999
 31
0.0
  0
LINE
  5
1B7
330
1E
100
AcDbEntity
  8
0
100
AcDbLine
 10
88.1127
 20
109.8835749999999
 30
0.0
 11
88.3955
 21
109.530575
 31
0.0
  0
LINE
  5
1B9
330
1E
100
AcDbEntity
  8
0
100
AcDbLine
 10
89.50000000000001
 20
109.3485749999999
 30
0.0
 11
93.40000000000001
 21
111.5985749999999
 31
0.0
  0
LINE
  5
1BA
330
1E
100
AcDbEntity
  8
0
100
AcDbLine
 10
85.6
 20
106.998575
 30
0.0
 11
90.20000000000001
 21
108.998575
 31
0.0
  0
LINE
  5
1BB
330
1E
100
AcDbEntity
  8
0
100
AcDbLine
 10
80.4
 20
105.2485749999999
 30
0.0
 11
85.6
 21
106.998575
 31
0.0
  0
LINE
  5
1BC
330
1E
100
AcDbEntity
  8
0
100
AcDbLine
 10
75.0
 20
103.948575
 30
0.0
 11
80.4
 21
105.2485749999999
 31
0.0
  0
LINE
  5
1BD
330
1E
100
AcDbEntity
  8
0
100
AcDbLine
 10
69.1
 20
102.948575
 30
0.0
 11
75.0
 21
103.948575
 31
0.0
  0
LINE
  5
1BE
330
1E
100
AcDbEntity
  8
0
100
AcDbLine
 10
63.1
 20
102.348575
 30
0.0
 11
69.1
 21
102.948575
 31
0.0
  0
LINE
  5
1BF
330
1E
100
AcDbEntity
  8
0
100
AcDbLine
 10
57.0
 20
102.0985749999999
 30
0.0
 11
63.1
 21
102.348575
 31
0.0
  0
LINE
  5
1C0
330
1E
100
AcDbEntity
  8
0
100
AcDbLine
 10
93.40000000000001
 20
111.5985749999999
 30
0.0
 11
96.79999999999999
 21
114.1485749999999
 31
0.0
  0
LINE
  5
1C1
330
1E
100
AcDbEntity
  8
0
100
AcDbLine
 10
93.40000000000001
 20
111.5985749999999
 30
0.0
 11
93.8
 21
111.8815749999999
 31
0.0
  0
LINE
  5
1C2
330
1E
100
AcDbEntity
  8
0
100
AcDbLine
 10
91.3
 20
102.815575
 30
0.0
 11
96.90000000000001
 21
105.215575
 31
0.0
  0
LINE
  5
1C3
330
1E
100
AcDbEntity
  8
0
100
AcDbLine
 10
90.20000000000001
 20
108.998575
 30
0.0
 11
94.19999999999999
 21
111.2985749999999
 31
0.0
  0
LINE
  5
1C4
330
1E
100
AcDbEntity
  8
0
100
AcDbLine
 10
20.2
 20
111.8815749999999
 30
0.0
 11
20.27181719260069
 21
111.841177829162
 31
0.0
  0
LINE
  5
1C5
330
1E
100
AcDbEntity
  8
0
100
AcDbLine
 10
20.2
 20
111.8815749999999
 30
0.0
 11
20.6
 21
111.5985749999999
 31
0.0
  0
LINE
  5
1C6
330
1E
100
AcDbEntity
  8
0
100
AcDbLine
 10
93.72818280739929
 20
111.841177829162
 30
0.0
 11
93.8
 21
111.8815749999999
 31
0.0
  0
LINE
  5
1C7
330
1E
100
AcDbEntity
  8
0
100
AcDbLine
 10
96.90000000000001
 20
105.215575
 30
0.0
 11
101.7
 21
108.015575
 31
0.0
  0
LINE
  5
1C8
330
1E
100
AcDbEntity
  8
0
100
AcDbLine
 10
94.19999999999999
 20
111.2985749999999
 30
0.0
 11
97.70000000000001
 21
113.898575
 31
0.0
  0
LINE
  5
1C9
330
1E
100
AcDbEntity
  8
0
100
AcDbLine
 10
4.9
 20
114.365575
 30
0.0
 11
8.099999999999999
 21
111.1155749999999
 31
0.0
  0
LINE
  5
1CB
330
1E
100
AcDbEntity
  8
0
100
AcDbLine
 10
20.26089999999999
 20
113.549575
 30
0.0
 11
20.71709999999999
 21
113.854575
 31
0.0
  0
LINE
  5
1CC
330
1E
100
AcDbEntity
  8
0
100
AcDbLine
 10
19.5047
 20
113.5045749999999
 30
0.0
 11
20.26089999999999
 21
113.549575
 31
0.0
  0
LINE
  5
1CD
330
1E
100
AcDbEntity
  8
0
100
AcDbLine
 10
18.8949
 20
113.732575
 30
0.0
 11
19.5047
 21
113.5045749999999
 31
0.0
  0
LINE
  5
1CE
330
1E
100
AcDbEntity
  8
0
100
AcDbLine
 10
18.8047
 20
114.1105749999999
 30
0.0
 11
19.2609
 21
114.415575
 31
0.0
  0
LINE
  5
1CF
330
1E
100
AcDbEntity
  8
0
100
AcDbLine
 10
18.8047
 20
114.1105749999999
 30
0.0
 11
18.8949
 21
113.732575
 31
0.0
  0
LINE
  5
1D5
330
1E
100
AcDbEntity
  8
0
100
AcDbLine
 10
76.4804
 20
112.0395749999999
 30
0.0
 11
77.2183
 21
112.1335749999999
 31
0.0
  0
LINE
  5
1D7
330
1E
100
AcDbEntity
  8
0
100
AcDbLine
 10
77.2183
 20
112.1335749999999
 30
0.0
 11
77.88249999999999
 21
111.946575
 31
0.0
  0
LINE
  5
1D9
330
1E
100
AcDbEntity
  8
0
100
AcDbLine
 10
77.88249999999999
 20
111.946575
 30
0.0
 11
78.07059999999999
 21
111.577575
 31
0.0
  0
LINE
  5
1DB
330
1E
100
AcDbEntity
  8
0
100
AcDbLine
 10
37.51959999999999
 20
112.0395749999999
 30
0.0
 11
37.8924
 21
111.707575
 31
0.0
  0
LINE
  5
1E5
330
1E
100
AcDbEntity
  8
0
100
AcDbLine
 10
50.78829999999999
 20
113.141575
 30
0.0
 11
51.54209999999999
 21
113.1965749999999
 31
0.0
  0
LINE
  5
1E7
330
1E
100
AcDbEntity
  8
0
100
AcDbLine
 10
50.18979999999999
 20
113.3775749999999
 30
0.0
 11
50.78829999999999
 21
113.141575
 31
0.0
  0
LINE
  5
1E8
330
1E
100
AcDbEntity
  8
0
100
AcDbLine
 10
51.54209999999999
 20
113.1965749999999
 30
0.0
 11
52.0131
 21
113.495575
 31
0.0
  0
LINE
  5
1E9
330
1E
100
AcDbEntity
  8
0
100
AcDbLine
 10
63.8102
 20
113.3775749999999
 30
0.0
 11
63.9188
 21
113.754575
 31
0.0
  0
LINE
  5
1EA
330
1E
100
AcDbEntity
  8
0
100
AcDbLine
 10
63.2117
 20
113.141575
 30
0.0
 11
63.8102
 21
113.3775749999999
 31
0.0
  0
LINE
  5
1EB
330
1E
100
AcDbEntity
  8
0
100
AcDbLine
 10
62.4579
 20
113.1965749999999
 30
0.0
 11
63.2117
 21
113.141575
 31
0.0
  0
LINE
  5
1EC
330
1E
100
AcDbEntity
  8
0
100
AcDbLine
 10
51.9045
 20
113.872575
 30
0.0
 11
52.0131
 21
113.495575
 31
0.0
  0
LINE
  5
1EE
330
1E
100
AcDbEntity
  8
0
100
AcDbLine
 10
51.30600000000001
 20
114.1075749999999
 30
0.0
 11
51.9045
 21
113.872575
 31
0.0
  0
LINE
  5
1F0
330
1E
100
AcDbEntity
  8
0
100
AcDbLine
 10
50.5522
 20
114.0535749999999
 30
0.0
 11
51.30600000000001
 21
114.1075749999999
 31
0.0
  0
LINE
  5
1F2
330
1E
100
AcDbEntity
  8
0
100
AcDbLine
 10
50.0812
 20
113.754575
 30
0.0
 11
50.18979999999999
 21
113.3775749999999
 31
0.0
  0
LINE
  5
1F3
330
1E
100
AcDbEntity
  8
0
100
AcDbLine
 10
50.0812
 20
113.754575
 30
0.0
 11
50.5522
 21
114.0535749999999
 31
0.0
  0
LINE
  5
1F5
330
1E
100
AcDbEntity
  8
0
100
AcDbLine
 10
62.0955
 20
113.872575
 30
0.0
 11
62.694
 21
114.1075749999999
 31
0.0
  0
LINE
  5
1F7
330
1E
100
AcDbEntity
  8
0
100
AcDbLine
 10
62.694
 20
114.1075749999999
 30
0.0
 11
63.4478
 21
114.0535749999999
 31
0.0
  0
LINE
  5
1FA
330
1E
100
AcDbEntity
  8
0
100
AcDbLine
 10
63.4478
 20
114.0535749999999
 30
0.0
 11
63.9188
 21
113.754575
 31
0.0
  0
LINE
  5
1FC
330
1E
100
AcDbEntity
  8
0
100
AcDbLine
 10
61.9869
 20
113.495575
 30
0.0
 11
62.4579
 21
113.1965749999999
 31
0.0
  0
LINE
  5
1FD
330
1E
100
AcDbEntity
  8
0
100
AcDbLine
 10
61.9869
 20
113.495575
 30
0.0
 11
62.0955
 21
113.872575
 31
0.0
  0
LINE
  5
1FF
330
1E
100
AcDbEntity
  8
0
100
AcDbLine
 10
93.7391
 20
113.549575
 30
0.0
 11
94.49530000000001
 21
113.5045749999999
 31
0.0
  0
LINE
  5
200
330
1E
100
AcDbEntity
  8
0
100
AcDbLine
 10
94.49530000000001
 20
113.5045749999999
 30
0.0
 11
95.1051
 21
113.732575
 31
0.0
  0
LINE
  5
202
330
1E
100
AcDbEntity
  8
0
100
AcDbLine
 10
93.2829
 20
113.854575
 30
0.0
 11
93.7391
 21
113.549575
 31
0.0
  0
LINE
  5
203
330
1E
100
AcDbEntity
  8
0
100
AcDbLine
 10
93.2829
 20
113.854575
 30
0.0
 11
93.3731
 21
114.2325749999999
 31
0.0
  0
LINE
  5
205
330
1E
100
AcDbEntity
  8
0
100
AcDbLine
 10
95.1051
 20
113.732575
 30
0.0
 11
95.19530000000001
 21
114.1105749999999
 31
0.0
  0
LINE
  5
20C
330
1E
100
AcDbEntity
  8
0
100
AcDbLine
 10
36.7817
 20
112.1335749999999
 30
0.0
 11
37.51959999999999
 21
112.0395749999999
 31
0.0
  0
LINE
  5
20E
330
1E
100
AcDbEntity
  8
0
100
AcDbLine
 10
36.1175
 20
111.946575
 30
0.0
 11
36.7817
 21
112.1335749999999
 31
0.0
  0
LINE
  5
210
330
1E
100
AcDbEntity
  8
0
100
AcDbLine
 10
19.2609
 20
114.415575
 30
0.0
 11
20.0171
 21
114.4605749999999
 31
0.0
  0
LINE
  5
212
330
1E
100
AcDbEntity
  8
0
100
AcDbLine
 10
20.0171
 20
114.4605749999999
 30
0.0
 11
20.62689999999999
 21
114.2325749999999
 31
0.0
  0
LINE
  5
214
330
1E
100
AcDbEntity
  8
0
100
AcDbLine
 10
82.57189999999999
 20
114.291575
 30
0.0
 11
83.30989999999999
 21
114.197575
 31
0.0
  0
LINE
  5
215
330
1E
100
AcDbEntity
  8
0
100
AcDbLine
 10
83.30989999999999
 20
114.197575
 30
0.0
 11
83.97399999999999
 21
114.383575
 31
0.0
  0
LINE
  5
216
330
1E
100
AcDbEntity
  8
0
100
AcDbLine
 10
93.3731
 20
114.2325749999999
 30
0.0
 11
93.98290000000001
 21
114.4605749999999
 31
0.0
  0
LINE
  5
219
330
1E
100
AcDbEntity
  8
0
100
AcDbLine
 10
83.97399999999999
 20
114.383575
 30
0.0
 11
84.16209999999999
 21
114.752575
 31
0.0
  0
LINE
  5
21C
330
1E
100
AcDbEntity
  8
0
100
AcDbLine
 10
31.4281
 20
114.291575
 30
0.0
 11
31.8008
 21
114.6235749999999
 31
0.0
  0
LINE
  5
21D
330
1E
100
AcDbEntity
  8
0
100
AcDbLine
 10
30.6901
 20
114.197575
 30
0.0
 11
31.4281
 21
114.291575
 31
0.0
  0
LINE
  5
21E
330
1E
100
AcDbEntity
  8
0
100
AcDbLine
 10
93.98290000000001
 20
114.4605749999999
 30
0.0
 11
94.7391
 21
114.415575
 31
0.0
  0
LINE
  5
220
330
1E
100
AcDbEntity
  8
0
100
AcDbLine
 10
94.7391
 20
114.415575
 30
0.0
 11
95.19530000000001
 21
114.1105749999999
 31
0.0
  0
LINE
  5
222
330
1E
100
AcDbEntity
  8
0
100
AcDbLine
 10
30.026
 20
114.383575
 30
0.0
 11
30.6901
 21
114.197575
 31
0.0
  0
LINE
  5
223
330
1E
100
AcDbEntity
  8
0
100
AcDbLine
 10
20.62689999999999
 20
114.2325749999999
 30
0.0
 11
20.71709999999999
 21
113.854575
 31
0.0
  0
LINE
  5
225
330
1E
100
AcDbEntity
  8
0
100
AcDbLine
 10
17.19999999999999
 20
114.1485749999999
 30
0.0
 11
20.6
 21
111.5985749999999
 31
0.0
  0
LINE
  5
226
330
1E
100
AcDbEntity
  8
0
100
AcDbLine
 10
96.79999999999999
 20
114.1485749999999
 30
0.0
 11
99.40000000000001
 21
116.7985749999999
 31
0.0
  0
LINE
  5
227
330
1E
100
AcDbEntity
  8
0
100
AcDbLine
 10
16.69999999999999
 20
114.481575
 30
0.0
 11
20.2
 21
111.8815749999999
 31
0.0
  0
LINE
  5
228
330
1E
100
AcDbEntity
  8
0
100
AcDbLine
 10
16.3
 20
113.898575
 30
0.0
 11
19.8
 21
111.2985749999999
 31
0.0
  0
LINE
  5
229
330
1E
100
AcDbEntity
  8
0
100
AcDbLine
 10
93.8
 20
111.8815749999999
 30
0.0
 11
97.3
 21
114.481575
 31
0.0
  0
LINE
  5
22A
330
1E
100
AcDbEntity
  8
0
100
AcDbLine
 10
97.70000000000001
 20
113.898575
 30
0.0
 11
100.2999999999999
 21
116.5985749999999
 31
0.0
  0
LINE
  5
22D
330
1E
100
AcDbEntity
  8
0
100
AcDbLine
 10
82.1992
 20
114.6235749999999
 30
0.0
 11
82.57189999999999
 21
114.291575
 31
0.0
  0
LINE
  5
22E
330
1E
100
AcDbEntity
  8
0
100
AcDbLine
 10
82.1992
 20
114.6235749999999
 30
0.0
 11
82.3873
 21
114.9925749999999
 31
0.0
  0
LINE
  5
23D
330
1E
100
AcDbEntity
  8
0
100
AcDbLine
 10
30.2106
 20
115.084575
 30
0.0
 11
30.9486
 21
115.179575
 31
0.0
  0
LINE
  5
247
330
1E
100
AcDbEntity
  8
0
100
AcDbLine
 10
30.9486
 20
115.179575
 30
0.0
 11
31.6127
 21
114.9925749999999
 31
0.0
  0
LINE
  5
24F
330
1E
100
AcDbEntity
  8
0
100
AcDbLine
 10
82.3873
 20
114.9925749999999
 30
0.0
 11
83.05139999999999
 21
115.179575
 31
0.0
  0
LINE
  5
251
330
1E
100
AcDbEntity
  8
0
100
AcDbLine
 10
83.7894
 20
115.084575
 30
0.0
 11
84.16209999999999
 21
114.752575
 31
0.0
  0
LINE
  5
253
330
1E
100
AcDbEntity
  8
0
100
AcDbLine
 10
83.05139999999999
 20
115.179575
 30
0.0
 11
83.7894
 21
115.084575
 31
0.0
  0
LINE
  5
260
330
1E
100
AcDbEntity
  8
0
100
AcDbLine
 10
39.7466
 20
116.6015749999999
 30
0.0
 11
40.0294
 21
116.247575
 31
0.0
  0
LINE
  5
261
330
1E
100
AcDbEntity
  8
0
100
AcDbLine
 10
39.7466
 20
116.6015749999999
 30
0.0
 11
40.0294
 21
116.954575
 31
0.0
  0
LINE
  5
263
330
1E
100
AcDbEntity
  8
0
100
AcDbLine
 10
40.0294
 20
116.247575
 30
0.0
 11
40.73649999999999
 21
116.106575
 31
0.0
  0
LINE
  5
26B
330
1E
100
AcDbEntity
  8
0
100
AcDbLine
 10
73.9706
 20
116.247575
 30
0.0
 11
74.2534
 21
116.6015749999999
 31
0.0
  0
LINE
  5
26C
330
1E
100
AcDbEntity
  8
0
100
AcDbLine
 10
73.26349999999999
 20
116.106575
 30
0.0
 11
73.9706
 21
116.247575
 31
0.0
  0
LINE
  5
26D
330
1E
100
AcDbEntity
  8
0
100
AcDbLine
 10
72.55639999999999
 20
116.247575
 30
0.0
 11
73.26349999999999
 21
116.106575
 31
0.0
  0
LINE
  5
26F
330
1E
100
AcDbEntity
  8
0
100
AcDbLine
 10
72.2735
 20
116.6015749999999
 30
0.0
 11
72.55639999999999
 21
116.954575
 31
0.0
  0
LINE
  5
270
330
1E
100
AcDbEntity
  8
0
100
AcDbLine
 10
72.2735
 20
116.6015749999999
 30
0.0
 11
72.55639999999999
 21
116.247575
 31
0.0
  0
LINE
  5
273
330
1E
100
AcDbEntity
  8
0
100
AcDbLine
 10
41.4436
 20
116.247575
 30
0.0
 11
41.72649999999999
 21
116.6015749999999
 31
0.0
  0
LINE
  5
274
330
1E
100
AcDbEntity
  8
0
100
AcDbLine
 10
40.73649999999999
 20
116.106575
 30
0.0
 11
41.4436
 21
116.247575
 31
0.0
  0
LINE
  5
276
330
1E
100
AcDbEntity
  8
0
100
AcDbLine
 10
31.6127
 20
114.9925749999999
 30
0.0
 11
31.8008
 21
114.6235749999999
 31
0.0
  0
LINE
  5
278
330
1E
100
AcDbEntity
  8
0
100
AcDbLine
 10
29.8379
 20
114.752575
 30
0.0
 11
30.2106
 21
115.084575
 31
0.0
  0
LINE
  5
279
330
1E
100
AcDbEntity
  8
0
100
AcDbLine
 10
29.8379
 20
114.752575
 30
0.0
 11
30.026
 21
114.383575
 31
0.0
  0
LINE
  5
280
330
1E
100
AcDbEntity
  8
0
100
AcDbLine
 10
72.55639999999999
 20
116.954575
 30
0.0
 11
73.26349999999999
 21
117.096575
 31
0.0
  0
LINE
  5
282
330
1E
100
AcDbEntity
  8
0
100
AcDbLine
 10
73.26349999999999
 20
117.096575
 30
0.0
 11
73.9706
 21
116.954575
 31
0.0
  0
LINE
  5
284
330
1E
100
AcDbEntity
  8
0
100
AcDbLine
 10
73.9706
 20
116.954575
 30
0.0
 11
74.2534
 21
116.6015749999999
 31
0.0
  0
LINE
  5
286
330
1E
100
AcDbEntity
  8
0
100
AcDbLine
 10
41.4436
 20
116.954575
 30
0.0
 11
41.72649999999999
 21
116.6015749999999
 31
0.0
  0
LINE
  5
288
330
1E
100
AcDbEntity
  8
0
100
AcDbLine
 10
40.73649999999999
 20
117.096575
 30
0.0
 11
41.4436
 21
116.954575
 31
0.0
  0
LINE
  5
28A
330
1E
100
AcDbEntity
  8
0
100
AcDbLine
 10
40.0294
 20
116.954575
 30
0.0
 11
40.73649999999999
 21
117.096575
 31
0.0
  0
LINE
  5
28C
330
1E
100
AcDbEntity
  8
0
100
AcDbLine
 10
14.59999999999999
 20
116.7985749999999
 30
0.0
 11
17.19999999999999
 21
114.1485749999999
 31
0.0
  0
LINE
  5
28D
330
1E
100
AcDbEntity
  8
0
100
AcDbLine
 10
99.40000000000001
 20
116.7985749999999
 30
0.0
 11
101.2999999999999
 21
119.6485749999999
 31
0.0
  0
LINE
  5
28E
330
1E
100
AcDbEntity
  8
0
100
AcDbLine
 10
14.1
 20
117.1315749999999
 30
0.0
 11
16.69999999999999
 21
114.481575
 31
0.0
  0
LINE
  5
28F
330
1E
100
AcDbEntity
  8
0
100
AcDbLine
 10
13.7
 20
116.5985749999999
 30
0.0
 11
16.3
 21
113.898575
 31
0.0
  0
LINE
  5
290
330
1E
100
AcDbEntity
  8
0
100
AcDbLine
 10
97.3
 20
114.481575
 30
0.0
 11
99.90000000000001
 21
117.1315749999999
 31
0.0
  0
LINE
  5
291
330
1E
100
AcDbEntity
  8
0
100
AcDbLine
 10
101.7
 20
108.015575
 30
0.0
 11
105.9
 21
111.1155749999999
 31
0.0
  0
LINE
  5
292
330
1E
100
AcDbEntity
  8
0
100
AcDbLine
 10
100.2999999999999
 20
116.5985749999999
 30
0.0
 11
102.2999999999999
 21
119.548575
 31
0.0
  0
LINE
  5
293
330
1E
100
AcDbEntity
  8
0
100
AcDbLine
 10
2.5
 20
117.865575
 30
0.0
 11
4.9
 21
114.365575
 31
0.0
  0
LINE
  5
294
330
1E
100
AcDbEntity
  8
0
100
AcDbLine
 10
0.6000000000000029
 20
122.7645749999999
 30
0.0
 11
1.1
 21
121.515575
 31
0.0
  0
LINE
  5
295
330
1E
100
AcDbEntity
  8
0
100
AcDbLine
 10
1.1
 20
121.515575
 30
0.0
 11
2.5
 21
117.865575
 31
0.0
  0
LINE
  5
296
330
1E
100
AcDbEntity
  8
0
100
AcDbLine
 10
11.5
 20
122.5985749999999
 30
0.0
 11
12.7
 21
119.6485749999999
 31
0.0
  0
LINE
  5
297
330
1E
100
AcDbEntity
  8
0
100
AcDbLine
 10
15.724
 20
118.685575
 30
0.0
 11
16.3225
 21
118.9205749999999
 31
0.0
  0
LINE
  5
298
330
1E
100
AcDbEntity
  8
0
100
AcDbLine
 10
16.3225
 20
118.9205749999999
 30
0.0
 11
16.4311
 21
119.297575
 31
0.0
  0
LINE
  5
299
330
1E
100
AcDbEntity
  8
0
100
AcDbLine
 10
14.9702
 20
118.739575
 30
0.0
 11
15.724
 21
118.685575
 31
0.0
  0
LINE
  5
29A
330
1E
100
AcDbEntity
  8
0
100
AcDbLine
 10
14.4993
 20
119.0385749999999
 30
0.0
 11
14.6079
 21
119.4155749999999
 31
0.0
  0
LINE
  5
29B
330
1E
100
AcDbEntity
  8
0
100
AcDbLine
 10
14.4993
 20
119.0385749999999
 30
0.0
 11
14.9702
 21
118.739575
 31
0.0
  0
LINE
  5
29E
330
1E
100
AcDbEntity
  8
0
100
AcDbLine
 10
15.9602
 20
119.596575
 30
0.0
 11
16.4311
 21
119.297575
 31
0.0
  0
LINE
  5
2A0
330
1E
100
AcDbEntity
  8
0
100
AcDbLine
 10
14.6079
 20
119.4155749999999
 30
0.0
 11
15.2064
 21
119.6515749999999
 31
0.0
  0
LINE
  5
2A6
330
1E
100
AcDbEntity
  8
0
100
AcDbLine
 10
25.5881
 20
118.227575
 30
0.0
 11
25.5974
 21
118.6085749999999
 31
0.0
  0
LINE
  5
2A7
330
1E
100
AcDbEntity
  8
0
100
AcDbLine
 10
25.5881
 20
118.227575
 30
0.0
 11
26.1331
 21
117.9615749999999
 31
0.0
  0
LINE
  5
2B1
330
1E
100
AcDbEntity
  8
0
100
AcDbLine
 10
87.1053
 20
117.956575
 30
0.0
 11
87.8669
 21
117.9615749999999
 31
0.0
  0
LINE
  5
2B2
330
1E
100
AcDbEntity
  8
0
100
AcDbLine
 10
87.8669
 20
117.9615749999999
 30
0.0
 11
88.4119
 21
118.227575
 31
0.0
  0
LINE
  5
2B9
330
1E
100
AcDbEntity
  8
0
100
AcDbLine
 10
26.8947
 20
117.956575
 30
0.0
 11
27.4266
 21
118.2295749999999
 31
0.0
  0
LINE
  5
2BA
330
1E
100
AcDbEntity
  8
0
100
AcDbLine
 10
26.1293
 20
118.880575
 30
0.0
 11
26.8908
 21
118.875575
 31
0.0
  0
LINE
  5
2BC
330
1E
100
AcDbEntity
  8
0
100
AcDbLine
 10
26.8908
 20
118.875575
 30
0.0
 11
27.4359
 21
118.6095749999999
 31
0.0
  0
LINE
  5
2C0
330
1E
100
AcDbEntity
  8
0
100
AcDbLine
 10
48.4773
 20
119.179575
 30
0.0
 11
49.2153
 21
119.085575
 31
0.0
  0
LINE
  5
2C1
330
1E
100
AcDbEntity
  8
0
100
AcDbLine
 10
49.2153
 20
119.085575
 30
0.0
 11
49.8795
 21
119.271575
 31
0.0
  0
LINE
  5
2C2
330
1E
100
AcDbEntity
  8
0
100
AcDbLine
 10
49.8795
 20
119.271575
 30
0.0
 11
50.06759999999999
 21
119.640575
 31
0.0
  0
LINE
  5
2C5
330
1E
100
AcDbEntity
  8
0
100
AcDbLine
 10
57.95539999999999
 20
117.9675749999999
 30
0.0
 11
58.6103
 21
118.1615749999999
 31
0.0
  0
LINE
  5
2C6
330
1E
100
AcDbEntity
  8
0
100
AcDbLine
 10
57.03949999999999
 20
118.7645749999999
 30
0.0
 11
57.69429999999999
 21
118.9585749999999
 31
0.0
  0
LINE
  5
2C8
330
1E
100
AcDbEntity
  8
0
100
AcDbLine
 10
57.69429999999999
 20
118.9585749999999
 30
0.0
 11
58.4275
 21
118.855575
 31
0.0
  0
LINE
  5
2CA
330
1E
100
AcDbEntity
  8
0
100
AcDbLine
 10
58.4275
 20
118.855575
 30
0.0
 11
58.8163
 21
118.528575
 31
0.0
  0
LINE
  5
2CC
330
1E
100
AcDbEntity
  8
0
100
AcDbLine
 10
87.10919999999999
 20
118.875575
 30
0.0
 11
87.87069999999999
 21
118.880575
 31
0.0
  0
LINE
  5
2CE
330
1E
100
AcDbEntity
  8
0
100
AcDbLine
 10
86.56409999999999
 20
118.6095749999999
 30
0.0
 11
86.57340000000001
 21
118.2295749999999
 31
0.0
  0
LINE
  5
2CF
330
1E
100
AcDbEntity
  8
0
100
AcDbLine
 10
86.56409999999999
 20
118.6095749999999
 30
0.0
 11
87.10919999999999
 21
118.875575
 31
0.0
  0
LINE
  5
2D1
330
1E
100
AcDbEntity
  8
0
100
AcDbLine
 10
86.57340000000001
 20
118.2295749999999
 30
0.0
 11
87.1053
 21
117.956575
 31
0.0
  0
LINE
  5
2D2
330
1E
100
AcDbEntity
  8
0
100
AcDbLine
 10
98.27600000000002
 20
118.685575
 30
0.0
 11
99.02979999999999
 21
118.739575
 31
0.0
  0
LINE
  5
2D3
330
1E
100
AcDbEntity
  8
0
100
AcDbLine
 10
99.02979999999999
 20
118.739575
 30
0.0
 11
99.5007
 21
119.0385749999999
 31
0.0
  0
LINE
  5
2D5
330
1E
100
AcDbEntity
  8
0
100
AcDbLine
 10
88.4026
 20
118.6085749999999
 30
0.0
 11
88.4119
 21
118.227575
 31
0.0
  0
LINE
  5
2D8
330
1E
100
AcDbEntity
  8
0
100
AcDbLine
 10
97.5689
 20
119.297575
 30
0.0
 11
97.67749999999999
 21
118.9205749999999
 31
0.0
  0
LINE
  5
2D9
330
1E
100
AcDbEntity
  8
0
100
AcDbLine
 10
97.5689
 20
119.297575
 30
0.0
 11
98.03980000000001
 21
119.596575
 31
0.0
  0
LINE
  5
2DB
330
1E
100
AcDbEntity
  8
0
100
AcDbLine
 10
97.67749999999999
 20
118.9205749999999
 30
0.0
 11
98.27600000000002
 21
118.685575
 31
0.0
  0
LINE
  5
2DD
330
1E
100
AcDbEntity
  8
0
100
AcDbLine
 10
87.87069999999999
 20
118.880575
 30
0.0
 11
88.4026
 21
118.6085749999999
 31
0.0
  0
LINE
  5
2E2
330
1E
100
AcDbEntity
  8
0
100
AcDbLine
 10
99.3921
 20
119.4155749999999
 30
0.0
 11
99.5007
 21
119.0385749999999
 31
0.0
  0
LINE
  5
2E7
330
1E
100
AcDbEntity
  8
0
100
AcDbLine
 10
58.6103
 20
118.1615749999999
 30
0.0
 11
58.8163
 21
118.528575
 31
0.0
  0
LINE
  5
2E8
330
1E
100
AcDbEntity
  8
0
100
AcDbLine
 10
57.2222
 20
118.0705749999999
 30
0.0
 11
57.95539999999999
 21
117.9675749999999
 31
0.0
  0
LINE
  5
2E9
330
1E
100
AcDbEntity
  8
0
100
AcDbLine
 10
56.8334
 20
118.397575
 30
0.0
 11
57.2222
 21
118.0705749999999
 31
0.0
  0
LINE
  5
2EA
330
1E
100
AcDbEntity
  8
0
100
AcDbLine
 10
56.8334
 20
118.397575
 30
0.0
 11
57.03949999999999
 21
118.7645749999999
 31
0.0
  0
LINE
  5
2F0
330
1E
100
AcDbEntity
  8
0
100
AcDbLine
 10
48.10459999999999
 20
119.511575
 30
0.0
 11
48.4773
 21
119.179575
 31
0.0
  0
LINE
  5
2F1
330
1E
100
AcDbEntity
  8
0
100
AcDbLine
 10
48.10459999999999
 20
119.511575
 30
0.0
 11
48.29270000000001
 21
119.880575
 31
0.0
  0
LINE
  5
2F3
330
1E
100
AcDbEntity
  8
0
100
AcDbLine
 10
98.03980000000001
 20
119.596575
 30
0.0
 11
98.7936
 21
119.6515749999999
 31
0.0
  0
LINE
  5
2F8
330
1E
100
AcDbEntity
  8
0
100
AcDbLine
 10
27.4266
 20
118.2295749999999
 30
0.0
 11
27.4359
 21
118.6095749999999
 31
0.0
  0
LINE
  5
2F9
330
1E
100
AcDbEntity
  8
0
100
AcDbLine
 10
26.1331
 20
117.9615749999999
 30
0.0
 11
26.8947
 21
117.956575
 31
0.0
  0
LINE
  5
2FA
330
1E
100
AcDbEntity
  8
0
100
AcDbLine
 10
25.5974
 20
118.6085749999999
 30
0.0
 11
26.1293
 21
118.880575
 31
0.0
  0
LINE
  5
2FC
330
1E
100
AcDbEntity
  8
0
100
AcDbLine
 10
15.2064
 20
119.6515749999999
 30
0.0
 11
15.9602
 21
119.596575
 31
0.0
  0
LINE
  5
302
330
1E
100
AcDbEntity
  8
0
100
AcDbLine
 10
98.7936
 20
119.6515749999999
 30
0.0
 11
99.3921
 21
119.4155749999999
 31
0.0
  0
LINE
  5
304
330
1E
100
AcDbEntity
  8
0
100
AcDbLine
 10
49.6949
 20
119.972575
 30
0.0
 11
50.06759999999999
 21
119.640575
 31
0.0
  0
LINE
  5
306
330
1E
100
AcDbEntity
  8
0
100
AcDbLine
 10
48.29270000000001
 20
119.880575
 30
0.0
 11
48.9569
 21
120.0665749999999
 31
0.0
  0
LINE
  5
30D
330
1E
100
AcDbEntity
  8
0
100
AcDbLine
 10
66.569
 20
119.963575
 30
0.0
 11
66.94169999999999
 21
120.295575
 31
0.0
  0
LINE
  5
30E
330
1E
100
AcDbEntity
  8
0
100
AcDbLine
 10
65.831
 20
119.8695749999999
 30
0.0
 11
66.569
 21
119.963575
 31
0.0
  0
LINE
  5
315
330
1E
100
AcDbEntity
  8
0
100
AcDbLine
 10
12.7
 20
119.6485749999999
 30
0.0
 11
14.59999999999999
 21
116.7985749999999
 31
0.0
  0
LINE
  5
316
330
1E
100
AcDbEntity
  8
0
100
AcDbLine
 10
101.2999999999999
 20
119.6485749999999
 30
0.0
 11
102.4999999999999
 21
122.5985749999999
 31
0.0
  0
LINE
  5
317
330
1E
100
AcDbEntity
  8
0
100
AcDbLine
 10
48.9569
 20
120.0665749999999
 30
0.0
 11
49.6949
 21
119.972575
 31
0.0
  0
LINE
  5
31B
330
1E
100
AcDbEntity
  8
0
100
AcDbLine
 10
33.8178
 20
121.6275749999999
 30
0.0
 11
33.9264
 21
122.003575
 31
0.0
  0
LINE
  5
31C
330
1E
100
AcDbEntity
  8
0
100
AcDbLine
 10
33.8178
 20
121.6275749999999
 30
0.0
 11
34.28869999999999
 21
121.3275749999999
 31
0.0
  0
LINE
  5
327
330
1E
100
AcDbEntity
  8
0
100
AcDbLine
 10
35.04249999999999
 20
121.273575
 30
0.0
 11
35.64099999999999
 21
121.5085749999999
 31
0.0
  0
LINE
  5
329
330
1E
100
AcDbEntity
  8
0
100
AcDbLine
 10
35.64099999999999
 20
121.5085749999999
 30
0.0
 11
35.7496
 21
121.885575
 31
0.0
  0
LINE
  5
32A
330
1E
100
AcDbEntity
  8
0
100
AcDbLine
 10
34.28869999999999
 20
121.3275749999999
 30
0.0
 11
35.04249999999999
 21
121.273575
 31
0.0
  0
LINE
  5
32B
330
1E
100
AcDbEntity
  8
0
100
AcDbLine
 10
33.9264
 20
122.003575
 30
0.0
 11
34.5249
 21
122.239575
 31
0.0
  0
LINE
  5
32D
330
1E
100
AcDbEntity
  8
0
100
AcDbLine
 10
24.4128
 20
122.0835749999999
 30
0.0
 11
25.06769999999999
 21
122.277575
 31
0.0
  0
LINE
  5
333
330
1E
100
AcDbEntity
  8
0
100
AcDbLine
 10
35.2787
 20
122.185575
 30
0.0
 11
35.7496
 21
121.885575
 31
0.0
  0
LINE
  5
337
330
1E
100
AcDbEntity
  8
0
100
AcDbLine
 10
34.5249
 20
122.239575
 30
0.0
 11
35.2787
 21
122.185575
 31
0.0
  0
LINE
  5
33D
330
1E
100
AcDbEntity
  8
0
100
AcDbLine
 10
25.06769999999999
 20
122.277575
 30
0.0
 11
25.2738
 21
122.644575
 31
0.0
  0
LINE
  5
33E
330
1E
100
AcDbEntity
  8
0
100
AcDbLine
 10
23.6797
 20
122.186575
 30
0.0
 11
24.4128
 21
122.0835749999999
 31
0.0
  0
LINE
  5
33F
330
1E
100
AcDbEntity
  8
0
100
AcDbLine
 10
23.2909
 20
122.5135749999999
 30
0.0
 11
23.4969
 21
122.880575
 31
0.0
  0
LINE
  5
340
330
1E
100
AcDbEntity
  8
0
100
AcDbLine
 10
23.2909
 20
122.5135749999999
 30
0.0
 11
23.6797
 21
122.186575
 31
0.0
  0
LINE
  5
342
330
1E
100
AcDbEntity
  8
0
100
AcDbLine
 10
24.885
 20
122.9715749999999
 30
0.0
 11
25.2738
 21
122.644575
 31
0.0
  0
LINE
  5
344
330
1E
100
AcDbEntity
  8
0
100
AcDbLine
 10
23.4969
 20
122.880575
 30
0.0
 11
24.1518
 21
123.074575
 31
0.0
  0
LINE
  5
346
330
1E
100
AcDbEntity
  8
0
100
AcDbLine
 10
52.75199999999999
 20
122.6085749999999
 30
0.0
 11
54.024
 21
122.128575
 31
0.0
  0
LINE
  5
347
330
1E
100
AcDbEntity
  8
0
100
AcDbLine
 10
54.024
 20
122.128575
 30
0.0
 11
55.464
 21
121.840575
 31
0.0
  0
LINE
  5
348
330
1E
100
AcDbEntity
  8
0
100
AcDbLine
 10
64.97880000000001
 20
120.424575
 30
0.0
 11
65.3515
 21
120.7575749999999
 31
0.0
  0
LINE
  5
349
330
1E
100
AcDbEntity
  8
0
100
AcDbLine
 10
64.97880000000001
 20
120.424575
 30
0.0
 11
65.1669
 21
120.055575
 31
0.0
  0
LINE
  5
34C
330
1E
100
AcDbEntity
  8
0
100
AcDbLine
 10
65.3515
 20
120.7575749999999
 30
0.0
 11
66.0895
 21
120.8515749999999
 31
0.0
  0
LINE
  5
34F
330
1E
100
AcDbEntity
  8
0
100
AcDbLine
 10
66.0895
 20
120.8515749999999
 30
0.0
 11
66.75360000000001
 21
120.664575
 31
0.0
  0
LINE
  5
351
330
1E
100
AcDbEntity
  8
0
100
AcDbLine
 10
66.75360000000001
 20
120.664575
 30
0.0
 11
66.94169999999999
 21
120.295575
 31
0.0
  0
LINE
  5
353
330
1E
100
AcDbEntity
  8
0
100
AcDbLine
 10
65.1669
 20
120.055575
 30
0.0
 11
65.831
 21
119.8695749999999
 31
0.0
  0
LINE
  5
35C
330
1E
100
AcDbEntity
  8
0
100
AcDbLine
 10
78.35899999999999
 20
121.5085749999999
 30
0.0
 11
78.95749999999999
 21
121.273575
 31
0.0
  0
LINE
  5
35D
330
1E
100
AcDbEntity
  8
0
100
AcDbLine
 10
78.95749999999999
 20
121.273575
 30
0.0
 11
79.71129999999999
 21
121.3275749999999
 31
0.0
  0
LINE
  5
367
330
1E
100
AcDbEntity
  8
0
100
AcDbLine
 10
79.71129999999999
 20
121.3275749999999
 30
0.0
 11
80.18219999999999
 21
121.6275749999999
 31
0.0
  0
LINE
  5
368
330
1E
100
AcDbEntity
  8
0
100
AcDbLine
 10
78.2504
 20
121.885575
 30
0.0
 11
78.35899999999999
 21
121.5085749999999
 31
0.0
  0
LINE
  5
369
330
1E
100
AcDbEntity
  8
0
100
AcDbLine
 10
78.2504
 20
121.885575
 30
0.0
 11
78.7213
 21
122.185575
 31
0.0
  0
LINE
  5
36B
330
1E
100
AcDbEntity
  8
0
100
AcDbLine
 10
89.58719999999999
 20
122.0835749999999
 30
0.0
 11
90.3203
 21
122.186575
 31
0.0
  0
LINE
  5
36C
330
1E
100
AcDbEntity
  8
0
100
AcDbLine
 10
80.0736
 20
122.003575
 30
0.0
 11
80.18219999999999
 21
121.6275749999999
 31
0.0
  0
LINE
  5
36E
330
1E
100
AcDbEntity
  8
0
100
AcDbLine
 10
90.3203
 20
122.186575
 30
0.0
 11
90.70910000000001
 21
122.5135749999999
 31
0.0
  0
LINE
  5
36F
330
1E
100
AcDbEntity
  8
0
100
AcDbLine
 10
78.7213
 20
122.185575
 30
0.0
 11
79.4751
 21
122.239575
 31
0.0
  0
LINE
  5
373
330
1E
100
AcDbEntity
  8
0
100
AcDbLine
 10
88.9323
 20
122.277575
 30
0.0
 11
89.58719999999999
 21
122.0835749999999
 31
0.0
  0
LINE
  5
374
330
1E
100
AcDbEntity
  8
0
100
AcDbLine
 10
89.115
 20
122.9715749999999
 30
0.0
 11
89.8482
 21
123.074575
 31
0.0
  0
LINE
  5
376
330
1E
100
AcDbEntity
  8
0
100
AcDbLine
 10
88.72620000000001
 20
122.644575
 30
0.0
 11
88.9323
 21
122.277575
 31
0.0
  0
LINE
  5
377
330
1E
100
AcDbEntity
  8
0
100
AcDbLine
 10
88.72620000000001
 20
122.644575
 30
0.0
 11
89.115
 21
122.9715749999999
 31
0.0
  0
LINE
  5
37A
330
1E
100
AcDbEntity
  8
0
100
AcDbLine
 10
90.50310000000001
 20
122.880575
 30
0.0
 11
90.70910000000001
 21
122.5135749999999
 31
0.0
  0
LINE
  5
37F
330
1E
100
AcDbEntity
  8
0
100
AcDbLine
 10
79.4751
 20
122.239575
 30
0.0
 11
80.0736
 21
122.003575
 31
0.0
  0
LINE
  5
381
330
1E
100
AcDbEntity
  8
0
100
AcDbLine
 10
61.248
 20
122.6085749999999
 30
0.0
 11
62.208
 21
123.2445749999999
 31
0.0
  0
LINE
  5
382
330
1E
100
AcDbEntity
  8
0
100
AcDbLine
 10
59.97600000000001
 20
122.128575
 30
0.0
 11
61.248
 21
122.6085749999999
 31
0.0
  0
LINE
  5
383
330
1E
100
AcDbEntity
  8
0
100
AcDbLine
 10
58.536
 20
121.840575
 30
0.0
 11
59.97600000000001
 21
122.128575
 31
0.0
  0
LINE
  5
384
330
1E
100
AcDbEntity
  8
0
100
AcDbLine
 10
57.0
 20
121.732575
 30
0.0
 11
58.536
 21
121.840575
 31
0.0
  0
LINE
  5
385
330
1E
100
AcDbEntity
  8
0
100
AcDbLine
 10
55.464
 20
121.840575
 30
0.0
 11
57.0
 21
121.732575
 31
0.0
  0
LINE
  5
386
330
1E
100
AcDbEntity
  8
0
100
AcDbLine
 10
12.19999999999999
 20
120.031575
 30
0.0
 11
14.1
 21
117.1315749999999
 31
0.0
  0
LINE
  5
387
330
1E
100
AcDbEntity
  8
0
100
AcDbLine
 10
11.69999999999999
 20
119.548575
 30
0.0
 11
13.7
 21
116.5985749999999
 31
0.0
  0
LINE
  5
388
330
1E
100
AcDbEntity
  8
0
100
AcDbLine
 10
11.0
 20
123.031575
 30
0.0
 11
12.19999999999999
 21
120.031575
 31
0.0
  0
LINE
  5
389
330
1E
100
AcDbEntity
  8
0
100
AcDbLine
 10
10.5
 20
122.548575
 30
0.0
 11
11.69999999999999
 21
119.548575
 31
0.0
  0
LINE
  5
38A
330
1E
100
AcDbEntity
  8
0
100
AcDbLine
 10
99.90000000000001
 20
117.1315749999999
 30
0.0
 11
101.8
 21
120.031575
 31
0.0
  0
LINE
  5
38B
330
1E
100
AcDbEntity
  8
0
100
AcDbLine
 10
102.4999999999999
 20
122.5985749999999
 30
0.0
 11
103.0
 21
125.598575
 31
0.0
  0
LINE
  5
38C
330
1E
100
AcDbEntity
  8
0
100
AcDbLine
 10
102.2999999999999
 20
119.548575
 30
0.0
 11
103.4999999999999
 21
122.548575
 31
0.0
  0
LINE
  5
38D
330
1E
100
AcDbEntity
  8
0
100
AcDbLine
 10
101.8
 20
120.031575
 30
0.0
 11
103.0
 21
123.031575
 31
0.0
  0
LINE
  5
38E
330
1E
100
AcDbEntity
  8
0
100
AcDbLine
 10
1.1
 20
131.413575
 30
0.0
 11
2.5
 21
135.0635749999999
 31
0.0
  0
LINE
  5
38F
330
1E
100
AcDbEntity
  8
0
100
AcDbLine
 10
0.6000000000000029
 20
130.164575
 30
0.0
 11
1.1
 21
131.413575
 31
0.0
  0
LINE
  5
391
330
1E
100
AcDbEntity
  8
0
100
AcDbLine
 10
4.0
 20
137.4625749999999
 30
0.0
 11
6.299999999999999
 21
140.8625749999999
 31
0.0
  0
LINE
  5
392
330
1E
100
AcDbEntity
  8
0
100
AcDbLine
 10
2.5
 20
135.0635749999999
 30
0.0
 11
4.0
 21
137.4625749999999
 31
0.0
  0
LINE
  5
393
330
1E
100
AcDbEntity
  8
0
100
AcDbLine
 10
4.4
 20
137.364575
 30
0.0
 11
7.599999999999999
 21
140.664575
 31
0.0
  0
LINE
  5
394
330
1E
100
AcDbEntity
  8
0
100
AcDbLine
 10
2.1
 20
133.814575
 30
0.0
 11
4.4
 21
137.364575
 31
0.0
  0
LINE
  5
395
330
1E
100
AcDbEntity
  8
0
100
AcDbLine
 10
4.9
 20
135.9655749999999
 30
0.0
 11
8.099999999999999
 21
139.215575
 31
0.0
  0
LINE
  5
396
330
1E
100
AcDbEntity
  8
0
100
AcDbLine
 10
2.5
 20
132.465575
 30
0.0
 11
4.9
 21
135.9655749999999
 31
0.0
  0
LINE
  5
397
330
1E
100
AcDbEntity
  8
0
100
AcDbLine
 10
1.1
 20
128.815575
 30
0.0
 11
2.5
 21
132.465575
 31
0.0
  0
LINE
  5
398
330
1E
100
AcDbEntity
  8
0
100
AcDbLine
 10
4.5
 20
139.0225749999999
 30
0.0
 11
5.0
 21
142.4225749999999
 31
0.0
  0
LINE
  5
399
330
1E
100
AcDbEntity
  8
0
100
AcDbLine
 10
6.0
 20
146.7025749999999
 30
0.0
 11
7.0
 21
149.6835749999999
 31
0.0
  0
LINE
  5
39A
330
1E
100
AcDbEntity
  8
0
100
AcDbLine
 10
5.0
 20
142.4225749999999
 30
0.0
 11
6.0
 21
146.7025749999999
 31
0.0
  0
LINE
  5
39C
330
1E
100
AcDbEntity
  8
0
100
AcDbLine
 10
7.5
 20
151.798575
 30
0.0
 11
8.8
 21
154.9985749999999
 31
0.0
  0
LINE
  5
39D
330
1E
100
AcDbEntity
  8
0
100
AcDbLine
 10
7.0
 20
149.6835749999999
 30
0.0
 11
7.5
 21
151.798575
 31
0.0
  0
LINE
  5
39E
330
1E
100
AcDbEntity
  8
0
100
AcDbLine
 10
6.299999999999999
 20
140.8625749999999
 30
0.0
 11
9.4
 21
144.062575
 31
0.0
  0
LINE
  5
39F
330
1E
100
AcDbEntity
  8
0
100
AcDbLine
 10
7.599999999999999
 20
140.664575
 30
0.0
 11
11.9
 21
143.8145749999999
 31
0.0
  0
LINE
  5
3A0
330
1E
100
AcDbEntity
  8
0
100
AcDbLine
 10
9.3
 20
155.8145749999999
 30
0.0
 11
11.4
 21
158.8645749999999
 31
0.0
  0
LINE
  5
3A1
330
1E
100
AcDbEntity
  8
0
100
AcDbLine
 10
8.8
 20
154.9985749999999
 30
0.0
 11
9.3
 21
155.8145749999999
 31
0.0
  0
LINE
  5
3A2
330
1E
100
AcDbEntity
  8
0
100
AcDbLine
 10
9.4
 20
144.062575
 30
0.0
 11
13.4
 21
147.062575
 31
0.0
  0
LINE
  5
3A3
330
1E
100
AcDbEntity
  8
0
100
AcDbLine
 10
8.099999999999999
 20
139.215575
 30
0.0
 11
12.3
 21
142.315575
 31
0.0
  0
LINE
  5
3A4
330
1E
100
AcDbEntity
  8
0
100
AcDbLine
 10
4.42269601100412
 20
138.3531224552959
 30
0.0
 11
4.5
 21
139.0225749999999
 31
0.0
  0
LINE
  5
3A5
330
1E
100
AcDbEntity
  8
0
100
AcDbLine
 10
0.0000000000000032
 20
126.4645749999999
 30
0.0
 11
0.6000000000000029
 21
122.7645749999999
 31
0.0
  0
LINE
  5
3A6
330
1E
100
AcDbEntity
  8
0
100
AcDbLine
 10
0.0000000000000032
 20
126.4645749999999
 30
0.0
 11
0.6000000000000029
 21
130.164575
 31
0.0
  0
LINE
  5
3A7
330
1E
100
AcDbEntity
  8
0
100
AcDbLine
 10
0.5000000000000031
 20
125.165575
 30
0.0
 11
1.1
 21
121.515575
 31
0.0
  0
LINE
  5
3A8
330
1E
100
AcDbEntity
  8
0
100
AcDbLine
 10
0.5000000000000031
 20
125.165575
 30
0.0
 11
1.1
 21
128.815575
 31
0.0
  0
LINE
  5
3AD
330
1E
100
AcDbEntity
  8
0
100
AcDbLine
 10
24.1518
 20
123.074575
 30
0.0
 11
24.885
 21
122.9715749999999
 31
0.0
  0
LINE
  5
3AF
330
1E
100
AcDbEntity
  8
0
100
AcDbLine
 10
89.8482
 20
123.074575
 30
0.0
 11
90.50310000000001
 21
122.880575
 31
0.0
  0
LINE
  5
3B5
330
1E
100
AcDbEntity
  8
0
100
AcDbLine
 10
62.208
 20
123.2445749999999
 30
0.0
 11
62.784
 21
123.9645749999999
 31
0.0
  0
LINE
  5
3B6
330
1E
100
AcDbEntity
  8
0
100
AcDbLine
 10
13.0
 20
124.7325749999999
 30
0.0
 11
13.3
 21
124.382575
 31
0.0
  0
LINE
  5
3B7
330
1E
100
AcDbEntity
  8
0
100
AcDbLine
 10
13.0
 20
124.7325749999999
 30
0.0
 11
13.3
 21
125.082575
 31
0.0
  0
LINE
  5
3B9
330
1E
100
AcDbEntity
  8
0
100
AcDbLine
 10
44.2417
 20
123.388575
 30
0.0
 11
44.89659999999999
 21
123.5835749999999
 31
0.0
  0
LINE
  5
3BA
330
1E
100
AcDbEntity
  8
0
100
AcDbLine
 10
43.50859999999999
 20
123.491575
 30
0.0
 11
44.2417
 21
123.388575
 31
0.0
  0
LINE
  5
3BB
330
1E
100
AcDbEntity
  8
0
100
AcDbLine
 10
44.89659999999999
 20
123.5835749999999
 30
0.0
 11
45.1027
 21
123.9495749999999
 31
0.0
  0
LINE
  5
3C2
330
1E
100
AcDbEntity
  8
0
100
AcDbLine
 10
43.1198
 20
123.819575
 30
0.0
 11
43.3258
 21
124.185575
 31
0.0
  0
LINE
  5
3C3
330
1E
100
AcDbEntity
  8
0
100
AcDbLine
 10
43.1198
 20
123.819575
 30
0.0
 11
43.50859999999999
 21
123.491575
 31
0.0
  0
LINE
  5
3C5
330
1E
100
AcDbEntity
  8
0
100
AcDbLine
 10
43.98069999999999
 20
124.3805749999999
 30
0.0
 11
44.7139
 21
124.277575
 31
0.0
  0
LINE
  5
3C7
330
1E
100
AcDbEntity
  8
0
100
AcDbLine
 10
44.7139
 20
124.277575
 30
0.0
 11
45.1027
 21
123.9495749999999
 31
0.0
  0
LINE
  5
3C9
330
1E
100
AcDbEntity
  8
0
100
AcDbLine
 10
43.3258
 20
124.185575
 30
0.0
 11
43.98069999999999
 21
124.3805749999999
 31
0.0
  0
LINE
  5
3CF
330
1E
100
AcDbEntity
  8
0
100
AcDbLine
 10
14.0
 20
124.232575
 30
0.0
 11
14.69999999999999
 21
124.382575
 31
0.0
  0
LINE
  5
3D3
330
1E
100
AcDbEntity
  8
0
100
AcDbLine
 10
14.69999999999999
 20
124.382575
 30
0.0
 11
15.0
 21
124.7325749999999
 31
0.0
  0
LINE
  5
3D4
330
1E
100
AcDbEntity
  8
0
100
AcDbLine
 10
13.3
 20
124.382575
 30
0.0
 11
14.0
 21
124.232575
 31
0.0
  0
LINE
  5
3DC
330
1E
100
AcDbEntity
  8
0
100
AcDbLine
 10
14.69999999999999
 20
125.082575
 30
0.0
 11
15.0
 21
124.7325749999999
 31
0.0
  0
LINE
  5
3E1
330
1E
100
AcDbEntity
  8
0
100
AcDbLine
 10
14.0
 20
125.232575
 30
0.0
 11
14.69999999999999
 21
125.082575
 31
0.0
  0
LINE
  5
3E3
330
1E
100
AcDbEntity
  8
0
100
AcDbLine
 10
13.3
 20
125.082575
 30
0.0
 11
14.0
 21
125.232575
 31
0.0
  0
LINE
  5
3E9
330
1E
100
AcDbEntity
  8
0
100
AcDbLine
 10
51.0
 20
125.598575
 30
0.0
 11
51.0
 21
124.7325749999999
 31
0.0
  0
LINE
  5
3EA
330
1E
100
AcDbEntity
  8
0
100
AcDbLine
 10
51.0
 20
125.598575
 30
0.0
 11
51.216
 21
126.3665749999999
 31
0.0
  0
LINE
  5
3EB
330
1E
100
AcDbEntity
  8
0
100
AcDbLine
 10
51.216
 20
125.500575
 30
0.0
 11
51.792
 21
126.2205749999999
 31
0.0
  0
LINE
  5
3EC
330
1E
100
AcDbEntity
  8
0
100
AcDbLine
 10
51.0
 20
124.7325749999999
 30
0.0
 11
51.216
 21
123.9645749999999
 31
0.0
  0
LINE
  5
3ED
330
1E
100
AcDbEntity
  8
0
100
AcDbLine
 10
51.0
 20
124.7325749999999
 30
0.0
 11
51.0
 21
125.598575
 31
0.0
  0
LINE
  5
3EE
330
1E
100
AcDbEntity
  8
0
100
AcDbLine
 10
51.0
 20
124.7325749999999
 30
0.0
 11
51.216
 21
125.500575
 31
0.0
  0
LINE
  5
3EF
330
1E
100
AcDbEntity
  8
0
100
AcDbLine
 10
62.784
 20
123.9645749999999
 30
0.0
 11
63.0
 21
124.7325749999999
 31
0.0
  0
LINE
  5
3F0
330
1E
100
AcDbEntity
  8
0
100
AcDbLine
 10
69.2351
 20
123.9985749999999
 30
0.0
 11
69.96819999999999
 21
124.101575
 31
0.0
  0
LINE
  5
3F1
330
1E
100
AcDbEntity
  8
0
100
AcDbLine
 10
68.5802
 20
124.1935749999999
 30
0.0
 11
69.2351
 21
123.9985749999999
 31
0.0
  0
LINE
  5
3F2
330
1E
100
AcDbEntity
  8
0
100
AcDbLine
 10
69.96819999999999
 20
124.101575
 30
0.0
 11
70.357
 21
124.429575
 31
0.0
  0
LINE
  5
3FD
330
1E
100
AcDbEntity
  8
0
100
AcDbLine
 10
68.3742
 20
124.5595749999999
 30
0.0
 11
68.5802
 21
124.1935749999999
 31
0.0
  0
LINE
  5
3FE
330
1E
100
AcDbEntity
  8
0
100
AcDbLine
 10
68.3742
 20
124.5595749999999
 30
0.0
 11
68.763
 21
124.887575
 31
0.0
  0
LINE
  5
400
330
1E
100
AcDbEntity
  8
0
100
AcDbLine
 10
99.29999999999999
 20
124.382575
 30
0.0
 11
100.0
 21
124.232575
 31
0.0
  0
LINE
  5
401
330
1E
100
AcDbEntity
  8
0
100
AcDbLine
 10
68.763
 20
124.887575
 30
0.0
 11
69.49609999999999
 21
124.990575
 31
0.0
  0
LINE
  5
403
330
1E
100
AcDbEntity
  8
0
100
AcDbLine
 10
70.15100000000001
 20
124.795575
 30
0.0
 11
70.357
 21
124.429575
 31
0.0
  0
LINE
  5
405
330
1E
100
AcDbEntity
  8
0
100
AcDbLine
 10
69.49609999999999
 20
124.990575
 30
0.0
 11
70.15100000000001
 21
124.795575
 31
0.0
  0
LINE
  5
407
330
1E
100
AcDbEntity
  8
0
100
AcDbLine
 10
99.0
 20
124.7325749999999
 30
0.0
 11
99.29999999999999
 21
125.082575
 31
0.0
  0
LINE
  5
408
330
1E
100
AcDbEntity
  8
0
100
AcDbLine
 10
99.0
 20
124.7325749999999
 30
0.0
 11
99.29999999999999
 21
124.382575
 31
0.0
  0
LINE
  5
40A
330
1E
100
AcDbEntity
  8
0
100
AcDbLine
 10
99.29999999999999
 20
125.082575
 30
0.0
 11
100.0
 21
125.232575
 31
0.0
  0
LINE
  5
40F
330
1E
100
AcDbEntity
  8
0
100
AcDbLine
 10
100.0
 20
125.232575
 30
0.0
 11
100.7
 21
125.082575
 31
0.0
  0
LINE
  5
411
330
1E
100
AcDbEntity
  8
0
100
AcDbLine
 10
100.7
 20
125.082575
 30
0.0
 11
101.0
 21
124.7325749999999
 31
0.0
  0
LINE
  5
414
330
1E
100
AcDbEntity
  8
0
100
AcDbLine
 10
100.7
 20
124.382575
 30
0.0
 11
101.0
 21
124.7325749999999
 31
0.0
  0
LINE
  5
415
330
1E
100
AcDbEntity
  8
0
100
AcDbLine
 10
100.0
 20
124.232575
 30
0.0
 11
100.7
 21
124.382575
 31
0.0
  0
LINE
  5
416
330
1E
100
AcDbEntity
  8
0
100
AcDbLine
 10
63.0
 20
124.7325749999999
 30
0.0
 11
63.0
 21
125.598575
 31
0.0
  0
LINE
  5
424
330
1E
100
AcDbEntity
  8
0
100
AcDbLine
 10
63.0
 20
125.598575
 30
0.0
 11
63.0
 21
124.7325749999999
 31
0.0
  0
LINE
  5
425
330
1E
100
AcDbEntity
  8
0
100
AcDbLine
 10
62.784
 20
125.500575
 30
0.0
 11
63.0
 21
124.7325749999999
 31
0.0
  0
LINE
  5
426
330
1E
100
AcDbEntity
  8
0
100
AcDbLine
 10
51.216
 20
123.9645749999999
 30
0.0
 11
51.792
 21
123.2445749999999
 31
0.0
  0
LINE
  5
427
330
1E
100
AcDbEntity
  8
0
100
AcDbLine
 10
51.792
 20
123.2445749999999
 30
0.0
 11
52.75199999999999
 21
122.6085749999999
 31
0.0
  0
LINE
  5
428
330
1E
100
AcDbEntity
  8
0
100
AcDbLine
 10
11.0
 20
125.598575
 30
0.0
 11
11.5
 21
128.598575
 31
0.0
  0
LINE
  5
429
330
1E
100
AcDbEntity
  8
0
100
AcDbLine
 10
11.0
 20
125.598575
 30
0.0
 11
11.5
 21
122.5985749999999
 31
0.0
  0
LINE
  5
42C
330
1E
100
AcDbEntity
  8
0
100
AcDbLine
 10
24.1518
 20
126.3905749999999
 30
0.0
 11
24.885
 21
126.493575
 31
0.0
  0
LINE
  5
42E
330
1E
100
AcDbEntity
  8
0
100
AcDbLine
 10
24.885
 20
126.493575
 30
0.0
 11
25.2738
 21
126.8215749999999
 31
0.0
  0
LINE
  5
42F
330
1E
100
AcDbEntity
  8
0
100
AcDbLine
 10
23.4969
 20
126.585575
 30
0.0
 11
24.1518
 21
126.3905749999999
 31
0.0
  0
LINE
  5
430
330
1E
100
AcDbEntity
  8
0
100
AcDbLine
 10
51.216
 20
126.3665749999999
 30
0.0
 11
51.792
 21
127.086575
 31
0.0
  0
LINE
  5
431
330
1E
100
AcDbEntity
  8
0
100
AcDbLine
 10
51.792
 20
126.2205749999999
 30
0.0
 11
52.75199999999999
 21
126.856575
 31
0.0
  0
LINE
  5
432
330
1E
100
AcDbEntity
  8
0
100
AcDbLine
 10
25.06769999999999
 20
127.1875749999999
 30
0.0
 11
25.2738
 21
126.8215749999999
 31
0.0
  0
LINE
  5
434
330
1E
100
AcDbEntity
  8
0
100
AcDbLine
 10
23.2909
 20
126.951575
 30
0.0
 11
23.4969
 21
126.585575
 31
0.0
  0
LINE
  5
435
330
1E
100
AcDbEntity
  8
0
100
AcDbLine
 10
23.2909
 20
126.951575
 30
0.0
 11
23.6797
 21
127.279575
 31
0.0
  0
LINE
  5
437
330
1E
100
AcDbEntity
  8
0
100
AcDbLine
 10
24.4128
 20
127.382575
 30
0.0
 11
25.06769999999999
 21
127.1875749999999
 31
0.0
  0
LINE
  5
439
330
1E
100
AcDbEntity
  8
0
100
AcDbLine
 10
23.6797
 20
127.279575
 30
0.0
 11
24.4128
 21
127.382575
 31
0.0
  0
LINE
  5
43B
330
1E
100
AcDbEntity
  8
0
100
AcDbLine
 10
34.5249
 20
127.226575
 30
0.0
 11
35.2787
 21
127.280575
 31
0.0
  0
LINE
  5
43C
330
1E
100
AcDbEntity
  8
0
100
AcDbLine
 10
35.2787
 20
127.280575
 30
0.0
 11
35.7496
 21
127.579575
 31
0.0
  0
LINE
  5
43E
330
1E
100
AcDbEntity
  8
0
100
AcDbLine
 10
33.9264
 20
127.4615749999999
 30
0.0
 11
34.5249
 21
127.226575
 31
0.0
  0
LINE
  5
43F
330
1E
100
AcDbEntity
  8
0
100
AcDbLine
 10
51.792
 20
127.086575
 30
0.0
 11
52.75199999999999
 21
127.722575
 31
0.0
  0
LINE
  5
440
330
1E
100
AcDbEntity
  8
0
100
AcDbLine
 10
52.75199999999999
 20
126.856575
 30
0.0
 11
54.024
 21
127.3365749999999
 31
0.0
  0
LINE
  5
441
330
1E
100
AcDbEntity
  8
0
100
AcDbLine
 10
54.024
 20
127.3365749999999
 30
0.0
 11
55.464
 21
127.6245749999999
 31
0.0
  0
LINE
  5
449
330
1E
100
AcDbEntity
  8
0
100
AcDbLine
 10
35.64099999999999
 20
127.9565749999999
 30
0.0
 11
35.7496
 21
127.579575
 31
0.0
  0
LINE
  5
44B
330
1E
100
AcDbEntity
  8
0
100
AcDbLine
 10
35.04249999999999
 20
128.192575
 30
0.0
 11
35.64099999999999
 21
127.9565749999999
 31
0.0
  0
LINE
  5
44D
330
1E
100
AcDbEntity
  8
0
100
AcDbLine
 10
34.28869999999999
 20
128.137575
 30
0.0
 11
35.04249999999999
 21
128.192575
 31
0.0
  0
LINE
  5
44F
330
1E
100
AcDbEntity
  8
0
100
AcDbLine
 10
33.8178
 20
127.8385749999999
 30
0.0
 11
33.9264
 21
127.4615749999999
 31
0.0
  0
LINE
  5
450
330
1E
100
AcDbEntity
  8
0
100
AcDbLine
 10
33.8178
 20
127.8385749999999
 30
0.0
 11
34.28869999999999
 21
128.137575
 31
0.0
  0
LINE
  5
452
330
1E
100
AcDbEntity
  8
0
100
AcDbLine
 10
52.75199999999999
 20
127.722575
 30
0.0
 11
54.024
 21
128.202575
 31
0.0
  0
LINE
  5
455
330
1E
100
AcDbEntity
  8
0
100
AcDbLine
 10
48.8229
 20
128.7085749999999
 30
0.0
 11
49.1956
 21
129.0405749999999
 31
0.0
  0
LINE
  5
456
330
1E
100
AcDbEntity
  8
0
100
AcDbLine
 10
48.08489999999999
 20
128.6145749999999
 30
0.0
 11
48.8229
 21
128.7085749999999
 31
0.0
  0
LINE
  5
457
330
1E
100
AcDbEntity
  8
0
100
AcDbLine
 10
47.4208
 20
128.801575
 30
0.0
 11
48.08489999999999
 21
128.6145749999999
 31
0.0
  0
LINE
  5
45F
330
1E
100
AcDbEntity
  8
0
100
AcDbLine
 10
54.024
 20
128.202575
 30
0.0
 11
55.464
 21
128.490575
 31
0.0
  0
LINE
  5
460
330
1E
100
AcDbEntity
  8
0
100
AcDbLine
 10
57.0
 20
128.598575
 30
0.0
 11
58.536
 21
128.490575
 31
0.0
  0
LINE
  5
461
330
1E
100
AcDbEntity
  8
0
100
AcDbLine
 10
57.0
 20
127.7325749999999
 30
0.0
 11
58.536
 21
127.6245749999999
 31
0.0
  0
LINE
  5
462
330
1E
100
AcDbEntity
  8
0
100
AcDbLine
 10
55.464
 20
128.490575
 30
0.0
 11
57.0
 21
128.598575
 31
0.0
  0
LINE
  5
463
330
1E
100
AcDbEntity
  8
0
100
AcDbLine
 10
55.464
 20
127.6245749999999
 30
0.0
 11
57.0
 21
127.7325749999999
 31
0.0
  0
LINE
  5
464
330
1E
100
AcDbEntity
  8
0
100
AcDbLine
 10
11.5
 20
128.598575
 30
0.0
 11
12.7
 21
131.548575
 31
0.0
  0
LINE
  5
465
330
1E
100
AcDbEntity
  8
0
100
AcDbLine
 10
15.2064
 20
129.8145749999999
 30
0.0
 11
15.9602
 21
129.8685749999999
 31
0.0
  0
LINE
  5
466
330
1E
100
AcDbEntity
  8
0
100
AcDbLine
 10
15.9602
 20
129.8685749999999
 30
0.0
 11
16.4311
 21
130.168575
 31
0.0
  0
LINE
  5
468
330
1E
100
AcDbEntity
  8
0
100
AcDbLine
 10
14.6079
 20
130.049575
 30
0.0
 11
15.2064
 21
129.8145749999999
 31
0.0
  0
LINE
  5
469
330
1E
100
AcDbEntity
  8
0
100
AcDbLine
 10
47.2327
 20
129.170575
 30
0.0
 11
47.6054
 21
129.502575
 31
0.0
  0
LINE
  5
46A
330
1E
100
AcDbEntity
  8
0
100
AcDbLine
 10
47.2327
 20
129.170575
 30
0.0
 11
47.4208
 21
128.801575
 31
0.0
  0
LINE
  5
46D
330
1E
100
AcDbEntity
  8
0
100
AcDbLine
 10
49.0075
 20
129.4095749999999
 30
0.0
 11
49.1956
 21
129.0405749999999
 31
0.0
  0
LINE
  5
46F
330
1E
100
AcDbEntity
  8
0
100
AcDbLine
 10
47.6054
 20
129.502575
 30
0.0
 11
48.3433
 21
129.596575
 31
0.0
  0
LINE
  5
478
330
1E
100
AcDbEntity
  8
0
100
AcDbLine
 10
48.3433
 20
129.596575
 30
0.0
 11
49.0075
 21
129.4095749999999
 31
0.0
  0
LINE
  5
47C
330
1E
100
AcDbEntity
  8
0
100
AcDbLine
 10
14.4993
 20
130.426575
 30
0.0
 11
14.6079
 21
130.049575
 31
0.0
  0
LINE
  5
47D
330
1E
100
AcDbEntity
  8
0
100
AcDbLine
 10
14.4993
 20
130.426575
 30
0.0
 11
14.9702
 21
130.726575
 31
0.0
  0
LINE
  5
47F
330
1E
100
AcDbEntity
  8
0
100
AcDbLine
 10
16.3225
 20
130.544575
 30
0.0
 11
16.4311
 21
130.168575
 31
0.0
  0
LINE
  5
481
330
1E
100
AcDbEntity
  8
0
100
AcDbLine
 10
15.724
 20
130.7805749999999
 30
0.0
 11
16.3225
 21
130.544575
 31
0.0
  0
LINE
  5
483
330
1E
100
AcDbEntity
  8
0
100
AcDbLine
 10
14.9702
 20
130.726575
 30
0.0
 11
15.724
 21
130.7805749999999
 31
0.0
  0
LINE
  5
485
330
1E
100
AcDbEntity
  8
0
100
AcDbLine
 10
26.1293
 20
130.585575
 30
0.0
 11
26.8908
 21
130.5895749999999
 31
0.0
  0
LINE
  5
487
330
1E
100
AcDbEntity
  8
0
100
AcDbLine
 10
26.8908
 20
130.5895749999999
 30
0.0
 11
27.4359
 21
130.8555749999999
 31
0.0
  0
LINE
  5
488
330
1E
100
AcDbEntity
  8
0
100
AcDbLine
 10
25.5974
 20
130.8575749999999
 30
0.0
 11
26.1293
 21
130.585575
 31
0.0
  0
LINE
  5
48B
330
1E
100
AcDbEntity
  8
0
100
AcDbLine
 10
55.2956
 20
130.6145749999999
 30
0.0
 11
55.9504
 21
130.420575
 31
0.0
  0
LINE
  5
48C
330
1E
100
AcDbEntity
  8
0
100
AcDbLine
 10
55.9504
 20
130.420575
 30
0.0
 11
56.68359999999999
 21
130.523575
 31
0.0
  0
LINE
  5
48D
330
1E
100
AcDbEntity
  8
0
100
AcDbLine
 10
56.68359999999999
 20
130.523575
 30
0.0
 11
57.0724
 21
130.8505749999999
 31
0.0
  0
LINE
  5
497
330
1E
100
AcDbEntity
  8
0
100
AcDbLine
 10
27.4266
 20
131.2365749999999
 30
0.0
 11
27.4359
 21
130.8555749999999
 31
0.0
  0
LINE
  5
49A
330
1E
100
AcDbEntity
  8
0
100
AcDbLine
 10
26.8947
 20
131.509575
 30
0.0
 11
27.4266
 21
131.2365749999999
 31
0.0
  0
LINE
  5
49C
330
1E
100
AcDbEntity
  8
0
100
AcDbLine
 10
26.1331
 20
131.5045749999999
 30
0.0
 11
26.8947
 21
131.509575
 31
0.0
  0
LINE
  5
49E
330
1E
100
AcDbEntity
  8
0
100
AcDbLine
 10
25.5881
 20
131.238575
 30
0.0
 11
25.5974
 21
130.8575749999999
 31
0.0
  0
LINE
  5
49F
330
1E
100
AcDbEntity
  8
0
100
AcDbLine
 10
25.5881
 20
131.238575
 30
0.0
 11
26.1331
 21
131.5045749999999
 31
0.0
  0
LINE
  5
4A3
330
1E
100
AcDbEntity
  8
0
100
AcDbLine
 10
56.8663
 20
131.217575
 30
0.0
 11
57.0724
 21
130.8505749999999
 31
0.0
  0
LINE
  5
4A5
330
1E
100
AcDbEntity
  8
0
100
AcDbLine
 10
56.2115
 20
131.411575
 30
0.0
 11
56.8663
 21
131.217575
 31
0.0
  0
LINE
  5
4A7
330
1E
100
AcDbEntity
  8
0
100
AcDbLine
 10
55.4783
 20
131.3085749999999
 30
0.0
 11
56.2115
 21
131.411575
 31
0.0
  0
LINE
  5
4A9
330
1E
100
AcDbEntity
  8
0
100
AcDbLine
 10
55.0895
 20
130.981575
 30
0.0
 11
55.4783
 21
131.3085749999999
 31
0.0
  0
LINE
  5
4AA
330
1E
100
AcDbEntity
  8
0
100
AcDbLine
 10
55.0895
 20
130.981575
 30
0.0
 11
55.2956
 21
130.6145749999999
 31
0.0
  0
LINE
  5
4AC
330
1E
100
AcDbEntity
  8
0
100
AcDbLine
 10
12.7
 20
131.548575
 30
0.0
 11
14.59999999999999
 21
134.3985749999999
 31
0.0
  0
LINE
  5
4AD
330
1E
100
AcDbEntity
  8
0
100
AcDbLine
 10
13.4
 20
147.062575
 30
0.0
 11
18.2
 21
149.762575
 31
0.0
  0
LINE
  5
4AE
330
1E
100
AcDbEntity
  8
0
100
AcDbLine
 10
11.9
 20
143.8145749999999
 30
0.0
 11
16.8
 21
146.564575
 31
0.0
  0
LINE
  5
4AF
330
1E
100
AcDbEntity
  8
0
100
AcDbLine
 10
12.3
 20
142.315575
 30
0.0
 11
17.1
 21
145.115575
 31
0.0
  0
LINE
  5
4BA
330
1E
100
AcDbEntity
  8
0
100
AcDbLine
 10
40.0294
 20
132.5115749999999
 30
0.0
 11
40.73649999999999
 21
132.3695749999999
 31
0.0
  0
LINE
  5
4BB
330
1E
100
AcDbEntity
  8
0
100
AcDbLine
 10
39.7466
 20
132.8645749999999
 30
0.0
 11
40.0294
 21
133.2185749999999
 31
0.0
  0
LINE
  5
4BC
330
1E
100
AcDbEntity
  8
0
100
AcDbLine
 10
39.7466
 20
132.8645749999999
 30
0.0
 11
40.0294
 21
132.5115749999999
 31
0.0
  0
LINE
  5
4BE
330
1E
100
AcDbEntity
  8
0
100
AcDbLine
 10
41.4436
 20
133.2185749999999
 30
0.0
 11
41.72649999999999
 21
132.8645749999999
 31
0.0
  0
LINE
  5
4C1
330
1E
100
AcDbEntity
  8
0
100
AcDbLine
 10
41.4436
 20
132.5115749999999
 30
0.0
 11
41.72649999999999
 21
132.8645749999999
 31
0.0
  0
LINE
  5
4C2
330
1E
100
AcDbEntity
  8
0
100
AcDbLine
 10
40.73649999999999
 20
132.3695749999999
 30
0.0
 11
41.4436
 21
132.5115749999999
 31
0.0
  0
LINE
  5
4C3
330
1E
100
AcDbEntity
  8
0
100
AcDbLine
 10
40.0294
 20
133.2185749999999
 30
0.0
 11
40.73649999999999
 21
133.359575
 31
0.0
  0
LINE
  5
4C7
330
1E
100
AcDbEntity
  8
0
100
AcDbLine
 10
30.2106
 20
134.380575
 30
0.0
 11
30.9486
 21
134.286575
 31
0.0
  0
LINE
  5
4C8
330
1E
100
AcDbEntity
  8
0
100
AcDbLine
 10
30.9486
 20
134.286575
 30
0.0
 11
31.6127
 21
134.473575
 31
0.0
  0
LINE
  5
4CA
330
1E
100
AcDbEntity
  8
0
100
AcDbLine
 10
31.6127
 20
134.473575
 30
0.0
 11
31.8008
 21
134.842575
 31
0.0
  0
LINE
  5
4CB
330
1E
100
AcDbEntity
  8
0
100
AcDbLine
 10
29.8379
 20
134.7125749999999
 30
0.0
 11
30.2106
 21
134.380575
 31
0.0
  0
LINE
  5
4CC
330
1E
100
AcDbEntity
  8
0
100
AcDbLine
 10
29.8379
 20
134.7125749999999
 30
0.0
 11
30.026
 21
135.0815749999999
 31
0.0
  0
LINE
  5
4D5
330
1E
100
AcDbEntity
  8
0
100
AcDbLine
 10
40.73649999999999
 20
133.359575
 30
0.0
 11
41.4436
 21
133.2185749999999
 31
0.0
  0
LINE
  5
4DB
330
1E
100
AcDbEntity
  8
0
100
AcDbLine
 10
14.59999999999999
 20
134.3985749999999
 30
0.0
 11
17.19999999999999
 21
137.048575
 31
0.0
  0
LINE
  5
4DC
330
1E
100
AcDbEntity
  8
0
100
AcDbLine
 10
19.2609
 20
135.049575
 30
0.0
 11
20.0171
 21
135.0045749999999
 31
0.0
  0
LINE
  5
4DD
330
1E
100
AcDbEntity
  8
0
100
AcDbLine
 10
20.0171
 20
135.0045749999999
 30
0.0
 11
20.62689999999999
 21
135.232575
 31
0.0
  0
LINE
  5
4DE
330
1E
100
AcDbEntity
  8
0
100
AcDbLine
 10
20.62689999999999
 20
135.232575
 30
0.0
 11
20.71709999999999
 21
135.610575
 31
0.0
  0
LINE
  5
4DF
330
1E
100
AcDbEntity
  8
0
100
AcDbLine
 10
18.8047
 20
135.354575
 30
0.0
 11
19.2609
 21
135.049575
 31
0.0
  0
LINE
  5
4E0
330
1E
100
AcDbEntity
  8
0
100
AcDbLine
 10
18.8047
 20
135.354575
 30
0.0
 11
18.8949
 21
135.7325749999999
 31
0.0
  0
LINE
  5
4EC
330
1E
100
AcDbEntity
  8
0
100
AcDbLine
 10
20.26089999999999
 20
135.9155749999999
 30
0.0
 11
20.71709999999999
 21
135.610575
 31
0.0
  0
LINE
  5
4EE
330
1E
100
AcDbEntity
  8
0
100
AcDbLine
 10
19.5047
 20
135.960575
 30
0.0
 11
20.26089999999999
 21
135.9155749999999
 31
0.0
  0
LINE
  5
4F0
330
1E
100
AcDbEntity
  8
0
100
AcDbLine
 10
18.8949
 20
135.7325749999999
 30
0.0
 11
19.5047
 21
135.960575
 31
0.0
  0
LINE
  5
4FB
330
1E
100
AcDbEntity
  8
0
100
AcDbLine
 10
31.4281
 20
135.174575
 30
0.0
 11
31.8008
 21
134.842575
 31
0.0
  0
LINE
  5
4FD
330
1E
100
AcDbEntity
  8
0
100
AcDbLine
 10
30.6901
 20
135.268575
 30
0.0
 11
31.4281
 21
135.174575
 31
0.0
  0
LINE
  5
4FF
330
1E
100
AcDbEntity
  8
0
100
AcDbLine
 10
30.026
 20
135.0815749999999
 30
0.0
 11
30.6901
 21
135.268575
 31
0.0
  0
LINE
  5
501
330
1E
100
AcDbEntity
  8
0
100
AcDbLine
 10
50.0812
 20
135.711575
 30
0.0
 11
50.18979999999999
 21
136.088575
 31
0.0
  0
LINE
  5
502
330
1E
100
AcDbEntity
  8
0
100
AcDbLine
 10
50.0812
 20
135.711575
 30
0.0
 11
50.5522
 21
135.412575
 31
0.0
  0
LINE
  5
504
330
1E
100
AcDbEntity
  8
0
100
AcDbLine
 10
51.30600000000001
 20
135.358575
 30
0.0
 11
51.9045
 21
135.5935749999999
 31
0.0
  0
LINE
  5
505
330
1E
100
AcDbEntity
  8
0
100
AcDbLine
 10
50.5522
 20
135.412575
 30
0.0
 11
51.30600000000001
 21
135.358575
 31
0.0
  0
LINE
  5
506
330
1E
100
AcDbEntity
  8
0
100
AcDbLine
 10
50.18979999999999
 20
136.088575
 30
0.0
 11
50.78829999999999
 21
136.323575
 31
0.0
  0
LINE
  5
510
330
1E
100
AcDbEntity
  8
0
100
AcDbLine
 10
50.78829999999999
 20
136.323575
 30
0.0
 11
51.54209999999999
 21
136.269575
 31
0.0
  0
LINE
  5
514
330
1E
100
AcDbEntity
  8
0
100
AcDbLine
 10
51.9045
 20
135.5935749999999
 30
0.0
 11
52.0131
 21
135.970575
 31
0.0
  0
LINE
  5
515
330
1E
100
AcDbEntity
  8
0
100
AcDbLine
 10
51.54209999999999
 20
136.269575
 30
0.0
 11
52.0131
 21
135.970575
 31
0.0
  0
LINE
  5
517
330
1E
100
AcDbEntity
  8
0
100
AcDbLine
 10
37.51959999999999
 20
137.426575
 30
0.0
 11
37.8924
 21
137.758575
 31
0.0
  0
LINE
  5
518
330
1E
100
AcDbEntity
  8
0
100
AcDbLine
 10
36.7817
 20
137.332575
 30
0.0
 11
37.51959999999999
 21
137.426575
 31
0.0
  0
LINE
  5
519
330
1E
100
AcDbEntity
  8
0
100
AcDbLine
 10
36.1175
 20
137.5185749999999
 30
0.0
 11
36.7817
 21
137.332575
 31
0.0
  0
LINE
  5
51A
330
1E
100
AcDbEntity
  8
0
100
AcDbLine
 10
17.19999999999999
 20
137.048575
 30
0.0
 11
20.6
 21
139.598575
 31
0.0
  0
LINE
  5
51B
330
1E
100
AcDbEntity
  8
0
100
AcDbLine
 10
18.2
 20
149.762575
 30
0.0
 11
23.6
 21
152.162575
 31
0.0
  0
LINE
  5
51C
330
1E
100
AcDbEntity
  8
0
100
AcDbLine
 10
16.8
 20
146.564575
 30
0.0
 11
22.29999999999999
 21
149.014575
 31
0.0
  0
LINE
  5
51D
330
1E
100
AcDbEntity
  8
0
100
AcDbLine
 10
17.1
 20
145.115575
 30
0.0
 11
22.7
 21
147.515575
 31
0.0
  0
LINE
  5
51E
330
1E
100
AcDbEntity
  8
0
100
AcDbLine
 10
20.6
 20
139.598575
 30
0.0
 11
24.5
 21
141.848575
 31
0.0
  0
LINE
  5
51F
330
1E
100
AcDbEntity
  8
0
100
AcDbLine
 10
25.88729999999999
 20
139.5825749999999
 30
0.0
 11
26.5944
 21
139.4405749999999
 31
0.0
  0
LINE
  5
520
330
1E
100
AcDbEntity
  8
0
100
AcDbLine
 10
25.6045
 20
139.935575
 30
0.0
 11
25.88729999999999
 21
140.289575
 31
0.0
  0
LINE
  5
521
330
1E
100
AcDbEntity
  8
0
100
AcDbLine
 10
25.6045
 20
139.935575
 30
0.0
 11
25.88729999999999
 21
139.5825749999999
 31
0.0
  0
LINE
  5
523
330
1E
100
AcDbEntity
  8
0
100
AcDbLine
 10
27.3015
 20
140.289575
 30
0.0
 11
27.5844
 21
139.935575
 31
0.0
  0
LINE
  5
526
330
1E
100
AcDbEntity
  8
0
100
AcDbLine
 10
27.3015
 20
139.5825749999999
 30
0.0
 11
27.5844
 21
139.935575
 31
0.0
  0
LINE
  5
527
330
1E
100
AcDbEntity
  8
0
100
AcDbLine
 10
26.5944
 20
139.4405749999999
 30
0.0
 11
27.3015
 21
139.5825749999999
 31
0.0
  0
LINE
  5
528
330
1E
100
AcDbEntity
  8
0
100
AcDbLine
 10
25.88729999999999
 20
140.289575
 30
0.0
 11
26.5944
 21
140.4305749999999
 31
0.0
  0
LINE
  5
533
330
1E
100
AcDbEntity
  8
0
100
AcDbLine
 10
26.5944
 20
140.4305749999999
 30
0.0
 11
27.3015
 21
140.289575
 31
0.0
  0
LINE
  5
535
330
1E
100
AcDbEntity
  8
0
100
AcDbLine
 10
24.5
 20
141.848575
 30
0.0
 11
29.0
 21
143.7985749999999
 31
0.0
  0
LINE
  5
536
330
1E
100
AcDbEntity
  8
0
100
AcDbLine
 10
29.0
 20
143.7985749999999
 30
0.0
 11
34.1
 21
145.4985749999999
 31
0.0
  0
LINE
  5
537
330
1E
100
AcDbEntity
  8
0
100
AcDbLine
 10
23.8
 20
142.198575
 30
0.0
 11
28.39999999999999
 21
144.198575
 31
0.0
  0
LINE
  5
538
330
1E
100
AcDbEntity
  8
0
100
AcDbLine
 10
28.39999999999999
 20
144.198575
 30
0.0
 11
33.6
 21
145.9485749999999
 31
0.0
  0
LINE
  5
539
330
1E
100
AcDbEntity
  8
0
100
AcDbLine
 10
34.634
 20
143.102575
 30
0.0
 11
35.2438
 21
142.874575
 31
0.0
  0
LINE
  5
53A
330
1E
100
AcDbEntity
  8
0
100
AcDbLine
 10
34.5438
 20
143.4805749999999
 30
0.0
 11
35.0
 21
143.7855749999999
 31
0.0
  0
LINE
  5
53B
330
1E
100
AcDbEntity
  8
0
100
AcDbLine
 10
34.5438
 20
143.4805749999999
 30
0.0
 11
34.634
 21
143.102575
 31
0.0
  0
LINE
  5
53D
330
1E
100
AcDbEntity
  8
0
100
AcDbLine
 10
35.9294
 20
137.8875749999999
 30
0.0
 11
36.3021
 21
138.2195749999999
 31
0.0
  0
LINE
  5
53E
330
1E
100
AcDbEntity
  8
0
100
AcDbLine
 10
35.9294
 20
137.8875749999999
 30
0.0
 11
36.1175
 21
137.5185749999999
 31
0.0
  0
LINE
  5
546
330
1E
100
AcDbEntity
  8
0
100
AcDbLine
 10
36.3021
 20
138.2195749999999
 30
0.0
 11
37.0401
 21
138.3135749999999
 31
0.0
  0
LINE
  5
54C
330
1E
100
AcDbEntity
  8
0
100
AcDbLine
 10
37.7042
 20
138.127575
 30
0.0
 11
37.8924
 21
137.758575
 31
0.0
  0
LINE
  5
54E
330
1E
100
AcDbEntity
  8
0
100
AcDbLine
 10
37.0401
 20
138.3135749999999
 30
0.0
 11
37.7042
 21
138.127575
 31
0.0
  0
LINE
  5
550
330
1E
100
AcDbEntity
  8
0
100
AcDbLine
 10
43.44759999999999
 20
139.7855749999999
 30
0.0
 11
43.4569
 21
140.166575
 31
0.0
  0
LINE
  5
551
330
1E
100
AcDbEntity
  8
0
100
AcDbLine
 10
43.44759999999999
 20
139.7855749999999
 30
0.0
 11
43.9926
 21
139.519575
 31
0.0
  0
LINE
  5
553
330
1E
100
AcDbEntity
  8
0
100
AcDbLine
 10
43.9926
 20
139.519575
 30
0.0
 11
44.7541
 21
139.514575
 31
0.0
  0
LINE
  5
554
330
1E
100
AcDbEntity
  8
0
100
AcDbLine
 10
43.4569
 20
140.166575
 30
0.0
 11
43.9888
 21
140.4385749999999
 31
0.0
  0
LINE
  5
55E
330
1E
100
AcDbEntity
  8
0
100
AcDbLine
 10
43.9888
 20
140.4385749999999
 30
0.0
 11
44.7503
 21
140.434575
 31
0.0
  0
LINE
  5
560
330
1E
100
AcDbEntity
  8
0
100
AcDbLine
 10
44.7541
 20
139.514575
 30
0.0
 11
45.28599999999999
 21
139.787575
 31
0.0
  0
LINE
  5
561
330
1E
100
AcDbEntity
  8
0
100
AcDbLine
 10
44.7503
 20
140.434575
 30
0.0
 11
45.2953
 21
140.168575
 31
0.0
  0
LINE
  5
564
330
1E
100
AcDbEntity
  8
0
100
AcDbLine
 10
36.366
 20
143.6025749999999
 30
0.0
 11
36.4562
 21
143.2245749999999
 31
0.0
  0
LINE
  5
566
330
1E
100
AcDbEntity
  8
0
100
AcDbLine
 10
36.0
 20
142.919575
 30
0.0
 11
36.4562
 21
143.2245749999999
 31
0.0
  0
LINE
  5
567
330
1E
100
AcDbEntity
  8
0
100
AcDbLine
 10
35.2438
 20
142.874575
 30
0.0
 11
36.0
 21
142.919575
 31
0.0
  0
LINE
  5
568
330
1E
100
AcDbEntity
  8
0
100
AcDbLine
 10
35.0
 20
143.7855749999999
 30
0.0
 11
35.7562
 21
143.830575
 31
0.0
  0
LINE
  5
573
330
1E
100
AcDbEntity
  8
0
100
AcDbLine
 10
35.7562
 20
143.830575
 30
0.0
 11
36.366
 21
143.6025749999999
 31
0.0
  0
LINE
  5
575
330
1E
100
AcDbEntity
  8
0
100
AcDbLine
 10
34.1
 20
145.4985749999999
 30
0.0
 11
39.39999999999999
 21
146.7985749999999
 31
0.0
  0
LINE
  5
576
330
1E
100
AcDbEntity
  8
0
100
AcDbLine
 10
39.39999999999999
 20
146.7985749999999
 30
0.0
 11
45.1
 21
147.7485749999999
 31
0.0
  0
LINE
  5
577
330
1E
100
AcDbEntity
  8
0
100
AcDbLine
 10
33.6
 20
145.9485749999999
 30
0.0
 11
39.0
 21
147.2485749999999
 31
0.0
  0
LINE
  5
578
330
1E
100
AcDbEntity
  8
0
100
AcDbLine
 10
22.7
 20
147.515575
 30
0.0
 11
28.9
 21
149.6155749999999
 31
0.0
  0
LINE
  5
579
330
1E
100
AcDbEntity
  8
0
100
AcDbLine
 10
39.0
 20
147.2485749999999
 30
0.0
 11
44.9
 21
148.2485749999999
 31
0.0
  0
LINE
  5
57A
330
1E
100
AcDbEntity
  8
0
100
AcDbLine
 10
44.9049
 20
145.370575
 30
0.0
 11
45.0135
 21
145.747575
 31
0.0
  0
LINE
  5
57B
330
1E
100
AcDbEntity
  8
0
100
AcDbLine
 10
44.9049
 20
145.370575
 30
0.0
 11
45.3758
 21
145.071575
 31
0.0
  0
LINE
  5
581
330
1E
100
AcDbEntity
  8
0
100
AcDbLine
 10
45.0135
 20
145.747575
 30
0.0
 11
45.61199999999999
 21
145.983575
 31
0.0
  0
LINE
  5
585
330
1E
100
AcDbEntity
  8
0
100
AcDbLine
 10
45.28599999999999
 20
139.787575
 30
0.0
 11
45.2953
 21
140.168575
 31
0.0
  0
LINE
  5
586
330
1E
100
AcDbEntity
  8
0
100
AcDbLine
 10
51.7012
 20
141.026575
 30
0.0
 11
51.9073
 21
141.393575
 31
0.0
  0
LINE
  5
587
330
1E
100
AcDbEntity
  8
0
100
AcDbLine
 10
51.7012
 20
141.026575
 30
0.0
 11
52.09
 21
140.699575
 31
0.0
  0
LINE
  5
589
330
1E
100
AcDbEntity
  8
0
100
AcDbLine
 10
52.8232
 20
140.5955749999999
 30
0.0
 11
53.478
 21
140.7905749999999
 31
0.0
  0
LINE
  5
58A
330
1E
100
AcDbEntity
  8
0
100
AcDbLine
 10
52.09
 20
140.699575
 30
0.0
 11
52.8232
 21
140.5955749999999
 31
0.0
  0
LINE
  5
58B
330
1E
100
AcDbEntity
  8
0
100
AcDbLine
 10
51.9073
 20
141.393575
 30
0.0
 11
52.5621
 21
141.5875749999999
 31
0.0
  0
LINE
  5
595
330
1E
100
AcDbEntity
  8
0
100
AcDbLine
 10
52.5621
 20
141.5875749999999
 30
0.0
 11
53.2953
 21
141.484575
 31
0.0
  0
LINE
  5
599
330
1E
100
AcDbEntity
  8
0
100
AcDbLine
 10
53.478
 20
140.7905749999999
 30
0.0
 11
53.6841
 21
141.156575
 31
0.0
  0
LINE
  5
59A
330
1E
100
AcDbEntity
  8
0
100
AcDbLine
 10
53.2953
 20
141.484575
 30
0.0
 11
53.6841
 21
141.156575
 31
0.0
  0
LINE
  5
59D
330
1E
100
AcDbEntity
  8
0
100
AcDbLine
 10
46.7281
 20
145.252575
 30
0.0
 11
46.8367
 21
145.6295749999999
 31
0.0
  0
LINE
  5
59E
330
1E
100
AcDbEntity
  8
0
100
AcDbLine
 10
46.1296
 20
145.0175749999999
 30
0.0
 11
46.7281
 21
145.252575
 31
0.0
  0
LINE
  5
59F
330
1E
100
AcDbEntity
  8
0
100
AcDbLine
 10
45.3758
 20
145.071575
 30
0.0
 11
46.1296
 21
145.0175749999999
 31
0.0
  0
LINE
  5
5A0
330
1E
100
AcDbEntity
  8
0
100
AcDbLine
 10
45.61199999999999
 20
145.983575
 30
0.0
 11
46.3658
 21
145.928575
 31
0.0
  0
LINE
  5
5A2
330
1E
100
AcDbEntity
  8
0
100
AcDbLine
 10
46.3658
 20
145.928575
 30
0.0
 11
46.8367
 21
145.6295749999999
 31
0.0
  0
LINE
  5
5A4
330
1E
100
AcDbEntity
  8
0
100
AcDbLine
 10
56.29999999999999
 20
145.882575
 30
0.0
 11
57.0
 21
145.732575
 31
0.0
  0
LINE
  5
5A5
330
1E
100
AcDbEntity
  8
0
100
AcDbLine
 10
57.0
 20
145.732575
 30
0.0
 11
57.7
 21
145.882575
 31
0.0
  0
LINE
  5
5B1
330
1E
100
AcDbEntity
  8
0
100
AcDbLine
 10
57.0
 20
146.732575
 30
0.0
 11
57.7
 21
146.582575
 31
0.0
  0
LINE
  5
5B3
330
1E
100
AcDbEntity
  8
0
100
AcDbLine
 10
56.29999999999999
 20
146.582575
 30
0.0
 11
57.0
 21
146.732575
 31
0.0
  0
LINE
  5
5B5
330
1E
100
AcDbEntity
  8
0
100
AcDbLine
 10
56.0
 20
146.2325749999999
 30
0.0
 11
56.29999999999999
 21
146.582575
 31
0.0
  0
LINE
  5
5B6
330
1E
100
AcDbEntity
  8
0
100
AcDbLine
 10
56.0
 20
146.2325749999999
 30
0.0
 11
56.29999999999999
 21
145.882575
 31
0.0
  0
LINE
  5
5B8
330
1E
100
AcDbEntity
  8
0
100
AcDbLine
 10
45.1
 20
147.7485749999999
 30
0.0
 11
51.0
 21
148.348575
 31
0.0
  0
LINE
  5
5B9
330
1E
100
AcDbEntity
  8
0
100
AcDbLine
 10
57.0
 20
148.598575
 30
0.0
 11
63.0
 21
148.348575
 31
0.0
  0
LINE
  5
5BA
330
1E
100
AcDbEntity
  8
0
100
AcDbLine
 10
51.0
 20
148.348575
 30
0.0
 11
57.0
 21
148.598575
 31
0.0
  0
LINE
  5
5BB
330
1E
100
AcDbEntity
  8
0
100
AcDbLine
 10
44.9
 20
148.2485749999999
 30
0.0
 11
50.89999999999999
 21
148.848575
 31
0.0
  0
LINE
  5
5BC
330
1E
100
AcDbEntity
  8
0
100
AcDbLine
 10
22.29999999999999
 20
149.014575
 30
0.0
 11
28.6
 21
151.164575
 31
0.0
  0
LINE
  5
5BD
330
1E
100
AcDbEntity
  8
0
100
AcDbLine
 10
23.6
 20
152.162575
 30
0.0
 11
24.8
 21
152.6615749999999
 31
0.0
  0
LINE
  5
5BE
330
1E
100
AcDbEntity
  8
0
100
AcDbLine
 10
28.6
 20
151.164575
 30
0.0
 11
35.2
 21
152.764575
 31
0.0
  0
LINE
  5
5BF
330
1E
100
AcDbEntity
  8
0
100
AcDbLine
 10
28.9
 20
149.6155749999999
 30
0.0
 11
35.4
 21
151.2155749999999
 31
0.0
  0
LINE
  5
5C0
330
1E
100
AcDbEntity
  8
0
100
AcDbLine
 10
35.4
 20
151.2155749999999
 30
0.0
 11
42.4
 21
152.415575
 31
0.0
  0
LINE
  5
5C1
330
1E
100
AcDbEntity
  8
0
100
AcDbLine
 10
24.8
 20
152.6615749999999
 30
0.0
 11
30.6
 21
154.611575
 31
0.0
  0
LINE
  5
5C2
330
1E
100
AcDbEntity
  8
0
100
AcDbLine
 10
35.2
 20
152.764575
 30
0.0
 11
42.29999999999999
 21
153.914575
 31
0.0
  0
LINE
  5
5C3
330
1E
100
AcDbEntity
  8
0
100
AcDbLine
 10
42.4
 20
152.415575
 30
0.0
 11
49.7
 21
153.115575
 31
0.0
  0
LINE
  5
5C4
330
1E
100
AcDbEntity
  8
0
100
AcDbLine
 10
49.7
 20
153.115575
 30
0.0
 11
57.0
 21
153.415575
 31
0.0
  0
LINE
  5
5C5
330
1E
100
AcDbEntity
  8
0
100
AcDbLine
 10
50.89999999999999
 20
148.848575
 30
0.0
 11
57.0
 21
149.098575
 31
0.0
  0
LINE
  5
5C6
330
1E
100
AcDbEntity
  8
0
100
AcDbLine
 10
19.8
 20
139.898575
 30
0.0
 11
23.8
 21
142.198575
 31
0.0
  0
LINE
  5
5C7
330
1E
100
AcDbEntity
  8
0
100
AcDbLine
 10
16.69999999999999
 20
137.5815749999999
 30
0.0
 11
19.884255319149
 21
139.947021808511
 31
0.0
  0
LINE
  5
5C8
330
1E
100
AcDbEntity
  8
0
100
AcDbLine
 10
16.3
 20
137.298575
 30
0.0
 11
19.8
 21
139.898575
 31
0.0
  0
LINE
  5
5C9
330
1E
100
AcDbEntity
  8
0
100
AcDbLine
 10
14.1
 20
134.931575
 30
0.0
 11
16.69999999999999
 21
137.5815749999999
 31
0.0
  0
LINE
  5
5CA
330
1E
100
AcDbEntity
  8
0
100
AcDbLine
 10
13.7
 20
134.598575
 30
0.0
 11
16.3
 21
137.298575
 31
0.0
  0
LINE
  5
5CB
330
1E
100
AcDbEntity
  8
0
100
AcDbLine
 10
12.19999999999999
 20
132.031575
 30
0.0
 11
14.1
 21
134.931575
 31
0.0
  0
LINE
  5
5CC
330
1E
100
AcDbEntity
  8
0
100
AcDbLine
 10
11.69999999999999
 20
131.648575
 30
0.0
 11
13.7
 21
134.598575
 31
0.0
  0
LINE
  5
5CD
330
1E
100
AcDbEntity
  8
0
100
AcDbLine
 10
11.0
 20
129.0315749999999
 30
0.0
 11
12.19999999999999
 21
132.031575
 31
0.0
  0
LINE
  5
5CE
330
1E
100
AcDbEntity
  8
0
100
AcDbLine
 10
10.5
 20
128.6485749999999
 30
0.0
 11
11.69999999999999
 21
131.648575
 31
0.0
  0
LINE
  5
5CF
330
1E
100
AcDbEntity
  8
0
100
AcDbLine
 10
30.6
 20
154.611575
 30
0.0
 11
36.79999999999999
 21
156.1115749999999
 31
0.0
  0
LINE
  5
5D0
330
1E
100
AcDbEntity
  8
0
100
AcDbLine
 10
36.79999999999999
 20
156.1115749999999
 30
0.0
 11
43.3
 21
157.211575
 31
0.0
  0
LINE
  5
5D1
330
1E
100
AcDbEntity
  8
0
100
AcDbLine
 10
43.3
 20
157.211575
 30
0.0
 11
50.1
 21
157.9115749999999
 31
0.0
  0
LINE
  5
5D2
330
1E
100
AcDbEntity
  8
0
100
AcDbLine
 10
50.1
 20
157.9115749999999
 30
0.0
 11
57.0
 21
158.161575
 31
0.0
  0
LINE
  5
5D3
330
1E
100
AcDbEntity
  8
0
100
AcDbLine
 10
49.6
 20
154.664575
 30
0.0
 11
57.0
 21
154.9645749999999
 31
0.0
  0
LINE
  5
5D4
330
1E
100
AcDbEntity
  8
0
100
AcDbLine
 10
22.1
 20
166.864575
 30
0.0
 11
26.89999999999999
 21
169.014575
 31
0.0
  0
LINE
  5
5D5
330
1E
100
AcDbEntity
  8
0
100
AcDbLine
 10
26.89999999999999
 20
169.014575
 30
0.0
 11
32.4
 21
170.864575
 31
0.0
  0
LINE
  5
5D6
330
1E
100
AcDbEntity
  8
0
100
AcDbLine
 10
32.4
 20
170.864575
 30
0.0
 11
38.1
 21
172.2145749999999
 31
0.0
  0
LINE
  5
5D7
330
1E
100
AcDbEntity
  8
0
100
AcDbLine
 10
38.1
 20
172.2145749999999
 30
0.0
 11
44.2
 21
173.264575
 31
0.0
  0
LINE
  5
5D8
330
1E
100
AcDbEntity
  8
0
100
AcDbLine
 10
44.2
 20
173.264575
 30
0.0
 11
50.6
 21
173.914575
 31
0.0
  0
LINE
  5
5D9
330
1E
100
AcDbEntity
  8
0
100
AcDbLine
 10
50.6
 20
173.914575
 30
0.0
 11
57.0
 21
174.164575
 31
0.0
  0
LINE
  5
5DA
330
1E
100
AcDbEntity
  8
0
100
AcDbLine
 10
17.8
 20
164.464575
 30
0.0
 11
22.1
 21
166.864575
 31
0.0
  0
LINE
  5
5DB
330
1E
100
AcDbEntity
  8
0
100
AcDbLine
 10
14.1
 20
161.7145749999999
 30
0.0
 11
17.8
 21
164.464575
 31
0.0
  0
LINE
  5
5DC
330
1E
100
AcDbEntity
  8
0
100
AcDbLine
 10
11.4
 20
158.8645749999999
 30
0.0
 11
14.1
 21
161.7145749999999
 31
0.0
  0
LINE
  5
5DD
330
1E
100
AcDbEntity
  8
0
100
AcDbLine
 10
57.0
 20
174.164575
 30
0.0
 11
63.39999999999999
 21
173.914575
 31
0.0
  0
LINE
  5
5DE
330
1E
100
AcDbEntity
  8
0
100
AcDbLine
 10
57.0
 20
158.161575
 30
0.0
 11
63.9
 21
157.9115749999999
 31
0.0
  0
LINE
  5
5DF
330
1E
100
AcDbEntity
  8
0
100
AcDbLine
 10
57.0
 20
154.9645749999999
 30
0.0
 11
64.40000000000001
 21
154.664575
 31
0.0
  0
LINE
  5
5E0
330
1E
100
AcDbEntity
  8
0
100
AcDbLine
 10
57.0
 20
153.415575
 30
0.0
 11
64.29999999999999
 21
153.115575
 31
0.0
  0
LINE
  5
5E1
330
1E
100
AcDbEntity
  8
0
100
AcDbLine
 10
62.784
 20
126.3665749999999
 30
0.0
 11
63.0
 21
125.598575
 31
0.0
  0
LINE
  5
5E2
330
1E
100
AcDbEntity
  8
0
100
AcDbLine
 10
62.208
 20
126.2205749999999
 30
0.0
 11
62.784
 21
125.500575
 31
0.0
  0
LINE
  5
5E3
330
1E
100
AcDbEntity
  8
0
100
AcDbLine
 10
62.208
 20
127.086575
 30
0.0
 11
62.784
 21
126.3665749999999
 31
0.0
  0
LINE
  5
5E4
330
1E
100
AcDbEntity
  8
0
100
AcDbLine
 10
61.248
 20
126.856575
 30
0.0
 11
62.208
 21
126.2205749999999
 31
0.0
  0
LINE
  5
5E5
330
1E
100
AcDbEntity
  8
0
100
AcDbLine
 10
59.97600000000001
 20
127.3365749999999
 30
0.0
 11
61.248
 21
126.856575
 31
0.0
  0
LINE
  5
5E9
330
1E
100
AcDbEntity
  8
0
100
AcDbLine
 10
57.7
 20
145.882575
 30
0.0
 11
58.0
 21
146.2325749999999
 31
0.0
  0
LINE
  5
5ED
330
1E
100
AcDbEntity
  8
0
100
AcDbLine
 10
57.7
 20
146.582575
 30
0.0
 11
58.0
 21
146.2325749999999
 31
0.0
  0
LINE
  5
5EF
330
1E
100
AcDbEntity
  8
0
100
AcDbLine
 10
61.248
 20
127.722575
 30
0.0
 11
62.208
 21
127.086575
 31
0.0
  0
LINE
  5
5F2
330
1E
100
AcDbEntity
  8
0
100
AcDbLine
 10
60.522
 20
140.7905749999999
 30
0.0
 11
61.1768
 21
140.5955749999999
 31
0.0
  0
LINE
  5
5F3
330
1E
100
AcDbEntity
  8
0
100
AcDbLine
 10
61.1768
 20
140.5955749999999
 30
0.0
 11
61.90999999999999
 21
140.699575
 31
0.0
  0
LINE
  5
5F4
330
1E
100
AcDbEntity
  8
0
100
AcDbLine
 10
61.90999999999999
 20
140.699575
 30
0.0
 11
62.2988
 21
141.026575
 31
0.0
  0
LINE
  5
5F9
330
1E
100
AcDbEntity
  8
0
100
AcDbLine
 10
61.4379
 20
141.5875749999999
 30
0.0
 11
62.0927
 21
141.393575
 31
0.0
  0
LINE
  5
5FB
330
1E
100
AcDbEntity
  8
0
100
AcDbLine
 10
60.7047
 20
141.484575
 30
0.0
 11
61.4379
 21
141.5875749999999
 31
0.0
  0
LINE
  5
5FD
330
1E
100
AcDbEntity
  8
0
100
AcDbLine
 10
60.3159
 20
141.156575
 30
0.0
 11
60.7047
 21
141.484575
 31
0.0
  0
LINE
  5
5FE
330
1E
100
AcDbEntity
  8
0
100
AcDbLine
 10
60.3159
 20
141.156575
 30
0.0
 11
60.522
 21
140.7905749999999
 31
0.0
  0
LINE
  5
602
330
1E
100
AcDbEntity
  8
0
100
AcDbLine
 10
62.694
 20
135.358575
 30
0.0
 11
63.4478
 21
135.412575
 31
0.0
  0
LINE
  5
603
330
1E
100
AcDbEntity
  8
0
100
AcDbLine
 10
62.0955
 20
135.5935749999999
 30
0.0
 11
62.694
 21
135.358575
 31
0.0
  0
LINE
  5
604
330
1E
100
AcDbEntity
  8
0
100
AcDbLine
 10
63.4478
 20
135.412575
 30
0.0
 11
63.9188
 21
135.711575
 31
0.0
  0
LINE
  5
606
330
1E
100
AcDbEntity
  8
0
100
AcDbLine
 10
63.8102
 20
136.088575
 30
0.0
 11
63.9188
 21
135.711575
 31
0.0
  0
LINE
  5
609
330
1E
100
AcDbEntity
  8
0
100
AcDbLine
 10
63.0
 20
148.348575
 30
0.0
 11
68.9
 21
147.7485749999999
 31
0.0
  0
LINE
  5
60D
330
1E
100
AcDbEntity
  8
0
100
AcDbLine
 10
62.0927
 20
141.393575
 30
0.0
 11
62.2988
 21
141.026575
 31
0.0
  0
LINE
  5
616
330
1E
100
AcDbEntity
  8
0
100
AcDbLine
 10
63.2117
 20
136.323575
 30
0.0
 11
63.8102
 21
136.088575
 31
0.0
  0
LINE
  5
618
330
1E
100
AcDbEntity
  8
0
100
AcDbLine
 10
62.4579
 20
136.269575
 30
0.0
 11
63.2117
 21
136.323575
 31
0.0
  0
LINE
  5
61A
330
1E
100
AcDbEntity
  8
0
100
AcDbLine
 10
61.9869
 20
135.970575
 30
0.0
 11
62.4579
 21
136.269575
 31
0.0
  0
LINE
  5
61B
330
1E
100
AcDbEntity
  8
0
100
AcDbLine
 10
61.9869
 20
135.970575
 30
0.0
 11
62.0955
 21
135.5935749999999
 31
0.0
  0
LINE
  5
621
330
1E
100
AcDbEntity
  8
0
100
AcDbLine
 10
64.4556
 20
129.3025749999999
 30
0.0
 11
64.82829999999999
 21
128.9705749999999
 31
0.0
  0
LINE
  5
622
330
1E
100
AcDbEntity
  8
0
100
AcDbLine
 10
64.4556
 20
129.3025749999999
 30
0.0
 11
64.64369999999999
 21
129.6715749999999
 31
0.0
  0
LINE
  5
624
330
1E
100
AcDbEntity
  8
0
100
AcDbLine
 10
64.82829999999999
 20
128.9705749999999
 30
0.0
 11
65.5663
 21
128.876575
 31
0.0
  0
LINE
  5
625
330
1E
100
AcDbEntity
  8
0
100
AcDbLine
 10
65.5663
 20
128.876575
 30
0.0
 11
66.2304
 21
129.062575
 31
0.0
  0
LINE
  5
627
330
1E
100
AcDbEntity
  8
0
100
AcDbLine
 10
66.2304
 20
129.062575
 30
0.0
 11
66.4186
 21
129.431575
 31
0.0
  0
LINE
  5
628
330
1E
100
AcDbEntity
  8
0
100
AcDbLine
 10
66.0458
 20
129.7635749999999
 30
0.0
 11
66.4186
 21
129.431575
 31
0.0
  0
LINE
  5
62D
330
1E
100
AcDbEntity
  8
0
100
AcDbLine
 10
67.2719
 20
145.252575
 30
0.0
 11
67.87040000000001
 21
145.0175749999999
 31
0.0
  0
LINE
  5
62E
330
1E
100
AcDbEntity
  8
0
100
AcDbLine
 10
67.87040000000001
 20
145.0175749999999
 30
0.0
 11
68.6242
 21
145.071575
 31
0.0
  0
LINE
  5
62F
330
1E
100
AcDbEntity
  8
0
100
AcDbLine
 10
68.6242
 20
145.071575
 30
0.0
 11
69.0951
 21
145.370575
 31
0.0
  0
LINE
  5
634
330
1E
100
AcDbEntity
  8
0
100
AcDbLine
 10
68.388
 20
145.983575
 30
0.0
 11
68.9865
 21
145.747575
 31
0.0
  0
LINE
  5
636
330
1E
100
AcDbEntity
  8
0
100
AcDbLine
 10
67.6342
 20
145.928575
 30
0.0
 11
68.388
 21
145.983575
 31
0.0
  0
LINE
  5
638
330
1E
100
AcDbEntity
  8
0
100
AcDbLine
 10
67.16330000000001
 20
145.6295749999999
 30
0.0
 11
67.6342
 21
145.928575
 31
0.0
  0
LINE
  5
639
330
1E
100
AcDbEntity
  8
0
100
AcDbLine
 10
67.16330000000001
 20
145.6295749999999
 30
0.0
 11
67.2719
 21
145.252575
 31
0.0
  0
LINE
  5
63D
330
1E
100
AcDbEntity
  8
0
100
AcDbLine
 10
68.9
 20
147.7485749999999
 30
0.0
 11
74.59999999999999
 21
146.7985749999999
 31
0.0
  0
LINE
  5
642
330
1E
100
AcDbEntity
  8
0
100
AcDbLine
 10
68.9865
 20
145.747575
 30
0.0
 11
69.0951
 21
145.370575
 31
0.0
  0
LINE
  5
644
330
1E
100
AcDbEntity
  8
0
100
AcDbLine
 10
68.714
 20
139.787575
 30
0.0
 11
69.24590000000001
 21
139.514575
 31
0.0
  0
LINE
  5
645
330
1E
100
AcDbEntity
  8
0
100
AcDbLine
 10
68.7047
 20
140.168575
 30
0.0
 11
69.2497
 21
140.434575
 31
0.0
  0
LINE
  5
646
330
1E
100
AcDbEntity
  8
0
100
AcDbLine
 10
68.7047
 20
140.168575
 30
0.0
 11
68.714
 21
139.787575
 31
0.0
  0
LINE
  5
64C
330
1E
100
AcDbEntity
  8
0
100
AcDbLine
 10
65.3079
 20
129.8575749999999
 30
0.0
 11
66.0458
 21
129.7635749999999
 31
0.0
  0
LINE
  5
64E
330
1E
100
AcDbEntity
  8
0
100
AcDbLine
 10
64.64369999999999
 20
129.6715749999999
 30
0.0
 11
65.3079
 21
129.8575749999999
 31
0.0
  0
LINE
  5
650
330
1E
100
AcDbEntity
  8
0
100
AcDbLine
 10
59.97600000000001
 20
128.202575
 30
0.0
 11
61.248
 21
127.722575
 31
0.0
  0
LINE
  5
651
330
1E
100
AcDbEntity
  8
0
100
AcDbLine
 10
58.536
 20
128.490575
 30
0.0
 11
59.97600000000001
 21
128.202575
 31
0.0
  0
LINE
  5
652
330
1E
100
AcDbEntity
  8
0
100
AcDbLine
 10
58.536
 20
127.6245749999999
 30
0.0
 11
59.97600000000001
 21
127.3365749999999
 31
0.0
  0
LINE
  5
653
330
1E
100
AcDbEntity
  8
0
100
AcDbLine
 10
72.55639999999999
 20
132.5115749999999
 30
0.0
 11
73.26349999999999
 21
132.3695749999999
 31
0.0
  0
LINE
  5
654
330
1E
100
AcDbEntity
  8
0
100
AcDbLine
 10
73.26349999999999
 20
132.3695749999999
 30
0.0
 11
73.9706
 21
132.5115749999999
 31
0.0
  0
LINE
  5
655
330
1E
100
AcDbEntity
  8
0
100
AcDbLine
 10
72.2735
 20
132.8645749999999
 30
0.0
 11
72.55639999999999
 21
132.5115749999999
 31
0.0
  0
LINE
  5
656
330
1E
100
AcDbEntity
  8
0
100
AcDbLine
 10
72.2735
 20
132.8645749999999
 30
0.0
 11
72.55639999999999
 21
133.2185749999999
 31
0.0
  0
LINE
  5
658
330
1E
100
AcDbEntity
  8
0
100
AcDbLine
 10
73.9706
 20
132.5115749999999
 30
0.0
 11
74.2534
 21
132.8645749999999
 31
0.0
  0
LINE
  5
659
330
1E
100
AcDbEntity
  8
0
100
AcDbLine
 10
78.2504
 20
127.579575
 30
0.0
 11
78.35899999999999
 21
127.9565749999999
 31
0.0
  0
LINE
  5
65A
330
1E
100
AcDbEntity
  8
0
100
AcDbLine
 10
78.2504
 20
127.579575
 30
0.0
 11
78.7213
 21
127.280575
 31
0.0
  0
LINE
  5
65C
330
1E
100
AcDbEntity
  8
0
100
AcDbLine
 10
78.7213
 20
127.280575
 30
0.0
 11
79.4751
 21
127.226575
 31
0.0
  0
LINE
  5
65D
330
1E
100
AcDbEntity
  8
0
100
AcDbLine
 10
78.35899999999999
 20
127.9565749999999
 30
0.0
 11
78.95749999999999
 21
128.192575
 31
0.0
  0
LINE
  5
665
330
1E
100
AcDbEntity
  8
0
100
AcDbLine
 10
78.95749999999999
 20
128.192575
 30
0.0
 11
79.71129999999999
 21
128.137575
 31
0.0
  0
LINE
  5
66B
330
1E
100
AcDbEntity
  8
0
100
AcDbLine
 10
79.71129999999999
 20
128.137575
 30
0.0
 11
80.18219999999999
 21
127.8385749999999
 31
0.0
  0
LINE
  5
66D
330
1E
100
AcDbEntity
  8
0
100
AcDbLine
 10
80.0736
 20
127.4615749999999
 30
0.0
 11
80.18219999999999
 21
127.8385749999999
 31
0.0
  0
LINE
  5
66E
330
1E
100
AcDbEntity
  8
0
100
AcDbLine
 10
79.4751
 20
127.226575
 30
0.0
 11
80.0736
 21
127.4615749999999
 31
0.0
  0
LINE
  5
670
330
1E
100
AcDbEntity
  8
0
100
AcDbLine
 10
73.9706
 20
133.2185749999999
 30
0.0
 11
74.2534
 21
132.8645749999999
 31
0.0
  0
LINE
  5
674
330
1E
100
AcDbEntity
  8
0
100
AcDbLine
 10
69.24590000000001
 20
139.514575
 30
0.0
 11
70.0074
 21
139.519575
 31
0.0
  0
LINE
  5
675
330
1E
100
AcDbEntity
  8
0
100
AcDbLine
 10
70.0074
 20
139.519575
 30
0.0
 11
70.55240000000001
 21
139.7855749999999
 31
0.0
  0
LINE
  5
677
330
1E
100
AcDbEntity
  8
0
100
AcDbLine
 10
70.5431
 20
140.166575
 30
0.0
 11
70.55240000000001
 21
139.7855749999999
 31
0.0
  0
LINE
  5
680
330
1E
100
AcDbEntity
  8
0
100
AcDbLine
 10
70.0112
 20
140.4385749999999
 30
0.0
 11
70.5431
 21
140.166575
 31
0.0
  0
LINE
  5
682
330
1E
100
AcDbEntity
  8
0
100
AcDbLine
 10
69.2497
 20
140.434575
 30
0.0
 11
70.0112
 21
140.4385749999999
 31
0.0
  0
LINE
  5
689
330
1E
100
AcDbEntity
  8
0
100
AcDbLine
 10
74.59999999999999
 20
146.7985749999999
 30
0.0
 11
79.90000000000001
 21
145.4985749999999
 31
0.0
  0
LINE
  5
68E
330
1E
100
AcDbEntity
  8
0
100
AcDbLine
 10
76.10769999999999
 20
137.758575
 30
0.0
 11
76.4804
 21
137.426575
 31
0.0
  0
LINE
  5
68F
330
1E
100
AcDbEntity
  8
0
100
AcDbLine
 10
76.10769999999999
 20
137.758575
 30
0.0
 11
76.2958
 21
138.127575
 31
0.0
  0
LINE
  5
691
330
1E
100
AcDbEntity
  8
0
100
AcDbLine
 10
76.4804
 20
137.426575
 30
0.0
 11
77.2183
 21
137.332575
 31
0.0
  0
LINE
  5
692
330
1E
100
AcDbEntity
  8
0
100
AcDbLine
 10
77.2183
 20
137.332575
 30
0.0
 11
77.88249999999999
 21
137.5185749999999
 31
0.0
  0
LINE
  5
694
330
1E
100
AcDbEntity
  8
0
100
AcDbLine
 10
77.88249999999999
 20
137.5185749999999
 30
0.0
 11
78.07059999999999
 21
137.8875749999999
 31
0.0
  0
LINE
  5
695
330
1E
100
AcDbEntity
  8
0
100
AcDbLine
 10
77.6979
 20
138.2195749999999
 30
0.0
 11
78.07059999999999
 21
137.8875749999999
 31
0.0
  0
LINE
  5
69C
330
1E
100
AcDbEntity
  8
0
100
AcDbLine
 10
77.54380000000001
 20
143.2245749999999
 30
0.0
 11
78.0
 21
142.919575
 31
0.0
  0
LINE
  5
69D
330
1E
100
AcDbEntity
  8
0
100
AcDbLine
 10
77.54380000000001
 20
143.2245749999999
 30
0.0
 11
77.634
 21
143.6025749999999
 31
0.0
  0
LINE
  5
69F
330
1E
100
AcDbEntity
  8
0
100
AcDbLine
 10
78.0
 20
142.919575
 30
0.0
 11
78.75620000000001
 21
142.874575
 31
0.0
  0
LINE
  5
6A0
330
1E
100
AcDbEntity
  8
0
100
AcDbLine
 10
78.75620000000001
 20
142.874575
 30
0.0
 11
79.366
 21
143.102575
 31
0.0
  0
LINE
  5
6A2
330
1E
100
AcDbEntity
  8
0
100
AcDbLine
 10
79.366
 20
143.102575
 30
0.0
 11
79.45619999999999
 21
143.4805749999999
 31
0.0
  0
LINE
  5
6A3
330
1E
100
AcDbEntity
  8
0
100
AcDbLine
 10
79.0
 20
143.7855749999999
 30
0.0
 11
79.45619999999999
 21
143.4805749999999
 31
0.0
  0
LINE
  5
6A6
330
1E
100
AcDbEntity
  8
0
100
AcDbLine
 10
79.90000000000001
 20
145.4985749999999
 30
0.0
 11
85.0
 21
143.7985749999999
 31
0.0
  0
LINE
  5
6AB
330
1E
100
AcDbEntity
  8
0
100
AcDbLine
 10
78.24379999999999
 20
143.830575
 30
0.0
 11
79.0
 21
143.7855749999999
 31
0.0
  0
LINE
  5
6AD
330
1E
100
AcDbEntity
  8
0
100
AcDbLine
 10
77.634
 20
143.6025749999999
 30
0.0
 11
78.24379999999999
 21
143.830575
 31
0.0
  0
LINE
  5
6B3
330
1E
100
AcDbEntity
  8
0
100
AcDbLine
 10
76.9599
 20
138.3135749999999
 30
0.0
 11
77.6979
 21
138.2195749999999
 31
0.0
  0
LINE
  5
6B5
330
1E
100
AcDbEntity
  8
0
100
AcDbLine
 10
76.2958
 20
138.127575
 30
0.0
 11
76.9599
 21
138.3135749999999
 31
0.0
  0
LINE
  5
6B9
330
1E
100
AcDbEntity
  8
0
100
AcDbLine
 10
73.26349999999999
 20
133.359575
 30
0.0
 11
73.9706
 21
133.2185749999999
 31
0.0
  0
LINE
  5
6BB
330
1E
100
AcDbEntity
  8
0
100
AcDbLine
 10
72.55639999999999
 20
133.2185749999999
 30
0.0
 11
73.26349999999999
 21
133.359575
 31
0.0
  0
LINE
  5
6BD
330
1E
100
AcDbEntity
  8
0
100
AcDbLine
 10
88.72620000000001
 20
126.8215749999999
 30
0.0
 11
88.9323
 21
127.1875749999999
 31
0.0
  0
LINE
  5
6BE
330
1E
100
AcDbEntity
  8
0
100
AcDbLine
 10
88.72620000000001
 20
126.8215749999999
 30
0.0
 11
89.115
 21
126.493575
 31
0.0
  0
LINE
  5
6C0
330
1E
100
AcDbEntity
  8
0
100
AcDbLine
 10
89.115
 20
126.493575
 30
0.0
 11
89.8482
 21
126.3905749999999
 31
0.0
  0
LINE
  5
6C1
330
1E
100
AcDbEntity
  8
0
100
AcDbLine
 10
88.9323
 20
127.1875749999999
 30
0.0
 11
89.58719999999999
 21
127.382575
 31
0.0
  0
LINE
  5
6CB
330
1E
100
AcDbEntity
  8
0
100
AcDbLine
 10
89.58719999999999
 20
127.382575
 30
0.0
 11
90.3203
 21
127.279575
 31
0.0
  0
LINE
  5
6CD
330
1E
100
AcDbEntity
  8
0
100
AcDbLine
 10
90.3203
 20
127.279575
 30
0.0
 11
90.70910000000001
 21
126.951575
 31
0.0
  0
LINE
  5
6D1
330
1E
100
AcDbEntity
  8
0
100
AcDbLine
 10
90.50310000000001
 20
126.585575
 30
0.0
 11
90.70910000000001
 21
126.951575
 31
0.0
  0
LINE
  5
6D2
330
1E
100
AcDbEntity
  8
0
100
AcDbLine
 10
89.8482
 20
126.3905749999999
 30
0.0
 11
90.50310000000001
 21
126.585575
 31
0.0
  0
LINE
  5
6D3
330
1E
100
AcDbEntity
  8
0
100
AcDbLine
 10
102.4999999999999
 20
128.598575
 30
0.0
 11
103.0
 21
125.598575
 31
0.0
  0
LINE
  5
6D6
330
1E
100
AcDbEntity
  8
0
100
AcDbLine
 10
87.10919999999999
 20
130.5895749999999
 30
0.0
 11
87.87069999999999
 21
130.585575
 31
0.0
  0
LINE
  5
6D7
330
1E
100
AcDbEntity
  8
0
100
AcDbLine
 10
87.87069999999999
 20
130.585575
 30
0.0
 11
88.4026
 21
130.8575749999999
 31
0.0
  0
LINE
  5
6D8
330
1E
100
AcDbEntity
  8
0
100
AcDbLine
 10
97.5689
 20
130.168575
 30
0.0
 11
97.67749999999999
 21
130.544575
 31
0.0
  0
LINE
  5
6D9
330
1E
100
AcDbEntity
  8
0
100
AcDbLine
 10
97.5689
 20
130.168575
 30
0.0
 11
98.03980000000001
 21
129.8685749999999
 31
0.0
  0
LINE
  5
6DB
330
1E
100
AcDbEntity
  8
0
100
AcDbLine
 10
98.03980000000001
 20
129.8685749999999
 30
0.0
 11
98.7936
 21
129.8145749999999
 31
0.0
  0
LINE
  5
6DC
330
1E
100
AcDbEntity
  8
0
100
AcDbLine
 10
97.67749999999999
 20
130.544575
 30
0.0
 11
98.27600000000002
 21
130.7805749999999
 31
0.0
  0
LINE
  5
6DE
330
1E
100
AcDbEntity
  8
0
100
AcDbLine
 10
86.56409999999999
 20
130.8555749999999
 30
0.0
 11
86.57340000000001
 21
131.2365749999999
 31
0.0
  0
LINE
  5
6DF
330
1E
100
AcDbEntity
  8
0
100
AcDbLine
 10
86.56409999999999
 20
130.8555749999999
 30
0.0
 11
87.10919999999999
 21
130.5895749999999
 31
0.0
  0
LINE
  5
6E2
330
1E
100
AcDbEntity
  8
0
100
AcDbLine
 10
86.57340000000001
 20
131.2365749999999
 30
0.0
 11
87.1053
 21
131.509575
 31
0.0
  0
LINE
  5
6E4
330
1E
100
AcDbEntity
  8
0
100
AcDbLine
 10
88.4026
 20
130.8575749999999
 30
0.0
 11
88.4119
 21
131.238575
 31
0.0
  0
LINE
  5
6E9
330
1E
100
AcDbEntity
  8
0
100
AcDbLine
 10
87.1053
 20
131.509575
 30
0.0
 11
87.8669
 21
131.5045749999999
 31
0.0
  0
LINE
  5
6EB
330
1E
100
AcDbEntity
  8
0
100
AcDbLine
 10
87.8669
 20
131.5045749999999
 30
0.0
 11
88.4119
 21
131.238575
 31
0.0
  0
LINE
  5
6F1
330
1E
100
AcDbEntity
  8
0
100
AcDbLine
 10
98.27600000000002
 20
130.7805749999999
 30
0.0
 11
99.02979999999999
 21
130.726575
 31
0.0
  0
LINE
  5
6F6
330
1E
100
AcDbEntity
  8
0
100
AcDbLine
 10
101.2999999999999
 20
131.548575
 30
0.0
 11
102.4999999999999
 21
128.598575
 31
0.0
  0
LINE
  5
6F8
330
1E
100
AcDbEntity
  8
0
100
AcDbLine
 10
99.02979999999999
 20
130.726575
 30
0.0
 11
99.5007
 21
130.426575
 31
0.0
  0
LINE
  5
6FA
330
1E
100
AcDbEntity
  8
0
100
AcDbLine
 10
99.3921
 20
130.049575
 30
0.0
 11
99.5007
 21
130.426575
 31
0.0
  0
LINE
  5
6FB
330
1E
100
AcDbEntity
  8
0
100
AcDbLine
 10
98.7936
 20
129.8145749999999
 30
0.0
 11
99.3921
 21
130.049575
 31
0.0
  0
LINE
  5
6FE
330
1E
100
AcDbEntity
  8
0
100
AcDbLine
 10
83.05139999999999
 20
134.286575
 30
0.0
 11
83.7894
 21
134.380575
 31
0.0
  0
LINE
  5
700
330
1E
100
AcDbEntity
  8
0
100
AcDbLine
 10
82.3873
 20
134.473575
 30
0.0
 11
83.05139999999999
 21
134.286575
 31
0.0
  0
LINE
  5
701
330
1E
100
AcDbEntity
  8
0
100
AcDbLine
 10
82.1992
 20
134.842575
 30
0.0
 11
82.57189999999999
 21
135.174575
 31
0.0
  0
LINE
  5
702
330
1E
100
AcDbEntity
  8
0
100
AcDbLine
 10
82.1992
 20
134.842575
 30
0.0
 11
82.3873
 21
134.473575
 31
0.0
  0
LINE
  5
704
330
1E
100
AcDbEntity
  8
0
100
AcDbLine
 10
83.7894
 20
134.380575
 30
0.0
 11
84.16209999999999
 21
134.7125749999999
 31
0.0
  0
LINE
  5
709
330
1E
100
AcDbEntity
  8
0
100
AcDbLine
 10
99.40000000000001
 20
134.3985749999999
 30
0.0
 11
101.2999999999999
 21
131.548575
 31
0.0
  0
LINE
  5
70B
330
1E
100
AcDbEntity
  8
0
100
AcDbLine
 10
82.57189999999999
 20
135.174575
 30
0.0
 11
83.30989999999999
 21
135.268575
 31
0.0
  0
LINE
  5
715
330
1E
100
AcDbEntity
  8
0
100
AcDbLine
 10
83.30989999999999
 20
135.268575
 30
0.0
 11
83.97399999999999
 21
135.0815749999999
 31
0.0
  0
LINE
  5
717
330
1E
100
AcDbEntity
  8
0
100
AcDbLine
 10
93.98290000000001
 20
135.0045749999999
 30
0.0
 11
94.7391
 21
135.049575
 31
0.0
  0
LINE
  5
718
330
1E
100
AcDbEntity
  8
0
100
AcDbLine
 10
93.3731
 20
135.232575
 30
0.0
 11
93.98290000000001
 21
135.0045749999999
 31
0.0
  0
LINE
  5
71A
330
1E
100
AcDbEntity
  8
0
100
AcDbLine
 10
94.7391
 20
135.049575
 30
0.0
 11
95.19530000000001
 21
135.354575
 31
0.0
  0
LINE
  5
71B
330
1E
100
AcDbEntity
  8
0
100
AcDbLine
 10
93.2829
 20
135.610575
 30
0.0
 11
93.7391
 21
135.9155749999999
 31
0.0
  0
LINE
  5
71C
330
1E
100
AcDbEntity
  8
0
100
AcDbLine
 10
93.2829
 20
135.610575
 30
0.0
 11
93.3731
 21
135.232575
 31
0.0
  0
LINE
  5
71E
330
1E
100
AcDbEntity
  8
0
100
AcDbLine
 10
93.7391
 20
135.9155749999999
 30
0.0
 11
94.49530000000001
 21
135.960575
 31
0.0
  0
LINE
  5
728
330
1E
100
AcDbEntity
  8
0
100
AcDbLine
 10
94.49530000000001
 20
135.960575
 30
0.0
 11
95.1051
 21
135.7325749999999
 31
0.0
  0
LINE
  5
72A
330
1E
100
AcDbEntity
  8
0
100
AcDbLine
 10
96.79999999999999
 20
137.048575
 30
0.0
 11
99.40000000000001
 21
134.3985749999999
 31
0.0
  0
LINE
  5
72C
330
1E
100
AcDbEntity
  8
0
100
AcDbLine
 10
95.1051
 20
135.7325749999999
 30
0.0
 11
95.19530000000001
 21
135.354575
 31
0.0
  0
LINE
  5
72F
330
1E
100
AcDbEntity
  8
0
100
AcDbLine
 10
83.97399999999999
 20
135.0815749999999
 30
0.0
 11
84.16209999999999
 21
134.7125749999999
 31
0.0
  0
LINE
  5
731
330
1E
100
AcDbEntity
  8
0
100
AcDbLine
 10
86.4156
 20
139.935575
 30
0.0
 11
86.6985
 21
139.5825749999999
 31
0.0
  0
LINE
  5
732
330
1E
100
AcDbEntity
  8
0
100
AcDbLine
 10
86.4156
 20
139.935575
 30
0.0
 11
86.6985
 21
140.289575
 31
0.0
  0
LINE
  5
734
330
1E
100
AcDbEntity
  8
0
100
AcDbLine
 10
86.6985
 20
139.5825749999999
 30
0.0
 11
87.4056
 21
139.4405749999999
 31
0.0
  0
LINE
  5
735
330
1E
100
AcDbEntity
  8
0
100
AcDbLine
 10
87.4056
 20
139.4405749999999
 30
0.0
 11
88.1127
 21
139.5825749999999
 31
0.0
  0
LINE
  5
736
330
1E
100
AcDbEntity
  8
0
100
AcDbLine
 10
93.40000000000001
 20
139.598575
 30
0.0
 11
96.79999999999999
 21
137.048575
 31
0.0
  0
LINE
  5
738
330
1E
100
AcDbEntity
  8
0
100
AcDbLine
 10
88.1127
 20
139.5825749999999
 30
0.0
 11
88.3955
 21
139.935575
 31
0.0
  0
LINE
  5
739
330
1E
100
AcDbEntity
  8
0
100
AcDbLine
 10
88.1127
 20
140.289575
 30
0.0
 11
88.3955
 21
139.935575
 31
0.0
  0
LINE
  5
73D
330
1E
100
AcDbEntity
  8
0
100
AcDbLine
 10
85.0
 20
143.7985749999999
 30
0.0
 11
89.50000000000001
 21
141.848575
 31
0.0
  0
LINE
  5
743
330
1E
100
AcDbEntity
  8
0
100
AcDbLine
 10
89.50000000000001
 20
141.848575
 30
0.0
 11
93.40000000000001
 21
139.598575
 31
0.0
  0
LINE
  5
746
330
1E
100
AcDbEntity
  8
0
100
AcDbLine
 10
87.4056
 20
140.4305749999999
 30
0.0
 11
88.1127
 21
140.289575
 31
0.0
  0
LINE
  5
748
330
1E
100
AcDbEntity
  8
0
100
AcDbLine
 10
86.6985
 20
140.289575
 30
0.0
 11
87.4056
 21
140.4305749999999
 31
0.0
  0
LINE
  5
74A
330
1E
100
AcDbEntity
  8
0
100
AcDbLine
 10
90.20000000000001
 20
142.198575
 30
0.0
 11
94.19999999999999
 21
139.898575
 31
0.0
  0
LINE
  5
74B
330
1E
100
AcDbEntity
  8
0
100
AcDbLine
 10
94.11574468085101
 20
139.947021808511
 30
0.0
 11
97.3
 21
137.5815749999999
 31
0.0
  0
LINE
  5
74C
330
1E
100
AcDbEntity
  8
0
100
AcDbLine
 10
94.19999999999999
 20
139.898575
 30
0.0
 11
97.70000000000001
 21
137.298575
 31
0.0
  0
LINE
  5
74D
330
1E
100
AcDbEntity
  8
0
100
AcDbLine
 10
97.3
 20
137.5815749999999
 30
0.0
 11
99.90000000000001
 21
134.931575
 31
0.0
  0
LINE
  5
74E
330
1E
100
AcDbEntity
  8
0
100
AcDbLine
 10
97.70000000000001
 20
137.298575
 30
0.0
 11
100.2999999999999
 21
134.598575
 31
0.0
  0
LINE
  5
74F
330
1E
100
AcDbEntity
  8
0
100
AcDbLine
 10
99.90000000000001
 20
134.931575
 30
0.0
 11
101.8
 21
132.031575
 31
0.0
  0
LINE
  5
750
330
1E
100
AcDbEntity
  8
0
100
AcDbLine
 10
102.0999999999999
 20
143.8145749999999
 30
0.0
 11
106.4
 21
140.664575
 31
0.0
  0
LINE
  5
751
330
1E
100
AcDbEntity
  8
0
100
AcDbLine
 10
101.7
 20
142.315575
 30
0.0
 11
105.9
 21
139.215575
 31
0.0
  0
LINE
  5
752
330
1E
100
AcDbEntity
  8
0
100
AcDbLine
 10
100.2999999999999
 20
134.598575
 30
0.0
 11
102.2999999999999
 21
131.648575
 31
0.0
  0
LINE
  5
753
330
1E
100
AcDbEntity
  8
0
100
AcDbLine
 10
101.8
 20
132.031575
 30
0.0
 11
103.0
 21
129.0315749999999
 31
0.0
  0
LINE
  5
754
330
1E
100
AcDbEntity
  8
0
100
AcDbLine
 10
102.2999999999999
 20
131.648575
 30
0.0
 11
103.4999999999999
 21
128.6485749999999
 31
0.0
  0
LINE
  5
755
330
1E
100
AcDbEntity
  8
0
100
AcDbLine
 10
103.0
 20
129.0315749999999
 30
0.0
 11
103.4999999999999
 21
126.0315749999999
 31
0.0
  0
LINE
  5
756
330
1E
100
AcDbEntity
  8
0
100
AcDbLine
 10
103.4999999999999
 20
128.6485749999999
 30
0.0
 11
104.0
 21
125.598575
 31
0.0
  0
LINE
  5
757
330
1E
100
AcDbEntity
  8
0
100
AcDbLine
 10
100.6
 20
147.062575
 30
0.0
 11
104.6
 21
144.062575
 31
0.0
  0
LINE
  5
758
330
1E
100
AcDbEntity
  8
0
100
AcDbLine
 10
97.2
 20
146.564575
 30
0.0
 11
102.0999999999999
 21
143.8145749999999
 31
0.0
  0
LINE
  5
759
330
1E
100
AcDbEntity
  8
0
100
AcDbLine
 10
96.90000000000001
 20
145.115575
 30
0.0
 11
101.7
 21
142.315575
 31
0.0
  0
LINE
  5
75A
330
1E
100
AcDbEntity
  8
0
100
AcDbLine
 10
85.6
 20
144.198575
 30
0.0
 11
90.20000000000001
 21
142.198575
 31
0.0
  0
LINE
  5
75B
330
1E
100
AcDbEntity
  8
0
100
AcDbLine
 10
80.4
 20
145.9485749999999
 30
0.0
 11
85.6
 21
144.198575
 31
0.0
  0
LINE
  5
75C
330
1E
100
AcDbEntity
  8
0
100
AcDbLine
 10
91.3
 20
147.515575
 30
0.0
 11
96.90000000000001
 21
145.115575
 31
0.0
  0
LINE
  5
75D
330
1E
100
AcDbEntity
  8
0
100
AcDbLine
 10
75.0
 20
147.2485749999999
 30
0.0
 11
80.4
 21
145.9485749999999
 31
0.0
  0
LINE
  5
75E
330
1E
100
AcDbEntity
  8
0
100
AcDbLine
 10
69.1
 20
148.2485749999999
 30
0.0
 11
75.0
 21
147.2485749999999
 31
0.0
  0
LINE
  5
75F
330
1E
100
AcDbEntity
  8
0
100
AcDbLine
 10
63.39999999999999
 20
173.914575
 30
0.0
 11
69.8
 21
173.264575
 31
0.0
  0
LINE
  5
760
330
1E
100
AcDbEntity
  8
0
100
AcDbLine
 10
63.9
 20
157.9115749999999
 30
0.0
 11
70.7
 21
157.211575
 31
0.0
  0
LINE
  5
761
330
1E
100
AcDbEntity
  8
0
100
AcDbLine
 10
91.69999999999999
 20
149.014575
 30
0.0
 11
97.2
 21
146.564575
 31
0.0
  0
LINE
  5
762
330
1E
100
AcDbEntity
  8
0
100
AcDbLine
 10
95.8
 20
149.762575
 30
0.0
 11
100.6
 21
147.062575
 31
0.0
  0
LINE
  5
763
330
1E
100
AcDbEntity
  8
0
100
AcDbLine
 10
90.4
 20
152.162575
 30
0.0
 11
95.8
 21
149.762575
 31
0.0
  0
LINE
  5
764
330
1E
100
AcDbEntity
  8
0
100
AcDbLine
 10
85.4
 20
151.164575
 30
0.0
 11
91.69999999999999
 21
149.014575
 31
0.0
  0
LINE
  5
765
330
1E
100
AcDbEntity
  8
0
100
AcDbLine
 10
85.09999999999999
 20
149.6155749999999
 30
0.0
 11
91.3
 21
147.515575
 31
0.0
  0
LINE
  5
766
330
1E
100
AcDbEntity
  8
0
100
AcDbLine
 10
78.59999999999999
 20
151.2155749999999
 30
0.0
 11
85.09999999999999
 21
149.6155749999999
 31
0.0
  0
LINE
  5
767
330
1E
100
AcDbEntity
  8
0
100
AcDbLine
 10
69.8
 20
173.264575
 30
0.0
 11
75.9
 21
172.2145749999999
 31
0.0
  0
LINE
  5
768
330
1E
100
AcDbEntity
  8
0
100
AcDbLine
 10
70.7
 20
157.211575
 30
0.0
 11
77.2
 21
156.1115749999999
 31
0.0
  0
LINE
  5
769
330
1E
100
AcDbEntity
  8
0
100
AcDbLine
 10
89.19999999999999
 20
152.6615749999999
 30
0.0
 11
90.4
 21
152.162575
 31
0.0
  0
LINE
  5
76A
330
1E
100
AcDbEntity
  8
0
100
AcDbLine
 10
75.9
 20
172.2145749999999
 30
0.0
 11
81.6
 21
170.864575
 31
0.0
  0
LINE
  5
76B
330
1E
100
AcDbEntity
  8
0
100
AcDbLine
 10
91.90000000000001
 20
166.864575
 30
0.0
 11
96.2
 21
164.464575
 31
0.0
  0
LINE
  5
76C
330
1E
100
AcDbEntity
  8
0
100
AcDbLine
 10
96.2
 20
164.464575
 30
0.0
 11
99.90000000000001
 21
161.7145749999999
 31
0.0
  0
LINE
  5
76D
330
1E
100
AcDbEntity
  8
0
100
AcDbLine
 10
99.90000000000001
 20
161.7145749999999
 30
0.0
 11
102.6
 21
158.8645749999999
 31
0.0
  0
LINE
  5
76E
330
1E
100
AcDbEntity
  8
0
100
AcDbLine
 10
102.6
 20
158.8645749999999
 30
0.0
 11
104.7
 21
155.8145749999999
 31
0.0
  0
LINE
  5
76F
330
1E
100
AcDbEntity
  8
0
100
AcDbLine
 10
87.09999999999999
 20
169.014575
 30
0.0
 11
91.90000000000001
 21
166.864575
 31
0.0
  0
LINE
  5
770
330
1E
100
AcDbEntity
  8
0
100
AcDbLine
 10
81.6
 20
170.864575
 30
0.0
 11
87.09999999999999
 21
169.014575
 31
0.0
  0
LINE
  5
771
330
1E
100
AcDbEntity
  8
0
100
AcDbLine
 10
83.40000000000001
 20
154.611575
 30
0.0
 11
89.19999999999999
 21
152.6615749999999
 31
0.0
  0
LINE
  5
772
330
1E
100
AcDbEntity
  8
0
100
AcDbLine
 10
77.2
 20
156.1115749999999
 30
0.0
 11
83.40000000000001
 21
154.611575
 31
0.0
  0
LINE
  5
773
330
1E
100
AcDbEntity
  8
0
100
AcDbLine
 10
78.79999999999999
 20
152.764575
 30
0.0
 11
85.4
 21
151.164575
 31
0.0
  0
LINE
  5
774
330
1E
100
AcDbEntity
  8
0
100
AcDbLine
 10
71.7
 20
153.914575
 30
0.0
 11
78.79999999999999
 21
152.764575
 31
0.0
  0
LINE
  5
775
330
1E
100
AcDbEntity
  8
0
100
AcDbLine
 10
71.6
 20
152.415575
 30
0.0
 11
78.59999999999999
 21
151.2155749999999
 31
0.0
  0
LINE
  5
776
330
1E
100
AcDbEntity
  8
0
100
AcDbLine
 10
64.29999999999999
 20
153.115575
 30
0.0
 11
71.6
 21
152.415575
 31
0.0
  0
LINE
  5
777
330
1E
100
AcDbEntity
  8
0
100
AcDbLine
 10
63.1
 20
148.848575
 30
0.0
 11
69.1
 21
148.2485749999999
 31
0.0
  0
LINE
  5
778
330
1E
100
AcDbEntity
  8
0
100
AcDbLine
 10
57.0
 20
149.098575
 30
0.0
 11
63.1
 21
148.848575
 31
0.0
  0
LINE
  5
779
330
1E
100
AcDbEntity
  8
0
100
AcDbLine
 10
10.5
 20
126.0315749999999
 30
0.0
 11
11.0
 21
123.031575
 31
0.0
  0
LINE
  5
77A
330
1E
100
AcDbEntity
  8
0
100
AcDbLine
 10
10.5
 20
126.0315749999999
 30
0.0
 11
11.0
 21
129.0315749999999
 31
0.0
  0
LINE
  5
77B
330
1E
100
AcDbEntity
  8
0
100
AcDbLine
 10
10.0
 20
125.598575
 30
0.0
 11
10.5
 21
122.548575
 31
0.0
  0
LINE
  5
77C
330
1E
100
AcDbEntity
  8
0
100
AcDbLine
 10
10.0
 20
125.598575
 30
0.0
 11
10.5
 21
128.6485749999999
 31
0.0
  0
LINE
  5
77D
330
1E
100
AcDbEntity
  8
0
100
AcDbLine
 10
103.0
 20
123.031575
 30
0.0
 11
103.4999999999999
 21
126.0315749999999
 31
0.0
  0
LINE
  5
77E
330
1E
100
AcDbEntity
  8
0
100
AcDbLine
 10
105.9
 20
111.1155749999999
 30
0.0
 11
109.0999999999999
 21
114.365575
 31
0.0
  0
LINE
  5
77F
330
1E
100
AcDbEntity
  8
0
100
AcDbLine
 10
109.0999999999999
 20
114.365575
 30
0.0
 11
111.4999999999999
 21
117.865575
 31
0.0
  0
LINE
  5
780
330
1E
100
AcDbEntity
  8
0
100
AcDbLine
 10
111.4999999999999
 20
117.865575
 30
0.0
 11
112.9
 21
121.515575
 31
0.0
  0
LINE
  5
781
330
1E
100
AcDbEntity
  8
0
100
AcDbLine
 10
112.9
 20
131.413575
 30
0.0
 11
113.4
 21
130.164575
 31
0.0
  0
LINE
  5
782
330
1E
100
AcDbEntity
  8
0
100
AcDbLine
 10
111.4999999999999
 20
135.0635749999999
 30
0.0
 11
112.9
 21
131.413575
 31
0.0
  0
LINE
  5
783
330
1E
100
AcDbEntity
  8
0
100
AcDbLine
 10
110.0
 20
137.4625749999999
 30
0.0
 11
111.4999999999999
 21
135.0635749999999
 31
0.0
  0
LINE
  5
784
330
1E
100
AcDbEntity
  8
0
100
AcDbLine
 10
109.5999999999999
 20
137.364575
 30
0.0
 11
111.8999999999999
 21
133.814575
 31
0.0
  0
LINE
  5
785
330
1E
100
AcDbEntity
  8
0
100
AcDbLine
 10
109.0999999999999
 20
135.9655749999999
 30
0.0
 11
111.4999999999999
 21
132.465575
 31
0.0
  0
LINE
  5
786
330
1E
100
AcDbEntity
  8
0
100
AcDbLine
 10
111.4999999999999
 20
132.465575
 30
0.0
 11
112.9
 21
128.815575
 31
0.0
  0
LINE
  5
787
330
1E
100
AcDbEntity
  8
0
100
AcDbLine
 10
113.4
 20
130.164575
 30
0.0
 11
114.0
 21
126.4645749999999
 31
0.0
  0
LINE
  5
788
330
1E
100
AcDbEntity
  8
0
100
AcDbLine
 10
112.9
 20
128.815575
 30
0.0
 11
113.5
 21
125.165575
 31
0.0
  0
LINE
  5
789
330
1E
100
AcDbEntity
  8
0
100
AcDbLine
 10
104.7
 20
155.8145749999999
 30
0.0
 11
105.2
 21
154.9985749999999
 31
0.0
  0
LINE
  5
78A
330
1E
100
AcDbEntity
  8
0
100
AcDbLine
 10
105.2
 20
154.9985749999999
 30
0.0
 11
106.4999999999999
 21
151.798575
 31
0.0
  0
LINE
  5
78B
330
1E
100
AcDbEntity
  8
0
100
AcDbLine
 10
104.6
 20
144.062575
 30
0.0
 11
107.6999999999999
 21
140.8625749999999
 31
0.0
  0
LINE
  5
78C
330
1E
100
AcDbEntity
  8
0
100
AcDbLine
 10
106.4999999999999
 20
151.798575
 30
0.0
 11
107.0
 21
149.6835749999999
 31
0.0
  0
LINE
  5
78D
330
1E
100
AcDbEntity
  8
0
100
AcDbLine
 10
107.0
 20
149.6835749999999
 30
0.0
 11
108.0
 21
146.7025749999999
 31
0.0
  0
LINE
  5
78E
330
1E
100
AcDbEntity
  8
0
100
AcDbLine
 10
108.0
 20
146.7025749999999
 30
0.0
 11
109.0
 21
142.4225749999999
 31
0.0
  0
LINE
  5
78F
330
1E
100
AcDbEntity
  8
0
100
AcDbLine
 10
109.0
 20
142.4225749999999
 30
0.0
 11
109.4999999999999
 21
139.0225749999999
 31
0.0
  0
LINE
  5
792
330
1E
100
AcDbEntity
  8
0
100
AcDbLine
 10
107.6999999999999
 20
140.8625749999999
 30
0.0
 11
110.0
 21
137.4625749999999
 31
0.0
  0
LINE
  5
793
330
1E
100
AcDbEntity
  8
0
100
AcDbLine
 10
106.4
 20
140.664575
 30
0.0
 11
109.5999999999999
 21
137.364575
 31
0.0
  0
LINE
  5
794
330
1E
100
AcDbEntity
  8
0
100
AcDbLine
 10
105.9
 20
139.215575
 30
0.0
 11
109.0999999999999
 21
135.9655749999999
 31
0.0
  0
LINE
  5
795
330
1E
100
AcDbEntity
  8
0
100
AcDbLine
 10
109.4999999999999
 20
139.0225749999999
 30
0.0
 11
109.5773039889959
 21
138.3531224552959
 31
0.0
  0
LINE
  5
796
330
1E
100
AcDbEntity
  8
0
100
AcDbLine
 10
113.4
 20
122.7645749999999
 30
0.0
 11
114.0
 21
126.4645749999999
 31
0.0
  0
LINE
  5
797
330
1E
100
AcDbEntity
  8
0
100
AcDbLine
 10
112.9
 20
121.515575
 30
0.0
 11
113.5
 21
125.165575
 31
0.0
  0
LINE
  5
798
330
1E
100
AcDbEntity
  8
0
100
AcDbLine
 10
112.9
 20
121.515575
 30
0.0
 11
113.4
 21
122.7645749999999
 31
0.0
  0
LINE
  5
799
330
1E
100
AcDbEntity
  8
0
100
AcDbLine
 10
103.4999999999999
 20
122.548575
 30
0.0
 11
104.0
 21
125.598575
 31
0.0
  0
LINE
  5
79E
330
1E
100
AcDbEntity
  8
0
100
AcDbLine
 10
42.29999999999999
 20
153.914575
 30
0.0
 11
49.6
 21
154.664575
 31
0.0
  0
LINE
  5
79F
330
1E
100
AcDbEntity
  8
0
100
AcDbLine
 10
64.40000000000001
 20
154.664575
 30
0.0
 11
71.7
 21
153.914575
 31
0.0
  0
ENDSEC
  0
SECTION
  2
OBJECTS
  0
DICTIONARY
  5
C
330
0
100
AcDbDictionary
  3
ACAD_GROUP
350
D
  3
ACAD_LAYOUT
350
19
  3
ACAD_MLINESTYLE
350
16
  3
ACAD_PLOTSETTINGS
350
18
  3
ACAD_PLOTSTYLENAME
350
E
  3
ACDBHEADERROUNDTRIPXREC
350
7A3
  3
ACDBVARIABLEDICTIONARY
350
7A0
  0
DICTIONARY
  5
7C5
330
1E
100
AcDbDictionary
280
     1
  3
ACAD_LAYOUTSELFREF
360
7C6
  0
DICTIONARY
  5
7C3
330
1A
100
AcDbDictionary
280
     1
  3
ACAD_LAYOUTSELFREF
360
7C4
  0
DICTIONARY
  5
D
102
{ACAD_REACTORS
330
C
102
}
330
C
100
AcDbDictionary
  0
DICTIONARY
  5
19
102
{ACAD_REACTORS
330
C
102
}
330
C
100
AcDbDictionary
  0
DICTIONARY
  5
16
102
{ACAD_REACTORS
330
C
102
}
330
C
100
AcDbDictionary
  3
STANDARD
350
17
  0
DICTIONARY
  5
18
102
{ACAD_REACTORS
330
C
102
}
330
C
100
AcDbDictionary
  0
ACDBDICTIONARYWDFLT
  5
E
102
{ACAD_REACTORS
330
C
102
}
330
C
100
AcDbDictionary
281
     1
  3
Normal
350
F
100
AcDbDictionaryWithDefault
340
F
  0
DICTIONARY
  5
7A3
102
{ACAD_REACTORS
330
C
102
}
330
C
100
AcDbDictionary
  3
CEPSNTYPE
350
7AD
  3
FINGERPRINTGUID
350
7AE
  3
HYPERLINKBASE
350
7A6
  3
INSUNITS
350
7AC
  3
LAYOUTDICT
350
7A8
  3
LWETCUNION
350
7AB
  3
PLOTSETDICT
350
7A9
  3
PLOTSTYLNAMDICT
350
7AA
  3
PSVPSCALE
350
7B0
  3
PUCSBASE
350
7B3
  3
PUCSORGBACK
350
7B9
  3
PUCSORGBOTTOM
350
7B5
  3
PUCSORGFRONT
350
7B8
  3
PUCSORGLEFT
350
7B6
  3
PUCSORGRIGHT
350
7B7
  3
PUCSORGTOP
350
7B4
  3
PUCSORTHOREF
350
7B1
  3
PUCSORTHOVIEW
350
7B2
  3
STYLESHEET
350
7A7
  3
TSTACKALIGN
350
7A4
  3
TSTACKSIZE
350
7A5
  3
UCSBASE
350
7BC
  3
UCSORGBACK
350
7C2
  3
UCSORGBOTTOM
350
7BE
  3
UCSORGFRONT
350
7C1
  3
UCSORGLEFT
350
7BF
  3
UCSORGRIGHT
350
7C0
  3
UCSORGTOP
350
7BD
  3
UCSORTHOREF
350
7BA
  3
UCSORTHOVIEW
350
7BB
  3
VERSIONGUID
350
7AF
  0
DICTIONARY
  5
7A0
102
{ACAD_REACTORS
330
C
102
}
330
C
100
AcDbDictionary
  3
DIMASSOC
350
7A1
  0
XRECORD
  5
7C6
102
{ACAD_REACTORS
330
7C5
102
}
330
7C5
100
AcDbXrecord
340
1E
  0
XRECORD
  5
7C4
102
{ACAD_REACTORS
330
7C3
102
}
330
7C3
100
AcDbXrecord
340
1A
  0
MLINESTYLE
  5
17
102
{ACAD_REACTORS
330
16
102
}
330
16
100
AcDbMlineStyle
  2
STANDARD
 70
     0
  3

 62
   256
 51
90.0
 52
90.0
 71
     2
 49
0.5
 62
   256
  6
BYLAYER
 49
-0.5
 62
   256
  6
BYLAYER
  0
ACDBPLACEHOLDER
  5
F
102
{ACAD_REACTORS
330
E
102
}
330
E
100
AcDbPlaceHolder
280
     0
  0
XRECORD
  5
7AD
102
{ACAD_REACTORS
330
7A3
102
}
330
7A3
100
AcDbXrecord
 90
        0
  0
XRECORD
  5
7AE
102
{ACAD_REACTORS
330
7A3
102
}
330
7A3
100
AcDbXrecord
  1
{15609F67-7112-439D-A817-576B35B05953}
  0
XRECORD
  5
7A6
102
{ACAD_REACTORS
330
7A3
102
}
330
7A3
100
AcDbXrecord
  1

  0
XRECORD
  5
7AC
102
{ACAD_REACTORS
330
7A3
102
}
330
7A3
100
AcDbXrecord
 90
        0
  0
XRECORD
  5
7A8
102
{ACAD_REACTORS
330
7A3
102
}
330
7A3
100
AcDbXrecord
340
19
  0
XRECORD
  5
7AB
102
{ACAD_REACTORS
330
7A3
102
}
330
7A3
100
AcDbXrecord
 90
    10781
  0
XRECORD
  5
7A9
102
{ACAD_REACTORS
330
7A3
102
}
330
7A3
100
AcDbXrecord
340
18
  0
XRECORD
  5
7AA
102
{ACAD_REACTORS
330
7A3
102
}
330
7A3
100
AcDbXrecord
340
E
  0
XRECORD
  5
7B0
102
{ACAD_REACTORS
330
7A3
102
}
330
7A3
100
AcDbXrecord
 40
0.0
  0
XRECORD
  5
7B3
102
{ACAD_REACTORS
330
7A3
102
}
330
7A3
100
AcDbXrecord
340
0
  0
XRECORD
  5
7B9
102
{ACAD_REACTORS
330
7A3
102
}
330
7A3
100
AcDbXrecord
 10
0.0
 20
0.0
 30
0.0
  0
XRECORD
  5
7B5
102
{ACAD_REACTORS
330
7A3
102
}
330
7A3
100
AcDbXrecord
 10
0.0
 20
0.0
 30
0.0
  0
XRECORD
  5
7B8
102
{ACAD_REACTORS
330
7A3
102
}
330
7A3
100
AcDbXrecord
 10
0.0
 20
0.0
 30
0.0
  0
XRECORD
  5
7B6
102
{ACAD_REACTORS
330
7A3
102
}
330
7A3
100
AcDbXrecord
 10
0.0
 20
0.0
 30
0.0
  0
XRECORD
  5
7B7
102
{ACAD_REACTORS
330
7A3
102
}
330
7A3
100
AcDbXrecord
 10
0.0
 20
0.0
 30
0.0
  0
XRECORD
  5
7B4
102
{ACAD_REACTORS
330
7A3
102
}
330
7A3
100
AcDbXrecord
 10
0.0
 20
0.0
 30
0.0
  0
XRECORD
  5
7B1
102
{ACAD_REACTORS
330
7A3
102
}
330
7A3
100
AcDbXrecord
340
0
  0
XRECORD
  5
7B2
102
{ACAD_REACTORS
330
7A3
102
}
330
7A3
100
AcDbXrecord
 70
     0
  0
XRECORD
  5
7A7
102
{ACAD_REACTORS
330
7A3
102
}
330
7A3
100
AcDbXrecord
  1

  0
XRECORD
  5
7A4
102
{ACAD_REACTORS
330
7A3
102
}
330
7A3
100
AcDbXrecord
 90
        1
  0
XRECORD
  5
7A5
102
{ACAD_REACTORS
330
7A3
102
}
330
7A3
100
AcDbXrecord
 90
       70
  0
XRECORD
  5
7BC
102
{ACAD_REACTORS
330
7A3
102
}
330
7A3
100
AcDbXrecord
340
0
  0
XRECORD
  5
7C2
102
{ACAD_REACTORS
330
7A3
102
}
330
7A3
100
AcDbXrecord
 10
0.0
 20
0.0
 30
0.0
  0
XRECORD
  5
7BE
102
{ACAD_REACTORS
330
7A3
102
}
330
7A3
100
AcDbXrecord
 10
0.0
 20
0.0
 30
0.0
  0
XRECORD
  5
7C1
102
{ACAD_REACTORS
330
7A3
102
}
330
7A3
100
AcDbXrecord
 10
0.0
 20
0.0
 30
0.0
  0
XRECORD
  5
7BF
102
{ACAD_REACTORS
330
7A3
102
}
330
7A3
100
AcDbXrecord
 10
0.0
 20
0.0
 30
0.0
  0
XRECORD
  5
7C0
102
{ACAD_REACTORS
330
7A3
102
}
330
7A3
100
AcDbXrecord
 10
0.0
 20
0.0
 30
0.0
  0
XRECORD
  5
7BD
102
{ACAD_REACTORS
330
7A3
102
}
330
7A3
100
AcDbXrecord
 10
0.0
 20
0.0
 30
0.0
  0
XRECORD
  5
7BA
102
{ACAD_REACTORS
330
7A3
102
}
330
7A3
100
AcDbXrecord
340
0
  0
XRECORD
  5
7BB
102
{ACAD_REACTORS
330
7A3
102
}
330
7A3
100
AcDbXrecord
 70
     1
  0
XRECORD
  5
7AF
102
{ACAD_REACTORS
330
7A3
102
}
330
7A3
100
AcDbXrecord
  1
{8A1961F3-AD8B-4BD1-801B-26E79B4770A1}
  0
DICTIONARYVAR
  5
7A1
102
{ACAD_REACTORS
330
7A0
102
}
330
7A0
100
DictionaryVariables
280
     0
  1
1
  0
ENDSEC
  0
EOF
