999
Erzeugt mit innoplus bad 
0
SECTION
2
HEADER
9
$ACADVER
1
AC1009
9
$DWGCODEPAGE
3
ISO8859-1
0
ENDSEC
0
SECTION
2
TABLES
0
TABLE
2
LAYER
70
1
0
LAYER
2
0
70
0
62
7
6
CONTINUOUS
0
ENDTAB
0
ENDSEC
0
SECTION
2
ENTITIES
0
LINE
8
0
6
CONTINUOUS
10
-135.304770
20
137.883040
30
0.0
11
-136.504130
21
137.967300
31
0.0
0
LINE
8
0
6
CONTINUOUS
10
-135.424110
20
136.187540
30
0.0
11
-136.623470
21
136.271820
31
0.0
0
LINE
8
0
6
CONTINUOUS
10
-137.394980
20
125.312160
30
0.0
11
-136.195600
21
125.227870
31
0.0
0
LINE
8
0
6
CONTINUOUS
10
-135.750210
20
131.555450
30
0.0
11
-136.949550
21
131.639750
31
0.0
0
LINE
8
0
6
CONTINUOUS
10
-138.285840
20
112.657030
30
0.0
11
-137.086500
21
112.572750
31
0.0
0
LINE
8
0
6
CONTINUOUS
10
-138.166480
20
114.352500
30
0.0
11
-136.967160
21
114.268230
31
0.0
0
LINE
8
0
6
CONTINUOUS
10
-136.641060
20
118.900280
30
0.0
11
-137.840400
21
118.984570
31
0.0
0
LINE
8
0
6
CONTINUOUS
10
-138.878040
20
118.052200
30
0.0
11
-145.000550
21
118.482330
31
0.0
0
LINE
8
0
6
CONTINUOUS
10
-137.330490
20
140.035860
30
0.0
11
-143.452960
21
140.465990
31
0.0
0
LINE
8
0
6
CONTINUOUS
10
-137.468700
20
138.072380
30
0.0
11
-143.591190
21
138.502470
31
0.0
0
LINE
8
0
6
CONTINUOUS
10
-144.484690
20
125.810210
30
0.0
11
-138.362170
21
125.380080
31
0.0
0
LINE
8
0
6
CONTINUOUS
10
-137.846350
20
132.707980
30
0.0
11
-143.968850
21
133.138090
31
0.0
0
LINE
8
0
6
CONTINUOUS
10
-145.516390
20
111.154440
30
0.0
11
-139.393900
21
110.724380
31
0.0
0
LINE
8
0
6
CONTINUOUS
10
-139.255650
20
112.687800
30
0.0
11
-145.378170
21
113.117930
31
0.0
0
LINE
8
0
6
CONTINUOUS
10
-134.208120
20
139.653440
30
0.0
11
-134.691750
21
139.687430
31
0.0
0
LINE
8
0
6
CONTINUOUS
10
-134.828410
20
137.745630
30
0.0
11
-134.691750
21
139.687430
31
0.0
0
LINE
8
0
6
CONTINUOUS
10
-134.344840
20
137.711680
30
0.0
11
-134.828410
21
137.745630
31
0.0
0
LINE
8
0
6
CONTINUOUS
10
-135.201870
20
132.440650
30
0.0
11
-134.828410
21
137.745630
31
0.0
0
LINE
8
0
6
CONTINUOUS
10
-135.712030
20
125.193900
30
0.0
11
-136.222170
21
117.947160
31
0.0
0
LINE
8
0
6
CONTINUOUS
10
-136.732330
20
110.700420
30
0.0
11
-136.248680
21
110.666450
31
0.0
0
LINE
8
0
6
CONTINUOUS
10
-136.595590
20
112.642180
30
0.0
11
-136.732330
21
110.700420
31
0.0
0
LINE
8
0
6
CONTINUOUS
10
-136.595590
20
112.642180
30
0.0
11
-136.112000
21
112.608230
31
0.0
0
LINE
8
0
6
CONTINUOUS
10
-136.222170
20
117.947160
30
0.0
11
-136.595590
21
112.642180
31
0.0
0
LINE
8
0
6
CONTINUOUS
10
-135.738580
20
117.913170
30
0.0
11
-136.222170
21
117.947160
31
0.0
0
LINE
8
0
6
CONTINUOUS
10
-135.712030
20
125.193900
30
0.0
11
-135.228420
21
125.159910
31
0.0
0
LINE
8
0
6
CONTINUOUS
10
-134.718260
20
132.406660
30
0.0
11
-135.201870
21
132.440650
31
0.0
0
LINE
8
0
6
CONTINUOUS
10
-135.712030
20
125.193900
30
0.0
11
-135.201870
21
132.440650
31
0.0
0
LINE
8
0
6
CONTINUOUS
10
-137.086500
20
112.572750
30
0.0
11
-136.602870
21
112.538780
31
0.0
0
LINE
8
0
6
CONTINUOUS
10
-134.821160
20
137.849070
30
0.0
11
-135.304770
21
137.883040
31
0.0
0
LINE
8
0
6
CONTINUOUS
10
-136.967160
20
114.268230
30
0.0
11
-136.483490
21
114.234240
31
0.0
0
LINE
8
0
6
CONTINUOUS
10
-135.750210
20
131.555450
30
0.0
11
-135.266590
21
131.521480
31
0.0
0
LINE
8
0
6
CONTINUOUS
10
-134.940490
20
136.153570
30
0.0
11
-135.424110
21
136.187540
31
0.0
0
LINE
8
0
6
CONTINUOUS
10
-136.641060
20
118.900280
30
0.0
11
-136.157430
21
118.866310
31
0.0
0
LINE
8
0
6
CONTINUOUS
10
-135.712010
20
125.193900
30
0.0
11
-136.195600
21
125.227870
31
0.0
0
LINE
8
0
6
CONTINUOUS
10
-138.769450
20
112.691000
30
0.0
11
-138.285840
21
112.657030
31
0.0
0
LINE
8
0
6
CONTINUOUS
10
-136.504130
20
137.967300
30
0.0
11
-136.987700
21
138.001250
31
0.0
0
LINE
8
0
6
CONTINUOUS
10
-138.650070
20
114.386450
30
0.0
11
-138.166480
21
114.352500
31
0.0
0
LINE
8
0
6
CONTINUOUS
10
-137.433140
20
131.673660
30
0.0
11
-136.949550
21
131.639750
31
0.0
0
LINE
8
0
6
CONTINUOUS
10
-136.623470
20
136.271820
30
0.0
11
-137.107080
21
136.305810
31
0.0
0
LINE
8
0
6
CONTINUOUS
10
-138.323990
20
119.018520
30
0.0
11
-137.840400
21
118.984570
31
0.0
0
LINE
8
0
6
CONTINUOUS
10
-137.394980
20
125.312160
30
0.0
11
-137.878590
21
125.346110
31
0.0
0
LINE
8
0
6
CONTINUOUS
10
-138.910250
20
110.690350
30
0.0
11
-138.772080
21
112.653850
31
0.0
0
LINE
8
0
6
CONTINUOUS
10
-139.393900
20
110.724380
30
0.0
11
-138.910250
21
110.690350
31
0.0
0
LINE
8
0
6
CONTINUOUS
10
-136.985090
20
138.038370
30
0.0
11
-136.846860
21
140.001910
31
0.0
0
LINE
8
0
6
CONTINUOUS
10
-136.846860
20
140.001910
30
0.0
11
-137.330490
21
140.035860
31
0.0
0
LINE
8
0
6
CONTINUOUS
10
-137.878570
20
125.346090
30
0.0
11
-137.362740
21
132.673990
31
0.0
0
LINE
8
0
6
CONTINUOUS
10
-138.772080
20
112.653850
30
0.0
11
-138.394430
21
118.018230
31
0.0
0
LINE
8
0
6
CONTINUOUS
10
-139.255650
20
112.687800
30
0.0
11
-138.772080
21
112.653850
31
0.0
0
LINE
8
0
6
CONTINUOUS
10
-137.362740
20
132.673990
30
0.0
11
-136.985090
21
138.038370
31
0.0
0
LINE
8
0
6
CONTINUOUS
10
-137.846350
20
132.707980
30
0.0
11
-137.362740
21
132.673990
31
0.0
0
LINE
8
0
6
CONTINUOUS
10
-136.985090
20
138.038370
30
0.0
11
-137.468700
21
138.072380
31
0.0
0
LINE
8
0
6
CONTINUOUS
10
-138.394430
20
118.018230
30
0.0
11
-137.878570
21
125.346090
31
0.0
0
LINE
8
0
6
CONTINUOUS
10
-138.878040
20
118.052200
30
0.0
11
-138.394430
21
118.018230
31
0.0
0
LINE
8
0
6
CONTINUOUS
10
-137.878570
20
125.346090
30
0.0
11
-138.362170
21
125.380080
31
0.0
0
LINE
8
0
6
CONTINUOUS
10
-146.000000
20
111.188430
30
0.0
11
-145.516390
21
111.154440
31
0.0
0
LINE
8
0
6
CONTINUOUS
10
-145.861770
20
113.151900
30
0.0
11
-146.000000
21
111.188430
31
0.0
0
LINE
8
0
6
CONTINUOUS
10
-143.452960
20
140.465990
30
0.0
11
-143.936610
21
140.499990
31
0.0
0
LINE
8
0
6
CONTINUOUS
10
-144.074820
20
138.536460
30
0.0
11
-143.936610
21
140.499990
31
0.0
0
LINE
8
0
6
CONTINUOUS
10
-144.452450
20
133.172060
30
0.0
11
-144.968280
21
125.844180
31
0.0
0
LINE
8
0
6
CONTINUOUS
10
-145.861770
20
113.151900
30
0.0
11
-145.378170
21
113.117930
31
0.0
0
LINE
8
0
6
CONTINUOUS
10
-145.484140
20
118.516310
30
0.0
11
-145.861770
21
113.151900
31
0.0
0
LINE
8
0
6
CONTINUOUS
10
-144.452450
20
133.172060
30
0.0
11
-143.968850
21
133.138090
31
0.0
0
LINE
8
0
6
CONTINUOUS
10
-143.591190
20
138.502470
30
0.0
11
-144.074820
21
138.536460
31
0.0
0
LINE
8
0
6
CONTINUOUS
10
-144.452450
20
133.172060
30
0.0
11
-144.074820
21
138.536460
31
0.0
0
LINE
8
0
6
CONTINUOUS
10
-145.484140
20
118.516310
30
0.0
11
-145.000550
21
118.482330
31
0.0
0
LINE
8
0
6
CONTINUOUS
10
-144.968280
20
125.844180
30
0.0
11
-145.484140
21
118.516310
31
0.0
0
LINE
8
0
6
CONTINUOUS
10
-144.484690
20
125.810210
30
0.0
11
-144.968280
21
125.844180
31
0.0
0
LINE
8
0
6
CONTINUOUS
10
-115.210820
20
138.318850
30
0.0
11
-134.208120
21
139.653440
31
0.0
0
LINE
8
0
6
CONTINUOUS
10
61.940520
20
98.875580
30
0.0
11
-80.669700
21
108.718150
31
0.0
0
LINE
8
0
6
CONTINUOUS
10
-80.861300
20
106.778150
30
0.0
11
61.754000
21
97.009200
31
0.0
0
LINE
8
0
6
CONTINUOUS
10
-99.622210
20
112.233620
30
0.0
11
-99.848970
21
108.400210
31
0.0
0
LINE
8
0
6
CONTINUOUS
10
-99.622210
20
112.233620
30
0.0
11
-93.989430
21
106.788520
31
0.0
0
LINE
8
0
6
CONTINUOUS
10
-115.347530
20
136.377070
30
0.0
11
-134.344840
21
137.711680
31
0.0
0
LINE
8
0
6
CONTINUOUS
10
64.538400
20
124.870490
30
0.0
11
-78.006380
21
135.619800
31
0.0
0
LINE
8
0
6
CONTINUOUS
10
-92.424980
20
100.572170
30
0.0
11
-91.722120
21
104.623130
31
0.0
0
LINE
8
0
6
CONTINUOUS
10
-93.989430
20
106.788520
30
0.0
11
-94.578760
21
102.835660
31
0.0
0
LINE
8
0
6
CONTINUOUS
10
-122.775890
20
117.002530
30
0.0
11
-135.738580
21
117.913170
31
0.0
0
LINE
8
0
6
CONTINUOUS
10
-121.606900
20
105.830190
30
0.0
11
-121.773050
21
102.589080
31
0.0
0
LINE
8
0
6
CONTINUOUS
10
-136.248680
20
110.666450
30
0.0
11
-129.373010
21
110.183430
31
0.0
0
LINE
8
0
6
CONTINUOUS
10
-127.605280
20
112.010580
30
0.0
11
-136.112000
21
112.608230
31
0.0
0
LINE
8
0
6
CONTINUOUS
10
-135.228420
20
125.159910
30
0.0
11
-116.231090
21
123.825300
31
0.0
0
LINE
8
0
6
CONTINUOUS
10
-115.720970
20
131.072100
30
0.0
11
-134.718260
21
132.406660
31
0.0
0
LINE
8
0
6
CONTINUOUS
10
-113.340770
20
109.325530
30
0.0
11
-112.875900
21
112.640420
31
0.0
0
LINE
8
0
6
CONTINUOUS
10
-119.095510
20
107.772280
30
0.0
11
-119.342510
21
104.564080
31
0.0
0
LINE
8
0
6
CONTINUOUS
10
64.351870
20
123.004110
30
0.0
11
-78.197690
21
133.689540
31
0.0
0
LINE
8
0
6
CONTINUOUS
10
-78.720260
20
128.415870
30
0.0
11
63.842270
21
117.905160
31
0.0
0
LINE
8
0
6
CONTINUOUS
10
-121.606900
20
105.830190
30
0.0
11
-119.095510
21
107.772280
31
0.0
0
LINE
8
0
6
CONTINUOUS
10
-123.781030
20
109.911730
30
0.0
11
-121.606900
21
105.830190
31
0.0
0
LINE
8
0
6
CONTINUOUS
10
-119.095510
20
107.772280
30
0.0
11
-122.196860
21
111.319620
31
0.0
0
LINE
8
0
6
CONTINUOUS
10
-93.989430
20
106.788520
30
0.0
11
-91.722120
21
104.623130
31
0.0
0
LINE
8
0
6
CONTINUOUS
10
-89.878440
20
109.523390
30
0.0
11
-93.989430
21
106.788520
31
0.0
0
LINE
8
0
6
CONTINUOUS
10
-91.722120
20
104.623130
30
0.0
11
-87.845760
21
107.956130
31
0.0
0
LINE
8
0
6
CONTINUOUS
10
-116.861610
20
116.322580
30
0.0
11
-112.875900
21
112.640420
31
0.0
0
LINE
8
0
6
CONTINUOUS
10
-123.781030
20
109.911730
30
0.0
11
-122.196860
21
111.319620
31
0.0
0
LINE
8
0
6
CONTINUOUS
10
-129.373010
20
110.183430
30
0.0
11
-123.781030
21
109.911730
31
0.0
0
LINE
8
0
6
CONTINUOUS
10
-95.484330
20
114.605640
30
0.0
11
-89.878440
21
109.523390
31
0.0
0
LINE
8
0
6
CONTINUOUS
10
-90.597660
20
114.741940
30
0.0
11
-95.484330
21
114.605640
31
0.0
0
LINE
8
0
6
CONTINUOUS
10
-95.065210
20
129.620940
30
0.0
11
-104.996050
21
130.318610
31
0.0
0
LINE
8
0
6
CONTINUOUS
10
-104.996050
20
130.318610
30
0.0
11
-115.720970
21
131.072100
31
0.0
0
LINE
8
0
6
CONTINUOUS
10
-104.622610
20
135.623650
30
0.0
11
-94.691750
21
134.925920
31
0.0
0
LINE
8
0
6
CONTINUOUS
10
-94.555110
20
136.867740
30
0.0
11
-104.485950
21
137.565390
31
0.0
0
LINE
8
0
6
CONTINUOUS
10
-115.347530
20
136.377070
30
0.0
11
-104.622610
21
135.623650
31
0.0
0
LINE
8
0
6
CONTINUOUS
10
-104.485950
20
137.565390
30
0.0
11
-115.210820
21
138.318850
31
0.0
0
LINE
8
0
6
CONTINUOUS
10
-89.878440
20
109.523390
30
0.0
11
-87.845760
21
107.956130
31
0.0
0
LINE
8
0
6
CONTINUOUS
10
-84.642430
20
108.992350
30
0.0
11
-89.878440
21
109.523390
31
0.0
0
LINE
8
0
6
CONTINUOUS
10
-87.845760
20
107.956130
30
0.0
11
-82.462670
21
106.887820
31
0.0
0
LINE
8
0
6
CONTINUOUS
10
-122.196860
20
111.319620
30
0.0
11
-116.861610
21
116.322580
31
0.0
0
LINE
8
0
6
CONTINUOUS
10
-127.605280
20
112.010580
30
0.0
11
-122.196860
21
111.319620
31
0.0
0
LINE
8
0
6
CONTINUOUS
10
-116.861610
20
116.322580
30
0.0
11
-122.775890
21
117.002530
31
0.0
0
LINE
8
0
6
CONTINUOUS
10
63.146160
20
110.939890
30
0.0
11
-79.433800
21
121.211360
31
0.0
0
LINE
8
0
6
CONTINUOUS
10
-80.146900
20
114.006670
30
0.0
11
62.450090
21
103.974540
31
0.0
0
LINE
8
0
6
CONTINUOUS
10
-120.042490
20
97.257390
30
0.0
11
-119.342510
21
104.564080
31
0.0
0
LINE
8
0
6
CONTINUOUS
10
-121.773050
20
102.589080
30
0.0
11
-121.986330
21
97.397730
31
0.0
0
LINE
8
0
6
CONTINUOUS
10
-113.340770
20
109.325530
30
0.0
11
-114.731960
21
96.873930
31
0.0
0
LINE
8
0
6
CONTINUOUS
10
-100.223270
20
95.826270
30
0.0
11
-99.848970
21
108.400210
31
0.0
0
LINE
8
0
6
CONTINUOUS
10
-106.192620
20
114.280860
30
0.0
11
-107.477640
21
96.350100
31
0.0
0
LINE
8
0
6
CONTINUOUS
10
-92.968960
20
95.302390
30
0.0
11
-92.424980
21
100.572170
31
0.0
0
LINE
8
0
6
CONTINUOUS
10
-94.578760
20
102.835660
30
0.0
11
-94.912720
21
95.442770
31
0.0
0
LINE
8
0
6
CONTINUOUS
10
-107.545240
20
95.351260
30
0.0
11
-100.290920
21
94.827390
31
0.0
0
LINE
8
0
6
CONTINUOUS
10
-120.110130
20
96.258590
30
0.0
11
-114.799630
21
95.875090
31
0.0
0
LINE
8
0
6
CONTINUOUS
10
-114.799630
20
95.875090
30
0.0
11
-107.545240
21
95.351260
31
0.0
0
LINE
8
0
6
CONTINUOUS
10
-114.731960
20
96.873930
30
0.0
11
-114.799629
21
95.875099
31
0.0
0
LINE
8
0
6
CONTINUOUS
10
-107.545240
20
95.351260
30
0.0
11
-107.477640
21
96.350100
31
0.0
0
LINE
8
0
6
CONTINUOUS
10
-100.290920
20
94.827390
30
0.0
11
-94.980350
21
94.443930
31
0.0
0
LINE
8
0
6
CONTINUOUS
10
-100.223270
20
95.826270
30
0.0
11
-100.290918
21
94.827426
31
0.0
0
LINE
8
0
6
CONTINUOUS
10
-94.980350
20
94.443930
30
0.0
11
-93.036570
21
94.303590
31
0.0
0
LINE
8
0
6
CONTINUOUS
10
-94.912720
20
95.442770
30
0.0
11
-94.980350
21
94.443932
31
0.0
0
LINE
8
0
6
CONTINUOUS
10
-93.036570
20
94.303590
30
0.0
11
-92.968960
21
95.302390
31
0.0
0
LINE
8
0
6
CONTINUOUS
10
-122.053910
20
96.398950
30
0.0
11
-120.110130
21
96.258590
31
0.0
0
LINE
8
0
6
CONTINUOUS
10
-121.986330
20
97.397730
30
0.0
11
-122.053910
21
96.398950
31
0.0
0
LINE
8
0
6
CONTINUOUS
10
-120.110130
20
96.258590
30
0.0
11
-120.042490
21
97.257390
31
0.0
0
LINE
8
0
6
CONTINUOUS
10
113.501170
20
3.860860
30
0.0
11
113.501160
21
68.208430
31
0.0
0
LINE
8
0
6
CONTINUOUS
10
111.625500
20
3.860840
30
0.0
11
111.625500
21
68.208430
31
0.0
0
LINE
8
0
6
CONTINUOUS
10
85.501120
20
68.208410
30
0.0
11
85.501180
21
3.860800
31
0.0
0
LINE
8
0
6
CONTINUOUS
10
106.501110
20
3.860820
30
0.0
11
106.501130
21
68.208430
31
0.0
0
LINE
8
0
6
CONTINUOUS
10
85.501150
20
3.102920
30
0.0
11
85.501150
21
1.803460
31
0.0
0
LINE
8
0
6
CONTINUOUS
10
106.501130
20
1.803500
30
0.0
11
111.625540
21
1.803480
31
0.0
0
LINE
8
0
6
CONTINUOUS
10
113.501160
20
1.803510
30
0.0
11
113.501160
21
3.102920
31
0.0
0
LINE
8
0
6
CONTINUOUS
10
111.625540
20
1.803480
30
0.0
11
113.501160
21
1.803510
31
0.0
0
LINE
8
0
6
CONTINUOUS
10
111.625500
20
3.102920
30
0.0
11
111.625540
21
1.803480
31
0.0
0
LINE
8
0
6
CONTINUOUS
10
92.501130
20
1.803460
30
0.0
11
99.501110
21
1.803480
31
0.0
0
LINE
8
0
6
CONTINUOUS
10
92.501130
20
1.803460
30
0.0
11
92.501130
21
3.102910
31
0.0
0
LINE
8
0
6
CONTINUOUS
10
87.376770
20
3.102920
30
0.0
11
87.376770
21
1.803460
31
0.0
0
LINE
8
0
6
CONTINUOUS
10
106.501130
20
1.803500
30
0.0
11
106.501110
21
3.102920
31
0.0
0
LINE
8
0
6
CONTINUOUS
10
99.501110
20
1.803480
30
0.0
11
106.501130
21
1.803500
31
0.0
0
LINE
8
0
6
CONTINUOUS
10
99.501130
20
3.102920
30
0.0
11
99.501110
21
1.803480
31
0.0
0
LINE
8
0
6
CONTINUOUS
10
99.501110
20
3.524630
30
0.0
11
106.501110
21
3.524610
31
0.0
0
LINE
8
0
6
CONTINUOUS
10
99.501110
20
3.524630
30
0.0
11
99.501110
21
3.860830
31
0.0
0
LINE
8
0
6
CONTINUOUS
10
92.501130
20
3.524610
30
0.0
11
99.501110
21
3.524630
31
0.0
0
LINE
8
0
6
CONTINUOUS
10
92.501130
20
3.524610
30
0.0
11
92.501110
21
3.860820
31
0.0
0
LINE
8
0
6
CONTINUOUS
10
87.376790
20
3.524610
30
0.0
11
92.501130
21
3.524610
31
0.0
0
LINE
8
0
6
CONTINUOUS
10
106.501110
20
3.860820
30
0.0
11
106.501110
21
3.524610
31
0.0
0
LINE
8
0
6
CONTINUOUS
10
106.501110
20
3.524610
30
0.0
11
111.625520
21
3.524610
31
0.0
0
LINE
8
0
6
CONTINUOUS
10
111.625500
20
3.860840
30
0.0
11
111.625520
21
3.524610
31
0.0
0
LINE
8
0
6
CONTINUOUS
10
113.501160
20
3.524630
30
0.0
11
113.501170
21
3.860860
31
0.0
0
LINE
8
0
6
CONTINUOUS
10
111.625520
20
3.524610
30
0.0
11
113.501160
21
3.524630
31
0.0
0
LINE
8
0
6
CONTINUOUS
10
85.501180
20
3.860800
30
0.0
11
85.501140
21
3.524630
31
0.0
0
LINE
8
0
6
CONTINUOUS
10
87.376790
20
3.524610
30
0.0
11
87.376750
21
3.860820
31
0.0
0
LINE
8
0
6
CONTINUOUS
10
85.501140
20
3.524630
30
0.0
11
87.376790
21
3.524610
31
0.0
0
LINE
8
0
6
CONTINUOUS
10
92.669670
20
3.439120
30
0.0
11
99.501160
21
3.439120
31
0.0
0
LINE
8
0
6
CONTINUOUS
10
92.501100
20
3.439130
30
0.0
11
92.669670
21
3.439120
31
0.0
0
LINE
8
0
6
CONTINUOUS
10
99.501160
20
3.439120
30
0.0
11
92.501100
21
3.439130
31
0.0
0
LINE
8
0
6
CONTINUOUS
10
99.501130
20
3.439110
30
0.0
11
106.501130
21
3.439130
31
0.0
0
LINE
8
0
6
CONTINUOUS
10
99.501130
20
3.102920
30
0.0
11
99.501130
21
3.439110
31
0.0
0
LINE
8
0
6
CONTINUOUS
10
99.501130
20
3.439110
30
0.0
11
92.669660
21
3.439120
31
0.0
0
LINE
8
0
6
CONTINUOUS
10
92.501110
20
3.439100
30
0.0
11
99.501130
21
3.439110
31
0.0
0
LINE
8
0
6
CONTINUOUS
10
92.501130
20
3.102910
30
0.0
11
92.501110
21
3.439100
31
0.0
0
LINE
8
0
6
CONTINUOUS
10
92.669660
20
3.439120
30
0.0
11
87.668720
21
3.439120
31
0.0
0
LINE
8
0
6
CONTINUOUS
10
87.376770
20
3.439100
30
0.0
11
92.501110
21
3.439100
31
0.0
0
LINE
8
0
6
CONTINUOUS
10
106.501130
20
3.439130
30
0.0
11
106.501110
21
3.102920
31
0.0
0
LINE
8
0
6
CONTINUOUS
10
111.333570
20
3.439130
30
0.0
11
106.332630
21
3.439140
31
0.0
0
LINE
8
0
6
CONTINUOUS
10
106.501130
20
3.439130
30
0.0
11
111.625520
21
3.439110
31
0.0
0
LINE
8
0
6
CONTINUOUS
10
111.625520
20
3.439110
30
0.0
11
111.625500
21
3.102920
31
0.0
0
LINE
8
0
6
CONTINUOUS
10
113.501160
20
3.439120
30
0.0
11
111.625520
21
3.439110
31
0.0
0
LINE
8
0
6
CONTINUOUS
10
113.501160
20
3.102920
30
0.0
11
113.501160
21
3.439120
31
0.0
0
LINE
8
0
6
CONTINUOUS
10
85.501120
20
3.439110
30
0.0
11
85.501150
21
3.102920
31
0.0
0
LINE
8
0
6
CONTINUOUS
10
87.376770
20
3.102920
30
0.0
11
87.376770
21
3.439100
31
0.0
0
LINE
8
0
6
CONTINUOUS
10
85.838210
20
3.439120
30
0.0
11
85.501120
21
3.439110
31
0.0
0
LINE
8
0
6
CONTINUOUS
10
87.668720
20
3.439120
30
0.0
11
85.838210
21
3.439120
31
0.0
0
LINE
8
0
6
CONTINUOUS
10
85.501120
20
3.439110
30
0.0
11
87.376770
21
3.439100
31
0.0
0
LINE
8
0
6
CONTINUOUS
10
87.376770
20
68.208390
30
0.0
11
87.376750
21
3.860820
31
0.0
0
LINE
8
0
6
CONTINUOUS
10
99.501110
20
3.860830
30
0.0
11
99.501150
21
68.208450
31
0.0
0
LINE
8
0
6
CONTINUOUS
10
92.501130
20
68.208410
30
0.0
11
92.501110
21
3.860820
31
0.0
0
LINE
8
0
6
CONTINUOUS
10
-101.845010
20
90.051180
30
0.0
11
-101.825390
21
90.357970
31
0.0
0
LINE
8
0
6
CONTINUOUS
10
-107.948800
20
90.467530
30
0.0
11
-107.929190
21
90.774350
31
0.0
0
LINE
8
0
6
CONTINUOUS
10
-114.052620
20
90.883910
30
0.0
11
-107.948800
21
90.467530
31
0.0
0
LINE
8
0
6
CONTINUOUS
10
-114.052620
20
90.883910
30
0.0
11
-114.032950
21
91.190720
31
0.0
0
LINE
8
0
6
CONTINUOUS
10
-118.520850
20
91.188700
30
0.0
11
-114.052620
21
90.883910
31
0.0
0
LINE
8
0
6
CONTINUOUS
10
-118.520850
20
91.188700
30
0.0
11
-118.501240
21
91.495520
31
0.0
0
LINE
8
0
6
CONTINUOUS
10
-120.136730
20
91.607100
30
0.0
11
-120.156360
21
91.300280
31
0.0
0
LINE
8
0
6
CONTINUOUS
10
-97.376760
20
89.746360
30
0.0
11
-101.845010
21
90.051180
31
0.0
0
LINE
8
0
6
CONTINUOUS
10
-101.845010
20
90.051180
30
0.0
11
-107.948800
21
90.467530
31
0.0
0
LINE
8
0
6
CONTINUOUS
10
-118.520850
20
91.188700
30
0.0
11
-120.156360
21
91.300280
31
0.0
0
LINE
8
0
6
CONTINUOUS
10
-95.741230
20
89.634780
30
0.0
11
-95.721600
21
89.941600
31
0.0
0
LINE
8
0
6
CONTINUOUS
10
-97.357120
20
90.053140
30
0.0
11
-97.376760
21
89.746360
31
0.0
0
LINE
8
0
6
CONTINUOUS
10
-101.825390
20
90.357970
30
0.0
11
-101.533751
21
94.917123
31
0.0
0
LINE
8
0
6
CONTINUOUS
10
-107.929190
20
90.774350
30
0.0
11
-107.636005
21
95.357797
31
0.0
0
LINE
8
0
6
CONTINUOUS
10
-114.032950
20
91.190720
30
0.0
11
-113.738197
21
95.798429
31
0.0
0
LINE
8
0
6
CONTINUOUS
10
-118.501240
20
91.495520
30
0.0
11
-118.205341
21
96.121024
31
0.0
0
LINE
8
0
6
CONTINUOUS
10
-119.840434
20
96.239114
30
0.0
11
-120.136730
21
91.607100
31
0.0
0
LINE
8
0
6
CONTINUOUS
10
-95.721600
20
89.941600
30
0.0
11
-95.431516
21
94.476506
31
0.0
0
LINE
8
0
6
CONTINUOUS
10
-97.066621
20
94.594599
30
0.0
11
-97.357120
21
90.053140
31
0.0
0
LINE
8
0
6
CONTINUOUS
10
-95.741230
20
89.634780
30
0.0
11
-97.376760
21
89.746360
31
0.0
0
LINE
8
0
6
CONTINUOUS
10
84.981030
20
74.991460
30
0.0
11
85.501120
21
68.208410
31
0.0
0
LINE
8
0
6
CONTINUOUS
10
86.800580
20
75.446760
30
0.0
11
87.376770
21
68.208390
31
0.0
0
LINE
8
0
6
CONTINUOUS
10
91.771670
20
76.690710
30
0.0
11
92.501130
21
68.208410
31
0.0
0
LINE
8
0
6
CONTINUOUS
10
98.562300
20
78.389970
30
0.0
11
99.501150
21
68.208450
31
0.0
0
LINE
8
0
6
CONTINUOUS
10
105.352910
20
80.089210
30
0.0
11
106.501130
21
68.208430
31
0.0
0
LINE
8
0
6
CONTINUOUS
10
110.324010
20
81.333120
30
0.0
11
111.625500
21
68.208430
31
0.0
0
LINE
8
0
6
CONTINUOUS
10
113.501160
20
68.208430
30
0.0
11
112.143560
21
81.788450
31
0.0
0
LINE
8
0
6
CONTINUOUS
10
82.829920
20
81.445370
30
0.0
11
84.981030
21
74.991460
31
0.0
0
LINE
8
0
6
CONTINUOUS
10
84.484530
20
82.328760
30
0.0
11
86.800580
21
75.446760
31
0.0
0
LINE
8
0
6
CONTINUOUS
10
89.004960
20
84.742210
30
0.0
11
91.771670
21
76.690710
31
0.0
0
LINE
8
0
6
CONTINUOUS
10
95.179980
20
88.039100
30
0.0
11
98.562300
21
78.389970
31
0.0
0
LINE
8
0
6
CONTINUOUS
10
101.355000
20
91.335910
30
0.0
11
105.352910
21
80.089210
31
0.0
0
LINE
8
0
6
CONTINUOUS
10
105.875450
20
93.749330
30
0.0
11
110.324010
21
81.333120
31
0.0
0
LINE
8
0
6
CONTINUOUS
10
112.143560
20
81.788450
30
0.0
11
107.530050
21
94.632720
31
0.0
0
LINE
8
0
6
CONTINUOUS
10
79.176480
20
87.184050
30
0.0
11
82.829920
21
81.445370
31
0.0
0
LINE
8
0
6
CONTINUOUS
10
80.567150
20
88.442670
30
0.0
11
84.484530
21
82.328760
31
0.0
0
LINE
8
0
6
CONTINUOUS
10
84.366510
20
91.881260
30
0.0
11
89.004960
21
84.742210
31
0.0
0
LINE
8
0
6
CONTINUOUS
10
89.556530
20
96.578510
30
0.0
11
95.179980
21
88.039100
31
0.0
0
LINE
8
0
6
CONTINUOUS
10
94.746550
20
101.275680
30
0.0
11
101.355000
21
91.335910
31
0.0
0
LINE
8
0
6
CONTINUOUS
10
98.545930
20
104.714260
30
0.0
11
105.875450
21
93.749330
31
0.0
0
LINE
8
0
6
CONTINUOUS
10
107.530050
20
94.632720
30
0.0
11
99.936600
21
105.972880
31
0.0
0
LINE
8
0
6
CONTINUOUS
10
74.239260
20
91.864230
30
0.0
11
79.176480
21
87.184050
31
0.0
0
LINE
8
0
6
CONTINUOUS
10
75.282800
20
93.422780
30
0.0
11
80.567150
21
88.442670
31
0.0
0
LINE
8
0
6
CONTINUOUS
10
78.133810
20
97.680820
30
0.0
11
84.366510
21
91.881260
31
0.0
0
LINE
8
0
6
CONTINUOUS
10
82.028340
20
103.497430
30
0.0
11
89.556530
21
96.578510
31
0.0
0
LINE
8
0
6
CONTINUOUS
10
85.922890
20
109.313990
30
0.0
11
94.746550
21
101.275680
31
0.0
0
LINE
8
0
6
CONTINUOUS
10
88.773920
20
113.572010
30
0.0
11
98.545930
21
104.714260
31
0.0
0
LINE
8
0
6
CONTINUOUS
10
99.936600
20
105.972880
30
0.0
11
89.817470
21
115.130560
31
0.0
0
LINE
8
0
6
CONTINUOUS
10
68.313600
20
95.205920
30
0.0
11
74.239260
21
91.864230
31
0.0
0
LINE
8
0
6
CONTINUOUS
10
68.947600
20
96.971170
30
0.0
11
75.282800
21
93.422780
31
0.0
0
LINE
8
0
6
CONTINUOUS
10
70.679700
20
101.793920
30
0.0
11
78.133810
21
97.680820
31
0.0
0
LINE
8
0
6
CONTINUOUS
10
73.045770
20
108.381960
30
0.0
11
82.028340
21
103.497430
31
0.0
0
LINE
8
0
6
CONTINUOUS
10
75.411870
20
114.969920
30
0.0
11
85.922890
21
109.313990
31
0.0
0
LINE
8
0
6
CONTINUOUS
10
77.143990
20
119.792670
30
0.0
11
88.773920
21
113.572010
31
0.0
0
LINE
8
0
6
CONTINUOUS
10
89.817470
20
115.130560
30
0.0
11
77.778000
21
121.557920
31
0.0
0
LINE
8
0
6
CONTINUOUS
10
61.754000
20
97.009200
30
0.0
11
68.313600
21
95.205920
31
0.0
0
LINE
8
0
6
CONTINUOUS
10
61.940520
20
98.875580
30
0.0
11
68.947600
21
96.971170
31
0.0
0
LINE
8
0
6
CONTINUOUS
10
62.450090
20
103.974540
30
0.0
11
70.679700
21
101.793920
31
0.0
0
LINE
8
0
6
CONTINUOUS
10
63.146160
20
110.939890
30
0.0
11
73.045770
21
108.381960
31
0.0
0
LINE
8
0
6
CONTINUOUS
10
63.842270
20
117.905160
30
0.0
11
75.411870
21
114.969920
31
0.0
0
LINE
8
0
6
CONTINUOUS
10
64.351870
20
123.004110
30
0.0
11
77.143990
21
119.792670
31
0.0
0
LINE
8
0
6
CONTINUOUS
10
77.778000
20
121.557920
30
0.0
11
64.538400
21
124.870490
31
0.0
0
LINE
8
0
6
CONTINUOUS
10
-78.720260
20
128.415870
30
0.0
11
-95.065210
21
129.620940
31
0.0
0
LINE
8
0
6
CONTINUOUS
10
-95.575370
20
122.374190
30
0.0
11
-79.433800
21
121.211360
31
0.0
0
LINE
8
0
6
CONTINUOUS
10
-78.006380
20
135.619800
30
0.0
11
-94.555110
21
136.867740
31
0.0
0
LINE
8
0
6
CONTINUOUS
10
-94.691750
20
134.925920
30
0.0
11
-78.197690
21
133.689540
31
0.0
0
LINE
8
0
6
CONTINUOUS
10
-82.462670
20
106.887820
30
0.0
11
-80.861300
21
106.778150
31
0.0
0
LINE
8
0
6
CONTINUOUS
10
-80.146900
20
114.006670
30
0.0
11
-90.597660
21
114.741940
31
0.0
0
LINE
8
0
6
CONTINUOUS
10
-84.642430
20
108.992350
30
0.0
11
-80.669700
21
108.718150
31
0.0
0
LINE
8
0
6
CONTINUOUS
10
146.000000
20
-139.977650
30
0.0
11
146.000000
21
-129.022330
31
0.0
0
LINE
8
0
6
CONTINUOUS
10
82.000000
20
-129.022330
30
0.0
11
82.000000
21
-139.977650
31
0.0
0
LINE
8
0
6
CONTINUOUS
10
146.000000
20
-140.499990
30
0.0
11
146.000000
21
-139.977650
31
0.0
0
LINE
8
0
6
CONTINUOUS
10
144.909620
20
-140.499990
30
0.0
11
146.000000
21
-140.499990
31
0.0
0
LINE
8
0
6
CONTINUOUS
10
141.712810
20
-140.499990
30
0.0
11
144.909620
21
-140.499990
31
0.0
0
LINE
8
0
6
CONTINUOUS
10
136.627420
20
-140.499990
30
0.0
11
141.712810
21
-140.499990
31
0.0
0
LINE
8
0
6
CONTINUOUS
10
130.000010
20
-140.499990
30
0.0
11
136.627420
21
-140.499990
31
0.0
0
LINE
8
0
6
CONTINUOUS
10
122.282220
20
-140.499990
30
0.0
11
130.000010
21
-140.499990
31
0.0
0
LINE
8
0
6
CONTINUOUS
10
114.000010
20
-140.499990
30
0.0
11
122.282220
21
-140.499990
31
0.0
0
LINE
8
0
6
CONTINUOUS
10
105.717800
20
-140.499990
30
0.0
11
114.000010
21
-140.499990
31
0.0
0
LINE
8
0
6
CONTINUOUS
10
98.000010
20
-140.499990
30
0.0
11
105.717800
21
-140.499990
31
0.0
0
LINE
8
0
6
CONTINUOUS
10
91.372590
20
-140.499990
30
0.0
11
98.000010
21
-140.499990
31
0.0
0
LINE
8
0
6
CONTINUOUS
10
86.287190
20
-140.499990
30
0.0
11
91.372590
21
-140.499990
31
0.0
0
LINE
8
0
6
CONTINUOUS
10
83.090380
20
-140.499990
30
0.0
11
86.287190
21
-140.499990
31
0.0
0
LINE
8
0
6
CONTINUOUS
10
82.000000
20
-140.499990
30
0.0
11
83.090380
21
-140.499990
31
0.0
0
LINE
8
0
6
CONTINUOUS
10
82.000000
20
-139.977650
30
0.0
11
82.000000
21
-140.499990
31
0.0
0
LINE
8
0
6
CONTINUOUS
10
146.000000
20
-128.499990
30
0.0
11
144.909620
21
-128.499990
31
0.0
0
LINE
8
0
6
CONTINUOUS
10
146.000000
20
-129.022330
30
0.0
11
146.000000
21
-128.499990
31
0.0
0
LINE
8
0
6
CONTINUOUS
10
144.909620
20
-128.499990
30
0.0
11
141.712810
21
-128.499990
31
0.0
0
LINE
8
0
6
CONTINUOUS
10
141.712810
20
-128.499990
30
0.0
11
136.627420
21
-128.499990
31
0.0
0
LINE
8
0
6
CONTINUOUS
10
136.627420
20
-128.499990
30
0.0
11
130.000010
21
-128.499990
31
0.0
0
LINE
8
0
6
CONTINUOUS
10
130.000010
20
-128.499990
30
0.0
11
122.282220
21
-128.499990
31
0.0
0
LINE
8
0
6
CONTINUOUS
10
122.282220
20
-128.499990
30
0.0
11
114.000010
21
-128.499990
31
0.0
0
LINE
8
0
6
CONTINUOUS
10
114.000010
20
-128.499990
30
0.0
11
105.717800
21
-128.499990
31
0.0
0
LINE
8
0
6
CONTINUOUS
10
105.717800
20
-128.499990
30
0.0
11
98.000010
21
-128.499990
31
0.0
0
LINE
8
0
6
CONTINUOUS
10
98.000010
20
-128.499990
30
0.0
11
91.372590
21
-128.499990
31
0.0
0
LINE
8
0
6
CONTINUOUS
10
91.372590
20
-128.499990
30
0.0
11
86.287190
21
-128.499990
31
0.0
0
LINE
8
0
6
CONTINUOUS
10
86.287190
20
-128.499990
30
0.0
11
83.090380
21
-128.499990
31
0.0
0
LINE
8
0
6
CONTINUOUS
10
82.000000
20
-128.499990
30
0.0
11
82.000000
21
-129.022330
31
0.0
0
LINE
8
0
6
CONTINUOUS
10
83.090380
20
-128.499990
30
0.0
11
82.000000
21
-128.499990
31
0.0
0
LINE
8
0
6
CONTINUOUS
10
85.501150
20
-51.152870
30
0.0
11
85.501150
21
-128.499990
31
0.0
0
LINE
8
0
6
CONTINUOUS
10
142.318460
20
-128.499990
30
0.0
11
142.318470
21
-51.152870
31
0.0
0
LINE
8
0
6
CONTINUOUS
10
139.460580
20
-43.991600
30
0.0
11
132.752290
21
-38.919960
31
0.0
0
LINE
8
0
6
CONTINUOUS
10
113.501150
20
-15.674260
30
0.0
11
113.501150
21
1.303460
31
0.0
0
LINE
8
0
6
CONTINUOUS
10
85.501150
20
1.303460
30
0.0
11
85.501150
21
-15.674260
31
0.0
0
LINE
8
0
6
CONTINUOUS
10
85.501150
20
-15.674260
30
0.0
11
85.501150
21
-17.763622
31
0.0
0
LINE
8
0
6
CONTINUOUS
10
138.924080
20
-43.991600
30
0.0
11
137.351110
21
-43.991600
31
0.0
0
LINE
8
0
6
CONTINUOUS
10
141.481410
20
-47.571290
30
0.0
11
139.460580
21
-43.991600
31
0.0
0
LINE
8
0
6
CONTINUOUS
10
139.460580
20
-43.991600
30
0.0
11
138.924080
21
-43.991600
31
0.0
0
LINE
8
0
6
CONTINUOUS
10
142.318470
20
-51.152870
30
0.0
11
141.481410
21
-47.571290
31
0.0
0
LINE
8
0
6
CONTINUOUS
10
85.501150
20
-48.332161
30
0.0
11
85.501150
21
-51.152870
31
0.0
0
LINE
8
0
6
CONTINUOUS
10
119.774660
20
-26.646400
30
0.0
11
115.831040
21
-21.700890
31
0.0
0
LINE
8
0
6
CONTINUOUS
10
125.623530
20
-32.809300
30
0.0
11
119.774660
21
-26.646400
31
0.0
0
LINE
8
0
6
CONTINUOUS
10
132.752290
20
-38.919960
30
0.0
11
125.623530
21
-32.809300
31
0.0
0
LINE
8
0
6
CONTINUOUS
10
115.831040
20
-21.700890
30
0.0
11
114.279420
21
-18.687580
31
0.0
0
LINE
8
0
6
CONTINUOUS
10
99.501160
20
1.803470
30
0.0
11
95.877690
21
1.803470
31
0.0
0
LINE
8
0
6
CONTINUOUS
10
95.877690
20
1.803470
30
0.0
11
92.501160
21
1.803470
31
0.0
0
LINE
8
0
6
CONTINUOUS
10
92.501160
20
1.803470
30
0.0
11
89.601660
21
1.803470
31
0.0
0
LINE
8
0
6
CONTINUOUS
10
89.601660
20
1.803470
30
0.0
11
87.376800
21
1.803470
31
0.0
0
LINE
8
0
6
CONTINUOUS
10
87.376800
20
1.803470
30
0.0
11
85.978200
21
1.803470
31
0.0
0
LINE
8
0
6
CONTINUOUS
10
85.501150
20
1.803470
30
0.0
11
85.501150
21
1.303460
31
0.0
0
LINE
8
0
6
CONTINUOUS
10
85.978200
20
1.803470
30
0.0
11
85.501150
21
1.803470
31
0.0
0
LINE
8
0
6
CONTINUOUS
10
113.501150
20
1.803470
30
0.0
11
113.024110
21
1.803470
31
0.0
0
LINE
8
0
6
CONTINUOUS
10
113.501150
20
1.303460
30
0.0
11
113.501150
21
1.803470
31
0.0
0
LINE
8
0
6
CONTINUOUS
10
113.024110
20
1.803470
30
0.0
11
111.625510
21
1.803470
31
0.0
0
LINE
8
0
6
CONTINUOUS
10
111.625510
20
1.803470
30
0.0
11
109.400650
21
1.803470
31
0.0
0
LINE
8
0
6
CONTINUOUS
10
109.400650
20
1.803470
30
0.0
11
106.501160
21
1.803470
31
0.0
0
LINE
8
0
6
CONTINUOUS
10
106.501160
20
1.803470
30
0.0
11
103.124620
21
1.803470
31
0.0
0
LINE
8
0
6
CONTINUOUS
10
103.124620
20
1.803470
30
0.0
11
99.501160
21
1.803470
31
0.0
0
LINE
8
0
6
CONTINUOUS
10
114.279420
20
-18.687580
30
0.0
11
113.501150
21
-15.674260
31
0.0
0
LINE
8
0
6
CONTINUOUS
10
108.369640
20
-74.396340
30
0.0
11
109.076822
21
-74.756668
31
0.0
0
LINE
8
0
6
CONTINUOUS
10
114.278600
20
-77.407110
30
0.0
11
115.062591
21
-77.531282
31
0.0
0
LINE
8
0
6
CONTINUOUS
10
120.828720
20
-78.444550
30
0.0
11
121.612713
21
-78.320378
31
0.0
0
LINE
8
0
6
CONTINUOUS
10
127.378850
20
-77.407110
30
0.0
11
128.086064
21
-77.046764
31
0.0
0
LINE
8
0
6
CONTINUOUS
10
133.287800
20
-74.396330
30
0.0
11
133.849000
21
-73.835131
31
0.0
0
LINE
8
0
6
CONTINUOUS
10
137.977170
20
-69.706970
30
0.0
11
138.337498
21
-68.999789
31
0.0
0
LINE
8
0
6
CONTINUOUS
10
140.987940
20
-63.798020
30
0.0
11
141.112103
21
-63.014072
31
0.0
0
LINE
8
0
6
CONTINUOUS
10
142.025360
20
-57.247870
30
0.0
11
141.901203
21
-56.463968
31
0.0
0
LINE
8
0
6
CONTINUOUS
10
140.987930
20
-50.697750
30
0.0
11
140.627610
21
-49.990584
31
0.0
0
LINE
8
0
6
CONTINUOUS
10
137.977160
20
-44.788800
30
0.0
11
137.415945
21
-44.227587
31
0.0
0
LINE
8
0
6
CONTINUOUS
10
133.287790
20
-40.099440
30
0.0
11
132.580603
21
-39.739109
31
0.0
0
LINE
8
0
6
CONTINUOUS
10
127.378830
20
-37.088660
30
0.0
11
126.594822
21
-36.964488
31
0.0
0
LINE
8
0
6
CONTINUOUS
10
31.894050
20
14.965900
30
0.0
11
33.791190
21
12.725790
31
0.0
0
LINE
8
0
6
CONTINUOUS
10
104.653440
20
-70.946750
30
0.0
11
109.678290
21
-75.274720
31
0.0
0
LINE
8
0
6
CONTINUOUS
10
109.678290
20
-75.274720
30
0.0
11
115.794630
21
-77.838080
31
0.0
0
LINE
8
0
6
CONTINUOUS
10
115.794630
20
-77.838080
30
0.0
11
122.403730
21
-78.385950
31
0.0
0
LINE
8
0
6
CONTINUOUS
10
122.403730
20
-78.385950
30
0.0
11
128.858670
21
-76.864680
31
0.0
0
LINE
8
0
6
CONTINUOUS
10
128.858670
20
-76.864680
30
0.0
11
134.527590
21
-73.423170
31
0.0
0
LINE
8
0
6
CONTINUOUS
10
134.527590
20
-73.423170
30
0.0
11
138.855550
21
-68.398320
31
0.0
0
LINE
8
0
6
CONTINUOUS
10
138.855550
20
-68.398320
30
0.0
11
141.418920
21
-62.281990
31
0.0
0
LINE
8
0
6
CONTINUOUS
10
141.418920
20
-62.281990
30
0.0
11
141.966780
21
-55.672880
31
0.0
0
LINE
8
0
6
CONTINUOUS
10
141.966780
20
-55.672880
30
0.0
11
140.445520
21
-49.217950
31
0.0
0
LINE
8
0
6
CONTINUOUS
10
140.445520
20
-49.217950
30
0.0
11
137.004002
21
-43.549043
31
0.0
0
LINE
8
0
6
CONTINUOUS
10
137.004000
20
-43.549040
30
0.0
11
131.979150
21
-39.221070
31
0.0
0
LINE
8
0
6
CONTINUOUS
10
131.979150
20
-39.221070
30
0.0
11
125.862810
21
-36.657700
31
0.0
0
LINE
8
0
6
CONTINUOUS
10
53.194490
20
-10.185170
30
0.0
11
78.530250
21
-40.101080
31
0.0
0
LINE
8
0
6
CONTINUOUS
10
78.530250
20
-40.101080
30
0.0
11
104.653440
21
-70.946750
31
0.0
0
LINE
8
0
6
CONTINUOUS
10
13.814290
20
36.314050
30
0.0
11
14.086550
21
35.992590
31
0.0
0
LINE
8
0
6
CONTINUOUS
10
14.188500
20
36.630980
30
0.0
11
13.814290
21
36.314050
31
0.0
0
LINE
8
0
6
CONTINUOUS
10
19.385380
20
40.481380
30
0.0
11
19.840530
21
39.943930
31
0.0
0
LINE
8
0
6
CONTINUOUS
10
14.541110
20
35.455860
30
0.0
11
15.342310
21
34.509810
31
0.0
0
LINE
8
0
6
CONTINUOUS
10
21.595270
20
37.871970
30
0.0
11
20.644600
21
38.994520
31
0.0
0
LINE
8
0
6
CONTINUOUS
10
33.791190
20
12.725790
30
0.0
11
36.811310
21
9.159700
31
0.0
0
LINE
8
0
6
CONTINUOUS
10
42.110740
20
13.647790
30
0.0
11
39.090630
21
17.213870
31
0.0
0
LINE
8
0
6
CONTINUOUS
10
40.612360
20
4.671520
30
0.0
11
36.811310
21
9.159700
31
0.0
0
LINE
8
0
6
CONTINUOUS
10
45.911780
20
9.159610
30
0.0
11
42.110740
21
13.647790
31
0.0
0
LINE
8
0
6
CONTINUOUS
10
40.612360
20
4.671520
30
0.0
11
44.615650
21
-0.055470
31
0.0
0
LINE
8
0
6
CONTINUOUS
10
45.911780
20
9.159610
30
0.0
11
49.915070
21
4.432600
31
0.0
0
LINE
8
0
6
CONTINUOUS
10
44.615650
20
-0.055470
30
0.0
11
48.211740
21
-4.301660
31
0.0
0
LINE
8
0
6
CONTINUOUS
10
53.511170
20
0.186430
30
0.0
11
49.915070
21
4.432600
31
0.0
0
LINE
8
0
6
CONTINUOUS
10
35.727330
20
21.185150
30
0.0
11
37.189800
21
19.458320
31
0.0
0
LINE
8
0
6
CONTINUOUS
10
39.090630
20
17.213870
30
0.0
11
37.189800
21
19.458320
31
0.0
0
LINE
8
0
6
CONTINUOUS
10
34.033680
20
23.185010
30
0.0
11
35.727330
21
21.185150
31
0.0
0
LINE
8
0
6
CONTINUOUS
10
28.734250
20
18.696920
30
0.0
11
30.427910
21
16.697080
31
0.0
0
LINE
8
0
6
CONTINUOUS
10
30.427910
20
16.697080
30
0.0
11
31.894050
21
14.965900
31
0.0
0
LINE
8
0
6
CONTINUOUS
10
16.295850
20
33.383910
30
0.0
11
28.734250
21
18.696920
31
0.0
0
LINE
8
0
6
CONTINUOUS
10
34.033680
20
23.185010
30
0.0
11
21.595270
21
37.871970
31
0.0
0
LINE
8
0
6
CONTINUOUS
10
48.211740
20
-4.301660
30
0.0
11
51.592430
21
-8.293490
31
0.0
0
LINE
8
0
6
CONTINUOUS
10
125.862810
20
-36.657700
30
0.0
11
91.784650
21
-20.712510
31
0.0
0
LINE
8
0
6
CONTINUOUS
10
91.784650
20
-20.712510
30
0.0
11
58.843780
21
-5.253140
31
0.0
0
LINE
8
0
6
CONTINUOUS
10
19.840530
20
39.943930
30
0.0
11
19.441660
21
39.606130
31
0.0
0
LINE
8
0
6
CONTINUOUS
10
20.644600
20
38.994520
30
0.0
11
19.840530
21
39.943930
31
0.0
0
LINE
8
0
6
CONTINUOUS
10
15.342310
20
34.509810
30
0.0
11
16.295850
21
33.383910
31
0.0
0
LINE
8
0
6
CONTINUOUS
10
19.441660
20
39.606130
30
0.0
11
17.190820
21
37.699890
31
0.0
0
LINE
8
0
6
CONTINUOUS
10
17.190820
20
37.699890
30
0.0
11
14.915320
21
35.772780
31
0.0
0
LINE
8
0
6
CONTINUOUS
10
19.113720
20
40.802160
30
0.0
11
18.714840
21
40.464330
31
0.0
0
LINE
8
0
6
CONTINUOUS
10
19.385380
20
40.481380
30
0.0
11
19.113720
21
40.802160
31
0.0
0
LINE
8
0
6
CONTINUOUS
10
14.541110
20
35.455860
30
0.0
11
14.915320
21
35.772780
31
0.0
0
LINE
8
0
6
CONTINUOUS
10
14.086550
20
35.992590
30
0.0
11
14.541110
21
35.455860
31
0.0
0
LINE
8
0
6
CONTINUOUS
10
18.714840
20
40.464330
30
0.0
11
16.464010
21
38.558100
31
0.0
0
LINE
8
0
6
CONTINUOUS
10
16.464010
20
38.558100
30
0.0
11
14.188500
21
36.630980
31
0.0
0
LINE
8
0
6
CONTINUOUS
10
56.920710
20
-3.780340
30
0.0
11
53.511170
21
0.186430
31
0.0
0
LINE
8
0
6
CONTINUOUS
10
52.407060
20
-9.255390
30
0.0
11
53.194490
21
-10.185170
31
0.0
0
LINE
8
0
6
CONTINUOUS
10
58.843780
20
-5.253140
30
0.0
11
57.742330
21
-4.736230
31
0.0
0
LINE
8
0
6
CONTINUOUS
10
57.742330
20
-4.736230
30
0.0
11
56.920710
21
-3.780340
31
0.0
0
LINE
8
0
6
CONTINUOUS
10
52.407060
20
-9.255390
30
0.0
11
51.592430
21
-8.293490
31
0.0
0
ENDSEC
0
EOF
