999
Erzeugt mit innoplus bad 
0
SECTION
2
HEADER
9
$ACADVER
1
AC1009
9
$DWGCODEPAGE
3
ISO8859-1
0
ENDSEC
0
SECTION
2
TABLES
0
TABLE
2
LAYER
70
1
0
LAYER
2
0
70
0
62
7
6
CONTINUOUS
0
ENDTAB
0
ENDSEC
0
SECTION
2
ENTITIES
0
LINE
8
0
6
CONTINUOUS
10
24.780700
20
66.151555
30
0.0
11
24.533700
21
66.151555
31
0.0
0
LINE
8
0
6
CONTINUOUS
10
24.986700
20
66.247735
30
0.0
11
24.739690
21
66.247735
31
0.0
0
LINE
8
0
6
CONTINUOUS
10
24.533700
20
66.151555
30
0.0
11
24.780700
21
66.151555
31
0.0
0
LINE
8
0
6
CONTINUOUS
10
25.645700
20
66.247735
30
0.0
11
24.986700
21
66.247735
31
0.0
0
LINE
8
0
6
CONTINUOUS
10
26.695690
20
66.247735
30
0.0
11
25.645700
21
66.247735
31
0.0
0
LINE
8
0
6
CONTINUOUS
10
31.430690
20
66.247735
30
0.0
11
29.701690
21
66.247735
31
0.0
0
LINE
8
0
6
CONTINUOUS
10
29.701690
20
66.247735
30
0.0
11
28.095690
21
66.247735
31
0.0
0
LINE
8
0
6
CONTINUOUS
10
28.095690
20
66.247735
30
0.0
11
26.695690
21
66.247735
31
0.0
0
LINE
8
0
6
CONTINUOUS
10
38.327700
20
66.151555
30
0.0
11
38.121690
21
66.247735
31
0.0
0
LINE
8
0
6
CONTINUOUS
10
38.121690
20
66.247735
30
0.0
11
37.874690
21
66.247735
31
0.0
0
LINE
8
0
6
CONTINUOUS
10
37.874690
20
66.247735
30
0.0
11
37.215700
21
66.247735
31
0.0
0
LINE
8
0
6
CONTINUOUS
10
37.215700
20
66.247735
30
0.0
11
36.165700
21
66.247735
31
0.0
0
LINE
8
0
6
CONTINUOUS
10
33.159690
20
66.247735
30
0.0
11
31.430690
21
66.247735
31
0.0
0
LINE
8
0
6
CONTINUOUS
10
34.765690
20
66.247735
30
0.0
11
33.159690
21
66.247735
31
0.0
0
LINE
8
0
6
CONTINUOUS
10
36.165700
20
66.247735
30
0.0
11
34.765690
21
66.247735
31
0.0
0
LINE
8
0
6
CONTINUOUS
10
-62.013410
20
66.247755
30
0.0
11
-62.260500
21
66.247755
31
0.0
0
LINE
8
0
6
CONTINUOUS
10
-61.354610
20
66.247755
30
0.0
11
-62.013410
21
66.247755
31
0.0
0
LINE
8
0
6
CONTINUOUS
10
-60.304600
20
66.247755
30
0.0
11
-61.354610
21
66.247755
31
0.0
0
LINE
8
0
6
CONTINUOUS
10
-55.569310
20
66.247755
30
0.0
11
-57.298710
21
66.247755
31
0.0
0
LINE
8
0
6
CONTINUOUS
10
-57.298710
20
66.247755
30
0.0
11
-58.904610
21
66.247755
31
0.0
0
LINE
8
0
6
CONTINUOUS
10
-58.904610
20
66.247755
30
0.0
11
-60.304600
21
66.247755
31
0.0
0
LINE
8
0
6
CONTINUOUS
10
-48.672200
20
66.151565
30
0.0
11
-48.878100
21
66.247755
31
0.0
0
LINE
8
0
6
CONTINUOUS
10
-48.878100
20
66.247755
30
0.0
11
-49.125200
21
66.247755
31
0.0
0
LINE
8
0
6
CONTINUOUS
10
-49.125200
20
66.247755
30
0.0
11
-49.784000
21
66.247755
31
0.0
0
LINE
8
0
6
CONTINUOUS
10
-49.784000
20
66.247755
30
0.0
11
-50.834010
21
66.247755
31
0.0
0
LINE
8
0
6
CONTINUOUS
10
-53.839910
20
66.247755
30
0.0
11
-55.569310
21
66.247755
31
0.0
0
LINE
8
0
6
CONTINUOUS
10
-52.234010
20
66.247755
30
0.0
11
-53.839910
21
66.247755
31
0.0
0
LINE
8
0
6
CONTINUOUS
10
-50.834010
20
66.247755
30
0.0
11
-52.234010
21
66.247755
31
0.0
0
LINE
8
0
6
CONTINUOUS
10
-57.339970
20
57.343965
30
0.0
11
-55.569370
21
57.343965
31
0.0
0
LINE
8
0
6
CONTINUOUS
10
-55.569370
20
57.536265
30
0.0
11
-57.360570
21
57.536265
31
0.0
0
LINE
8
0
6
CONTINUOUS
10
-59.007570
20
57.343965
30
0.0
11
-57.339970
21
57.343965
31
0.0
0
LINE
8
0
6
CONTINUOUS
10
-57.360570
20
57.536265
30
0.0
11
-59.048760
21
57.536265
31
0.0
0
LINE
8
0
6
CONTINUOUS
10
-60.448770
20
57.343965
30
0.0
11
-59.007570
21
57.343965
31
0.0
0
LINE
8
0
6
CONTINUOUS
10
-59.048760
20
57.536265
30
0.0
11
-60.510570
21
57.536265
31
0.0
0
LINE
8
0
6
CONTINUOUS
10
-57.298760
20
57.247785
30
0.0
11
-55.569370
21
57.247785
31
0.0
0
LINE
8
0
6
CONTINUOUS
10
-55.569370
20
57.343965
30
0.0
11
-57.339970
21
57.343965
31
0.0
0
LINE
8
0
6
CONTINUOUS
10
-58.904660
20
57.247785
30
0.0
11
-57.298760
21
57.247785
31
0.0
0
LINE
8
0
6
CONTINUOUS
10
-57.339970
20
57.343965
30
0.0
11
-59.007570
21
57.343965
31
0.0
0
LINE
8
0
6
CONTINUOUS
10
-60.304670
20
57.247785
30
0.0
11
-58.904660
21
57.247785
31
0.0
0
LINE
8
0
6
CONTINUOUS
10
-59.007570
20
57.343965
30
0.0
11
-60.448770
21
57.343965
31
0.0
0
LINE
8
0
6
CONTINUOUS
10
-62.569360
20
59.247765
30
0.0
11
-62.569360
21
57.536265
31
0.0
0
LINE
8
0
6
CONTINUOUS
10
-62.569360
20
57.536265
30
0.0
11
-62.466460
21
57.343965
31
0.0
0
LINE
8
0
6
CONTINUOUS
10
-62.322260
20
57.536265
30
0.0
11
-62.569360
21
57.536265
31
0.0
0
LINE
8
0
6
CONTINUOUS
10
-62.466460
20
57.343965
30
0.0
11
-62.219360
21
57.343965
31
0.0
0
LINE
8
0
6
CONTINUOUS
10
-61.622260
20
57.536265
30
0.0
11
-62.322260
21
57.536265
31
0.0
0
LINE
8
0
6
CONTINUOUS
10
-62.219360
20
57.343965
30
0.0
11
-61.539960
21
57.343965
31
0.0
0
LINE
8
0
6
CONTINUOUS
10
-60.510570
20
57.536265
30
0.0
11
-61.622260
21
57.536265
31
0.0
0
LINE
8
0
6
CONTINUOUS
10
-61.539960
20
57.343965
30
0.0
11
-60.448770
21
57.343965
31
0.0
0
LINE
8
0
6
CONTINUOUS
10
-62.466460
20
57.343965
30
0.0
11
-62.260560
21
57.247785
31
0.0
0
LINE
8
0
6
CONTINUOUS
10
-62.219360
20
57.343965
30
0.0
11
-62.466460
21
57.343965
31
0.0
0
LINE
8
0
6
CONTINUOUS
10
-62.260560
20
57.247785
30
0.0
11
-62.013460
21
57.247785
31
0.0
0
LINE
8
0
6
CONTINUOUS
10
-61.539960
20
57.343965
30
0.0
11
-62.219360
21
57.343965
31
0.0
0
LINE
8
0
6
CONTINUOUS
10
-62.013460
20
57.247785
30
0.0
11
-61.354660
21
57.247785
31
0.0
0
LINE
8
0
6
CONTINUOUS
10
-60.448770
20
57.343965
30
0.0
11
-61.539960
21
57.343965
31
0.0
0
LINE
8
0
6
CONTINUOUS
10
-61.354660
20
57.247785
30
0.0
11
-60.304670
21
57.247785
31
0.0
0
LINE
8
0
6
CONTINUOUS
10
-48.569360
20
57.536265
30
0.0
11
-48.569360
21
59.247753
31
0.0
0
LINE
8
0
6
CONTINUOUS
10
-48.672260
20
57.343965
30
0.0
11
-48.569360
21
57.536265
31
0.0
0
LINE
8
0
6
CONTINUOUS
10
-48.919360
20
57.343965
30
0.0
11
-48.672260
21
57.343965
31
0.0
0
LINE
8
0
6
CONTINUOUS
10
-48.569360
20
57.536265
30
0.0
11
-48.816460
21
57.536265
31
0.0
0
LINE
8
0
6
CONTINUOUS
10
-49.598760
20
57.343965
30
0.0
11
-48.919360
21
57.343965
31
0.0
0
LINE
8
0
6
CONTINUOUS
10
-48.816460
20
57.536265
30
0.0
11
-49.516470
21
57.536265
31
0.0
0
LINE
8
0
6
CONTINUOUS
10
-50.689970
20
57.343965
30
0.0
11
-49.598760
21
57.343965
31
0.0
0
LINE
8
0
6
CONTINUOUS
10
-49.516470
20
57.536265
30
0.0
11
-50.628160
21
57.536265
31
0.0
0
LINE
8
0
6
CONTINUOUS
10
-48.878160
20
57.247785
30
0.0
11
-48.672260
21
57.343965
31
0.0
0
LINE
8
0
6
CONTINUOUS
10
-49.125260
20
57.247785
30
0.0
11
-48.878160
21
57.247785
31
0.0
0
LINE
8
0
6
CONTINUOUS
10
-48.672260
20
57.343965
30
0.0
11
-48.919360
21
57.343965
31
0.0
0
LINE
8
0
6
CONTINUOUS
10
-49.784070
20
57.247785
30
0.0
11
-49.125260
21
57.247785
31
0.0
0
LINE
8
0
6
CONTINUOUS
10
-48.919360
20
57.343965
30
0.0
11
-49.598760
21
57.343965
31
0.0
0
LINE
8
0
6
CONTINUOUS
10
-50.834070
20
57.247785
30
0.0
11
-49.784070
21
57.247785
31
0.0
0
LINE
8
0
6
CONTINUOUS
10
-49.598760
20
57.343965
30
0.0
11
-50.689970
21
57.343965
31
0.0
0
LINE
8
0
6
CONTINUOUS
10
-53.778170
20
57.536265
30
0.0
11
-55.569370
21
57.536265
31
0.0
0
LINE
8
0
6
CONTINUOUS
10
-55.569370
20
57.343965
30
0.0
11
-53.798770
21
57.343965
31
0.0
0
LINE
8
0
6
CONTINUOUS
10
-52.089970
20
57.536265
30
0.0
11
-53.778170
21
57.536265
31
0.0
0
LINE
8
0
6
CONTINUOUS
10
-53.798770
20
57.343965
30
0.0
11
-52.131160
21
57.343965
31
0.0
0
LINE
8
0
6
CONTINUOUS
10
-50.628160
20
57.536265
30
0.0
11
-52.089970
21
57.536265
31
0.0
0
LINE
8
0
6
CONTINUOUS
10
-52.131160
20
57.343965
30
0.0
11
-50.689970
21
57.343965
31
0.0
0
LINE
8
0
6
CONTINUOUS
10
-53.798770
20
57.343965
30
0.0
11
-55.569370
21
57.343965
31
0.0
0
LINE
8
0
6
CONTINUOUS
10
-55.569370
20
57.247785
30
0.0
11
-53.839970
21
57.247785
31
0.0
0
LINE
8
0
6
CONTINUOUS
10
-52.131160
20
57.343965
30
0.0
11
-53.798770
21
57.343965
31
0.0
0
LINE
8
0
6
CONTINUOUS
10
-53.839970
20
57.247785
30
0.0
11
-52.234070
21
57.247785
31
0.0
0
LINE
8
0
6
CONTINUOUS
10
-50.689970
20
57.343965
30
0.0
11
-52.131160
21
57.343965
31
0.0
0
LINE
8
0
6
CONTINUOUS
10
-52.234070
20
57.247785
30
0.0
11
-50.834070
21
57.247785
31
0.0
0
LINE
8
0
6
CONTINUOUS
10
-57.360560
20
64.247765
30
0.0
11
-55.569370
21
64.247765
31
0.0
0
LINE
8
0
6
CONTINUOUS
10
-59.048770
20
64.247765
30
0.0
11
-57.360560
21
64.247765
31
0.0
0
LINE
8
0
6
CONTINUOUS
10
-60.510570
20
64.247765
30
0.0
11
-59.048770
21
64.247765
31
0.0
0
LINE
8
0
6
CONTINUOUS
10
-57.360560
20
65.959275
30
0.0
11
-55.569370
21
65.959275
31
0.0
0
LINE
8
0
6
CONTINUOUS
10
-55.569370
20
66.151565
30
0.0
11
-57.339960
21
66.151565
31
0.0
0
LINE
8
0
6
CONTINUOUS
10
-59.048770
20
65.959275
30
0.0
11
-57.360560
21
65.959275
31
0.0
0
LINE
8
0
6
CONTINUOUS
10
-57.339960
20
66.151565
30
0.0
11
-59.007570
21
66.151565
31
0.0
0
LINE
8
0
6
CONTINUOUS
10
-60.510570
20
65.959275
30
0.0
11
-59.048770
21
65.959275
31
0.0
0
LINE
8
0
6
CONTINUOUS
10
-59.007570
20
66.151565
30
0.0
11
-60.448770
21
66.151565
31
0.0
0
LINE
8
0
6
CONTINUOUS
10
-57.339960
20
66.151565
30
0.0
11
-55.569370
21
66.151565
31
0.0
0
LINE
8
0
6
CONTINUOUS
10
-55.569370
20
66.247755
30
0.0
11
-57.298760
21
66.247755
31
0.0
0
LINE
8
0
6
CONTINUOUS
10
-59.007570
20
66.151565
30
0.0
11
-57.339960
21
66.151565
31
0.0
0
LINE
8
0
6
CONTINUOUS
10
-57.298760
20
66.247755
30
0.0
11
-58.904670
21
66.247755
31
0.0
0
LINE
8
0
6
CONTINUOUS
10
-60.448770
20
66.151565
30
0.0
11
-59.007570
21
66.151565
31
0.0
0
LINE
8
0
6
CONTINUOUS
10
-58.904670
20
66.247755
30
0.0
11
-60.304670
21
66.247755
31
0.0
0
LINE
8
0
6
CONTINUOUS
10
-62.569360
20
64.247765
30
0.0
11
-62.322260
21
64.247765
31
0.0
0
LINE
8
0
6
CONTINUOUS
10
-62.569360
20
65.959275
30
0.0
11
-62.569360
21
64.247765
31
0.0
0
LINE
8
0
6
CONTINUOUS
10
-62.322260
20
64.247765
30
0.0
11
-61.622270
21
64.247765
31
0.0
0
LINE
8
0
6
CONTINUOUS
10
-61.622270
20
64.247765
30
0.0
11
-60.510570
21
64.247765
31
0.0
0
LINE
8
0
6
CONTINUOUS
10
-62.219360
20
66.151565
30
0.0
11
-62.466460
21
66.151565
31
0.0
0
LINE
8
0
6
CONTINUOUS
10
-62.569360
20
65.959275
30
0.0
11
-62.322260
21
65.959275
31
0.0
0
LINE
8
0
6
CONTINUOUS
10
-62.466460
20
66.151565
30
0.0
11
-62.569360
21
65.959275
31
0.0
0
LINE
8
0
6
CONTINUOUS
10
-61.539960
20
66.151565
30
0.0
11
-62.219360
21
66.151565
31
0.0
0
LINE
8
0
6
CONTINUOUS
10
-62.322260
20
65.959275
30
0.0
11
-61.622270
21
65.959275
31
0.0
0
LINE
8
0
6
CONTINUOUS
10
-60.448770
20
66.151565
30
0.0
11
-61.539960
21
66.151565
31
0.0
0
LINE
8
0
6
CONTINUOUS
10
-61.622270
20
65.959275
30
0.0
11
-60.510570
21
65.959275
31
0.0
0
LINE
8
0
6
CONTINUOUS
10
-62.013460
20
66.247755
30
0.0
11
-62.260560
21
66.247755
31
0.0
0
LINE
8
0
6
CONTINUOUS
10
-62.466460
20
66.151565
30
0.0
11
-62.219360
21
66.151565
31
0.0
0
LINE
8
0
6
CONTINUOUS
10
-62.260560
20
66.247755
30
0.0
11
-62.466460
21
66.151565
31
0.0
0
LINE
8
0
6
CONTINUOUS
10
-61.354670
20
66.247755
30
0.0
11
-62.013460
21
66.247755
31
0.0
0
LINE
8
0
6
CONTINUOUS
10
-62.219360
20
66.151565
30
0.0
11
-61.539960
21
66.151565
31
0.0
0
LINE
8
0
6
CONTINUOUS
10
-60.304670
20
66.247755
30
0.0
11
-61.354670
21
66.247755
31
0.0
0
LINE
8
0
6
CONTINUOUS
10
-61.539960
20
66.151565
30
0.0
11
-60.448770
21
66.151565
31
0.0
0
LINE
8
0
6
CONTINUOUS
10
-48.816460
20
64.247765
30
0.0
11
-48.569350
21
64.247765
31
0.0
0
LINE
8
0
6
CONTINUOUS
10
-48.569350
20
64.247765
30
0.0
11
-48.569350
21
65.959275
31
0.0
0
LINE
8
0
6
CONTINUOUS
10
-49.516460
20
64.247765
30
0.0
11
-48.816460
21
64.247765
31
0.0
0
LINE
8
0
6
CONTINUOUS
10
-50.628170
20
64.247765
30
0.0
11
-49.516460
21
64.247765
31
0.0
0
LINE
8
0
6
CONTINUOUS
10
-48.816460
20
65.959275
30
0.0
11
-48.569350
21
65.959275
31
0.0
0
LINE
8
0
6
CONTINUOUS
10
-48.672270
20
66.151565
30
0.0
11
-48.919360
21
66.151565
31
0.0
0
LINE
8
0
6
CONTINUOUS
10
-48.569350
20
65.959275
30
0.0
11
-48.672270
21
66.151565
31
0.0
0
LINE
8
0
6
CONTINUOUS
10
-49.516460
20
65.959275
30
0.0
11
-48.816460
21
65.959275
31
0.0
0
LINE
8
0
6
CONTINUOUS
10
-48.919360
20
66.151565
30
0.0
11
-49.598760
21
66.151565
31
0.0
0
LINE
8
0
6
CONTINUOUS
10
-50.628170
20
65.959275
30
0.0
11
-49.516460
21
65.959275
31
0.0
0
LINE
8
0
6
CONTINUOUS
10
-49.598760
20
66.151565
30
0.0
11
-50.689960
21
66.151565
31
0.0
0
LINE
8
0
6
CONTINUOUS
10
-48.919360
20
66.151565
30
0.0
11
-48.672270
21
66.151565
31
0.0
0
LINE
8
0
6
CONTINUOUS
10
-48.878160
20
66.247755
30
0.0
11
-49.125260
21
66.247755
31
0.0
0
LINE
8
0
6
CONTINUOUS
10
-48.672270
20
66.151565
30
0.0
11
-48.878160
21
66.247755
31
0.0
0
LINE
8
0
6
CONTINUOUS
10
-49.598760
20
66.151565
30
0.0
11
-48.919360
21
66.151565
31
0.0
0
LINE
8
0
6
CONTINUOUS
10
-49.125260
20
66.247755
30
0.0
11
-49.784060
21
66.247755
31
0.0
0
LINE
8
0
6
CONTINUOUS
10
-50.689960
20
66.151565
30
0.0
11
-49.598760
21
66.151565
31
0.0
0
LINE
8
0
6
CONTINUOUS
10
-49.784060
20
66.247755
30
0.0
11
-50.834060
21
66.247755
31
0.0
0
LINE
8
0
6
CONTINUOUS
10
-55.569370
20
64.247765
30
0.0
11
-53.778170
21
64.247765
31
0.0
0
LINE
8
0
6
CONTINUOUS
10
-53.778170
20
64.247765
30
0.0
11
-52.089970
21
64.247765
31
0.0
0
LINE
8
0
6
CONTINUOUS
10
-52.089970
20
64.247765
30
0.0
11
-50.628170
21
64.247765
31
0.0
0
LINE
8
0
6
CONTINUOUS
10
-53.798760
20
66.151565
30
0.0
11
-55.569370
21
66.151565
31
0.0
0
LINE
8
0
6
CONTINUOUS
10
-55.569370
20
65.959275
30
0.0
11
-53.778160
21
65.959275
31
0.0
0
LINE
8
0
6
CONTINUOUS
10
-52.131170
20
66.151565
30
0.0
11
-53.798760
21
66.151565
31
0.0
0
LINE
8
0
6
CONTINUOUS
10
-53.778160
20
65.959275
30
0.0
11
-52.089970
21
65.959275
31
0.0
0
LINE
8
0
6
CONTINUOUS
10
-50.689960
20
66.151565
30
0.0
11
-52.131170
21
66.151565
31
0.0
0
LINE
8
0
6
CONTINUOUS
10
-52.089970
20
65.959275
30
0.0
11
-50.628170
21
65.959275
31
0.0
0
LINE
8
0
6
CONTINUOUS
10
-53.839970
20
66.247755
30
0.0
11
-55.569370
21
66.247755
31
0.0
0
LINE
8
0
6
CONTINUOUS
10
-55.569370
20
66.151565
30
0.0
11
-53.798760
21
66.151565
31
0.0
0
LINE
8
0
6
CONTINUOUS
10
-52.234070
20
66.247755
30
0.0
11
-53.839970
21
66.247755
31
0.0
0
LINE
8
0
6
CONTINUOUS
10
-53.798760
20
66.151565
30
0.0
11
-52.131170
21
66.151565
31
0.0
0
LINE
8
0
6
CONTINUOUS
10
-50.834060
20
66.247755
30
0.0
11
-52.234070
21
66.247755
31
0.0
0
LINE
8
0
6
CONTINUOUS
10
-52.131170
20
66.151565
30
0.0
11
-50.689960
21
66.151565
31
0.0
0
LINE
8
0
6
CONTINUOUS
10
29.659620
20
57.343945
30
0.0
11
31.430640
21
57.343945
31
0.0
0
LINE
8
0
6
CONTINUOUS
10
31.430640
20
57.536245
30
0.0
11
29.639640
21
57.536245
31
0.0
0
LINE
8
0
6
CONTINUOUS
10
27.992620
20
57.343945
30
0.0
11
29.659620
21
57.343945
31
0.0
0
LINE
8
0
6
CONTINUOUS
10
29.639640
20
57.536245
30
0.0
11
27.951630
21
57.536245
31
0.0
0
LINE
8
0
6
CONTINUOUS
10
26.551640
20
57.343945
30
0.0
11
27.992620
21
57.343945
31
0.0
0
LINE
8
0
6
CONTINUOUS
10
27.951630
20
57.536245
30
0.0
11
26.489630
21
57.536245
31
0.0
0
LINE
8
0
6
CONTINUOUS
10
29.701620
20
57.247765
30
0.0
11
31.430640
21
57.247765
31
0.0
0
LINE
8
0
6
CONTINUOUS
10
31.430640
20
57.343945
30
0.0
11
29.659620
21
57.343945
31
0.0
0
LINE
8
0
6
CONTINUOUS
10
28.095640
20
57.247765
30
0.0
11
29.701620
21
57.247765
31
0.0
0
LINE
8
0
6
CONTINUOUS
10
29.659620
20
57.343945
30
0.0
11
27.992620
21
57.343945
31
0.0
0
LINE
8
0
6
CONTINUOUS
10
26.695630
20
57.247765
30
0.0
11
28.095640
21
57.247765
31
0.0
0
LINE
8
0
6
CONTINUOUS
10
27.992620
20
57.343945
30
0.0
11
26.551640
21
57.343945
31
0.0
0
LINE
8
0
6
CONTINUOUS
10
24.430650
20
59.247745
30
0.0
11
24.430650
21
57.536245
31
0.0
0
LINE
8
0
6
CONTINUOUS
10
24.430650
20
57.536245
30
0.0
11
24.533640
21
57.343945
31
0.0
0
LINE
8
0
6
CONTINUOUS
10
24.677630
20
57.536245
30
0.0
11
24.430650
21
57.536245
31
0.0
0
LINE
8
0
6
CONTINUOUS
10
24.533640
20
57.343945
30
0.0
11
24.780640
21
57.343945
31
0.0
0
LINE
8
0
6
CONTINUOUS
10
25.377640
20
57.536245
30
0.0
11
24.677630
21
57.536245
31
0.0
0
LINE
8
0
6
CONTINUOUS
10
24.780640
20
57.343945
30
0.0
11
25.459630
21
57.343945
31
0.0
0
LINE
8
0
6
CONTINUOUS
10
26.489630
20
57.536245
30
0.0
11
25.377640
21
57.536245
31
0.0
0
LINE
8
0
6
CONTINUOUS
10
25.459630
20
57.343945
30
0.0
11
26.551640
21
57.343945
31
0.0
0
LINE
8
0
6
CONTINUOUS
10
24.533640
20
57.343945
30
0.0
11
24.739640
21
57.247765
31
0.0
0
LINE
8
0
6
CONTINUOUS
10
24.780640
20
57.343945
30
0.0
11
24.533640
21
57.343945
31
0.0
0
LINE
8
0
6
CONTINUOUS
10
24.739640
20
57.247765
30
0.0
11
24.986630
21
57.247765
31
0.0
0
LINE
8
0
6
CONTINUOUS
10
25.459630
20
57.343945
30
0.0
11
24.780640
21
57.343945
31
0.0
0
LINE
8
0
6
CONTINUOUS
10
24.986630
20
57.247765
30
0.0
11
25.645640
21
57.247765
31
0.0
0
LINE
8
0
6
CONTINUOUS
10
26.551640
20
57.343945
30
0.0
11
25.459630
21
57.343945
31
0.0
0
LINE
8
0
6
CONTINUOUS
10
25.645640
20
57.247765
30
0.0
11
26.695630
21
57.247765
31
0.0
0
LINE
8
0
6
CONTINUOUS
10
38.430640
20
57.536245
30
0.0
11
38.430640
21
59.247745
31
0.0
0
LINE
8
0
6
CONTINUOUS
10
38.327650
20
57.343945
30
0.0
11
38.430640
21
57.536245
31
0.0
0
LINE
8
0
6
CONTINUOUS
10
38.080640
20
57.343945
30
0.0
11
38.327650
21
57.343945
31
0.0
0
LINE
8
0
6
CONTINUOUS
10
38.430640
20
57.536245
30
0.0
11
38.183630
21
57.536245
31
0.0
0
LINE
8
0
6
CONTINUOUS
10
37.401640
20
57.343945
30
0.0
11
38.080640
21
57.343945
31
0.0
0
LINE
8
0
6
CONTINUOUS
10
38.183630
20
57.536245
30
0.0
11
37.483640
21
57.536245
31
0.0
0
LINE
8
0
6
CONTINUOUS
10
36.309630
20
57.343945
30
0.0
11
37.401640
21
57.343945
31
0.0
0
LINE
8
0
6
CONTINUOUS
10
37.483640
20
57.536245
30
0.0
11
36.371630
21
57.536245
31
0.0
0
LINE
8
0
6
CONTINUOUS
10
38.121630
20
57.247765
30
0.0
11
38.327650
21
57.343945
31
0.0
0
LINE
8
0
6
CONTINUOUS
10
37.874630
20
57.247765
30
0.0
11
38.121630
21
57.247765
31
0.0
0
LINE
8
0
6
CONTINUOUS
10
38.327650
20
57.343945
30
0.0
11
38.080640
21
57.343945
31
0.0
0
LINE
8
0
6
CONTINUOUS
10
37.215630
20
57.247765
30
0.0
11
37.874630
21
57.247765
31
0.0
0
LINE
8
0
6
CONTINUOUS
10
38.080640
20
57.343945
30
0.0
11
37.401640
21
57.343945
31
0.0
0
LINE
8
0
6
CONTINUOUS
10
36.165640
20
57.247765
30
0.0
11
37.215630
21
57.247765
31
0.0
0
LINE
8
0
6
CONTINUOUS
10
37.401640
20
57.343945
30
0.0
11
36.309630
21
57.343945
31
0.0
0
LINE
8
0
6
CONTINUOUS
10
33.221640
20
57.536245
30
0.0
11
31.430640
21
57.536245
31
0.0
0
LINE
8
0
6
CONTINUOUS
10
31.430640
20
57.343945
30
0.0
11
33.201630
21
57.343945
31
0.0
0
LINE
8
0
6
CONTINUOUS
10
34.909620
20
57.536245
30
0.0
11
33.221640
21
57.536245
31
0.0
0
LINE
8
0
6
CONTINUOUS
10
33.201630
20
57.343945
30
0.0
11
34.868630
21
57.343945
31
0.0
0
LINE
8
0
6
CONTINUOUS
10
36.371630
20
57.536245
30
0.0
11
34.909620
21
57.536245
31
0.0
0
LINE
8
0
6
CONTINUOUS
10
34.868630
20
57.343945
30
0.0
11
36.309630
21
57.343945
31
0.0
0
LINE
8
0
6
CONTINUOUS
10
33.201630
20
57.343945
30
0.0
11
31.430640
21
57.343945
31
0.0
0
LINE
8
0
6
CONTINUOUS
10
31.430640
20
57.247765
30
0.0
11
33.159630
21
57.247765
31
0.0
0
LINE
8
0
6
CONTINUOUS
10
34.868630
20
57.343945
30
0.0
11
33.201630
21
57.343945
31
0.0
0
LINE
8
0
6
CONTINUOUS
10
33.159630
20
57.247765
30
0.0
11
34.765630
21
57.247765
31
0.0
0
LINE
8
0
6
CONTINUOUS
10
36.309630
20
57.343945
30
0.0
11
34.868630
21
57.343945
31
0.0
0
LINE
8
0
6
CONTINUOUS
10
34.765630
20
57.247765
30
0.0
11
36.165640
21
57.247765
31
0.0
0
LINE
8
0
6
CONTINUOUS
10
29.639640
20
65.959255
30
0.0
11
31.430640
21
65.959255
31
0.0
0
LINE
8
0
6
CONTINUOUS
10
31.430640
20
66.151555
30
0.0
11
29.659630
21
66.151555
31
0.0
0
LINE
8
0
6
CONTINUOUS
10
27.951630
20
65.959255
30
0.0
11
29.639640
21
65.959255
31
0.0
0
LINE
8
0
6
CONTINUOUS
10
29.659630
20
66.151555
30
0.0
11
27.992630
21
66.151555
31
0.0
0
LINE
8
0
6
CONTINUOUS
10
26.489630
20
65.959255
30
0.0
11
27.951630
21
65.959255
31
0.0
0
LINE
8
0
6
CONTINUOUS
10
27.992630
20
66.151555
30
0.0
11
26.551640
21
66.151555
31
0.0
0
LINE
8
0
6
CONTINUOUS
10
29.659630
20
66.151555
30
0.0
11
31.430640
21
66.151555
31
0.0
0
LINE
8
0
6
CONTINUOUS
10
31.430640
20
66.247735
30
0.0
11
29.701630
21
66.247735
31
0.0
0
LINE
8
0
6
CONTINUOUS
10
27.992630
20
66.151555
30
0.0
11
29.659630
21
66.151555
31
0.0
0
LINE
8
0
6
CONTINUOUS
10
29.701630
20
66.247735
30
0.0
11
28.095640
21
66.247735
31
0.0
0
LINE
8
0
6
CONTINUOUS
10
26.551640
20
66.151555
30
0.0
11
27.992630
21
66.151555
31
0.0
0
LINE
8
0
6
CONTINUOUS
10
28.095640
20
66.247735
30
0.0
11
26.695630
21
66.247735
31
0.0
0
LINE
8
0
6
CONTINUOUS
10
24.430650
20
65.959255
30
0.0
11
24.430650
21
64.247745
31
0.0
0
LINE
8
0
6
CONTINUOUS
10
24.780650
20
66.151555
30
0.0
11
24.533640
21
66.151555
31
0.0
0
LINE
8
0
6
CONTINUOUS
10
24.430650
20
65.959255
30
0.0
11
24.677630
21
65.959255
31
0.0
0
LINE
8
0
6
CONTINUOUS
10
24.533640
20
66.151555
30
0.0
11
24.430650
21
65.959255
31
0.0
0
LINE
8
0
6
CONTINUOUS
10
25.459630
20
66.151555
30
0.0
11
24.780650
21
66.151555
31
0.0
0
LINE
8
0
6
CONTINUOUS
10
24.677630
20
65.959255
30
0.0
11
25.377640
21
65.959255
31
0.0
0
LINE
8
0
6
CONTINUOUS
10
26.551640
20
66.151555
30
0.0
11
25.459630
21
66.151555
31
0.0
0
LINE
8
0
6
CONTINUOUS
10
25.377640
20
65.959255
30
0.0
11
26.489630
21
65.959255
31
0.0
0
LINE
8
0
6
CONTINUOUS
10
24.986640
20
66.247735
30
0.0
11
24.739640
21
66.247735
31
0.0
0
LINE
8
0
6
CONTINUOUS
10
24.533640
20
66.151555
30
0.0
11
24.780650
21
66.151555
31
0.0
0
LINE
8
0
6
CONTINUOUS
10
24.739640
20
66.247735
30
0.0
11
24.533640
21
66.151555
31
0.0
0
LINE
8
0
6
CONTINUOUS
10
25.645640
20
66.247735
30
0.0
11
24.986640
21
66.247735
31
0.0
0
LINE
8
0
6
CONTINUOUS
10
24.780650
20
66.151555
30
0.0
11
25.459630
21
66.151555
31
0.0
0
LINE
8
0
6
CONTINUOUS
10
26.695630
20
66.247735
30
0.0
11
25.645640
21
66.247735
31
0.0
0
LINE
8
0
6
CONTINUOUS
10
25.459630
20
66.151555
30
0.0
11
26.551640
21
66.151555
31
0.0
0
LINE
8
0
6
CONTINUOUS
10
38.183640
20
64.247745
30
0.0
11
38.430640
21
64.247745
31
0.0
0
LINE
8
0
6
CONTINUOUS
10
38.430640
20
64.247745
30
0.0
11
38.430640
21
65.959255
31
0.0
0
LINE
8
0
6
CONTINUOUS
10
37.483640
20
64.247745
30
0.0
11
38.183640
21
64.247745
31
0.0
0
LINE
8
0
6
CONTINUOUS
10
36.371630
20
64.247745
30
0.0
11
37.483640
21
64.247745
31
0.0
0
LINE
8
0
6
CONTINUOUS
10
38.183640
20
65.959255
30
0.0
11
38.430640
21
65.959255
31
0.0
0
LINE
8
0
6
CONTINUOUS
10
38.327650
20
66.151555
30
0.0
11
38.080640
21
66.151555
31
0.0
0
LINE
8
0
6
CONTINUOUS
10
38.430640
20
65.959255
30
0.0
11
38.327650
21
66.151555
31
0.0
0
LINE
8
0
6
CONTINUOUS
10
37.483640
20
65.959255
30
0.0
11
38.183640
21
65.959255
31
0.0
0
LINE
8
0
6
CONTINUOUS
10
38.080640
20
66.151555
30
0.0
11
37.401640
21
66.151555
31
0.0
0
LINE
8
0
6
CONTINUOUS
10
36.371630
20
65.959255
30
0.0
11
37.483640
21
65.959255
31
0.0
0
LINE
8
0
6
CONTINUOUS
10
37.401640
20
66.151555
30
0.0
11
36.309630
21
66.151555
31
0.0
0
LINE
8
0
6
CONTINUOUS
10
38.080640
20
66.151555
30
0.0
11
38.327650
21
66.151555
31
0.0
0
LINE
8
0
6
CONTINUOUS
10
38.121630
20
66.247735
30
0.0
11
37.874630
21
66.247735
31
0.0
0
LINE
8
0
6
CONTINUOUS
10
38.327650
20
66.151555
30
0.0
11
38.121630
21
66.247735
31
0.0
0
LINE
8
0
6
CONTINUOUS
10
37.401640
20
66.151555
30
0.0
11
38.080640
21
66.151555
31
0.0
0
LINE
8
0
6
CONTINUOUS
10
37.874630
20
66.247735
30
0.0
11
37.215630
21
66.247735
31
0.0
0
LINE
8
0
6
CONTINUOUS
10
36.309630
20
66.151555
30
0.0
11
37.401640
21
66.151555
31
0.0
0
LINE
8
0
6
CONTINUOUS
10
37.215630
20
66.247735
30
0.0
11
36.165640
21
66.247735
31
0.0
0
LINE
8
0
6
CONTINUOUS
10
33.221640
20
64.247745
30
0.0
11
34.909630
21
64.247745
31
0.0
0
LINE
8
0
6
CONTINUOUS
10
34.909630
20
64.247745
30
0.0
11
36.371630
21
64.247745
31
0.0
0
LINE
8
0
6
CONTINUOUS
10
33.201640
20
66.151555
30
0.0
11
31.430640
21
66.151555
31
0.0
0
LINE
8
0
6
CONTINUOUS
10
31.430640
20
65.959255
30
0.0
11
33.221640
21
65.959255
31
0.0
0
LINE
8
0
6
CONTINUOUS
10
34.868630
20
66.151555
30
0.0
11
33.201640
21
66.151555
31
0.0
0
LINE
8
0
6
CONTINUOUS
10
33.221640
20
65.959255
30
0.0
11
34.909630
21
65.959255
31
0.0
0
LINE
8
0
6
CONTINUOUS
10
36.309630
20
66.151555
30
0.0
11
34.868630
21
66.151555
31
0.0
0
LINE
8
0
6
CONTINUOUS
10
34.909630
20
65.959255
30
0.0
11
36.371630
21
65.959255
31
0.0
0
LINE
8
0
6
CONTINUOUS
10
33.159640
20
66.247735
30
0.0
11
31.430640
21
66.247735
31
0.0
0
LINE
8
0
6
CONTINUOUS
10
31.430640
20
66.151555
30
0.0
11
33.201640
21
66.151555
31
0.0
0
LINE
8
0
6
CONTINUOUS
10
34.765630
20
66.247735
30
0.0
11
33.159640
21
66.247735
31
0.0
0
LINE
8
0
6
CONTINUOUS
10
33.201640
20
66.151555
30
0.0
11
34.868630
21
66.151555
31
0.0
0
LINE
8
0
6
CONTINUOUS
10
36.165640
20
66.247735
30
0.0
11
34.765630
21
66.247735
31
0.0
0
LINE
8
0
6
CONTINUOUS
10
34.868630
20
66.151555
30
0.0
11
36.309630
21
66.151555
31
0.0
0
LINE
8
0
6
CONTINUOUS
10
82.569370
20
50.804305
30
0.0
11
82.569370
21
55.434125
31
0.0
0
LINE
8
0
6
CONTINUOUS
10
82.569370
20
59.613955
30
0.0
11
62.569950
21
60.963385
31
0.0
0
LINE
8
0
6
CONTINUOUS
10
82.569370
20
58.527655
30
0.0
11
82.569370
21
59.613955
31
0.0
0
LINE
8
0
6
CONTINUOUS
10
82.569370
20
31.072205
30
0.0
11
82.569370
21
32.158505
31
0.0
0
LINE
8
0
6
CONTINUOUS
10
62.569950
20
29.722775
30
0.0
11
82.569370
21
31.072205
31
0.0
0
LINE
8
0
6
CONTINUOUS
10
82.569370
20
55.434125
30
0.0
11
82.569370
21
58.527655
31
0.0
0
LINE
8
0
6
CONTINUOUS
10
82.569370
20
32.158505
30
0.0
11
82.569370
21
35.252065
31
0.0
0
LINE
8
0
6
CONTINUOUS
10
82.569370
20
39.881865
30
0.0
11
82.569370
21
45.343095
31
0.0
0
LINE
8
0
6
CONTINUOUS
10
82.569370
20
35.252065
30
0.0
11
82.569370
21
39.881865
31
0.0
0
LINE
8
0
6
CONTINUOUS
10
82.569370
20
45.343095
30
0.0
11
82.569370
21
50.804305
31
0.0
0
LINE
8
0
6
CONTINUOUS
10
62.569950
20
28.807235
30
0.0
11
62.569950
21
36.393955
31
0.0
0
LINE
8
0
6
CONTINUOUS
10
61.430670
20
36.393955
30
0.0
11
61.430670
21
28.807235
31
0.0
0
LINE
8
0
6
CONTINUOUS
10
62.569950
20
36.393955
30
0.0
11
62.569950
21
45.343105
31
0.0
0
LINE
8
0
6
CONTINUOUS
10
61.430670
20
45.343105
30
0.0
11
61.430670
21
36.393955
31
0.0
0
LINE
8
0
6
CONTINUOUS
10
62.569950
20
61.878935
30
0.0
11
62.569950
21
66.948215
31
0.0
0
LINE
8
0
6
CONTINUOUS
10
61.430670
20
66.948215
30
0.0
11
61.430670
21
61.878935
31
0.0
0
LINE
8
0
6
CONTINUOUS
10
62.569950
20
23.737965
30
0.0
11
62.569950
21
28.807235
31
0.0
0
LINE
8
0
6
CONTINUOUS
10
61.430670
20
28.807235
30
0.0
11
61.430670
21
23.737965
31
0.0
0
LINE
8
0
6
CONTINUOUS
10
62.569950
20
21.957865
30
0.0
11
62.569950
21
23.737965
31
0.0
0
LINE
8
0
6
CONTINUOUS
10
61.430670
20
21.957865
30
0.0
11
62.569950
21
21.957865
31
0.0
0
LINE
8
0
6
CONTINUOUS
10
61.430670
20
23.737965
30
0.0
11
61.430670
21
21.957865
31
0.0
0
LINE
8
0
6
CONTINUOUS
10
62.569950
20
66.948215
30
0.0
11
62.569950
21
68.728315
31
0.0
0
LINE
8
0
6
CONTINUOUS
10
61.430670
20
68.728315
30
0.0
11
61.430670
21
66.948215
31
0.0
0
LINE
8
0
6
CONTINUOUS
10
62.569950
20
68.728315
30
0.0
11
61.430670
21
68.728315
31
0.0
0
LINE
8
0
6
CONTINUOUS
10
62.569950
20
54.292225
30
0.0
11
62.569950
21
61.878935
31
0.0
0
LINE
8
0
6
CONTINUOUS
10
61.430670
20
61.878935
30
0.0
11
61.430670
21
54.292225
31
0.0
0
LINE
8
0
6
CONTINUOUS
10
62.569950
20
45.343105
30
0.0
11
62.569950
21
54.292225
31
0.0
0
LINE
8
0
6
CONTINUOUS
10
-33.875140
20
-69.156935
30
0.0
11
-28.569350
21
-69.156935
31
0.0
0
LINE
8
0
6
CONTINUOUS
10
-38.819350
20
-69.156935
30
0.0
11
-33.875140
21
-69.156935
31
0.0
0
LINE
8
0
6
CONTINUOUS
10
-43.065040
20
-69.156935
30
0.0
11
-38.819350
21
-69.156935
31
0.0
0
LINE
8
0
6
CONTINUOUS
10
-46.322870
20
-69.156935
30
0.0
11
-43.065040
21
-69.156935
31
0.0
0
LINE
8
0
6
CONTINUOUS
10
-48.370830
20
-69.156925
30
0.0
11
-46.322870
21
-69.156935
31
0.0
0
LINE
8
0
6
CONTINUOUS
10
-49.069350
20
-69.156925
30
0.0
11
-48.370830
21
-69.156925
31
0.0
0
LINE
8
0
6
CONTINUOUS
10
-49.069350
20
-68.769465
30
0.0
11
-49.069350
21
-69.156925
31
0.0
0
LINE
8
0
6
CONTINUOUS
10
-8.069340
20
-69.156915
30
0.0
11
-8.069340
21
-68.769435
31
0.0
0
LINE
8
0
6
CONTINUOUS
10
-8.767860
20
-69.156915
30
0.0
11
-8.069340
21
-69.156915
31
0.0
0
LINE
8
0
6
CONTINUOUS
10
-10.815820
20
-69.156925
30
0.0
11
-8.767860
21
-69.156915
31
0.0
0
LINE
8
0
6
CONTINUOUS
10
-14.073640
20
-69.156925
30
0.0
11
-10.815820
21
-69.156925
31
0.0
0
LINE
8
0
6
CONTINUOUS
10
-18.319330
20
-69.156935
30
0.0
11
-14.073640
21
-69.156925
31
0.0
0
LINE
8
0
6
CONTINUOUS
10
-28.569350
20
-69.156935
30
0.0
11
-23.263550
21
-69.156935
31
0.0
0
LINE
8
0
6
CONTINUOUS
10
-23.263550
20
-69.156935
30
0.0
11
-18.319330
21
-69.156935
31
0.0
0
LINE
8
0
6
CONTINUOUS
10
-11.942980
20
-15.656955
30
0.0
11
-14.993970
21
-15.656955
31
0.0
0
LINE
8
0
6
CONTINUOUS
10
-12.900580
20
20.842975
30
0.0
11
-15.775860
21
20.842975
31
0.0
0
LINE
8
0
6
CONTINUOUS
10
-45.195770
20
-15.656975
30
0.0
11
-47.113700
21
-15.656975
31
0.0
0
LINE
8
0
6
CONTINUOUS
10
-28.569370
20
-15.656975
30
0.0
11
-33.538310
21
-15.656975
31
0.0
0
LINE
8
0
6
CONTINUOUS
10
-47.767880
20
-15.656965
30
0.0
11
-47.767880
21
-16.179135
31
0.0
0
LINE
8
0
6
CONTINUOUS
10
-33.538310
20
-15.656975
30
0.0
11
-38.168630
21
-15.656975
31
0.0
0
LINE
8
0
6
CONTINUOUS
10
-18.970110
20
-15.656965
30
0.0
11
-23.600420
21
-15.656965
31
0.0
0
LINE
8
0
6
CONTINUOUS
10
-9.370870
20
-16.179115
30
0.0
11
-9.370870
21
-15.656945
31
0.0
0
LINE
8
0
6
CONTINUOUS
10
-38.168630
20
-15.656975
30
0.0
11
-42.144760
21
-15.656975
31
0.0
0
LINE
8
0
6
CONTINUOUS
10
-23.600420
20
-15.656965
30
0.0
11
-28.569370
21
-15.656975
31
0.0
0
LINE
8
0
6
CONTINUOUS
10
-10.025040
20
-15.656955
30
0.0
11
-11.942980
21
-15.656955
31
0.0
0
LINE
8
0
6
CONTINUOUS
10
-42.144760
20
-15.656975
30
0.0
11
-45.195770
21
-15.656975
31
0.0
0
LINE
8
0
6
CONTINUOUS
10
-47.767880
20
-15.656965
30
0.0
11
-47.113700
21
-15.656975
31
0.0
0
LINE
8
0
6
CONTINUOUS
10
-10.025040
20
-15.656955
30
0.0
11
-9.370870
21
-15.656945
31
0.0
0
LINE
8
0
6
CONTINUOUS
10
-11.093090
20
-15.656955
30
0.0
11
-10.025040
21
-15.656955
31
0.0
0
LINE
8
0
6
CONTINUOUS
10
-14.993970
20
-15.656955
30
0.0
11
-15.775840
21
-15.656955
31
0.0
0
LINE
8
0
6
CONTINUOUS
10
-18.970110
20
-15.656965
30
0.0
11
-14.993970
21
-15.656955
31
0.0
0
LINE
8
0
6
CONTINUOUS
10
-44.238190
20
20.842975
30
0.0
11
-46.045660
21
20.842975
31
0.0
0
LINE
8
0
6
CONTINUOUS
10
-15.775860
20
20.842975
30
0.0
11
-19.522990
21
20.842975
31
0.0
0
LINE
8
0
6
CONTINUOUS
10
-46.662170
20
20.842975
30
0.0
11
-46.662170
21
20.202995
31
0.0
0
LINE
8
0
6
CONTINUOUS
10
-46.045660
20
20.842975
30
0.0
11
-46.662170
21
20.842975
31
0.0
0
LINE
8
0
6
CONTINUOUS
10
-19.522990
20
20.842975
30
0.0
11
-23.886620
21
20.842975
31
0.0
0
LINE
8
0
6
CONTINUOUS
10
-10.476620
20
20.842975
30
0.0
11
-11.093110
21
20.842975
31
0.0
0
LINE
8
0
6
CONTINUOUS
10
-10.476620
20
20.203005
30
0.0
11
-10.476620
21
20.842975
31
0.0
0
LINE
8
0
6
CONTINUOUS
10
-23.886620
20
20.842975
30
0.0
11
-28.569390
21
20.842975
31
0.0
0
LINE
8
0
6
CONTINUOUS
10
-11.093110
20
20.842975
30
0.0
11
-12.900580
21
20.842975
31
0.0
0
LINE
8
0
6
CONTINUOUS
10
-41.362910
20
20.842975
30
0.0
11
-44.238190
21
20.842975
31
0.0
0
LINE
8
0
6
CONTINUOUS
10
-47.767880
20
-16.179135
30
0.0
11
-47.767850
21
-63.717295
31
0.0
0
LINE
8
0
6
CONTINUOUS
10
-9.370850
20
-63.717265
30
0.0
11
-9.370870
21
-16.179115
31
0.0
0
LINE
8
0
6
CONTINUOUS
10
-15.775840
20
-15.656955
30
0.0
11
-12.900570
21
-15.656955
31
0.0
0
LINE
8
0
6
CONTINUOUS
10
-46.662150
20
-15.656965
30
0.0
11
-46.045650
21
-15.656975
31
0.0
0
LINE
8
0
6
CONTINUOUS
10
-46.662150
20
-15.290305
30
0.0
11
-46.662150
21
-15.656965
31
0.0
0
LINE
8
0
6
CONTINUOUS
10
-11.093090
20
-15.656955
30
0.0
11
-10.476600
21
-15.656945
31
0.0
0
LINE
8
0
6
CONTINUOUS
10
-10.476600
20
-15.656945
30
0.0
11
-10.476600
21
-15.290285
31
0.0
0
LINE
8
0
6
CONTINUOUS
10
-12.900570
20
-15.656955
30
0.0
11
-11.093090
21
-15.656955
31
0.0
0
LINE
8
0
6
CONTINUOUS
10
-46.662170
20
20.202995
30
0.0
11
-46.662150
21
-15.290305
31
0.0
0
LINE
8
0
6
CONTINUOUS
10
-10.476600
20
-15.290285
30
0.0
11
-10.476620
21
20.203005
31
0.0
0
LINE
8
0
6
CONTINUOUS
10
-47.767850
20
-63.717295
30
0.0
11
-47.767850
21
-64.156975
31
0.0
0
LINE
8
0
6
CONTINUOUS
10
-9.370850
20
-64.156965
30
0.0
11
-9.370850
21
-63.717265
31
0.0
0
LINE
8
0
6
CONTINUOUS
10
-28.569350
20
-64.156975
30
0.0
11
-33.875140
21
-64.156975
31
0.0
0
LINE
8
0
6
CONTINUOUS
10
-33.875140
20
-64.156975
30
0.0
11
-38.819350
21
-64.156975
31
0.0
0
LINE
8
0
6
CONTINUOUS
10
-38.819350
20
-64.156975
30
0.0
11
-43.065040
21
-64.156975
31
0.0
0
LINE
8
0
6
CONTINUOUS
10
-43.065040
20
-64.156975
30
0.0
11
-46.322880
21
-64.156975
31
0.0
0
LINE
8
0
6
CONTINUOUS
10
-46.322880
20
-64.156975
30
0.0
11
-48.370830
21
-64.156975
31
0.0
0
LINE
8
0
6
CONTINUOUS
10
-49.069350
20
-64.156975
30
0.0
11
-49.069350
21
-64.511495
31
0.0
0
LINE
8
0
6
CONTINUOUS
10
-48.370830
20
-64.156975
30
0.0
11
-49.069350
21
-64.156975
31
0.0
0
LINE
8
0
6
CONTINUOUS
10
-8.069350
20
-64.511485
30
0.0
11
-8.069350
21
-64.156945
31
0.0
0
LINE
8
0
6
CONTINUOUS
10
-8.069350
20
-64.156945
30
0.0
11
-8.767870
21
-64.156965
31
0.0
0
LINE
8
0
6
CONTINUOUS
10
-8.767870
20
-64.156965
30
0.0
11
-10.815820
21
-64.156965
31
0.0
0
LINE
8
0
6
CONTINUOUS
10
-10.815820
20
-64.156965
30
0.0
11
-14.073640
21
-64.156965
31
0.0
0
LINE
8
0
6
CONTINUOUS
10
-14.073640
20
-64.156965
30
0.0
11
-18.319340
21
-64.156975
31
0.0
0
LINE
8
0
6
CONTINUOUS
10
-23.263550
20
-64.156975
30
0.0
11
-28.569350
21
-64.156975
31
0.0
0
LINE
8
0
6
CONTINUOUS
10
-18.319340
20
-64.156975
30
0.0
11
-23.263550
21
-64.156975
31
0.0
0
LINE
8
0
6
CONTINUOUS
10
-49.069350
20
-64.511495
30
0.0
11
-49.069350
21
-68.769465
31
0.0
0
LINE
8
0
6
CONTINUOUS
10
-8.069340
20
-68.769435
30
0.0
11
-8.069350
21
-64.511485
31
0.0
0
LINE
8
0
6
CONTINUOUS
10
-33.252140
20
20.842965
30
0.0
11
-28.569390
21
20.842975
31
0.0
0
LINE
8
0
6
CONTINUOUS
10
-33.089050
20
20.842975
30
0.0
11
-37.300710
21
20.842975
31
0.0
0
LINE
8
0
6
CONTINUOUS
10
-37.615770
20
20.842965
30
0.0
11
-33.252140
21
20.842965
31
0.0
0
LINE
8
0
6
CONTINUOUS
10
-41.362910
20
20.842975
30
0.0
11
-37.615770
21
20.842965
31
0.0
0
LINE
8
0
6
CONTINUOUS
10
-11.093120
20
20.842975
30
0.0
11
-11.707670
21
20.842978
31
0.0
0
LINE
8
0
6
CONTINUOUS
10
-82.569370
20
45.359785
30
0.0
11
-82.569370
21
36.252995
31
0.0
0
LINE
8
0
6
CONTINUOUS
10
-80.517250
20
36.252995
30
0.0
11
-80.517250
21
45.359785
31
0.0
0
LINE
8
0
6
CONTINUOUS
10
-82.569350
20
69.156935
30
0.0
11
-82.569350
21
67.345475
31
0.0
0
LINE
8
0
6
CONTINUOUS
10
-80.517230
20
69.156925
30
0.0
11
-82.569350
21
69.156935
31
0.0
0
LINE
8
0
6
CONTINUOUS
10
-80.517230
20
67.345465
30
0.0
11
-80.517230
21
69.156925
31
0.0
0
LINE
8
0
6
CONTINUOUS
10
-82.569370
20
54.466555
30
0.0
11
-82.569370
21
45.359785
31
0.0
0
LINE
8
0
6
CONTINUOUS
10
-80.517250
20
45.359785
30
0.0
11
-80.517240
21
54.466565
31
0.0
0
LINE
8
0
6
CONTINUOUS
10
-82.569350
20
21.562595
30
0.0
11
-80.569346
21
21.562585
31
0.0
0
LINE
8
0
6
CONTINUOUS
10
-82.569350
20
23.374055
30
0.0
11
-82.569350
21
21.562595
31
0.0
0
LINE
8
0
6
CONTINUOUS
10
-82.569350
20
28.532635
30
0.0
11
-82.569350
21
23.374055
31
0.0
0
LINE
8
0
6
CONTINUOUS
10
-80.517230
20
23.970885
30
0.0
11
-80.517230
21
28.532625
31
0.0
0
LINE
8
0
6
CONTINUOUS
10
-82.569350
20
62.186895
30
0.0
11
-82.569370
21
54.466555
31
0.0
0
LINE
8
0
6
CONTINUOUS
10
-80.517240
20
54.466565
30
0.0
11
-80.517230
21
62.186915
31
0.0
0
LINE
8
0
6
CONTINUOUS
10
-82.569370
20
36.252995
30
0.0
11
-82.569350
21
28.532635
31
0.0
0
LINE
8
0
6
CONTINUOUS
10
-80.517230
20
28.532625
30
0.0
11
-80.517250
21
36.252995
31
0.0
0
LINE
8
0
6
CONTINUOUS
10
-80.517250
20
36.252995
30
0.0
11
-80.517230
21
28.532625
31
0.0
0
LINE
8
0
6
CONTINUOUS
10
-79.569330
20
60.226305
30
0.0
11
-80.517220
21
60.226305
31
0.0
0
LINE
8
0
6
CONTINUOUS
10
-80.517230
20
30.493215
30
0.0
11
-68.569350
21
30.493215
31
0.0
0
LINE
8
0
6
CONTINUOUS
10
-82.569350
20
67.345475
30
0.0
11
-82.569350
21
62.186895
31
0.0
0
LINE
8
0
6
CONTINUOUS
10
-80.517230
20
62.186915
30
0.0
11
-80.517230
21
67.345465
31
0.0
0
LINE
8
0
6
CONTINUOUS
10
-11.707670
20
20.842975
30
0.0
11
-11.707670
21
29.359755
31
0.0
0
LINE
8
0
6
CONTINUOUS
10
-23.860446
20
44.217355
30
0.0
11
-24.252770
21
44.217355
31
0.0
0
LINE
8
0
6
CONTINUOUS
10
-24.252770
20
44.217355
30
0.0
11
-28.569360
21
44.217355
31
0.0
0
LINE
8
0
6
CONTINUOUS
10
-45.431020
20
29.359755
30
0.0
11
-45.431020
21
20.842975
31
0.0
0
LINE
8
0
6
CONTINUOUS
10
-32.885940
20
44.217355
30
0.0
11
-33.278261
21
44.217355
31
0.0
0
LINE
8
0
6
CONTINUOUS
10
-28.569360
20
44.217355
30
0.0
11
-32.885940
21
44.217355
31
0.0
0
LINE
8
0
6
CONTINUOUS
10
-42.616280
20
40.629455
30
0.0
11
-43.140780
21
44.359745
31
0.0
0
LINE
8
0
6
CONTINUOUS
10
-45.569380
20
44.359745
30
0.0
11
-44.957370
21
40.007755
31
0.0
0
LINE
8
0
6
CONTINUOUS
10
-41.217380
20
37.132345
30
0.0
11
-42.616280
21
40.629455
31
0.0
0
LINE
8
0
6
CONTINUOUS
10
-44.957370
20
40.007755
30
0.0
11
-43.325380
21
35.927755
31
0.0
0
LINE
8
0
6
CONTINUOUS
10
-38.885980
20
34.043155
30
0.0
11
-41.217380
21
37.132345
31
0.0
0
LINE
8
0
6
CONTINUOUS
10
-43.325380
20
35.927755
30
0.0
11
-40.605370
21
32.323755
31
0.0
0
LINE
8
0
6
CONTINUOUS
10
-35.796780
20
31.711745
30
0.0
11
-38.885980
21
34.043155
31
0.0
0
LINE
8
0
6
CONTINUOUS
10
-40.605370
20
32.323755
30
0.0
11
-37.001380
21
29.603745
31
0.0
0
LINE
8
0
6
CONTINUOUS
10
-32.299680
20
30.312865
30
0.0
11
-35.796780
21
31.711745
31
0.0
0
LINE
8
0
6
CONTINUOUS
10
-37.001380
20
29.603745
30
0.0
11
-32.921380
21
27.971765
31
0.0
0
LINE
8
0
6
CONTINUOUS
10
-28.569370
20
29.788355
30
0.0
11
-32.299680
21
30.312865
31
0.0
0
LINE
8
0
6
CONTINUOUS
10
-32.921380
20
27.971765
30
0.0
11
-28.569370
21
27.359765
31
0.0
0
LINE
8
0
6
CONTINUOUS
10
-12.181380
20
40.007765
30
0.0
11
-11.569380
21
44.359755
31
0.0
0
LINE
8
0
6
CONTINUOUS
10
-13.997980
20
44.359755
30
0.0
11
-14.522480
21
40.629465
31
0.0
0
LINE
8
0
6
CONTINUOUS
10
-13.813370
20
35.927765
30
0.0
11
-12.181380
21
40.007765
31
0.0
0
LINE
8
0
6
CONTINUOUS
10
-14.522480
20
40.629465
30
0.0
11
-15.921380
21
37.132355
31
0.0
0
LINE
8
0
6
CONTINUOUS
10
-16.533380
20
32.323745
30
0.0
11
-13.813370
21
35.927765
31
0.0
0
LINE
8
0
6
CONTINUOUS
10
-15.921380
20
37.132355
30
0.0
11
-18.252780
21
34.043145
31
0.0
0
LINE
8
0
6
CONTINUOUS
10
-20.137380
20
29.603755
30
0.0
11
-16.533380
21
32.323745
31
0.0
0
LINE
8
0
6
CONTINUOUS
10
-18.252780
20
34.043145
30
0.0
11
-21.341970
21
31.711755
31
0.0
0
LINE
8
0
6
CONTINUOUS
10
-24.217380
20
27.971765
30
0.0
11
-20.137380
21
29.603755
31
0.0
0
LINE
8
0
6
CONTINUOUS
10
-21.341970
20
31.711755
30
0.0
11
-24.839080
21
30.312865
31
0.0
0
LINE
8
0
6
CONTINUOUS
10
-28.569370
20
27.359765
30
0.0
11
-24.217380
21
27.971765
31
0.0
0
LINE
8
0
6
CONTINUOUS
10
-24.839080
20
30.312865
30
0.0
11
-28.569370
21
29.788355
31
0.0
0
LINE
8
0
6
CONTINUOUS
10
-11.569380
20
44.359755
30
0.0
11
-12.181380
21
40.007765
31
0.0
0
LINE
8
0
6
CONTINUOUS
10
-12.181380
20
48.711755
30
0.0
11
-11.569380
21
44.359755
31
0.0
0
LINE
8
0
6
CONTINUOUS
10
-14.522480
20
48.090055
30
0.0
11
-13.997980
21
44.359755
31
0.0
0
LINE
8
0
6
CONTINUOUS
10
-15.921380
20
51.587165
30
0.0
11
-14.522480
21
48.090055
31
0.0
0
LINE
8
0
6
CONTINUOUS
10
-12.181380
20
48.711755
30
0.0
11
-13.813380
21
52.791755
31
0.0
0
LINE
8
0
6
CONTINUOUS
10
-18.252780
20
54.676355
30
0.0
11
-15.921380
21
51.587165
31
0.0
0
LINE
8
0
6
CONTINUOUS
10
-13.813380
20
52.791755
30
0.0
11
-16.533370
21
56.395755
31
0.0
0
LINE
8
0
6
CONTINUOUS
10
-21.341980
20
57.007755
30
0.0
11
-18.252780
21
54.676355
31
0.0
0
LINE
8
0
6
CONTINUOUS
10
-16.533370
20
56.395755
30
0.0
11
-20.137380
21
59.115765
31
0.0
0
LINE
8
0
6
CONTINUOUS
10
-24.839070
20
58.406655
30
0.0
11
-21.341980
21
57.007755
31
0.0
0
LINE
8
0
6
CONTINUOUS
10
-20.137380
20
59.115765
30
0.0
11
-24.217380
21
60.747755
31
0.0
0
LINE
8
0
6
CONTINUOUS
10
-28.569370
20
58.931155
30
0.0
11
-24.839070
21
58.406655
31
0.0
0
LINE
8
0
6
CONTINUOUS
10
-24.217380
20
60.747755
30
0.0
11
-28.569370
21
61.359755
31
0.0
0
LINE
8
0
6
CONTINUOUS
10
-44.957380
20
48.711745
30
0.0
11
-45.569380
21
44.359745
31
0.0
0
LINE
8
0
6
CONTINUOUS
10
-43.140780
20
44.359745
30
0.0
11
-42.616280
21
48.090045
31
0.0
0
LINE
8
0
6
CONTINUOUS
10
-43.325370
20
52.791745
30
0.0
11
-44.957380
21
48.711745
31
0.0
0
LINE
8
0
6
CONTINUOUS
10
-41.217370
20
51.587155
30
0.0
11
-43.325370
21
52.791745
31
0.0
0
LINE
8
0
6
CONTINUOUS
10
-42.616280
20
48.090045
30
0.0
11
-41.217370
21
51.587155
31
0.0
0
LINE
8
0
6
CONTINUOUS
10
-43.325370
20
52.791745
30
0.0
11
-41.217370
21
51.587155
31
0.0
0
LINE
8
0
6
CONTINUOUS
10
-40.605380
20
56.395745
30
0.0
11
-43.325370
21
52.791745
31
0.0
0
LINE
8
0
6
CONTINUOUS
10
-38.885970
20
54.676345
30
0.0
11
-40.605357
21
56.395722
31
0.0
0
LINE
8
0
6
CONTINUOUS
10
-41.217370
20
51.587155
30
0.0
11
-38.885970
21
54.676345
31
0.0
0
LINE
8
0
6
CONTINUOUS
10
-37.001380
20
59.115755
30
0.0
11
-40.605340
21
56.395775
31
0.0
0
LINE
8
0
6
CONTINUOUS
10
-38.885970
20
54.676345
30
0.0
11
-35.796770
21
57.007745
31
0.0
0
LINE
8
0
6
CONTINUOUS
10
-40.605380
20
56.395745
30
0.0
11
-38.885970
21
54.676345
31
0.0
0
LINE
8
0
6
CONTINUOUS
10
-32.921380
20
60.747755
30
0.0
11
-37.001380
21
59.115755
31
0.0
0
LINE
8
0
6
CONTINUOUS
10
-35.796770
20
57.007745
30
0.0
11
-32.299680
21
58.406655
31
0.0
0
LINE
8
0
6
CONTINUOUS
10
-28.569370
20
61.359755
30
0.0
11
-32.921380
21
60.747755
31
0.0
0
LINE
8
0
6
CONTINUOUS
10
-32.299680
20
58.406655
30
0.0
11
-28.569370
21
58.931155
31
0.0
0
LINE
8
0
6
CONTINUOUS
10
-76.545330
20
64.843075
30
0.0
11
-75.105330
21
64.843075
31
0.0
0
LINE
8
0
6
CONTINUOUS
10
-77.817330
20
64.843075
30
0.0
11
-76.545330
21
64.843075
31
0.0
0
LINE
8
0
6
CONTINUOUS
10
-78.777330
20
64.843075
30
0.0
11
-77.817330
21
64.843075
31
0.0
0
LINE
8
0
6
CONTINUOUS
10
-73.569330
20
64.843085
30
0.0
11
-78.777330
21
64.843075
31
0.0
0
LINE
8
0
6
CONTINUOUS
10
-73.569330
20
64.843085
30
0.0
11
-75.105330
21
64.843075
31
0.0
0
LINE
8
0
6
CONTINUOUS
10
-75.105330
20
64.843075
30
0.0
11
-76.545330
21
64.843075
31
0.0
0
LINE
8
0
6
CONTINUOUS
10
-76.545330
20
64.843075
30
0.0
11
-77.817330
21
64.843075
31
0.0
0
LINE
8
0
6
CONTINUOUS
10
-77.817330
20
64.843075
30
0.0
11
-78.777330
21
64.843075
31
0.0
0
LINE
8
0
6
CONTINUOUS
10
-78.777330
20
64.843075
30
0.0
11
-79.353320
21
64.843075
31
0.0
0
LINE
8
0
6
CONTINUOUS
10
-79.353320
20
64.843075
30
0.0
11
-79.569330
21
64.843075
31
0.0
0
LINE
8
0
6
CONTINUOUS
10
41.430640
20
59.247745
30
0.0
11
-20.467346
21
59.247751
31
0.0
0
LINE
8
0
6
CONTINUOUS
10
-36.671387
20
59.247752
30
0.0
11
-38.119864
21
59.247752
31
0.0
0
LINE
8
0
6
CONTINUOUS
10
41.430640
20
45.359755
30
0.0
11
41.430640
21
59.247745
31
0.0
0
LINE
8
0
6
CONTINUOUS
10
-68.569360
20
45.359765
30
0.0
11
-45.569380
21
45.359763
31
0.0
0
LINE
8
0
6
CONTINUOUS
10
-43.000172
20
45.359763
30
0.0
11
-14.138586
21
45.359760
31
0.0
0
LINE
8
0
6
CONTINUOUS
10
-11.569356
20
45.359760
30
0.0
11
41.430640
21
45.359755
31
0.0
0
LINE
8
0
6
CONTINUOUS
10
-68.569360
20
54.843085
30
0.0
11
-68.569360
21
45.359765
31
0.0
0
LINE
8
0
6
CONTINUOUS
10
-53.009390
20
64.247765
30
0.0
11
-55.569390
21
64.247765
31
0.0
0
LINE
8
0
6
CONTINUOUS
10
-55.569390
20
59.247765
30
0.0
11
-53.009380
21
59.247765
31
0.0
0
LINE
8
0
6
CONTINUOUS
10
-39.390770
20
64.247755
30
0.0
11
-53.009390
21
64.247765
31
0.0
0
LINE
8
0
6
CONTINUOUS
10
-53.009380
20
59.247765
30
0.0
11
-39.667080
21
59.247755
31
0.0
0
LINE
8
0
6
CONTINUOUS
10
-39.390770
20
64.247755
30
0.0
11
-39.667080
21
59.247756
31
0.0
0
LINE
8
0
6
CONTINUOUS
10
-38.782980
20
64.247755
30
0.0
11
-39.390770
21
64.247755
31
0.0
0
LINE
8
0
6
CONTINUOUS
10
-39.667080
20
59.247755
30
0.0
11
-38.506680
21
59.247755
31
0.0
0
LINE
8
0
6
CONTINUOUS
10
-38.064680
20
64.247755
30
0.0
11
-38.782980
21
64.247755
31
0.0
0
LINE
8
0
6
CONTINUOUS
10
-38.506680
20
59.247755
30
0.0
11
-38.119880
21
59.247755
31
0.0
0
LINE
8
0
6
CONTINUOUS
10
-53.009380
20
59.247765
30
0.0
11
-55.569390
21
59.247765
31
0.0
0
LINE
8
0
6
CONTINUOUS
10
-72.033380
20
64.843085
30
0.0
11
-73.569370
21
64.843075
31
0.0
0
LINE
8
0
6
CONTINUOUS
10
-73.569370
20
54.843075
30
0.0
11
-72.033370
21
54.843085
31
0.0
0
LINE
8
0
6
CONTINUOUS
10
-62.569300
20
64.843085
30
0.0
11
-72.033380
21
64.843085
31
0.0
0
LINE
8
0
6
CONTINUOUS
10
-72.033370
20
54.843085
30
0.0
11
-60.569370
21
54.843085
31
0.0
0
LINE
8
0
6
CONTINUOUS
10
-60.569370
20
57.247785
30
0.0
11
-60.569370
21
54.843085
31
0.0
0
LINE
8
0
6
CONTINUOUS
10
-59.769370
20
54.843085
30
0.0
11
-59.769368
21
57.247785
31
0.0
0
LINE
8
0
6
CONTINUOUS
10
-60.569370
20
54.843085
30
0.0
11
-59.769370
21
54.843085
31
0.0
0
LINE
8
0
6
CONTINUOUS
10
-59.769368
20
57.247785
30
0.0
11
-59.769370
21
54.843085
31
0.0
0
LINE
8
0
6
CONTINUOUS
10
-60.569370
20
54.843085
30
0.0
11
-72.033370
21
54.843085
31
0.0
0
LINE
8
0
6
CONTINUOUS
10
-75.105370
20
54.843075
30
0.0
11
-73.569370
21
54.843075
31
0.0
0
LINE
8
0
6
CONTINUOUS
10
-73.569370
20
64.843075
30
0.0
11
-75.105370
21
64.843075
31
0.0
0
LINE
8
0
6
CONTINUOUS
10
-76.545380
20
54.843075
30
0.0
11
-75.105370
21
54.843075
31
0.0
0
LINE
8
0
6
CONTINUOUS
10
-75.105370
20
64.843075
30
0.0
11
-76.545380
21
64.843075
31
0.0
0
LINE
8
0
6
CONTINUOUS
10
-77.817370
20
54.843075
30
0.0
11
-76.545380
21
54.843075
31
0.0
0
LINE
8
0
6
CONTINUOUS
10
-76.545380
20
64.843075
30
0.0
11
-77.817370
21
64.843075
31
0.0
0
LINE
8
0
6
CONTINUOUS
10
-78.777370
20
54.843075
30
0.0
11
-77.817370
21
54.843075
31
0.0
0
LINE
8
0
6
CONTINUOUS
10
-77.817370
20
64.843075
30
0.0
11
-78.777370
21
64.843075
31
0.0
0
LINE
8
0
6
CONTINUOUS
10
-79.353370
20
54.843075
30
0.0
11
-78.777370
21
54.843075
31
0.0
0
LINE
8
0
6
CONTINUOUS
10
-78.777370
20
64.843075
30
0.0
11
-79.353370
21
64.843075
31
0.0
0
LINE
8
0
6
CONTINUOUS
10
-79.569360
20
54.843075
30
0.0
11
-79.353370
21
54.843075
31
0.0
0
LINE
8
0
6
CONTINUOUS
10
-79.569370
20
64.843075
30
0.0
11
-79.569360
21
54.843075
31
0.0
0
LINE
8
0
6
CONTINUOUS
10
-79.353370
20
64.843075
30
0.0
11
-79.569370
21
64.843075
31
0.0
0
LINE
8
0
6
CONTINUOUS
10
-58.129380
20
59.247765
30
0.0
11
-55.569390
21
59.247765
31
0.0
0
LINE
8
0
6
CONTINUOUS
10
-55.569390
20
64.247765
30
0.0
11
-58.129390
21
64.247765
31
0.0
0
LINE
8
0
6
CONTINUOUS
10
-60.529380
20
59.247765
30
0.0
11
-58.129380
21
59.247765
31
0.0
0
LINE
8
0
6
CONTINUOUS
10
-58.129390
20
64.247765
30
0.0
11
-60.529380
21
64.247765
31
0.0
0
LINE
8
0
6
CONTINUOUS
10
-62.649380
20
59.247765
30
0.0
11
-60.529380
21
59.247765
31
0.0
0
LINE
8
0
6
CONTINUOUS
10
-60.529380
20
64.247765
30
0.0
11
-62.649380
21
64.247765
31
0.0
0
LINE
8
0
6
CONTINUOUS
10
-64.249380
20
59.247765
30
0.0
11
-62.649380
21
59.247765
31
0.0
0
LINE
8
0
6
CONTINUOUS
10
-62.649380
20
64.247765
30
0.0
11
-64.249380
21
64.247765
31
0.0
0
LINE
8
0
6
CONTINUOUS
10
-65.209380
20
59.247765
30
0.0
11
-64.249380
21
59.247765
31
0.0
0
LINE
8
0
6
CONTINUOUS
10
-64.249380
20
64.247765
30
0.0
11
-65.209380
21
64.247765
31
0.0
0
LINE
8
0
6
CONTINUOUS
10
-65.569370
20
59.247765
30
0.0
11
-65.209380
21
59.247765
31
0.0
0
LINE
8
0
6
CONTINUOUS
10
-65.569370
20
64.247765
30
0.0
11
-65.569370
21
59.247765
31
0.0
0
LINE
8
0
6
CONTINUOUS
10
-65.209380
20
64.247765
30
0.0
11
-65.569370
21
64.247765
31
0.0
0
LINE
8
0
6
CONTINUOUS
10
-11.569370
20
56.395755
30
0.0
11
-16.533370
21
56.395755
31
0.0
0
LINE
8
0
6
CONTINUOUS
10
-16.533370
20
56.395755
30
0.0
11
-13.813380
21
52.791755
31
0.0
0
LINE
8
0
6
CONTINUOUS
10
-13.813380
20
52.791755
30
0.0
11
-12.181380
21
48.711755
31
0.0
0
LINE
8
0
6
CONTINUOUS
10
-11.569380
20
44.359755
30
0.0
11
-11.569370
21
56.395755
31
0.0
0
LINE
8
0
6
CONTINUOUS
10
-40.605380
20
56.395745
30
0.0
11
-45.569350
21
56.395745
31
0.0
0
LINE
8
0
6
CONTINUOUS
10
-43.325370
20
52.791745
30
0.0
11
-40.605380
21
56.395745
31
0.0
0
LINE
8
0
6
CONTINUOUS
10
-44.957380
20
48.711745
30
0.0
11
-43.325370
21
52.791745
31
0.0
0
LINE
8
0
6
CONTINUOUS
10
-45.569380
20
56.395745
30
0.0
11
-45.569380
21
44.359745
31
0.0
0
LINE
8
0
6
CONTINUOUS
10
-45.569380
20
44.359745
30
0.0
11
-44.957380
21
48.711745
31
0.0
0
LINE
8
0
6
CONTINUOUS
10
-11.569370
20
56.395755
30
0.0
11
-11.569380
21
44.359755
31
0.0
0
LINE
8
0
6
CONTINUOUS
10
-45.569380
20
56.395745
30
0.0
11
-40.605380
21
56.395745
31
0.0
0
LINE
8
0
6
CONTINUOUS
10
-45.569380
20
59.247755
30
0.0
11
-45.569380
21
56.395745
31
0.0
0
LINE
8
0
6
CONTINUOUS
10
54.894640
20
41.359755
30
0.0
11
56.430630
21
41.359755
31
0.0
0
LINE
8
0
6
CONTINUOUS
10
56.430630
20
51.359755
30
0.0
11
54.894640
21
51.359755
31
0.0
0
LINE
8
0
6
CONTINUOUS
10
53.454630
20
41.359755
30
0.0
11
54.894640
21
41.359755
31
0.0
0
LINE
8
0
6
CONTINUOUS
10
54.894640
20
51.359755
30
0.0
11
53.454630
21
51.359755
31
0.0
0
LINE
8
0
6
CONTINUOUS
10
52.182640
20
41.359755
30
0.0
11
53.454630
21
41.359755
31
0.0
0
LINE
8
0
6
CONTINUOUS
10
53.454630
20
51.359755
30
0.0
11
52.182640
21
51.359755
31
0.0
0
LINE
8
0
6
CONTINUOUS
10
51.222630
20
41.359755
30
0.0
11
52.182640
21
41.359755
31
0.0
0
LINE
8
0
6
CONTINUOUS
10
52.182640
20
51.359755
30
0.0
11
51.222630
21
51.359755
31
0.0
0
LINE
8
0
6
CONTINUOUS
10
44.177108
20
41.359748
30
0.0
11
51.222630
21
41.359755
31
0.0
0
LINE
8
0
6
CONTINUOUS
10
51.222630
20
51.359755
30
0.0
11
43.697382
21
51.359747
31
0.0
0
LINE
8
0
6
CONTINUOUS
10
28.870610
20
59.247755
30
0.0
11
31.430620
21
59.247755
31
0.0
0
LINE
8
0
6
CONTINUOUS
10
31.430620
20
64.247755
30
0.0
11
28.870610
21
64.247755
31
0.0
0
LINE
8
0
6
CONTINUOUS
10
26.470610
20
59.247755
30
0.0
11
28.870610
21
59.247755
31
0.0
0
LINE
8
0
6
CONTINUOUS
10
28.870610
20
64.247755
30
0.0
11
26.470610
21
64.247755
31
0.0
0
LINE
8
0
6
CONTINUOUS
10
24.350610
20
59.247755
30
0.0
11
26.470610
21
59.247755
31
0.0
0
LINE
8
0
6
CONTINUOUS
10
26.470610
20
64.247755
30
0.0
11
24.350610
21
64.247755
31
0.0
0
LINE
8
0
6
CONTINUOUS
10
22.750620
20
59.247755
30
0.0
11
24.350610
21
59.247755
31
0.0
0
LINE
8
0
6
CONTINUOUS
10
24.350610
20
64.247755
30
0.0
11
22.750620
21
64.247755
31
0.0
0
LINE
8
0
6
CONTINUOUS
10
21.790630
20
59.247755
30
0.0
11
22.750620
21
59.247755
31
0.0
0
LINE
8
0
6
CONTINUOUS
10
22.750620
20
64.247755
30
0.0
11
21.790630
21
64.247755
31
0.0
0
LINE
8
0
6
CONTINUOUS
10
21.430620
20
59.247755
30
0.0
11
21.790630
21
59.247755
31
0.0
0
LINE
8
0
6
CONTINUOUS
10
21.430630
20
64.247755
30
0.0
11
21.430620
21
59.247755
31
0.0
0
LINE
8
0
6
CONTINUOUS
10
21.790630
20
64.247755
30
0.0
11
21.430630
21
64.247755
31
0.0
0
LINE
8
0
6
CONTINUOUS
10
33.990610
20
64.247745
30
0.0
11
31.430620
21
64.247755
31
0.0
0
LINE
8
0
6
CONTINUOUS
10
31.430620
20
59.247755
30
0.0
11
33.990600
21
59.247745
31
0.0
0
LINE
8
0
6
CONTINUOUS
10
36.390610
20
64.247745
30
0.0
11
33.990610
21
64.247745
31
0.0
0
LINE
8
0
6
CONTINUOUS
10
33.990600
20
59.247745
30
0.0
11
36.390610
21
59.247745
31
0.0
0
LINE
8
0
6
CONTINUOUS
10
38.510620
20
64.247745
30
0.0
11
36.390610
21
64.247745
31
0.0
0
LINE
8
0
6
CONTINUOUS
10
36.390610
20
59.247745
30
0.0
11
38.510620
21
59.247745
31
0.0
0
LINE
8
0
6
CONTINUOUS
10
40.110620
20
64.247745
30
0.0
11
38.510620
21
64.247745
31
0.0
0
LINE
8
0
6
CONTINUOUS
10
38.510620
20
59.247745
30
0.0
11
40.110620
21
59.247745
31
0.0
0
LINE
8
0
6
CONTINUOUS
10
41.070620
20
64.247745
30
0.0
11
40.110620
21
64.247745
31
0.0
0
LINE
8
0
6
CONTINUOUS
10
40.110620
20
59.247745
30
0.0
11
41.070620
21
59.247745
31
0.0
0
LINE
8
0
6
CONTINUOUS
10
41.430630
20
64.247745
30
0.0
11
41.070620
21
64.247745
31
0.0
0
LINE
8
0
6
CONTINUOUS
10
41.430620
20
59.247745
30
0.0
11
41.430630
21
64.247745
31
0.0
0
LINE
8
0
6
CONTINUOUS
10
41.070620
20
59.247745
30
0.0
11
41.430620
21
59.247745
31
0.0
0
LINE
8
0
6
CONTINUOUS
10
57.966640
20
51.359755
30
0.0
11
56.430630
21
51.359755
31
0.0
0
LINE
8
0
6
CONTINUOUS
10
56.430630
20
41.359755
30
0.0
11
57.966640
21
41.359755
31
0.0
0
LINE
8
0
6
CONTINUOUS
10
59.406630
20
51.359755
30
0.0
11
57.966640
21
51.359755
31
0.0
0
LINE
8
0
6
CONTINUOUS
10
57.966640
20
41.359755
30
0.0
11
59.406630
21
41.359755
31
0.0
0
LINE
8
0
6
CONTINUOUS
10
60.678640
20
51.359755
30
0.0
11
59.406630
21
51.359755
31
0.0
0
LINE
8
0
6
CONTINUOUS
10
59.406630
20
41.359755
30
0.0
11
60.678640
21
41.359755
31
0.0
0
LINE
8
0
6
CONTINUOUS
10
61.638630
20
51.359755
30
0.0
11
60.678640
21
51.359755
31
0.0
0
LINE
8
0
6
CONTINUOUS
10
60.678640
20
41.359755
30
0.0
11
61.638630
21
41.359755
31
0.0
0
LINE
8
0
6
CONTINUOUS
10
62.214630
20
51.359755
30
0.0
11
61.638630
21
51.359755
31
0.0
0
LINE
8
0
6
CONTINUOUS
10
61.638630
20
41.359755
30
0.0
11
62.214630
21
41.359755
31
0.0
0
LINE
8
0
6
CONTINUOUS
10
62.430630
20
51.359755
30
0.0
11
62.214630
21
51.359755
31
0.0
0
LINE
8
0
6
CONTINUOUS
10
62.214630
20
41.359755
30
0.0
11
62.430630
21
41.359755
31
0.0
0
LINE
8
0
6
CONTINUOUS
10
60.930660
20
17.359765
30
0.0
11
60.930656
21
29.359755
31
0.0
0
LINE
8
0
6
CONTINUOUS
10
50.930640
20
17.359765
30
0.0
11
60.930660
21
17.359765
31
0.0
0
LINE
8
0
6
CONTINUOUS
10
36.930650
20
29.359755
30
0.0
11
50.930640
21
17.359765
31
0.0
0
LINE
8
0
6
CONTINUOUS
10
-68.569360
20
45.359765
30
0.0
11
-68.569360
21
41.263755
31
0.0
0
LINE
8
0
6
CONTINUOUS
10
-68.569360
20
41.263755
30
0.0
11
-68.569360
21
37.423765
31
0.0
0
LINE
8
0
6
CONTINUOUS
10
-68.569360
20
37.423765
30
0.0
11
-68.569350
21
34.031765
31
0.0
0
LINE
8
0
6
CONTINUOUS
10
-68.569350
20
34.031765
30
0.0
11
-68.569350
21
31.471755
31
0.0
0
LINE
8
0
6
CONTINUOUS
10
-68.569350
20
31.471755
30
0.0
11
-68.569350
21
29.935755
31
0.0
0
LINE
8
0
6
CONTINUOUS
10
-68.569350
20
29.359755
30
0.0
11
-67.569340
21
29.359755
31
0.0
0
LINE
8
0
6
CONTINUOUS
10
-46.569350
20
29.359755
30
0.0
11
-45.431020
21
29.359755
31
0.0
0
LINE
8
0
6
CONTINUOUS
10
-11.744004
20
29.359755
30
0.0
11
61.430650
21
29.359755
31
0.0
0
LINE
8
0
6
CONTINUOUS
10
-68.569350
20
29.935755
30
0.0
11
-68.569350
21
29.359755
31
0.0
0
LINE
8
0
6
CONTINUOUS
10
61.430660
20
61.359755
30
0.0
11
41.430624
21
61.359755
31
0.0
0
LINE
8
0
6
CONTINUOUS
10
21.430624
20
61.359755
30
0.0
11
-38.096499
21
61.359755
31
0.0
0
LINE
8
0
6
CONTINUOUS
10
-67.569341
20
30.870460
30
0.0
11
-67.569340
21
29.359755
31
0.0
0
LINE
8
0
6
CONTINUOUS
10
-46.569350
20
29.359755
30
0.0
11
-46.569348
21
33.029512
31
0.0
0
LINE
8
0
6
CONTINUOUS
10
-56.569340
20
17.359765
30
0.0
11
-46.569350
21
29.359755
31
0.0
0
LINE
8
0
6
CONTINUOUS
10
-80.569344
20
23.970885
30
0.0
11
-80.569350
21
17.359765
31
0.0
0
LINE
8
0
6
CONTINUOUS
10
-67.569340
20
29.359755
30
0.0
11
-80.517220
21
29.359755
31
0.0
0
LINE
8
0
6
CONTINUOUS
10
-80.569350
20
17.359765
30
0.0
11
-56.569340
21
17.359765
31
0.0
0
LINE
8
0
6
CONTINUOUS
10
-40.605380
20
59.247755
30
0.0
11
-40.605380
21
56.395745
31
0.0
0
LINE
8
0
6
CONTINUOUS
10
44.168754
20
49.455755
30
0.0
11
43.697383
21
51.359746
31
0.0
0
LINE
8
0
6
CONTINUOUS
10
44.525253
20
45.359765
30
0.0
11
44.168754
21
49.455755
31
0.0
0
LINE
8
0
6
CONTINUOUS
10
-11.744004
20
29.359755
30
0.0
11
-12.314700
21
29.930442
31
0.0
0
LINE
8
0
6
CONTINUOUS
10
-13.865808
20
31.471755
30
0.0
11
-13.933420
21
31.599325
31
0.0
0
LINE
8
0
6
CONTINUOUS
10
-19.557294
20
37.423765
30
0.0
11
-20.205972
21
38.647667
31
0.0
0
LINE
8
0
6
CONTINUOUS
10
44.177108
20
41.359748
30
0.0
11
44.525252
21
45.359758
31
0.0
0
LINE
8
0
6
CONTINUOUS
10
-22.822078
20
41.263755
30
0.0
11
-23.860446
21
44.217355
31
0.0
0
ENDSEC
0
EOF
