999
Erzeugt mit innoplus bad 
0
SECTION
2
HEADER
9
$ACADVER
1
AC1009
9
$DWGCODEPAGE
3
ISO8859-1
0
ENDSEC
0
SECTION
2
TABLES
0
TABLE
2
LAYER
70
1
0
LAYER
2
0
70
0
62
7
6
CONTINUOUS
0
ENDTAB
0
ENDSEC
0
SECTION
2
ENTITIES
0
LINE
8
0
6
CONTINUOUS
10
57.343945
20
-24.469440
30
0.0
11
57.343945
21
-26.240040
31
0.0
0
LINE
8
0
6
CONTINUOUS
10
57.536245
20
-26.240040
30
0.0
11
57.536245
21
-24.448840
31
0.0
0
LINE
8
0
6
CONTINUOUS
10
57.343945
20
-22.801840
30
0.0
11
57.343945
21
-24.469440
31
0.0
0
LINE
8
0
6
CONTINUOUS
10
57.536245
20
-24.448840
30
0.0
11
57.536245
21
-22.760640
31
0.0
0
LINE
8
0
6
CONTINUOUS
10
57.343945
20
-21.360640
30
0.0
11
57.343945
21
-22.801840
31
0.0
0
LINE
8
0
6
CONTINUOUS
10
57.536245
20
-22.760640
30
0.0
11
57.536245
21
-21.298840
31
0.0
0
LINE
8
0
6
CONTINUOUS
10
57.247765
20
-24.510640
30
0.0
11
57.247765
21
-26.240040
31
0.0
0
LINE
8
0
6
CONTINUOUS
10
57.343945
20
-26.240040
30
0.0
11
57.343945
21
-24.469440
31
0.0
0
LINE
8
0
6
CONTINUOUS
10
57.247765
20
-22.904740
30
0.0
11
57.247765
21
-24.510640
31
0.0
0
LINE
8
0
6
CONTINUOUS
10
57.343945
20
-24.469440
30
0.0
11
57.343945
21
-22.801840
31
0.0
0
LINE
8
0
6
CONTINUOUS
10
57.247765
20
-21.504740
30
0.0
11
57.247765
21
-22.904740
31
0.0
0
LINE
8
0
6
CONTINUOUS
10
57.343945
20
-22.801840
30
0.0
11
57.343945
21
-21.360640
31
0.0
0
LINE
8
0
6
CONTINUOUS
10
57.536245
20
-28.031220
30
0.0
11
57.536245
21
-26.240040
31
0.0
0
LINE
8
0
6
CONTINUOUS
10
57.343945
20
-26.240040
30
0.0
11
57.343945
21
-28.010630
31
0.0
0
LINE
8
0
6
CONTINUOUS
10
57.536245
20
-29.719450
30
0.0
11
57.536245
21
-28.031220
31
0.0
0
LINE
8
0
6
CONTINUOUS
10
57.343945
20
-28.010630
30
0.0
11
57.343945
21
-29.678280
31
0.0
0
LINE
8
0
6
CONTINUOUS
10
57.536245
20
-31.181220
30
0.0
11
57.536245
21
-29.719450
31
0.0
0
LINE
8
0
6
CONTINUOUS
10
57.343945
20
-29.678280
30
0.0
11
57.343945
21
-31.119450
31
0.0
0
LINE
8
0
6
CONTINUOUS
10
57.343945
20
-28.010630
30
0.0
11
57.343945
21
-26.240040
31
0.0
0
LINE
8
0
6
CONTINUOUS
10
57.247765
20
-26.240040
30
0.0
11
57.247765
21
-27.969450
31
0.0
0
LINE
8
0
6
CONTINUOUS
10
57.343945
20
-29.678280
30
0.0
11
57.343945
21
-28.010630
31
0.0
0
LINE
8
0
6
CONTINUOUS
10
57.247765
20
-27.969450
30
0.0
11
57.247765
21
-29.575330
31
0.0
0
LINE
8
0
6
CONTINUOUS
10
57.343945
20
-31.119450
30
0.0
11
57.343945
21
-29.678280
31
0.0
0
LINE
8
0
6
CONTINUOUS
10
57.247765
20
-29.575330
30
0.0
11
57.247765
21
-30.975330
31
0.0
0
LINE
8
0
6
CONTINUOUS
10
57.536245
20
-33.240050
30
0.0
11
59.247745
21
-33.240050
31
0.0
0
LINE
8
0
6
CONTINUOUS
10
57.536245
20
-33.240050
30
0.0
11
57.536245
21
-32.992980
31
0.0
0
LINE
8
0
6
CONTINUOUS
10
57.343945
20
-33.137110
30
0.0
11
57.536245
21
-33.240050
31
0.0
0
LINE
8
0
6
CONTINUOUS
10
57.343945
20
-32.210640
30
0.0
11
57.343945
21
-32.890050
31
0.0
0
LINE
8
0
6
CONTINUOUS
10
57.536245
20
-32.992980
30
0.0
11
57.536245
21
-32.292990
31
0.0
0
LINE
8
0
6
CONTINUOUS
10
57.343945
20
-31.119450
30
0.0
11
57.343945
21
-32.210640
31
0.0
0
LINE
8
0
6
CONTINUOUS
10
57.536245
20
-32.292990
30
0.0
11
57.536245
21
-31.181220
31
0.0
0
LINE
8
0
6
CONTINUOUS
10
57.247765
20
-32.684160
30
0.0
11
57.247765
21
-32.931230
31
0.0
0
LINE
8
0
6
CONTINUOUS
10
57.343945
20
-33.137110
30
0.0
11
57.343945
21
-32.890050
31
0.0
0
LINE
8
0
6
CONTINUOUS
10
57.247765
20
-32.931230
30
0.0
11
57.343945
21
-33.137110
31
0.0
0
LINE
8
0
6
CONTINUOUS
10
57.247765
20
-32.025330
30
0.0
11
57.247765
21
-32.684160
31
0.0
0
LINE
8
0
6
CONTINUOUS
10
57.343945
20
-32.890050
30
0.0
11
57.343945
21
-32.210640
31
0.0
0
LINE
8
0
6
CONTINUOUS
10
57.247765
20
-30.975330
30
0.0
11
57.247765
21
-32.025330
31
0.0
0
LINE
8
0
6
CONTINUOUS
10
57.343945
20
-32.210640
30
0.0
11
57.343945
21
-31.119450
31
0.0
0
LINE
8
0
6
CONTINUOUS
10
59.247745
20
-19.240050
30
0.0
11
57.536245
21
-19.240050
31
0.0
0
LINE
8
0
6
CONTINUOUS
10
57.536245
20
-19.487140
30
0.0
11
57.536245
21
-19.240050
31
0.0
0
LINE
8
0
6
CONTINUOUS
10
57.343945
20
-19.342950
30
0.0
11
57.343945
21
-19.590040
31
0.0
0
LINE
8
0
6
CONTINUOUS
10
57.536245
20
-19.240050
30
0.0
11
57.343945
21
-19.342950
31
0.0
0
LINE
8
0
6
CONTINUOUS
10
57.536245
20
-20.187140
30
0.0
11
57.536245
21
-19.487140
31
0.0
0
LINE
8
0
6
CONTINUOUS
10
57.343945
20
-19.590040
30
0.0
11
57.343945
21
-20.269440
31
0.0
0
LINE
8
0
6
CONTINUOUS
10
57.536245
20
-21.298840
30
0.0
11
57.536245
21
-20.187140
31
0.0
0
LINE
8
0
6
CONTINUOUS
10
57.343945
20
-20.269440
30
0.0
11
57.343945
21
-21.360640
31
0.0
0
LINE
8
0
6
CONTINUOUS
10
57.343945
20
-19.590040
30
0.0
11
57.343945
21
-19.342950
31
0.0
0
LINE
8
0
6
CONTINUOUS
10
57.247765
20
-19.548850
30
0.0
11
57.247765
21
-19.795940
31
0.0
0
LINE
8
0
6
CONTINUOUS
10
57.343945
20
-19.342950
30
0.0
11
57.247765
21
-19.548850
31
0.0
0
LINE
8
0
6
CONTINUOUS
10
57.343945
20
-20.269440
30
0.0
11
57.343945
21
-19.590040
31
0.0
0
LINE
8
0
6
CONTINUOUS
10
57.247765
20
-19.795940
30
0.0
11
57.247765
21
-20.454740
31
0.0
0
LINE
8
0
6
CONTINUOUS
10
57.343945
20
-21.360640
30
0.0
11
57.343945
21
-20.269440
31
0.0
0
LINE
8
0
6
CONTINUOUS
10
57.247765
20
-20.454740
30
0.0
11
57.247765
21
-21.504740
31
0.0
0
LINE
8
0
6
CONTINUOUS
10
65.959255
20
-24.448840
30
0.0
11
65.959255
21
-26.240040
31
0.0
0
LINE
8
0
6
CONTINUOUS
10
66.151555
20
-26.240040
30
0.0
11
66.151555
21
-24.469440
31
0.0
0
LINE
8
0
6
CONTINUOUS
10
65.959255
20
-22.760640
30
0.0
11
65.959255
21
-24.448840
31
0.0
0
LINE
8
0
6
CONTINUOUS
10
66.151555
20
-24.469440
30
0.0
11
66.151555
21
-22.801840
31
0.0
0
LINE
8
0
6
CONTINUOUS
10
65.959255
20
-21.298840
30
0.0
11
65.959255
21
-22.760640
31
0.0
0
LINE
8
0
6
CONTINUOUS
10
66.151555
20
-22.801840
30
0.0
11
66.151555
21
-21.360640
31
0.0
0
LINE
8
0
6
CONTINUOUS
10
66.151555
20
-24.469440
30
0.0
11
66.151555
21
-26.240040
31
0.0
0
LINE
8
0
6
CONTINUOUS
10
66.247735
20
-26.240040
30
0.0
11
66.247735
21
-24.510640
31
0.0
0
LINE
8
0
6
CONTINUOUS
10
66.151555
20
-22.801840
30
0.0
11
66.151555
21
-24.469440
31
0.0
0
LINE
8
0
6
CONTINUOUS
10
66.247735
20
-24.510640
30
0.0
11
66.247735
21
-22.904740
31
0.0
0
LINE
8
0
6
CONTINUOUS
10
66.151555
20
-21.360640
30
0.0
11
66.151555
21
-22.801840
31
0.0
0
LINE
8
0
6
CONTINUOUS
10
66.247735
20
-22.904740
30
0.0
11
66.247735
21
-21.504740
31
0.0
0
LINE
8
0
6
CONTINUOUS
10
66.151555
20
-28.010630
30
0.0
11
66.151555
21
-26.240040
31
0.0
0
LINE
8
0
6
CONTINUOUS
10
65.959255
20
-26.240040
30
0.0
11
65.959255
21
-28.031220
31
0.0
0
LINE
8
0
6
CONTINUOUS
10
66.151555
20
-29.678280
30
0.0
11
66.151555
21
-28.010630
31
0.0
0
LINE
8
0
6
CONTINUOUS
10
65.959255
20
-28.031220
30
0.0
11
65.959255
21
-29.719450
31
0.0
0
LINE
8
0
6
CONTINUOUS
10
66.151555
20
-31.119450
30
0.0
11
66.151555
21
-29.678280
31
0.0
0
LINE
8
0
6
CONTINUOUS
10
65.959255
20
-29.719450
30
0.0
11
65.959255
21
-31.181220
31
0.0
0
LINE
8
0
6
CONTINUOUS
10
66.247735
20
-27.969450
30
0.0
11
66.247735
21
-26.240040
31
0.0
0
LINE
8
0
6
CONTINUOUS
10
66.151555
20
-26.240040
30
0.0
11
66.151555
21
-28.010630
31
0.0
0
LINE
8
0
6
CONTINUOUS
10
66.247735
20
-29.575330
30
0.0
11
66.247735
21
-27.969450
31
0.0
0
LINE
8
0
6
CONTINUOUS
10
66.151555
20
-28.010630
30
0.0
11
66.151555
21
-29.678280
31
0.0
0
LINE
8
0
6
CONTINUOUS
10
66.247735
20
-30.975330
30
0.0
11
66.247735
21
-29.575330
31
0.0
0
LINE
8
0
6
CONTINUOUS
10
66.151555
20
-29.678280
30
0.0
11
66.151555
21
-31.119450
31
0.0
0
LINE
8
0
6
CONTINUOUS
10
64.247745
20
-33.240050
30
0.0
11
65.959255
21
-33.240050
31
0.0
0
LINE
8
0
6
CONTINUOUS
10
65.959255
20
-33.240050
30
0.0
11
66.151555
21
-33.137110
31
0.0
0
LINE
8
0
6
CONTINUOUS
10
65.959255
20
-32.992980
30
0.0
11
65.959255
21
-33.240050
31
0.0
0
LINE
8
0
6
CONTINUOUS
10
65.959255
20
-32.292990
30
0.0
11
65.959255
21
-32.992980
31
0.0
0
LINE
8
0
6
CONTINUOUS
10
66.151555
20
-32.890050
30
0.0
11
66.151555
21
-32.210640
31
0.0
0
LINE
8
0
6
CONTINUOUS
10
65.959255
20
-31.181220
30
0.0
11
65.959255
21
-32.292990
31
0.0
0
LINE
8
0
6
CONTINUOUS
10
66.151555
20
-32.210640
30
0.0
11
66.151555
21
-31.119450
31
0.0
0
LINE
8
0
6
CONTINUOUS
10
66.151555
20
-33.137110
30
0.0
11
66.247735
21
-32.931230
31
0.0
0
LINE
8
0
6
CONTINUOUS
10
66.151555
20
-32.890050
30
0.0
11
66.151555
21
-33.137110
31
0.0
0
LINE
8
0
6
CONTINUOUS
10
66.247735
20
-32.931230
30
0.0
11
66.247735
21
-32.684160
31
0.0
0
LINE
8
0
6
CONTINUOUS
10
66.151555
20
-32.210640
30
0.0
11
66.151555
21
-32.890050
31
0.0
0
LINE
8
0
6
CONTINUOUS
10
66.247735
20
-32.684160
30
0.0
11
66.247735
21
-32.025330
31
0.0
0
LINE
8
0
6
CONTINUOUS
10
66.151555
20
-31.119450
30
0.0
11
66.151555
21
-32.210640
31
0.0
0
LINE
8
0
6
CONTINUOUS
10
66.247735
20
-32.025330
30
0.0
11
66.247735
21
-30.975330
31
0.0
0
LINE
8
0
6
CONTINUOUS
10
65.959255
20
-19.240050
30
0.0
11
64.247755
21
-19.240050
31
0.0
0
LINE
8
0
6
CONTINUOUS
10
66.151555
20
-19.342950
30
0.0
11
65.959255
21
-19.240050
31
0.0
0
LINE
8
0
6
CONTINUOUS
10
66.151555
20
-19.590040
30
0.0
11
66.151555
21
-19.342950
31
0.0
0
LINE
8
0
6
CONTINUOUS
10
65.959255
20
-19.240050
30
0.0
11
65.959255
21
-19.487140
31
0.0
0
LINE
8
0
6
CONTINUOUS
10
66.151555
20
-20.269440
30
0.0
11
66.151555
21
-19.590040
31
0.0
0
LINE
8
0
6
CONTINUOUS
10
65.959255
20
-19.487140
30
0.0
11
65.959255
21
-20.187140
31
0.0
0
LINE
8
0
6
CONTINUOUS
10
66.151555
20
-21.360640
30
0.0
11
66.151555
21
-20.269440
31
0.0
0
LINE
8
0
6
CONTINUOUS
10
65.959255
20
-20.187140
30
0.0
11
65.959255
21
-21.298840
31
0.0
0
LINE
8
0
6
CONTINUOUS
10
66.247735
20
-19.548850
30
0.0
11
66.151555
21
-19.342950
31
0.0
0
LINE
8
0
6
CONTINUOUS
10
66.247735
20
-19.795940
30
0.0
11
66.247735
21
-19.548850
31
0.0
0
LINE
8
0
6
CONTINUOUS
10
66.151555
20
-19.342950
30
0.0
11
66.151555
21
-19.590040
31
0.0
0
LINE
8
0
6
CONTINUOUS
10
66.247735
20
-20.454740
30
0.0
11
66.247735
21
-19.795940
31
0.0
0
LINE
8
0
6
CONTINUOUS
10
66.151555
20
-19.590040
30
0.0
11
66.151555
21
-20.269440
31
0.0
0
LINE
8
0
6
CONTINUOUS
10
66.247735
20
-21.504740
30
0.0
11
66.247735
21
-20.454740
31
0.0
0
LINE
8
0
6
CONTINUOUS
10
66.151555
20
-20.269440
30
0.0
11
66.151555
21
-21.360640
31
0.0
0
LINE
8
0
6
CONTINUOUS
10
66.247755
20
-28.000010
30
0.0
11
66.247755
21
-26.270610
31
0.0
0
LINE
8
0
6
CONTINUOUS
10
64.247765
20
-35.000010
30
0.0
11
65.959275
21
-35.000010
31
0.0
0
LINE
8
0
6
CONTINUOUS
10
65.959275
20
-35.000010
30
0.0
11
66.151565
21
-34.897070
31
0.0
0
LINE
8
0
6
CONTINUOUS
10
65.959275
20
-34.752950
30
0.0
11
65.959275
21
-35.000010
31
0.0
0
LINE
8
0
6
CONTINUOUS
10
65.959275
20
-34.052950
30
0.0
11
65.959275
21
-34.752950
31
0.0
0
LINE
8
0
6
CONTINUOUS
10
66.151565
20
-34.650010
30
0.0
11
66.151565
21
-33.970600
31
0.0
0
LINE
8
0
6
CONTINUOUS
10
65.959275
20
-32.941190
30
0.0
11
65.959275
21
-34.052950
31
0.0
0
LINE
8
0
6
CONTINUOUS
10
66.151565
20
-33.970600
30
0.0
11
66.151565
21
-32.879420
31
0.0
0
LINE
8
0
6
CONTINUOUS
10
66.151565
20
-34.897070
30
0.0
11
66.247755
21
-34.691190
31
0.0
0
LINE
8
0
6
CONTINUOUS
10
66.151565
20
-34.650010
30
0.0
11
66.151565
21
-34.897070
31
0.0
0
LINE
8
0
6
CONTINUOUS
10
66.247755
20
-34.691190
30
0.0
11
66.247755
21
-34.444130
31
0.0
0
LINE
8
0
6
CONTINUOUS
10
66.151565
20
-33.970600
30
0.0
11
66.151565
21
-34.650010
31
0.0
0
LINE
8
0
6
CONTINUOUS
10
66.247755
20
-34.444130
30
0.0
11
66.247755
21
-33.785300
31
0.0
0
LINE
8
0
6
CONTINUOUS
10
66.151565
20
-32.879420
30
0.0
11
66.151565
21
-33.970600
31
0.0
0
LINE
8
0
6
CONTINUOUS
10
66.247755
20
-33.785300
30
0.0
11
66.247755
21
-32.735300
31
0.0
0
LINE
8
0
6
CONTINUOUS
10
59.247765
20
42.999990
30
0.0
11
57.536265
21
42.999990
31
0.0
0
LINE
8
0
6
CONTINUOUS
10
57.536265
20
42.999990
30
0.0
11
57.343965
21
42.897080
31
0.0
0
LINE
8
0
6
CONTINUOUS
10
57.536265
20
42.752890
30
0.0
11
57.536265
21
42.999990
31
0.0
0
LINE
8
0
6
CONTINUOUS
10
57.536265
20
42.052890
30
0.0
11
57.536265
21
42.752890
31
0.0
0
LINE
8
0
6
CONTINUOUS
10
57.343965
20
42.649990
30
0.0
11
57.343965
21
41.970590
31
0.0
0
LINE
8
0
6
CONTINUOUS
10
57.536265
20
40.941190
30
0.0
11
57.536265
21
42.052890
31
0.0
0
LINE
8
0
6
CONTINUOUS
10
57.343965
20
41.970590
30
0.0
11
57.343965
21
40.879390
31
0.0
0
LINE
8
0
6
CONTINUOUS
10
57.343965
20
42.897080
30
0.0
11
57.247785
21
42.691190
31
0.0
0
LINE
8
0
6
CONTINUOUS
10
57.343965
20
42.649990
30
0.0
11
57.343965
21
42.897080
31
0.0
0
LINE
8
0
6
CONTINUOUS
10
57.247785
20
42.691190
30
0.0
11
57.247785
21
42.444090
31
0.0
0
LINE
8
0
6
CONTINUOUS
10
57.343965
20
41.970590
30
0.0
11
57.343965
21
42.649990
31
0.0
0
LINE
8
0
6
CONTINUOUS
10
57.247785
20
42.444090
30
0.0
11
57.247785
21
41.785290
31
0.0
0
LINE
8
0
6
CONTINUOUS
10
57.343965
20
40.879390
30
0.0
11
57.343965
21
41.970590
31
0.0
0
LINE
8
0
6
CONTINUOUS
10
57.247785
20
41.785290
30
0.0
11
57.247785
21
40.735290
31
0.0
0
LINE
8
0
6
CONTINUOUS
10
65.959275
20
42.999990
30
0.0
11
64.247765
21
42.999990
31
0.0
0
LINE
8
0
6
CONTINUOUS
10
65.959275
20
42.999990
30
0.0
11
65.959275
21
42.752890
31
0.0
0
LINE
8
0
6
CONTINUOUS
10
66.151565
20
42.897080
30
0.0
11
65.959275
21
42.999990
31
0.0
0
LINE
8
0
6
CONTINUOUS
10
66.151565
20
41.970590
30
0.0
11
66.151565
21
42.649990
31
0.0
0
LINE
8
0
6
CONTINUOUS
10
65.959275
20
42.752890
30
0.0
11
65.959275
21
42.052890
31
0.0
0
LINE
8
0
6
CONTINUOUS
10
66.151565
20
40.879390
30
0.0
11
66.151565
21
41.970590
31
0.0
0
LINE
8
0
6
CONTINUOUS
10
65.959275
20
42.052890
30
0.0
11
65.959275
21
40.941190
31
0.0
0
LINE
8
0
6
CONTINUOUS
10
66.247755
20
42.444090
30
0.0
11
66.247755
21
42.691190
31
0.0
0
LINE
8
0
6
CONTINUOUS
10
66.151565
20
42.897080
30
0.0
11
66.151565
21
42.649990
31
0.0
0
LINE
8
0
6
CONTINUOUS
10
66.247755
20
42.691190
30
0.0
11
66.151565
21
42.897080
31
0.0
0
LINE
8
0
6
CONTINUOUS
10
66.247755
20
41.785290
30
0.0
11
66.247755
21
42.444090
31
0.0
0
LINE
8
0
6
CONTINUOUS
10
66.151565
20
42.649990
30
0.0
11
66.151565
21
41.970590
31
0.0
0
LINE
8
0
6
CONTINUOUS
10
66.247755
20
40.735290
30
0.0
11
66.247755
21
41.785290
31
0.0
0
LINE
8
0
6
CONTINUOUS
10
66.151565
20
41.970590
30
0.0
11
66.151565
21
40.879390
31
0.0
0
LINE
8
0
6
CONTINUOUS
10
57.536245
20
32.246880
30
0.0
11
57.536245
21
34.038080
31
0.0
0
LINE
8
0
6
CONTINUOUS
10
57.343945
20
34.038080
30
0.0
11
57.343945
21
32.267480
31
0.0
0
LINE
8
0
6
CONTINUOUS
10
57.536245
20
30.558680
30
0.0
11
57.536245
21
32.246880
31
0.0
0
LINE
8
0
6
CONTINUOUS
10
57.343945
20
32.267480
30
0.0
11
57.343945
21
30.599890
31
0.0
0
LINE
8
0
6
CONTINUOUS
10
57.536245
20
29.096890
30
0.0
11
57.536245
21
30.558680
31
0.0
0
LINE
8
0
6
CONTINUOUS
10
57.343945
20
30.599890
30
0.0
11
57.343945
21
29.158680
31
0.0
0
LINE
8
0
6
CONTINUOUS
10
57.343945
20
32.267480
30
0.0
11
57.343945
21
34.038080
31
0.0
0
LINE
8
0
6
CONTINUOUS
10
57.247765
20
34.038080
30
0.0
11
57.247765
21
32.308680
31
0.0
0
LINE
8
0
6
CONTINUOUS
10
57.343945
20
30.599890
30
0.0
11
57.343945
21
32.267480
31
0.0
0
LINE
8
0
6
CONTINUOUS
10
57.247765
20
32.308680
30
0.0
11
57.247765
21
30.702780
31
0.0
0
LINE
8
0
6
CONTINUOUS
10
57.343945
20
29.158680
30
0.0
11
57.343945
21
30.599890
31
0.0
0
LINE
8
0
6
CONTINUOUS
10
57.247765
20
30.702780
30
0.0
11
57.247765
21
29.302780
31
0.0
0
LINE
8
0
6
CONTINUOUS
10
57.343945
20
35.808680
30
0.0
11
57.343945
21
34.038080
31
0.0
0
LINE
8
0
6
CONTINUOUS
10
57.536245
20
34.038080
30
0.0
11
57.536245
21
35.829280
31
0.0
0
LINE
8
0
6
CONTINUOUS
10
57.343945
20
37.476280
30
0.0
11
57.343945
21
35.808680
31
0.0
0
LINE
8
0
6
CONTINUOUS
10
57.536245
20
35.829280
30
0.0
11
57.536245
21
37.517490
31
0.0
0
LINE
8
0
6
CONTINUOUS
10
57.343945
20
38.917480
30
0.0
11
57.343945
21
37.476280
31
0.0
0
LINE
8
0
6
CONTINUOUS
10
57.536245
20
37.517490
30
0.0
11
57.536245
21
38.979280
31
0.0
0
LINE
8
0
6
CONTINUOUS
10
57.247765
20
35.767480
30
0.0
11
57.247765
21
34.038080
31
0.0
0
LINE
8
0
6
CONTINUOUS
10
57.343945
20
34.038080
30
0.0
11
57.343945
21
35.808680
31
0.0
0
LINE
8
0
6
CONTINUOUS
10
57.247765
20
37.373390
30
0.0
11
57.247765
21
35.767480
31
0.0
0
LINE
8
0
6
CONTINUOUS
10
57.343945
20
35.808680
30
0.0
11
57.343945
21
37.476280
31
0.0
0
LINE
8
0
6
CONTINUOUS
10
57.247765
20
38.773380
30
0.0
11
57.247765
21
37.373390
31
0.0
0
LINE
8
0
6
CONTINUOUS
10
57.343945
20
37.476280
30
0.0
11
57.343945
21
38.917480
31
0.0
0
LINE
8
0
6
CONTINUOUS
10
59.247745
20
41.038070
30
0.0
11
57.536245
21
41.038070
31
0.0
0
LINE
8
0
6
CONTINUOUS
10
57.536245
20
41.038070
30
0.0
11
57.343945
21
40.935170
31
0.0
0
LINE
8
0
6
CONTINUOUS
10
57.536245
20
40.790980
30
0.0
11
57.536245
21
41.038070
31
0.0
0
LINE
8
0
6
CONTINUOUS
10
57.536245
20
40.090980
30
0.0
11
57.536245
21
40.790980
31
0.0
0
LINE
8
0
6
CONTINUOUS
10
57.343945
20
40.688080
30
0.0
11
57.343945
21
40.008680
31
0.0
0
LINE
8
0
6
CONTINUOUS
10
57.536245
20
38.979280
30
0.0
11
57.536245
21
40.090980
31
0.0
0
LINE
8
0
6
CONTINUOUS
10
57.343945
20
40.008680
30
0.0
11
57.343945
21
38.917480
31
0.0
0
LINE
8
0
6
CONTINUOUS
10
57.343945
20
40.935170
30
0.0
11
57.247765
21
40.729280
31
0.0
0
LINE
8
0
6
CONTINUOUS
10
57.343945
20
40.688080
30
0.0
11
57.343945
21
40.935170
31
0.0
0
LINE
8
0
6
CONTINUOUS
10
57.247765
20
40.729280
30
0.0
11
57.247765
21
40.482180
31
0.0
0
LINE
8
0
6
CONTINUOUS
10
57.343945
20
40.008680
30
0.0
11
57.343945
21
40.688080
31
0.0
0
LINE
8
0
6
CONTINUOUS
10
57.247765
20
40.482180
30
0.0
11
57.247765
21
39.823380
31
0.0
0
LINE
8
0
6
CONTINUOUS
10
57.343945
20
38.917480
30
0.0
11
57.343945
21
40.008680
31
0.0
0
LINE
8
0
6
CONTINUOUS
10
57.247765
20
39.823380
30
0.0
11
57.247765
21
38.773380
31
0.0
0
LINE
8
0
6
CONTINUOUS
10
57.536245
20
27.038080
30
0.0
11
59.247745
21
27.038080
31
0.0
0
LINE
8
0
6
CONTINUOUS
10
57.343945
20
27.140980
30
0.0
11
57.536245
21
27.038080
31
0.0
0
LINE
8
0
6
CONTINUOUS
10
57.343945
20
27.388080
30
0.0
11
57.343945
21
27.140980
31
0.0
0
LINE
8
0
6
CONTINUOUS
10
57.536245
20
27.038080
30
0.0
11
57.536245
21
27.285180
31
0.0
0
LINE
8
0
6
CONTINUOUS
10
57.343945
20
28.067480
30
0.0
11
57.343945
21
27.388080
31
0.0
0
LINE
8
0
6
CONTINUOUS
10
57.536245
20
27.285180
30
0.0
11
57.536245
21
27.985180
31
0.0
0
LINE
8
0
6
CONTINUOUS
10
57.343945
20
29.158680
30
0.0
11
57.343945
21
28.067480
31
0.0
0
LINE
8
0
6
CONTINUOUS
10
57.536245
20
27.985180
30
0.0
11
57.536245
21
29.096890
31
0.0
0
LINE
8
0
6
CONTINUOUS
10
57.247765
20
27.346880
30
0.0
11
57.343945
21
27.140980
31
0.0
0
LINE
8
0
6
CONTINUOUS
10
57.247765
20
27.593980
30
0.0
11
57.247765
21
27.346880
31
0.0
0
LINE
8
0
6
CONTINUOUS
10
57.343945
20
27.140980
30
0.0
11
57.343945
21
27.388080
31
0.0
0
LINE
8
0
6
CONTINUOUS
10
57.247765
20
28.252780
30
0.0
11
57.247765
21
27.593980
31
0.0
0
LINE
8
0
6
CONTINUOUS
10
57.343945
20
27.388080
30
0.0
11
57.343945
21
28.067480
31
0.0
0
LINE
8
0
6
CONTINUOUS
10
57.247765
20
29.302780
30
0.0
11
57.247765
21
28.252780
31
0.0
0
LINE
8
0
6
CONTINUOUS
10
57.343945
20
28.067480
30
0.0
11
57.343945
21
29.158680
31
0.0
0
LINE
8
0
6
CONTINUOUS
10
66.151555
20
32.267480
30
0.0
11
66.151555
21
34.038080
31
0.0
0
LINE
8
0
6
CONTINUOUS
10
65.959255
20
34.038080
30
0.0
11
65.959255
21
32.246880
31
0.0
0
LINE
8
0
6
CONTINUOUS
10
66.151555
20
30.599890
30
0.0
11
66.151555
21
32.267480
31
0.0
0
LINE
8
0
6
CONTINUOUS
10
65.959255
20
32.246880
30
0.0
11
65.959255
21
30.558680
31
0.0
0
LINE
8
0
6
CONTINUOUS
10
66.151555
20
29.158680
30
0.0
11
66.151555
21
30.599890
31
0.0
0
LINE
8
0
6
CONTINUOUS
10
65.959255
20
30.558680
30
0.0
11
65.959255
21
29.096890
31
0.0
0
LINE
8
0
6
CONTINUOUS
10
66.247735
20
32.308680
30
0.0
11
66.247735
21
34.038080
31
0.0
0
LINE
8
0
6
CONTINUOUS
10
66.151555
20
34.038080
30
0.0
11
66.151555
21
32.267480
31
0.0
0
LINE
8
0
6
CONTINUOUS
10
66.247735
20
30.702780
30
0.0
11
66.247735
21
32.308680
31
0.0
0
LINE
8
0
6
CONTINUOUS
10
66.151555
20
32.267480
30
0.0
11
66.151555
21
30.599890
31
0.0
0
LINE
8
0
6
CONTINUOUS
10
66.247735
20
29.302780
30
0.0
11
66.247735
21
30.702780
31
0.0
0
LINE
8
0
6
CONTINUOUS
10
66.151555
20
30.599890
30
0.0
11
66.151555
21
29.158680
31
0.0
0
LINE
8
0
6
CONTINUOUS
10
65.959255
20
35.829280
30
0.0
11
65.959255
21
34.038080
31
0.0
0
LINE
8
0
6
CONTINUOUS
10
66.151555
20
34.038080
30
0.0
11
66.151555
21
35.808680
31
0.0
0
LINE
8
0
6
CONTINUOUS
10
65.959255
20
37.517490
30
0.0
11
65.959255
21
35.829280
31
0.0
0
LINE
8
0
6
CONTINUOUS
10
66.151555
20
35.808680
30
0.0
11
66.151555
21
37.476280
31
0.0
0
LINE
8
0
6
CONTINUOUS
10
65.959255
20
38.979280
30
0.0
11
65.959255
21
37.517490
31
0.0
0
LINE
8
0
6
CONTINUOUS
10
66.151555
20
37.476280
30
0.0
11
66.151555
21
38.917480
31
0.0
0
LINE
8
0
6
CONTINUOUS
10
66.151555
20
35.808680
30
0.0
11
66.151555
21
34.038080
31
0.0
0
LINE
8
0
6
CONTINUOUS
10
66.247735
20
34.038080
30
0.0
11
66.247735
21
35.767480
31
0.0
0
LINE
8
0
6
CONTINUOUS
10
66.151555
20
37.476280
30
0.0
11
66.151555
21
35.808680
31
0.0
0
LINE
8
0
6
CONTINUOUS
10
66.247735
20
35.767480
30
0.0
11
66.247735
21
37.373390
31
0.0
0
LINE
8
0
6
CONTINUOUS
10
66.151555
20
38.917480
30
0.0
11
66.151555
21
37.476280
31
0.0
0
LINE
8
0
6
CONTINUOUS
10
66.247735
20
37.373390
30
0.0
11
66.247735
21
38.773380
31
0.0
0
LINE
8
0
6
CONTINUOUS
10
65.959255
20
41.038070
30
0.0
11
64.247757
21
41.038070
31
0.0
0
LINE
8
0
6
CONTINUOUS
10
65.959255
20
41.038070
30
0.0
11
65.959255
21
40.790980
31
0.0
0
LINE
8
0
6
CONTINUOUS
10
66.151555
20
40.935170
30
0.0
11
65.959255
21
41.038070
31
0.0
0
LINE
8
0
6
CONTINUOUS
10
66.151555
20
40.008680
30
0.0
11
66.151555
21
40.688080
31
0.0
0
LINE
8
0
6
CONTINUOUS
10
65.959255
20
40.790980
30
0.0
11
65.959255
21
40.090980
31
0.0
0
LINE
8
0
6
CONTINUOUS
10
66.151555
20
38.917480
30
0.0
11
66.151555
21
40.008680
31
0.0
0
LINE
8
0
6
CONTINUOUS
10
65.959255
20
40.090980
30
0.0
11
65.959255
21
38.979280
31
0.0
0
LINE
8
0
6
CONTINUOUS
10
66.247735
20
40.482180
30
0.0
11
66.247735
21
40.729280
31
0.0
0
LINE
8
0
6
CONTINUOUS
10
66.151555
20
40.935170
30
0.0
11
66.151555
21
40.688080
31
0.0
0
LINE
8
0
6
CONTINUOUS
10
66.247735
20
40.729280
30
0.0
11
66.151555
21
40.935170
31
0.0
0
LINE
8
0
6
CONTINUOUS
10
66.247735
20
39.823380
30
0.0
11
66.247735
21
40.482180
31
0.0
0
LINE
8
0
6
CONTINUOUS
10
66.151555
20
40.688080
30
0.0
11
66.151555
21
40.008680
31
0.0
0
LINE
8
0
6
CONTINUOUS
10
66.247735
20
38.773380
30
0.0
11
66.247735
21
39.823380
31
0.0
0
LINE
8
0
6
CONTINUOUS
10
66.151555
20
40.008680
30
0.0
11
66.151555
21
38.917480
31
0.0
0
LINE
8
0
6
CONTINUOUS
10
64.247745
20
27.038080
30
0.0
11
65.959255
21
27.038080
31
0.0
0
LINE
8
0
6
CONTINUOUS
10
65.959255
20
27.285180
30
0.0
11
65.959255
21
27.038080
31
0.0
0
LINE
8
0
6
CONTINUOUS
10
66.151555
20
27.140980
30
0.0
11
66.151555
21
27.388080
31
0.0
0
LINE
8
0
6
CONTINUOUS
10
65.959255
20
27.038080
30
0.0
11
66.151555
21
27.140980
31
0.0
0
LINE
8
0
6
CONTINUOUS
10
65.959255
20
27.985180
30
0.0
11
65.959255
21
27.285180
31
0.0
0
LINE
8
0
6
CONTINUOUS
10
66.151555
20
27.388080
30
0.0
11
66.151555
21
28.067480
31
0.0
0
LINE
8
0
6
CONTINUOUS
10
65.959255
20
29.096890
30
0.0
11
65.959255
21
27.985180
31
0.0
0
LINE
8
0
6
CONTINUOUS
10
66.151555
20
28.067480
30
0.0
11
66.151555
21
29.158680
31
0.0
0
LINE
8
0
6
CONTINUOUS
10
66.151555
20
27.388080
30
0.0
11
66.151555
21
27.140980
31
0.0
0
LINE
8
0
6
CONTINUOUS
10
66.247735
20
27.346880
30
0.0
11
66.247735
21
27.593980
31
0.0
0
LINE
8
0
6
CONTINUOUS
10
66.151555
20
27.140980
30
0.0
11
66.247735
21
27.346880
31
0.0
0
LINE
8
0
6
CONTINUOUS
10
66.151555
20
28.067480
30
0.0
11
66.151555
21
27.388080
31
0.0
0
LINE
8
0
6
CONTINUOUS
10
66.247735
20
27.593980
30
0.0
11
66.247735
21
28.252780
31
0.0
0
LINE
8
0
6
CONTINUOUS
10
66.151555
20
29.158680
30
0.0
11
66.151555
21
28.067480
31
0.0
0
LINE
8
0
6
CONTINUOUS
10
66.247735
20
28.252780
30
0.0
11
66.247735
21
29.302780
31
0.0
0
LINE
8
0
6
CONTINUOUS
10
59.613955
20
4.859580
30
0.0
11
58.527655
21
10.320810
31
0.0
0
LINE
8
0
6
CONTINUOUS
10
51.541785
20
7.427170
30
0.0
11
52.052495
21
4.859590
31
0.0
0
LINE
8
0
6
CONTINUOUS
10
58.527655
20
10.320810
30
0.0
11
55.434125
21
14.950620
31
0.0
0
LINE
8
0
6
CONTINUOUS
10
50.087365
20
9.603860
30
0.0
11
51.541785
21
7.427170
31
0.0
0
LINE
8
0
6
CONTINUOUS
10
58.527655
20
-0.601650
30
0.0
11
59.613955
21
4.859580
31
0.0
0
LINE
8
0
6
CONTINUOUS
10
52.052495
20
4.859590
30
0.0
11
51.541785
21
2.292000
31
0.0
0
LINE
8
0
6
CONTINUOUS
10
45.343095
20
19.130470
30
0.0
11
39.881865
21
18.044170
31
0.0
0
LINE
8
0
6
CONTINUOUS
10
42.775505
20
11.058290
30
0.0
11
45.343085
21
11.569020
31
0.0
0
LINE
8
0
6
CONTINUOUS
10
31.072205
20
4.859600
30
0.0
11
32.158505
21
-0.601630
31
0.0
0
LINE
8
0
6
CONTINUOUS
10
39.144385
20
2.292010
30
0.0
11
38.633655
21
4.859600
31
0.0
0
LINE
8
0
6
CONTINUOUS
10
45.343065
20
-9.411290
30
0.0
11
50.804285
21
-8.324990
31
0.0
0
LINE
8
0
6
CONTINUOUS
10
47.910655
20
-1.339110
30
0.0
11
45.359765
21
-1.846508
31
0.0
0
LINE
8
0
6
CONTINUOUS
10
55.434105
20
-5.231450
30
0.0
11
58.527655
21
-0.601650
31
0.0
0
LINE
8
0
6
CONTINUOUS
10
51.541785
20
2.292000
30
0.0
11
50.087365
21
0.115310
31
0.0
0
LINE
8
0
6
CONTINUOUS
10
50.804285
20
-8.324990
30
0.0
11
55.434105
21
-5.231450
31
0.0
0
LINE
8
0
6
CONTINUOUS
10
50.087365
20
0.115310
30
0.0
11
47.910655
21
-1.339110
31
0.0
0
LINE
8
0
6
CONTINUOUS
10
39.881845
20
-8.324980
30
0.0
11
45.343065
21
-9.411290
31
0.0
0
LINE
8
0
6
CONTINUOUS
10
45.343065
20
-1.849830
30
0.0
11
42.775505
21
-1.339110
31
0.0
0
LINE
8
0
6
CONTINUOUS
10
35.252045
20
-5.231440
30
0.0
11
39.881845
21
-8.324980
31
0.0
0
LINE
8
0
6
CONTINUOUS
10
42.775505
20
-1.339110
30
0.0
11
40.598815
21
0.115320
31
0.0
0
LINE
8
0
6
CONTINUOUS
10
32.158505
20
-0.601630
30
0.0
11
35.252045
21
-5.231440
31
0.0
0
LINE
8
0
6
CONTINUOUS
10
40.598815
20
0.115320
30
0.0
11
39.144385
21
2.292010
31
0.0
0
LINE
8
0
6
CONTINUOUS
10
32.158505
20
10.320830
30
0.0
11
31.072205
21
4.859600
31
0.0
0
LINE
8
0
6
CONTINUOUS
10
38.633655
20
4.859600
30
0.0
11
39.144385
21
7.427180
31
0.0
0
LINE
8
0
6
CONTINUOUS
10
35.252065
20
14.950630
30
0.0
11
32.158505
21
10.320830
31
0.0
0
LINE
8
0
6
CONTINUOUS
10
39.144385
20
7.427180
30
0.0
11
40.598815
21
9.603870
31
0.0
0
LINE
8
0
6
CONTINUOUS
10
39.881865
20
18.044170
30
0.0
11
35.252065
21
14.950630
31
0.0
0
LINE
8
0
6
CONTINUOUS
10
40.598815
20
9.603870
30
0.0
11
42.775505
21
11.058290
31
0.0
0
LINE
8
0
6
CONTINUOUS
10
50.804305
20
18.044160
30
0.0
11
45.343095
21
19.130470
31
0.0
0
LINE
8
0
6
CONTINUOUS
10
45.343085
20
11.569020
30
0.0
11
47.910655
21
11.058290
31
0.0
0
LINE
8
0
6
CONTINUOUS
10
55.434125
20
14.950620
30
0.0
11
50.804305
21
18.044160
31
0.0
0
LINE
8
0
6
CONTINUOUS
10
47.910655
20
11.058290
30
0.0
11
50.087365
21
9.603860
31
0.0
0
LINE
8
0
6
CONTINUOUS
10
55.434105
20
-5.231450
30
0.0
11
50.804285
21
-8.324990
31
0.0
0
LINE
8
0
6
CONTINUOUS
10
51.320695
20
-9.571700
30
0.0
11
56.388305
21
-6.185640
31
0.0
0
LINE
8
0
6
CONTINUOUS
10
50.804305
20
18.044160
30
0.0
11
55.434125
21
14.950620
31
0.0
0
LINE
8
0
6
CONTINUOUS
10
56.388315
20
15.904810
30
0.0
11
51.320705
21
19.290870
31
0.0
0
LINE
8
0
6
CONTINUOUS
10
58.527655
20
10.320810
30
0.0
11
59.613955
21
4.859580
31
0.0
0
LINE
8
0
6
CONTINUOUS
10
60.963385
20
4.859580
30
0.0
11
59.774365
21
10.837210
31
0.0
0
LINE
8
0
6
CONTINUOUS
10
31.072205
20
4.859600
30
0.0
11
32.158505
21
10.320830
31
0.0
0
LINE
8
0
6
CONTINUOUS
10
30.911785
20
10.837230
30
0.0
11
29.722775
21
4.859600
31
0.0
0
LINE
8
0
6
CONTINUOUS
10
55.434125
20
14.950620
30
0.0
11
58.527655
21
10.320810
31
0.0
0
LINE
8
0
6
CONTINUOUS
10
59.774365
20
10.837210
30
0.0
11
56.395755
21
15.893675
31
0.0
0
LINE
8
0
6
CONTINUOUS
10
59.613955
20
4.859580
30
0.0
11
58.527655
21
-0.601650
31
0.0
0
LINE
8
0
6
CONTINUOUS
10
59.774365
20
-1.118050
30
0.0
11
60.963385
21
4.859580
31
0.0
0
LINE
8
0
6
CONTINUOUS
10
32.158505
20
10.320830
30
0.0
11
35.252065
21
14.950630
31
0.0
0
LINE
8
0
6
CONTINUOUS
10
34.297865
20
15.904830
30
0.0
11
30.911785
21
10.837230
31
0.0
0
LINE
8
0
6
CONTINUOUS
10
45.343065
20
-9.411290
30
0.0
11
39.881845
21
-8.324980
31
0.0
0
LINE
8
0
6
CONTINUOUS
10
39.365445
20
-9.571690
30
0.0
11
45.343065
21
-10.760720
31
0.0
0
LINE
8
0
6
CONTINUOUS
10
39.881865
20
18.044170
30
0.0
11
45.343095
21
19.130470
31
0.0
0
LINE
8
0
6
CONTINUOUS
10
45.343095
20
20.479900
30
0.0
11
39.365465
21
19.290880
31
0.0
0
LINE
8
0
6
CONTINUOUS
10
35.252065
20
14.950630
30
0.0
11
39.881865
21
18.044170
31
0.0
0
LINE
8
0
6
CONTINUOUS
10
39.365465
20
19.290880
30
0.0
11
34.297865
21
15.904830
31
0.0
0
LINE
8
0
6
CONTINUOUS
10
39.881845
20
-8.324980
30
0.0
11
35.252045
21
-5.231440
31
0.0
0
LINE
8
0
6
CONTINUOUS
10
34.297845
20
-6.185630
30
0.0
11
39.365445
21
-9.571690
31
0.0
0
LINE
8
0
6
CONTINUOUS
10
32.158505
20
-0.601630
30
0.0
11
31.072205
21
4.859600
31
0.0
0
LINE
8
0
6
CONTINUOUS
10
29.722775
20
4.859600
30
0.0
11
30.911795
21
-1.118030
31
0.0
0
LINE
8
0
6
CONTINUOUS
10
50.804285
20
-8.324990
30
0.0
11
45.343065
21
-9.411290
31
0.0
0
LINE
8
0
6
CONTINUOUS
10
45.343065
20
-10.760720
30
0.0
11
51.281505
21
-9.579495
31
0.0
0
LINE
8
0
6
CONTINUOUS
10
45.343095
20
19.130470
30
0.0
11
50.804305
21
18.044160
31
0.0
0
LINE
8
0
6
CONTINUOUS
10
51.320705
20
19.290870
30
0.0
11
45.343095
21
20.479900
31
0.0
0
LINE
8
0
6
CONTINUOUS
10
35.252045
20
-5.231440
30
0.0
11
32.158505
21
-0.601630
31
0.0
0
LINE
8
0
6
CONTINUOUS
10
30.911795
20
-1.118030
30
0.0
11
34.297845
21
-6.185630
31
0.0
0
LINE
8
0
6
CONTINUOUS
10
58.527655
20
-0.601650
30
0.0
11
55.434105
21
-5.231450
31
0.0
0
LINE
8
0
6
CONTINUOUS
10
56.388305
20
-6.185640
30
0.0
11
59.774365
21
-1.118050
31
0.0
0
LINE
8
0
6
CONTINUOUS
10
56.388305
20
-6.185640
30
0.0
11
51.320695
21
-9.571700
31
0.0
0
LINE
8
0
6
CONTINUOUS
10
54.292205
20
-16.745550
30
0.0
11
61.878915
21
-11.676270
31
0.0
0
LINE
8
0
6
CONTINUOUS
10
34.297845
20
-6.185630
30
0.0
11
30.911795
21
-1.118030
31
0.0
0
LINE
8
0
6
CONTINUOUS
10
23.737945
20
-4.089530
30
0.0
11
28.807215
21
-11.676250
31
0.0
0
LINE
8
0
6
CONTINUOUS
10
34.297865
20
15.904830
30
0.0
11
39.365465
21
19.290880
31
0.0
0
LINE
8
0
6
CONTINUOUS
10
36.393955
20
26.464730
30
0.0
11
28.807235
21
21.395450
31
0.0
0
LINE
8
0
6
CONTINUOUS
10
56.388315
20
15.904810
30
0.0
11
59.774365
21
10.837210
31
0.0
0
LINE
8
0
6
CONTINUOUS
10
66.948215
20
13.808710
30
0.0
11
61.878935
21
21.395430
31
0.0
0
LINE
8
0
6
CONTINUOUS
10
59.774365
20
-1.118050
30
0.0
11
56.395755
21
-6.174490
31
0.0
0
LINE
8
0
6
CONTINUOUS
10
61.878915
20
-11.676270
30
0.0
11
66.948195
21
-4.089560
31
0.0
0
LINE
8
0
6
CONTINUOUS
10
39.365445
20
-9.571690
30
0.0
11
34.297845
21
-6.185630
31
0.0
0
LINE
8
0
6
CONTINUOUS
10
28.807215
20
-11.676250
30
0.0
11
36.393925
21
-16.745530
31
0.0
0
LINE
8
0
6
CONTINUOUS
10
30.911785
20
10.837230
30
0.0
11
34.297865
21
15.904830
31
0.0
0
LINE
8
0
6
CONTINUOUS
10
28.807235
20
21.395450
30
0.0
11
23.737965
21
13.808740
31
0.0
0
LINE
8
0
6
CONTINUOUS
10
51.320705
20
19.290870
30
0.0
11
56.388315
21
15.904810
31
0.0
0
LINE
8
0
6
CONTINUOUS
10
61.878935
20
21.395430
30
0.0
11
54.292225
21
26.464720
31
0.0
0
LINE
8
0
6
CONTINUOUS
10
59.774365
20
10.837210
30
0.0
11
60.963385
21
4.859580
31
0.0
0
LINE
8
0
6
CONTINUOUS
10
68.728315
20
4.859580
30
0.0
11
66.948215
21
13.808710
31
0.0
0
LINE
8
0
6
CONTINUOUS
10
39.365465
20
19.290880
30
0.0
11
45.343095
21
20.479900
31
0.0
0
LINE
8
0
6
CONTINUOUS
10
45.343105
20
28.244820
30
0.0
11
36.393955
21
26.464730
31
0.0
0
LINE
8
0
6
CONTINUOUS
10
30.911795
20
-1.118030
30
0.0
11
29.722775
21
4.859600
31
0.0
0
LINE
8
0
6
CONTINUOUS
10
21.957865
20
4.859610
30
0.0
11
23.737945
21
-4.089530
31
0.0
0
LINE
8
0
6
CONTINUOUS
10
51.320695
20
-9.571700
30
0.0
11
45.343065
21
-10.760720
31
0.0
0
LINE
8
0
6
CONTINUOUS
10
45.343065
20
-18.525630
30
0.0
11
54.292205
21
-16.745550
31
0.0
0
LINE
8
0
6
CONTINUOUS
10
45.343095
20
20.479900
30
0.0
11
51.320705
21
19.290870
31
0.0
0
LINE
8
0
6
CONTINUOUS
10
54.292225
20
26.464720
30
0.0
11
45.343105
21
28.244820
31
0.0
0
LINE
8
0
6
CONTINUOUS
10
29.722775
20
4.859600
30
0.0
11
30.911785
21
10.837230
31
0.0
0
LINE
8
0
6
CONTINUOUS
10
23.737965
20
13.808740
30
0.0
11
21.957865
21
4.859610
31
0.0
0
LINE
8
0
6
CONTINUOUS
10
45.343065
20
-10.760720
30
0.0
11
39.365445
21
-9.571690
31
0.0
0
LINE
8
0
6
CONTINUOUS
10
36.393925
20
-16.745530
30
0.0
11
45.343065
21
-18.525630
31
0.0
0
LINE
8
0
6
CONTINUOUS
10
60.963385
20
4.859580
30
0.0
11
59.774365
21
-1.118050
31
0.0
0
LINE
8
0
6
CONTINUOUS
10
66.948195
20
-4.089560
30
0.0
11
68.728315
21
4.859580
31
0.0
0
LINE
8
0
6
CONTINUOUS
10
-69.156905
20
-16.652410
30
0.0
11
-68.769435
21
-16.652410
31
0.0
0
LINE
8
0
6
CONTINUOUS
10
-69.156905
20
-15.953890
30
0.0
11
-69.156905
21
-16.652410
31
0.0
0
LINE
8
0
6
CONTINUOUS
10
-69.156905
20
-13.905940
30
0.0
11
-69.156905
21
-15.953890
31
0.0
0
LINE
8
0
6
CONTINUOUS
10
-69.156905
20
-10.648110
30
0.0
11
-69.156905
21
-13.905940
31
0.0
0
LINE
8
0
6
CONTINUOUS
10
-69.156905
20
-6.402410
30
0.0
11
-69.156905
21
-10.648110
31
0.0
0
LINE
8
0
6
CONTINUOUS
10
-69.156915
20
-1.458210
30
0.0
11
-69.156905
21
-6.402410
31
0.0
0
LINE
8
0
6
CONTINUOUS
10
-69.156915
20
3.847580
30
0.0
11
-69.156915
21
-1.458210
31
0.0
0
LINE
8
0
6
CONTINUOUS
10
-69.156915
20
9.153370
30
0.0
11
-69.156915
21
3.847580
31
0.0
0
LINE
8
0
6
CONTINUOUS
10
-69.156925
20
14.097580
30
0.0
11
-69.156915
21
9.153370
31
0.0
0
LINE
8
0
6
CONTINUOUS
10
-69.156925
20
18.343280
30
0.0
11
-69.156925
21
14.097580
31
0.0
0
LINE
8
0
6
CONTINUOUS
10
-69.156935
20
24.347600
30
0.0
11
-69.156935
21
23.649070
31
0.0
0
LINE
8
0
6
CONTINUOUS
10
-68.769455
20
24.347600
30
0.0
11
-69.156935
21
24.347600
31
0.0
0
LINE
8
0
6
CONTINUOUS
10
-69.156935
20
23.649070
30
0.0
11
-69.156935
21
21.601110
31
0.0
0
LINE
8
0
6
CONTINUOUS
10
-15.656955
20
13.446870
30
0.0
11
-15.656955
21
17.423010
31
0.0
0
LINE
8
0
6
CONTINUOUS
10
20.842975
20
12.894030
30
0.0
11
20.842975
21
16.641160
31
0.0
0
LINE
8
0
6
CONTINUOUS
10
-15.656945
20
-5.751630
30
0.0
11
-15.656945
21
-1.121320
31
0.0
0
LINE
8
0
6
CONTINUOUS
10
-15.656945
20
-15.350880
30
0.0
11
-15.656945
21
-14.696710
31
0.0
0
LINE
8
0
6
CONTINUOUS
10
-16.179115
20
-15.350880
30
0.0
11
-15.656945
21
-15.350880
31
0.0
0
LINE
8
0
6
CONTINUOUS
10
-15.656955
20
17.423010
30
0.0
11
-15.656965
21
20.474010
31
0.0
0
LINE
8
0
6
CONTINUOUS
10
-15.656945
20
-1.121320
30
0.0
11
-15.656945
21
3.847620
31
0.0
0
LINE
8
0
6
CONTINUOUS
10
-15.656945
20
-14.696710
30
0.0
11
-15.656945
21
-12.778770
31
0.0
0
LINE
8
0
6
CONTINUOUS
10
-15.656965
20
20.474010
30
0.0
11
-15.656965
21
22.391950
31
0.0
0
LINE
8
0
6
CONTINUOUS
10
-15.656945
20
3.847620
30
0.0
11
-15.656955
21
8.816550
31
0.0
0
LINE
8
0
6
CONTINUOUS
10
-15.656945
20
-12.778770
30
0.0
11
-15.656945
21
-9.727770
31
0.0
0
LINE
8
0
6
CONTINUOUS
10
-15.656975
20
23.046130
30
0.0
11
-16.179135
21
23.046130
31
0.0
0
LINE
8
0
6
CONTINUOUS
10
-15.656965
20
22.391950
30
0.0
11
-15.656975
21
23.046130
31
0.0
0
LINE
8
0
6
CONTINUOUS
10
-15.656955
20
8.816550
30
0.0
11
-15.656955
21
13.446870
31
0.0
0
LINE
8
0
6
CONTINUOUS
10
-15.656945
20
-9.727770
30
0.0
11
-15.656945
21
-5.751630
31
0.0
0
LINE
8
0
6
CONTINUOUS
10
20.842985
20
-14.245120
30
0.0
11
20.842985
21
-13.628630
31
0.0
0
LINE
8
0
6
CONTINUOUS
10
20.203005
20
-14.245120
30
0.0
11
20.842985
21
-14.245120
31
0.0
0
LINE
8
0
6
CONTINUOUS
10
20.842975
20
16.641160
30
0.0
11
20.842975
21
19.516440
31
0.0
0
LINE
8
0
6
CONTINUOUS
10
20.842985
20
-13.628630
30
0.0
11
20.842985
21
-11.821160
31
0.0
0
LINE
8
0
6
CONTINUOUS
10
20.842975
20
19.516440
30
0.0
11
20.842975
21
21.323920
31
0.0
0
LINE
8
0
6
CONTINUOUS
10
20.842975
20
4.000003
30
0.0
11
20.842975
21
8.530390
31
0.0
0
LINE
8
0
6
CONTINUOUS
10
20.842985
20
-11.821160
30
0.0
11
20.842985
21
-8.945880
31
0.0
0
LINE
8
0
6
CONTINUOUS
10
20.842975
20
21.940420
30
0.0
11
20.202985
21
21.940420
31
0.0
0
LINE
8
0
6
CONTINUOUS
10
20.842975
20
21.323920
30
0.0
11
20.842975
21
21.940420
31
0.0
0
LINE
8
0
6
CONTINUOUS
10
20.842975
20
8.530390
30
0.0
11
20.842975
21
12.894030
31
0.0
0
LINE
8
0
6
CONTINUOUS
10
20.842985
20
-8.945880
30
0.0
11
20.842985
21
-5.999900
31
0.0
0
LINE
8
0
6
CONTINUOUS
10
-69.156925
20
18.343280
30
0.0
11
-69.156935
21
21.601110
31
0.0
0
LINE
8
0
6
CONTINUOUS
10
-63.717275
20
-15.350910
30
0.0
11
-16.179115
21
-15.350880
31
0.0
0
LINE
8
0
6
CONTINUOUS
10
-16.179135
20
23.046130
30
0.0
11
-63.717295
21
23.046100
31
0.0
0
LINE
8
0
6
CONTINUOUS
10
-15.656945
20
-14.245150
30
0.0
11
-15.290285
21
-14.245150
31
0.0
0
LINE
8
0
6
CONTINUOUS
10
-15.290305
20
21.940400
30
0.0
11
-15.656975
21
21.940400
31
0.0
0
LINE
8
0
6
CONTINUOUS
10
-15.290285
20
-14.245150
30
0.0
11
20.203005
21
-14.245120
31
0.0
0
LINE
8
0
6
CONTINUOUS
10
20.202985
20
21.940420
30
0.0
11
-15.290305
21
21.940400
31
0.0
0
LINE
8
0
6
CONTINUOUS
10
-64.156955
20
-15.350910
30
0.0
11
-63.717275
21
-15.350910
31
0.0
0
LINE
8
0
6
CONTINUOUS
10
-63.717295
20
23.046100
30
0.0
11
-64.156975
21
23.046100
31
0.0
0
LINE
8
0
6
CONTINUOUS
10
-64.511475
20
-16.652410
30
0.0
11
-64.156955
21
-16.652410
31
0.0
0
LINE
8
0
6
CONTINUOUS
10
-64.156955
20
-16.652410
30
0.0
11
-64.156955
21
-15.953890
31
0.0
0
LINE
8
0
6
CONTINUOUS
10
-64.156955
20
-15.953890
30
0.0
11
-64.156955
21
-13.905930
31
0.0
0
LINE
8
0
6
CONTINUOUS
10
-64.156955
20
-13.905930
30
0.0
11
-64.156955
21
-10.648100
31
0.0
0
LINE
8
0
6
CONTINUOUS
10
-64.156955
20
-10.648100
30
0.0
11
-64.156945
21
-6.402410
31
0.0
0
LINE
8
0
6
CONTINUOUS
10
-64.156945
20
-6.402410
30
0.0
11
-64.156945
21
-1.458210
31
0.0
0
LINE
8
0
6
CONTINUOUS
10
-64.156945
20
-1.458210
30
0.0
11
-64.156945
21
3.847590
31
0.0
0
LINE
8
0
6
CONTINUOUS
10
-64.156945
20
3.847590
30
0.0
11
-64.156965
21
9.153370
31
0.0
0
LINE
8
0
6
CONTINUOUS
10
-64.156965
20
9.153370
30
0.0
11
-64.156965
21
14.097590
31
0.0
0
LINE
8
0
6
CONTINUOUS
10
-64.156965
20
14.097590
30
0.0
11
-64.156965
21
18.343280
31
0.0
0
LINE
8
0
6
CONTINUOUS
10
-64.156965
20
18.343280
30
0.0
11
-64.156975
21
21.601110
31
0.0
0
LINE
8
0
6
CONTINUOUS
10
-64.156975
20
24.347600
30
0.0
11
-64.511515
21
24.347600
31
0.0
0
LINE
8
0
6
CONTINUOUS
10
-64.156975
20
23.649070
30
0.0
11
-64.156975
21
24.347600
31
0.0
0
LINE
8
0
6
CONTINUOUS
10
-64.156975
20
21.601110
30
0.0
11
-64.156975
21
23.649070
31
0.0
0
LINE
8
0
6
CONTINUOUS
10
-68.769435
20
-16.652410
30
0.0
11
-64.511475
21
-16.652410
31
0.0
0
LINE
8
0
6
CONTINUOUS
10
-64.511515
20
24.347600
30
0.0
11
-68.769455
21
24.347600
31
0.0
0
LINE
8
0
6
CONTINUOUS
10
69.156925
20
3.999960
30
0.0
11
67.345465
21
13.106730
31
0.0
0
LINE
8
0
6
CONTINUOUS
10
64.247745
20
-9.742864
30
0.0
11
67.345445
21
-5.106820
31
0.0
0
LINE
8
0
6
CONTINUOUS
10
67.345465
20
13.106730
30
0.0
11
69.156925
21
3.999960
31
0.0
0
LINE
8
0
6
CONTINUOUS
10
67.345465
20
13.106730
30
0.0
11
66.978648
21
13.655714
31
0.0
0
LINE
8
0
6
CONTINUOUS
10
67.345445
20
-5.106820
30
0.0
11
69.156925
21
3.999960
31
0.0
0
LINE
8
0
6
CONTINUOUS
10
69.156925
20
3.999960
30
0.0
11
67.345445
21
-5.106820
31
0.0
0
LINE
8
0
6
CONTINUOUS
10
44.359755
20
-30.999970
30
0.0
11
40.007765
21
-30.999970
31
0.0
0
LINE
8
0
6
CONTINUOUS
10
40.007765
20
-30.999970
30
0.0
11
35.927765
21
-30.999970
31
0.0
0
LINE
8
0
6
CONTINUOUS
10
35.927765
20
-30.999970
30
0.0
11
32.323745
21
-30.999980
31
0.0
0
LINE
8
0
6
CONTINUOUS
10
29.603755
20
-30.999980
30
0.0
11
27.971765
21
-30.999980
31
0.0
0
LINE
8
0
6
CONTINUOUS
10
27.971765
20
-30.999980
30
0.0
11
27.359765
21
-30.999990
31
0.0
0
LINE
8
0
6
CONTINUOUS
10
44.359755
20
-30.999970
30
0.0
11
44.359755
21
-26.102530
31
0.0
0
LINE
8
0
6
CONTINUOUS
10
40.007765
20
-30.999970
30
0.0
11
44.359755
21
-30.999970
31
0.0
0
LINE
8
0
6
CONTINUOUS
10
35.927765
20
-30.999970
30
0.0
11
40.007765
21
-30.999970
31
0.0
0
LINE
8
0
6
CONTINUOUS
10
32.323745
20
-30.999980
30
0.0
11
35.927765
21
-30.999970
31
0.0
0
LINE
8
0
6
CONTINUOUS
10
29.603755
20
-30.999980
30
0.0
11
32.323745
21
-30.999980
31
0.0
0
LINE
8
0
6
CONTINUOUS
10
27.971765
20
-30.999980
30
0.0
11
29.603755
21
-30.999980
31
0.0
0
LINE
8
0
6
CONTINUOUS
10
27.359765
20
-30.999990
30
0.0
11
27.971765
21
-30.999980
31
0.0
0
LINE
8
0
6
CONTINUOUS
10
27.359765
20
-13.120030
30
0.0
11
27.359765
21
-30.999990
31
0.0
0
LINE
8
0
6
CONTINUOUS
10
44.359755
20
-26.102530
30
0.0
11
44.359755
21
-30.999970
31
0.0
0
LINE
8
0
6
CONTINUOUS
10
20.842985
20
-13.120030
30
0.0
11
27.359765
21
-13.120030
31
0.0
0
LINE
8
0
6
CONTINUOUS
10
27.359765
20
20.603320
30
0.0
11
20.842975
21
20.603320
31
0.0
0
LINE
8
0
6
CONTINUOUS
10
44.359755
20
33.845130
30
0.0
11
44.359755
21
39.000000
31
0.0
0
LINE
8
0
6
CONTINUOUS
10
44.359755
20
39.000030
30
0.0
11
40.007765
21
39.000030
31
0.0
0
LINE
8
0
6
CONTINUOUS
10
40.007765
20
39.000030
30
0.0
11
35.927765
21
39.000030
31
0.0
0
LINE
8
0
6
CONTINUOUS
10
35.927765
20
39.000030
30
0.0
11
32.323745
21
39.000030
31
0.0
0
LINE
8
0
6
CONTINUOUS
10
32.323745
20
39.000030
30
0.0
11
29.603755
21
39.000020
31
0.0
0
LINE
8
0
6
CONTINUOUS
10
29.603755
20
39.000020
30
0.0
11
27.971765
21
39.000020
31
0.0
0
LINE
8
0
6
CONTINUOUS
10
27.971765
20
39.000020
30
0.0
11
27.359765
21
39.000010
31
0.0
0
LINE
8
0
6
CONTINUOUS
10
27.359765
20
39.000010
30
0.0
11
27.359765
21
20.603320
31
0.0
0
LINE
8
0
6
CONTINUOUS
10
44.359755
20
39.000030
30
0.0
11
44.359755
21
33.845130
31
0.0
0
LINE
8
0
6
CONTINUOUS
10
64.247745
20
-35.880040
30
0.0
11
64.247755
21
-36.240050
31
0.0
0
LINE
8
0
6
CONTINUOUS
10
64.247745
20
-26.240040
30
0.0
11
64.247745
21
-28.800040
31
0.0
0
LINE
8
0
6
CONTINUOUS
10
59.247755
20
-36.240050
30
0.0
11
64.247755
21
-36.240050
31
0.0
0
LINE
8
0
6
CONTINUOUS
10
59.247745
20
-35.880040
30
0.0
11
59.247755
21
-36.240050
31
0.0
0
LINE
8
0
6
CONTINUOUS
10
64.247755
20
-36.240050
30
0.0
11
64.247745
21
-35.880040
31
0.0
0
LINE
8
0
6
CONTINUOUS
10
59.247745
20
-34.920040
30
0.0
11
59.247745
21
-35.880040
31
0.0
0
LINE
8
0
6
CONTINUOUS
10
64.247745
20
-35.880040
30
0.0
11
64.247745
21
-34.920040
31
0.0
0
LINE
8
0
6
CONTINUOUS
10
59.247745
20
-33.320040
30
0.0
11
59.247745
21
-34.920040
31
0.0
0
LINE
8
0
6
CONTINUOUS
10
64.247745
20
-34.920040
30
0.0
11
64.247745
21
-33.320040
31
0.0
0
LINE
8
0
6
CONTINUOUS
10
59.247745
20
-31.200040
30
0.0
11
59.247745
21
-33.320040
31
0.0
0
LINE
8
0
6
CONTINUOUS
10
64.247745
20
-33.320040
30
0.0
11
64.247745
21
-31.200040
31
0.0
0
LINE
8
0
6
CONTINUOUS
10
59.247745
20
-28.800040
30
0.0
11
59.247745
21
-31.200040
31
0.0
0
LINE
8
0
6
CONTINUOUS
10
64.247745
20
-31.200040
30
0.0
11
64.247745
21
-28.800040
31
0.0
0
LINE
8
0
6
CONTINUOUS
10
59.247745
20
-26.240040
30
0.0
11
59.247745
21
-28.800040
31
0.0
0
LINE
8
0
6
CONTINUOUS
10
64.247745
20
-28.800040
30
0.0
11
64.247745
21
-26.240040
31
0.0
0
LINE
8
0
6
CONTINUOUS
10
59.247745
20
-13.434362
30
0.0
11
59.247745
21
-26.240040
31
0.0
0
LINE
8
0
6
CONTINUOUS
10
64.247745
20
-26.240040
30
0.0
11
64.247745
21
-8.131067
31
0.0
0
LINE
8
0
6
CONTINUOUS
10
41.359755
20
-26.102530
30
0.0
11
51.359755
21
-26.102530
31
0.0
0
LINE
8
0
6
CONTINUOUS
10
41.359755
20
-25.886520
30
0.0
11
41.359755
21
-26.102530
31
0.0
0
LINE
8
0
6
CONTINUOUS
10
51.359755
20
-26.102530
30
0.0
11
51.359755
21
-25.886520
31
0.0
0
LINE
8
0
6
CONTINUOUS
10
41.359755
20
-25.310520
30
0.0
11
41.359755
21
-25.886520
31
0.0
0
LINE
8
0
6
CONTINUOUS
10
51.359755
20
-25.886520
30
0.0
11
51.359755
21
-25.310520
31
0.0
0
LINE
8
0
6
CONTINUOUS
10
41.359755
20
-24.350520
30
0.0
11
41.359755
21
-25.310520
31
0.0
0
LINE
8
0
6
CONTINUOUS
10
51.359755
20
-25.310520
30
0.0
11
51.359755
21
-24.350520
31
0.0
0
LINE
8
0
6
CONTINUOUS
10
41.359755
20
-23.078520
30
0.0
11
41.359755
21
-24.350520
31
0.0
0
LINE
8
0
6
CONTINUOUS
10
51.359755
20
-24.350520
30
0.0
11
51.359755
21
-23.078520
31
0.0
0
LINE
8
0
6
CONTINUOUS
10
41.359755
20
-21.638520
30
0.0
11
41.359755
21
-23.078520
31
0.0
0
LINE
8
0
6
CONTINUOUS
10
51.359755
20
-23.078520
30
0.0
11
51.359755
21
-21.638520
31
0.0
0
LINE
8
0
6
CONTINUOUS
10
41.359755
20
-20.102520
30
0.0
11
41.359755
21
-21.638520
31
0.0
0
LINE
8
0
6
CONTINUOUS
10
51.359755
20
-21.638520
30
0.0
11
51.359755
21
-20.102520
31
0.0
0
LINE
8
0
6
CONTINUOUS
10
64.843085
20
-19.000020
30
0.0
11
64.247755
21
-19.000020
31
0.0
0
LINE
8
0
6
CONTINUOUS
10
64.247745
20
-19.000020
30
0.0
11
64.843085
21
-19.000020
31
0.0
0
LINE
8
0
6
CONTINUOUS
10
64.843085
20
-11.000020
30
0.0
11
64.247755
21
-11.000020
31
0.0
0
LINE
8
0
6
CONTINUOUS
10
64.843085
20
-19.000020
30
0.0
11
64.843085
21
-11.000020
31
0.0
0
LINE
8
0
6
CONTINUOUS
10
59.247765
20
-38.000010
30
0.0
11
64.247765
21
-38.000010
31
0.0
0
LINE
8
0
6
CONTINUOUS
10
59.247765
20
-37.640010
30
0.0
11
59.247765
21
-38.000010
31
0.0
0
LINE
8
0
6
CONTINUOUS
10
64.247765
20
-38.000010
30
0.0
11
64.247765
21
-37.640010
31
0.0
0
LINE
8
0
6
CONTINUOUS
10
59.247763
20
-36.240050
30
0.0
11
59.247765
21
-37.640010
31
0.0
0
LINE
8
0
6
CONTINUOUS
10
51.359755
20
-18.566520
30
0.0
11
51.359755
21
-17.328846
31
0.0
0
LINE
8
0
6
CONTINUOUS
10
41.359755
20
-17.733298
30
0.0
11
41.359755
21
-18.566520
31
0.0
0
LINE
8
0
6
CONTINUOUS
10
51.359755
20
-20.102520
30
0.0
11
51.359755
21
-18.603721
31
0.0
0
LINE
8
0
6
CONTINUOUS
10
41.359755
20
-18.566520
30
0.0
11
41.359755
21
-20.102520
31
0.0
0
LINE
8
0
6
CONTINUOUS
10
44.359755
20
-26.102530
30
0.0
11
44.359755
21
-30.999970
31
0.0
0
LINE
8
0
6
CONTINUOUS
10
56.395755
20
-30.999970
30
0.0
11
56.395755
21
-15.340002
31
0.0
0
LINE
8
0
6
CONTINUOUS
10
44.359755
20
-30.999970
30
0.0
11
56.395745
21
-30.999970
31
0.0
0
LINE
8
0
6
CONTINUOUS
10
64.247765
20
45.999990
30
0.0
11
59.247765
21
45.999990
31
0.0
0
LINE
8
0
6
CONTINUOUS
10
64.247765
20
45.639990
30
0.0
11
64.247765
21
45.999990
31
0.0
0
LINE
8
0
6
CONTINUOUS
10
59.247765
20
45.999990
30
0.0
11
59.247765
21
45.639990
31
0.0
0
LINE
8
0
6
CONTINUOUS
10
59.247765
20
45.639990
30
0.0
11
59.247762
21
44.038080
31
0.0
0
LINE
8
0
6
CONTINUOUS
10
64.247745
20
26.999990
30
0.0
11
64.843085
21
26.999990
31
0.0
0
LINE
8
0
6
CONTINUOUS
10
64.843085
20
26.999990
30
0.0
11
64.247755
21
26.999990
31
0.0
0
LINE
8
0
6
CONTINUOUS
10
64.843085
20
18.999980
30
0.0
11
64.843085
21
26.999990
31
0.0
0
LINE
8
0
6
CONTINUOUS
10
64.247745
20
18.999980
30
0.0
11
64.843085
21
18.999980
31
0.0
0
LINE
8
0
6
CONTINUOUS
10
56.395755
20
25.059183
30
0.0
11
56.395755
21
39.000000
31
0.0
0
LINE
8
0
6
CONTINUOUS
10
44.359755
20
39.000030
30
0.0
11
44.359755
21
33.845130
31
0.0
0
LINE
8
0
6
CONTINUOUS
10
56.395755
20
39.000030
30
0.0
11
44.359755
21
39.000030
31
0.0
0
LINE
8
0
6
CONTINUOUS
10
41.359755
20
27.845140
30
0.0
11
41.359755
21
27.452485
31
0.0
0
LINE
8
0
6
CONTINUOUS
10
51.359755
20
27.048028
30
0.0
11
51.359755
21
27.845140
31
0.0
0
LINE
8
0
6
CONTINUOUS
10
64.247755
20
44.038080
30
0.0
11
64.247745
21
43.678080
31
0.0
0
LINE
8
0
6
CONTINUOUS
10
64.247755
20
44.038080
30
0.0
11
59.247762
21
44.038080
31
0.0
0
LINE
8
0
6
CONTINUOUS
10
64.247745
20
43.678080
30
0.0
11
64.247755
21
44.038080
31
0.0
0
LINE
8
0
6
CONTINUOUS
10
59.247755
20
44.038080
30
0.0
11
59.247745
21
43.678080
31
0.0
0
LINE
8
0
6
CONTINUOUS
10
64.247745
20
42.718080
30
0.0
11
64.247745
21
43.678080
31
0.0
0
LINE
8
0
6
CONTINUOUS
10
59.247745
20
43.678080
30
0.0
11
59.247745
21
42.718080
31
0.0
0
LINE
8
0
6
CONTINUOUS
10
64.247745
20
41.118090
30
0.0
11
64.247745
21
42.718080
31
0.0
0
LINE
8
0
6
CONTINUOUS
10
59.247745
20
42.718080
30
0.0
11
59.247745
21
41.118090
31
0.0
0
LINE
8
0
6
CONTINUOUS
10
64.247745
20
38.998090
30
0.0
11
64.247745
21
41.118090
31
0.0
0
LINE
8
0
6
CONTINUOUS
10
59.247745
20
41.118090
30
0.0
11
59.247745
21
38.998090
31
0.0
0
LINE
8
0
6
CONTINUOUS
10
64.247745
20
36.598080
30
0.0
11
64.247745
21
38.998090
31
0.0
0
LINE
8
0
6
CONTINUOUS
10
59.247745
20
38.998090
30
0.0
11
59.247745
21
36.598080
31
0.0
0
LINE
8
0
6
CONTINUOUS
10
64.247745
20
34.038090
30
0.0
11
64.247745
21
36.598080
31
0.0
0
LINE
8
0
6
CONTINUOUS
10
59.247745
20
36.598080
30
0.0
11
59.247745
21
34.038090
31
0.0
0
LINE
8
0
6
CONTINUOUS
10
64.247745
20
17.850252
30
0.0
11
64.247745
21
34.038090
31
0.0
0
LINE
8
0
6
CONTINUOUS
10
59.247745
20
34.038090
30
0.0
11
59.247745
21
23.153539
31
0.0
0
LINE
8
0
6
CONTINUOUS
10
51.359755
20
33.629130
30
0.0
11
51.359755
21
33.845130
31
0.0
0
LINE
8
0
6
CONTINUOUS
10
41.359755
20
33.845130
30
0.0
11
41.359755
21
33.629130
31
0.0
0
LINE
8
0
6
CONTINUOUS
10
51.359755
20
33.845130
30
0.0
11
41.359755
21
33.845130
31
0.0
0
LINE
8
0
6
CONTINUOUS
10
51.359755
20
33.053130
30
0.0
11
51.359755
21
33.629130
31
0.0
0
LINE
8
0
6
CONTINUOUS
10
41.359755
20
33.629130
30
0.0
11
41.359755
21
33.053130
31
0.0
0
LINE
8
0
6
CONTINUOUS
10
51.359755
20
32.093130
30
0.0
11
51.359755
21
33.053130
31
0.0
0
LINE
8
0
6
CONTINUOUS
10
41.359755
20
33.053130
30
0.0
11
41.359755
21
32.093130
31
0.0
0
LINE
8
0
6
CONTINUOUS
10
51.359755
20
30.821130
30
0.0
11
51.359755
21
32.093130
31
0.0
0
LINE
8
0
6
CONTINUOUS
10
41.359755
20
32.093130
30
0.0
11
41.359755
21
30.821130
31
0.0
0
LINE
8
0
6
CONTINUOUS
10
51.359755
20
29.381140
30
0.0
11
51.359755
21
30.821130
31
0.0
0
LINE
8
0
6
CONTINUOUS
10
41.359755
20
30.821130
30
0.0
11
41.359755
21
29.381140
31
0.0
0
LINE
8
0
6
CONTINUOUS
10
51.359755
20
27.845140
30
0.0
11
51.359755
21
29.381140
31
0.0
0
LINE
8
0
6
CONTINUOUS
10
41.359755
20
29.381140
30
0.0
11
41.359755
21
27.845140
31
0.0
0
LINE
8
0
6
CONTINUOUS
10
17.359765
20
4.000100
30
0.0
11
17.359765
21
-5.999900
31
0.0
0
LINE
8
0
6
CONTINUOUS
10
22.128831
20
4.000100
30
0.0
11
17.359765
21
4.000100
31
0.0
0
LINE
8
0
6
CONTINUOUS
10
17.359765
20
-5.999900
30
0.0
11
25.014410
21
-5.999900
31
0.0
0
LINE
8
0
6
CONTINUOUS
10
40.519765
20
-35.999970
30
0.0
11
44.359755
21
-35.999970
31
0.0
0
LINE
8
0
6
CONTINUOUS
10
36.919755
20
-35.999970
30
0.0
11
40.519765
21
-35.999970
31
0.0
0
LINE
8
0
6
CONTINUOUS
10
33.739745
20
-35.999980
30
0.0
11
36.919755
21
-35.999970
31
0.0
0
LINE
8
0
6
CONTINUOUS
10
31.339755
20
-35.999980
30
0.0
11
33.739745
21
-35.999980
31
0.0
0
LINE
8
0
6
CONTINUOUS
10
29.899755
20
-35.999980
30
0.0
11
31.339755
21
-35.999980
31
0.0
0
LINE
8
0
6
CONTINUOUS
10
29.359755
20
-35.999990
30
0.0
11
29.899755
21
-35.999980
31
0.0
0
LINE
8
0
6
CONTINUOUS
10
29.359755
20
-30.999990
30
0.0
11
29.359755
21
-35.999990
31
0.0
0
LINE
8
0
6
CONTINUOUS
10
44.359755
20
-35.999970
30
0.0
11
40.519765
21
-35.999970
31
0.0
0
LINE
8
0
6
CONTINUOUS
10
40.519765
20
-35.999970
30
0.0
11
36.919755
21
-35.999970
31
0.0
0
LINE
8
0
6
CONTINUOUS
10
36.919755
20
-35.999970
30
0.0
11
33.739745
21
-35.999980
31
0.0
0
LINE
8
0
6
CONTINUOUS
10
29.899755
20
-35.999980
30
0.0
11
29.359755
21
-35.999990
31
0.0
0
LINE
8
0
6
CONTINUOUS
10
44.359755
20
-35.999970
30
0.0
11
48.199755
21
-35.999970
31
0.0
0
LINE
8
0
6
CONTINUOUS
10
48.199755
20
-35.999970
30
0.0
11
51.799765
21
-35.999970
31
0.0
0
LINE
8
0
6
CONTINUOUS
10
51.799765
20
-35.999970
30
0.0
11
54.979765
21
-35.999980
31
0.0
0
LINE
8
0
6
CONTINUOUS
10
54.979765
20
-35.999980
30
0.0
11
57.379755
21
-35.999980
31
0.0
0
LINE
8
0
6
CONTINUOUS
10
57.379755
20
-35.999980
30
0.0
11
58.819755
21
-35.999980
31
0.0
0
LINE
8
0
6
CONTINUOUS
10
58.819755
20
-35.999980
30
0.0
11
59.359755
21
-35.999990
31
0.0
0
LINE
8
0
6
CONTINUOUS
10
48.199755
20
-35.999970
30
0.0
11
44.359755
21
-35.999970
31
0.0
0
LINE
8
0
6
CONTINUOUS
10
51.799765
20
-35.999970
30
0.0
11
48.199755
21
-35.999970
31
0.0
0
LINE
8
0
6
CONTINUOUS
10
54.979765
20
-35.999980
30
0.0
11
51.799765
21
-35.999970
31
0.0
0
LINE
8
0
6
CONTINUOUS
10
59.359755
20
-35.999990
30
0.0
11
58.819755
21
-35.999980
31
0.0
0
LINE
8
0
6
CONTINUOUS
10
50.359765
20
-45.999980
30
0.0
11
50.359765
21
-35.999996
31
0.0
0
LINE
8
0
6
CONTINUOUS
10
38.359755
20
-45.999980
30
0.0
11
50.359765
21
-45.999980
31
0.0
0
LINE
8
0
6
CONTINUOUS
10
38.359755
20
-35.999980
30
0.0
11
38.359755
21
-45.999980
31
0.0
0
ENDSEC
0
EOF
