999
Erzeugt mit innoplus bad 
0
SECTION
2
HEADER
9
$ACADVER
1
AC1009
9
$DWGCODEPAGE
3
ISO8859-1
0
ENDSEC
0
SECTION
2
TABLES
0
TABLE
2
LAYER
70
1
0
LAYER
2
0
70
0
62
7
6
CONTINUOUS
0
ENDTAB
0
ENDSEC
0
SECTION
2
ENTITIES
0
LINE
8
0
6
CONTINUOUS
10
30.236550
20
56.386720
30
0.0
11
30.236580
21
76.636720
31
0.0
0
LINE
8
0
6
CONTINUOUS
10
-23.335930
20
86.134480
30
0.0
11
-26.120010
21
84.716080
31
0.0
0
LINE
8
0
6
CONTINUOUS
10
-20.250020
20
26.150210
30
0.0
11
-19.000171
21
26.150209
31
0.0
0
LINE
8
0
6
CONTINUOUS
10
-20.249980
20
86.623330
30
0.0
11
-23.335930
21
86.134480
31
0.0
0
LINE
8
0
6
CONTINUOUS
10
-30.236560
20
76.636760
30
0.0
11
-30.236570
21
56.386770
31
0.0
0
LINE
8
0
6
CONTINUOUS
10
29.747730
20
79.722670
30
0.0
11
28.329330
21
82.506750
31
0.0
0
LINE
8
0
6
CONTINUOUS
10
-28.329300
20
82.506800
30
0.0
11
-29.747710
21
79.722720
31
0.0
0
LINE
8
0
6
CONTINUOUS
10
26.119990
20
28.057410
30
0.0
11
28.329270
21
30.266690
31
0.0
0
LINE
8
0
6
CONTINUOUS
10
28.329330
20
82.506750
30
0.0
11
26.120050
21
84.716030
31
0.0
0
LINE
8
0
6
CONTINUOUS
10
20.250020
20
86.623300
30
0.0
11
7.877070
21
86.623306
31
0.0
0
LINE
8
0
6
CONTINUOUS
10
18.999829
20
26.150162
30
0.0
11
20.249960
21
26.150160
31
0.0
0
LINE
8
0
6
CONTINUOUS
10
29.747670
20
33.050770
30
0.0
11
30.236530
21
36.136720
31
0.0
0
LINE
8
0
6
CONTINUOUS
10
23.335970
20
86.134440
30
0.0
11
20.250020
21
86.623300
31
0.0
0
LINE
8
0
6
CONTINUOUS
10
-26.120050
20
28.057470
30
0.0
11
-23.335970
21
26.639070
31
0.0
0
LINE
8
0
6
CONTINUOUS
10
-26.120010
20
84.716080
30
0.0
11
-28.329300
21
82.506800
31
0.0
0
LINE
8
0
6
CONTINUOUS
10
-7.877030
20
86.623318
30
0.0
11
-20.249980
21
86.623330
31
0.0
0
LINE
8
0
6
CONTINUOUS
10
-24.849190
20
45.827390
30
0.0
11
-22.312240
21
41.181940
31
0.0
0
LINE
8
0
6
CONTINUOUS
10
26.528400
20
51.361020
30
0.0
11
26.998880
21
56.633500
31
0.0
0
LINE
8
0
6
CONTINUOUS
10
-22.312240
20
41.181940
30
0.0
11
-19.000170
21
37.221265
31
0.0
0
LINE
8
0
6
CONTINUOUS
10
-22.585500
20
71.182050
30
0.0
11
-25.038110
21
66.491330
31
0.0
0
LINE
8
0
6
CONTINUOUS
10
-15.204800
20
78.698980
30
0.0
11
-19.265570
21
75.303440
31
0.0
0
LINE
8
0
6
CONTINUOUS
10
22.585780
20
41.592240
30
0.0
11
25.037860
21
46.282180
31
0.0
0
LINE
8
0
6
CONTINUOUS
10
25.037860
20
46.282180
30
0.0
11
26.528400
21
51.361020
31
0.0
0
LINE
8
0
6
CONTINUOUS
10
26.432000
20
61.895260
30
0.0
11
24.849230
21
66.946170
31
0.0
0
LINE
8
0
6
CONTINUOUS
10
26.998880
20
56.633500
30
0.0
11
26.432000
21
61.895260
31
0.0
0
LINE
8
0
6
CONTINUOUS
10
22.311890
20
71.591240
30
0.0
11
18.916730
21
75.651980
31
0.0
0
LINE
8
0
6
CONTINUOUS
10
18.916730
20
75.651980
30
0.0
11
14.794500
21
78.972520
31
0.0
0
LINE
8
0
6
CONTINUOUS
10
-10.559350
20
81.235930
30
0.0
11
-15.204800
21
78.698980
31
0.0
0
LINE
8
0
6
CONTINUOUS
10
-26.528400
20
61.412460
30
0.0
11
-26.998870
21
56.140660
31
0.0
0
LINE
8
0
6
CONTINUOUS
10
-25.038110
20
66.491330
30
0.0
11
-26.528400
21
61.412460
31
0.0
0
LINE
8
0
6
CONTINUOUS
10
26.120050
20
84.716030
30
0.0
11
23.335970
21
86.134440
31
0.0
0
LINE
8
0
6
CONTINUOUS
10
-30.236580
20
36.136780
30
0.0
11
-29.747730
21
33.050830
31
0.0
0
LINE
8
0
6
CONTINUOUS
10
-30.236570
20
56.386770
30
0.0
11
-30.236580
21
36.136780
31
0.0
0
LINE
8
0
6
CONTINUOUS
10
23.335910
20
26.639010
30
0.0
11
26.119990
21
28.057410
31
0.0
0
LINE
8
0
6
CONTINUOUS
10
30.236580
20
76.636720
30
0.0
11
29.747730
21
79.722670
31
0.0
0
LINE
8
0
6
CONTINUOUS
10
-29.747710
20
79.722720
30
0.0
11
-30.236560
21
76.636760
31
0.0
0
LINE
8
0
6
CONTINUOUS
10
-29.747730
20
33.050830
30
0.0
11
-28.329330
21
30.266750
31
0.0
0
LINE
8
0
6
CONTINUOUS
10
20.249960
20
26.150160
30
0.0
11
23.335910
21
26.639010
31
0.0
0
LINE
8
0
6
CONTINUOUS
10
-28.329330
20
30.266750
30
0.0
11
-26.120050
21
28.057470
31
0.0
0
LINE
8
0
6
CONTINUOUS
10
-23.335970
20
26.639070
30
0.0
11
-20.250020
21
26.150210
31
0.0
0
LINE
8
0
6
CONTINUOUS
10
28.329270
20
30.266690
30
0.0
11
29.747670
21
33.050770
31
0.0
0
LINE
8
0
6
CONTINUOUS
10
30.236530
20
36.136720
30
0.0
11
30.236550
21
56.386720
31
0.0
0
LINE
8
0
6
CONTINUOUS
10
-19.000160
20
75.393880
30
0.0
11
-19.000160
21
74.073320
31
0.0
0
LINE
8
0
6
CONTINUOUS
10
-17.347040
20
75.393980
30
0.0
11
-19.000160
21
75.393880
31
0.0
0
LINE
8
0
6
CONTINUOUS
10
-18.880660
20
-35.024760
30
0.0
11
-17.121880
21
-35.026800
31
0.0
0
LINE
8
0
6
CONTINUOUS
10
-19.000190
20
-33.521500
30
0.0
11
-18.880660
21
-35.024760
31
0.0
0
LINE
8
0
6
CONTINUOUS
10
-0.000170
20
75.394940
30
0.0
11
-17.347040
21
75.393980
31
0.0
0
LINE
8
0
6
CONTINUOUS
10
-19.000160
20
74.073320
30
0.0
11
-19.000170
21
56.394370
31
0.0
0
LINE
8
0
6
CONTINUOUS
10
-19.000170
20
56.394370
30
0.0
11
-19.000170
21
51.706630
31
0.0
0
LINE
8
0
6
CONTINUOUS
10
-19.000170
20
51.706630
30
0.0
11
-19.000170
21
44.439560
31
0.0
0
LINE
8
0
6
CONTINUOUS
10
-19.000170
20
44.439560
30
0.0
11
-19.000170
21
37.172480
31
0.0
0
LINE
8
0
6
CONTINUOUS
10
-19.000170
20
37.172480
30
0.0
11
-19.000170
21
29.905400
31
0.0
0
LINE
8
0
6
CONTINUOUS
10
-17.121880
20
-35.026800
30
0.0
11
-0.000180
21
-35.026800
31
0.0
0
LINE
8
0
6
CONTINUOUS
10
-19.000170
20
29.905400
30
0.0
11
-19.000190
21
-33.521500
31
0.0
0
LINE
8
0
6
CONTINUOUS
10
18.999830
20
75.393880
30
0.0
11
17.346700
21
75.393970
31
0.0
0
LINE
8
0
6
CONTINUOUS
10
18.999830
20
74.073320
30
0.0
11
18.999830
21
75.393880
31
0.0
0
LINE
8
0
6
CONTINUOUS
10
18.880300
20
-35.024760
30
0.0
11
18.999820
21
-33.521500
31
0.0
0
LINE
8
0
6
CONTINUOUS
10
17.121520
20
-35.026800
30
0.0
11
18.880300
21
-35.024760
31
0.0
0
LINE
8
0
6
CONTINUOUS
10
17.346700
20
75.393970
30
0.0
11
-0.000170
21
75.394940
31
0.0
0
LINE
8
0
6
CONTINUOUS
10
18.999830
20
56.394360
30
0.0
11
18.999830
21
74.073320
31
0.0
0
LINE
8
0
6
CONTINUOUS
10
18.999830
20
51.706630
30
0.0
11
18.999830
21
56.394360
31
0.0
0
LINE
8
0
6
CONTINUOUS
10
18.999830
20
44.439550
30
0.0
11
18.999830
21
51.706630
31
0.0
0
LINE
8
0
6
CONTINUOUS
10
18.999830
20
37.172480
30
0.0
11
18.999830
21
44.439550
31
0.0
0
LINE
8
0
6
CONTINUOUS
10
18.999830
20
29.905400
30
0.0
11
18.999830
21
37.172480
31
0.0
0
LINE
8
0
6
CONTINUOUS
10
-0.000180
20
-35.026800
30
0.0
11
17.121520
21
-35.026800
31
0.0
0
LINE
8
0
6
CONTINUOUS
10
18.999820
20
-33.521500
30
0.0
11
18.999830
21
29.905400
31
0.0
0
LINE
8
0
6
CONTINUOUS
10
-9.554240
20
-96.331580
30
0.0
11
0.000000
21
-96.331580
31
0.0
0
LINE
8
0
6
CONTINUOUS
10
-9.856860
20
-96.331580
30
0.0
11
-9.554240
21
-96.331580
31
0.0
0
LINE
8
0
6
CONTINUOUS
10
-11.740030
20
-96.081710
30
0.0
11
-9.856860
21
-96.331580
31
0.0
0
LINE
8
0
6
CONTINUOUS
10
-13.281500
20
-86.805020
30
0.0
11
-13.264850
21
-90.307210
31
0.0
0
LINE
8
0
6
CONTINUOUS
10
-13.264850
20
-90.307210
30
0.0
11
-13.201110
21
-92.676550
31
0.0
0
LINE
8
0
6
CONTINUOUS
10
-14.392250
20
-66.379590
30
0.0
11
-13.751320
21
-77.685020
31
0.0
0
LINE
8
0
6
CONTINUOUS
10
-15.504045
20
-35.026800
30
0.0
11
-14.392250
21
-66.379590
31
0.0
0
LINE
8
0
6
CONTINUOUS
10
-13.201110
20
-92.676550
30
0.0
11
-13.083210
21
-95.499750
31
0.0
0
LINE
8
0
6
CONTINUOUS
10
-13.751320
20
-77.685020
30
0.0
11
-13.472090
21
-82.704670
31
0.0
0
LINE
8
0
6
CONTINUOUS
10
-13.083210
20
-95.499750
30
0.0
11
-11.740030
21
-96.081710
31
0.0
0
LINE
8
0
6
CONTINUOUS
10
-13.472090
20
-82.704670
30
0.0
11
-13.281500
21
-86.805020
31
0.0
0
LINE
8
0
6
CONTINUOUS
10
0.000000
20
-96.331580
30
0.0
11
9.554240
21
-96.331580
31
0.0
0
LINE
8
0
6
CONTINUOUS
10
9.856860
20
-96.331580
30
0.0
11
11.740030
21
-96.081710
31
0.0
0
LINE
8
0
6
CONTINUOUS
10
9.554240
20
-96.331580
30
0.0
11
9.856860
21
-96.331580
31
0.0
0
LINE
8
0
6
CONTINUOUS
10
13.264850
20
-90.307210
30
0.0
11
13.281500
21
-86.805020
31
0.0
0
LINE
8
0
6
CONTINUOUS
10
13.201110
20
-92.676550
30
0.0
11
13.264850
21
-90.307210
31
0.0
0
LINE
8
0
6
CONTINUOUS
10
13.751320
20
-77.685020
30
0.0
11
14.392250
21
-66.379590
31
0.0
0
LINE
8
0
6
CONTINUOUS
10
14.392250
20
-66.379590
30
0.0
11
15.504045
21
-35.026800
31
0.0
0
LINE
8
0
6
CONTINUOUS
10
13.083210
20
-95.499750
30
0.0
11
13.201110
21
-92.676550
31
0.0
0
LINE
8
0
6
CONTINUOUS
10
13.472090
20
-82.704670
30
0.0
11
13.751320
21
-77.685020
31
0.0
0
LINE
8
0
6
CONTINUOUS
10
11.740030
20
-96.081710
30
0.0
11
13.083210
21
-95.499750
31
0.0
0
LINE
8
0
6
CONTINUOUS
10
13.281500
20
-86.805020
30
0.0
11
13.472090
21
-82.704670
31
0.0
0
LINE
8
0
6
CONTINUOUS
10
-3.218140
20
75.886740
30
0.0
11
-2.463050
21
75.886740
31
0.0
0
LINE
8
0
6
CONTINUOUS
10
1.333020
20
75.886740
30
0.0
11
2.463090
21
75.886740
31
0.0
0
LINE
8
0
6
CONTINUOUS
10
-3.483290
20
75.886740
30
0.0
11
-3.218140
21
75.886740
31
0.0
0
LINE
8
0
6
CONTINUOUS
10
-3.483290
20
75.930840
30
0.0
11
-3.483290
21
75.886740
31
0.0
0
LINE
8
0
6
CONTINUOUS
10
0.000020
20
75.886740
30
0.0
11
1.333020
21
75.886740
31
0.0
0
LINE
8
0
6
CONTINUOUS
10
3.483330
20
75.886740
30
0.0
11
3.483330
21
75.930840
31
0.0
0
LINE
8
0
6
CONTINUOUS
10
3.218180
20
75.886740
30
0.0
11
3.483330
21
75.886740
31
0.0
0
LINE
8
0
6
CONTINUOUS
10
-1.332990
20
75.886740
30
0.0
11
0.000020
21
75.886740
31
0.0
0
LINE
8
0
6
CONTINUOUS
10
2.463090
20
75.886740
30
0.0
11
3.218180
21
75.886740
31
0.0
0
LINE
8
0
6
CONTINUOUS
10
-2.463050
20
75.886740
30
0.0
11
-1.332990
21
75.886740
31
0.0
0
LINE
8
0
6
CONTINUOUS
10
-2.788530
20
75.829320
30
0.0
11
-2.788530
21
75.394786
31
0.0
0
LINE
8
0
6
CONTINUOUS
10
2.788560
20
75.386740
30
0.0
11
2.788560
21
75.829320
31
0.0
0
LINE
8
0
6
CONTINUOUS
10
2.283444
20
76.883880
30
0.0
11
1.333020
21
76.883880
31
0.0
0
LINE
8
0
6
CONTINUOUS
10
-3.483290
20
76.883880
30
0.0
11
-3.483290
21
76.826120
31
0.0
0
LINE
8
0
6
CONTINUOUS
10
1.333020
20
76.883880
30
0.0
11
0.000020
21
76.883880
31
0.0
0
LINE
8
0
6
CONTINUOUS
10
3.483330
20
76.826120
30
0.0
11
3.483330
21
76.883880
31
0.0
0
LINE
8
0
6
CONTINUOUS
10
0.000020
20
76.883880
30
0.0
11
-1.332990
21
76.883880
31
0.0
0
LINE
8
0
6
CONTINUOUS
10
-1.332990
20
76.883880
30
0.0
11
-2.283406
21
76.883880
31
0.0
0
LINE
8
0
6
CONTINUOUS
10
-3.483290
20
76.826120
30
0.0
11
-3.483290
21
75.930840
31
0.0
0
LINE
8
0
6
CONTINUOUS
10
3.483330
20
75.930840
30
0.0
11
3.483330
21
76.826120
31
0.0
0
LINE
8
0
6
CONTINUOUS
10
-2.788530
20
75.886740
30
0.0
11
-2.788530
21
75.829320
31
0.0
0
LINE
8
0
6
CONTINUOUS
10
2.788560
20
75.829320
30
0.0
11
2.788560
21
75.886740
31
0.0
0
LINE
8
0
6
CONTINUOUS
10
7.730620
20
77.026260
30
0.0
11
7.877070
21
77.379820
31
0.0
0
LINE
8
0
6
CONTINUOUS
10
7.377070
20
76.879810
30
0.0
11
7.730620
21
77.026260
31
0.0
0
LINE
8
0
6
CONTINUOUS
10
7.204920
20
76.879810
30
0.0
11
7.377070
21
76.879810
31
0.0
0
LINE
8
0
6
CONTINUOUS
10
7.877070
20
94.495910
30
0.0
11
7.631130
21
95.413750
31
0.0
0
LINE
8
0
6
CONTINUOUS
10
7.631130
20
95.413750
30
0.0
11
6.959230
21
96.085650
31
0.0
0
LINE
8
0
6
CONTINUOUS
10
6.959230
20
96.085650
30
0.0
11
6.041390
21
96.331580
31
0.0
0
LINE
8
0
6
CONTINUOUS
10
7.877070
20
77.379820
30
0.0
11
7.877070
21
77.551970
31
0.0
0
LINE
8
0
6
CONTINUOUS
10
7.877070
20
77.551970
30
0.0
11
7.877070
21
94.495910
31
0.0
0
LINE
8
0
6
CONTINUOUS
10
2.298149
20
76.879810
30
0.0
11
7.204920
21
76.879810
31
0.0
0
LINE
8
0
6
CONTINUOUS
10
6.041390
20
96.331580
30
0.0
11
0.000020
21
96.331580
31
0.0
0
LINE
8
0
6
CONTINUOUS
10
-7.877030
20
77.379820
30
0.0
11
-7.730580
21
77.026260
31
0.0
0
LINE
8
0
6
CONTINUOUS
10
-7.730580
20
77.026260
30
0.0
11
-7.377030
21
76.879810
31
0.0
0
LINE
8
0
6
CONTINUOUS
10
-7.377030
20
76.879810
30
0.0
11
-7.204880
21
76.879810
31
0.0
0
LINE
8
0
6
CONTINUOUS
10
-7.631090
20
95.413750
30
0.0
11
-7.877030
21
94.495910
31
0.0
0
LINE
8
0
6
CONTINUOUS
10
-6.959190
20
96.085650
30
0.0
11
-7.631090
21
95.413750
31
0.0
0
LINE
8
0
6
CONTINUOUS
10
-6.041360
20
96.331580
30
0.0
11
-6.959190
21
96.085650
31
0.0
0
LINE
8
0
6
CONTINUOUS
10
-7.877030
20
77.551970
30
0.0
11
-7.877030
21
77.379820
31
0.0
0
LINE
8
0
6
CONTINUOUS
10
-7.877030
20
94.495910
30
0.0
11
-7.877030
21
77.551970
31
0.0
0
LINE
8
0
6
CONTINUOUS
10
-7.204880
20
76.879810
30
0.0
11
0.000020
21
76.879810
31
0.0
0
LINE
8
0
6
CONTINUOUS
10
0.000020
20
96.331580
30
0.0
11
-6.041360
21
96.331580
31
0.0
0
ENDSEC
0
EOF
