999
unknown String-ID: 20550
0
SECTION
2
HEADER
9
$ACADVER
1
AC1009
9
$DWGCODEPAGE
3
unknown String-ID: 20561
0
ENDSEC
0
SECTION
2
TABLES
0
TABLE
2
LAYER
70
1
0
LAYER
2
0
70
0
62
7
6
CONTINUOUS
0
ENDTAB
0
ENDSEC
0
SECTION
2
ENTITIES
0
LINE
8
0
6
CONTINUOUS
10
0.018448
20
0.028677
30
0.0
11
0.024888
21
0.027880
31
0.0
0
LINE
8
0
6
CONTINUOUS
10
0.027050
20
0.027631
30
0.0
11
0.026162
21
0.027880
31
0.0
0
LINE
8
0
6
CONTINUOUS
10
0.028566
20
0.017196
30
0.0
11
0.028736
21
0.018410
31
0.0
0
LINE
8
0
6
CONTINUOUS
10
0.028086
20
0.016178
30
0.0
11
0.028566
21
0.017196
31
0.0
0
LINE
8
0
6
CONTINUOUS
10
0.027367
20
0.015498
30
0.0
11
0.028086
21
0.016178
31
0.0
0
LINE
8
0
6
CONTINUOUS
10
0.027050
20
0.015372
30
0.0
11
0.027367
21
0.015498
31
0.0
0
LINE
8
0
6
CONTINUOUS
10
0.027367
20
0.027504
30
0.0
11
0.027050
21
0.027631
31
0.0
0
LINE
8
0
6
CONTINUOUS
10
0.028086
20
0.026824
30
0.0
11
0.027367
21
0.027504
31
0.0
0
LINE
8
0
6
CONTINUOUS
10
0.028566
20
0.025806
30
0.0
11
0.028086
21
0.026824
31
0.0
0
LINE
8
0
6
CONTINUOUS
10
0.028736
20
0.024593
30
0.0
11
0.028566
21
0.025806
31
0.0
0
LINE
8
0
6
CONTINUOUS
10
0.020016
20
0.028703
30
0.0
11
0.019797
21
0.028703
31
0.0
0
LINE
8
0
6
CONTINUOUS
10
0.026449
20
0.027677
30
0.0
11
0.026344
21
0.028140
31
0.0
0
LINE
8
0
6
CONTINUOUS
10
0.026344
20
0.028140
30
0.0
11
0.026029
21
0.028498
31
0.0
0
LINE
8
0
6
CONTINUOUS
10
0.026029
20
0.028498
30
0.0
11
0.025584
21
0.028703
31
0.0
0
LINE
8
0
6
CONTINUOUS
10
0.025584
20
0.028703
30
0.0
11
0.024933
21
0.028703
31
0.0
0
LINE
8
0
6
CONTINUOUS
10
0.024933
20
0.028703
30
0.0
11
0.023012
21
0.028703
31
0.0
0
LINE
8
0
6
CONTINUOUS
10
0.023012
20
0.028703
30
0.0
11
0.020581
21
0.028703
31
0.0
0
LINE
8
0
6
CONTINUOUS
10
0.020581
20
0.028703
30
0.0
11
0.020894
21
0.028498
31
0.0
0
LINE
8
0
6
CONTINUOUS
10
0.026449
20
-0.017770
30
0.0
11
0.026449
21
-0.017472
31
0.0
0
LINE
8
0
6
CONTINUOUS
10
0.025776
20
-0.017770
30
0.0
11
0.026449
21
-0.017770
31
0.0
0
LINE
8
0
6
CONTINUOUS
10
0.023791
20
-0.017770
30
0.0
11
0.025776
21
-0.017770
31
0.0
0
LINE
8
0
6
CONTINUOUS
10
0.021513
20
-0.020809
30
0.0
11
0.021856
21
-0.021135
31
0.0
0
LINE
8
0
6
CONTINUOUS
10
0.021856
20
-0.021135
30
0.0
11
0.022083
21
-0.021621
31
0.0
0
LINE
8
0
6
CONTINUOUS
10
0.021110
20
-0.020695
30
0.0
11
0.021513
21
-0.020809
31
0.0
0
LINE
8
0
6
CONTINUOUS
10
0.023533
20
-0.020695
30
0.0
11
0.021110
21
-0.020695
31
0.0
0
LINE
8
0
6
CONTINUOUS
10
0.016801
20
-0.017770
30
0.0
11
0.016801
21
-0.020469
31
0.0
0
LINE
8
0
6
CONTINUOUS
10
0.016801
20
-0.020695
30
0.0
11
0.018738
21
-0.020695
31
0.0
0
LINE
8
0
6
CONTINUOUS
10
0.016801
20
-0.020469
30
0.0
11
0.016801
21
-0.020695
31
0.0
0
LINE
8
0
6
CONTINUOUS
10
0.024076
20
-0.020469
30
0.0
11
0.024076
21
-0.017770
31
0.0
0
LINE
8
0
6
CONTINUOUS
10
0.018469
20
-0.017472
30
0.0
11
0.018469
21
-0.017770
31
0.0
0
LINE
8
0
6
CONTINUOUS
10
0.018469
20
-0.017770
30
0.0
11
0.020594
21
-0.017770
31
0.0
0
LINE
8
0
6
CONTINUOUS
10
0.022083
20
-0.021621
30
0.0
11
0.022164
21
-0.022195
31
0.0
0
LINE
8
0
6
CONTINUOUS
10
0.024076
20
-0.020695
30
0.0
11
0.024076
21
-0.020469
31
0.0
0
LINE
8
0
6
CONTINUOUS
10
0.023462
20
-0.020695
30
0.0
11
0.024076
21
-0.020695
31
0.0
0
LINE
8
0
6
CONTINUOUS
10
0.023447
20
-0.020695
30
0.0
11
0.018954
21
-0.020695
31
0.0
0
LINE
8
0
6
CONTINUOUS
10
0.018954
20
-0.020695
30
0.0
11
0.016995
21
-0.020695
31
0.0
0
LINE
8
0
6
CONTINUOUS
10
0.021653
20
-0.020695
30
0.0
11
0.023462
21
-0.020695
31
0.0
0
LINE
8
0
6
CONTINUOUS
10
0.018738
20
-0.020695
30
0.0
11
0.021653
21
-0.020695
31
0.0
0
LINE
8
0
6
CONTINUOUS
10
0.018461
20
0.015024
30
0.0
11
0.018469
21
-0.017472
31
0.0
0
LINE
8
0
6
CONTINUOUS
10
0.029441
20
-0.020695
30
0.0
11
0.029334
21
-0.020695
31
0.0
0
LINE
8
0
6
CONTINUOUS
10
0.030208
20
-0.020695
30
0.0
11
0.029441
21
-0.020695
31
0.0
0
LINE
8
0
6
CONTINUOUS
10
0.029334
20
-0.020695
30
0.0
11
0.030099
21
-0.020695
31
0.0
0
LINE
8
0
6
CONTINUOUS
10
0.030783
20
-0.020809
30
0.0
11
0.030208
21
-0.020695
31
0.0
0
LINE
8
0
6
CONTINUOUS
10
0.030208
20
-0.020695
30
0.0
11
0.029441
21
-0.020695
31
0.0
0
LINE
8
0
6
CONTINUOUS
10
0.031270
20
-0.021135
30
0.0
11
0.030783
21
-0.020809
31
0.0
0
LINE
8
0
6
CONTINUOUS
10
0.029441
20
-0.020695
30
0.0
11
0.027178
21
-0.020695
31
0.0
0
LINE
8
0
6
CONTINUOUS
10
0.027178
20
-0.020695
30
0.0
11
0.023533
21
-0.020695
31
0.0
0
LINE
8
0
6
CONTINUOUS
10
0.031594
20
-0.021621
30
0.0
11
0.031270
21
-0.021135
31
0.0
0
LINE
8
0
6
CONTINUOUS
10
0.031708
20
-0.022195
30
0.0
11
0.031594
21
-0.021621
31
0.0
0
LINE
8
0
6
CONTINUOUS
10
0.031708
20
-0.022329
30
0.0
11
0.031708
21
-0.022195
31
0.0
0
LINE
8
0
6
CONTINUOUS
10
0.031708
20
-0.028484
30
0.0
11
0.031708
21
-0.022329
31
0.0
0
LINE
8
0
6
CONTINUOUS
10
0.031708
20
-0.028695
30
0.0
11
0.031708
21
-0.028484
31
0.0
0
LINE
8
0
6
CONTINUOUS
10
0.030904
20
-0.028695
30
0.0
11
0.031708
21
-0.028695
31
0.0
0
LINE
8
0
6
CONTINUOUS
10
0.028530
20
-0.028695
30
0.0
11
0.030904
21
-0.028695
31
0.0
0
LINE
8
0
6
CONTINUOUS
10
0.024705
20
-0.028695
30
0.0
11
0.028530
21
-0.028695
31
0.0
0
LINE
8
0
6
CONTINUOUS
10
0.022164
20
-0.028695
30
0.0
11
0.024705
21
-0.028695
31
0.0
0
LINE
8
0
6
CONTINUOUS
10
0.022164
20
-0.028484
30
0.0
11
0.022164
21
-0.028695
31
0.0
0
LINE
8
0
6
CONTINUOUS
10
0.022164
20
-0.022329
30
0.0
11
0.022164
21
-0.028484
31
0.0
0
LINE
8
0
6
CONTINUOUS
10
0.022164
20
-0.022195
30
0.0
11
0.022164
21
-0.022329
31
0.0
0
LINE
8
0
6
CONTINUOUS
10
0.020894
20
0.028498
30
0.0
11
0.020581
21
0.028703
31
0.0
0
LINE
8
0
6
CONTINUOUS
10
0.026449
20
-0.017472
30
0.0
11
0.026449
21
0.015203
31
0.0
0
LINE
8
0
6
CONTINUOUS
10
0.020594
20
-0.017770
30
0.0
11
0.023791
21
-0.017770
31
0.0
0
LINE
8
0
6
CONTINUOUS
10
0.026166
20
0.015123
30
0.0
11
0.027050
21
0.015372
31
0.0
0
LINE
8
0
6
CONTINUOUS
10
0.026162
20
0.027880
30
0.0
11
0.019908
21
0.028677
31
0.0
0
LINE
8
0
6
CONTINUOUS
10
0.027027
20
0.025859
30
0.0
11
0.027203
21
0.024606
31
0.0
0
LINE
8
0
6
CONTINUOUS
10
0.026525
20
0.016082
30
0.0
11
0.025774
21
0.015372
31
0.0
0
LINE
8
0
6
CONTINUOUS
10
0.027203
20
0.024606
30
0.0
11
0.027203
21
0.018396
31
0.0
0
LINE
8
0
6
CONTINUOUS
10
0.019904
20
0.015033
30
0.0
11
0.026166
21
0.015123
31
0.0
0
LINE
8
0
6
CONTINUOUS
10
0.024888
20
0.027880
30
0.0
11
0.025774
21
0.027631
31
0.0
0
LINE
8
0
6
CONTINUOUS
10
0.026525
20
0.026921
30
0.0
11
0.027027
21
0.025859
31
0.0
0
LINE
8
0
6
CONTINUOUS
10
0.027027
20
0.017144
30
0.0
11
0.026525
21
0.016082
31
0.0
0
LINE
8
0
6
CONTINUOUS
10
0.027203
20
0.018396
30
0.0
11
0.027027
21
0.017144
31
0.0
0
LINE
8
0
6
CONTINUOUS
10
0.025774
20
0.027631
30
0.0
11
0.026525
21
0.026921
31
0.0
0
LINE
8
0
6
CONTINUOUS
10
0.017831
20
0.028703
30
0.0
11
0.018448
21
0.028677
31
0.0
0
LINE
8
0
6
CONTINUOUS
10
0.019797
20
0.028703
30
0.0
11
0.017831
21
0.028703
31
0.0
0
LINE
8
0
6
CONTINUOUS
10
0.025774
20
0.015372
30
0.0
11
0.024888
21
0.015123
31
0.0
0
LINE
8
0
6
CONTINUOUS
10
-0.027308
20
0.016082
30
0.0
11
-0.027810
21
0.017144
31
0.0
0
LINE
8
0
6
CONTINUOUS
10
-0.019230
20
0.015022
30
0.0
11
-0.025671
21
0.015123
31
0.0
0
LINE
8
0
6
CONTINUOUS
10
-0.026949
20
0.027880
30
0.0
11
-0.027833
21
0.027631
31
0.0
0
LINE
8
0
6
CONTINUOUS
10
-0.025671
20
0.015123
30
0.0
11
-0.026557
21
0.015372
31
0.0
0
LINE
8
0
6
CONTINUOUS
10
-0.026557
20
0.015372
30
0.0
11
-0.027308
21
0.016082
31
0.0
0
LINE
8
0
6
CONTINUOUS
10
-0.027810
20
0.017144
30
0.0
11
-0.027986
21
0.018396
31
0.0
0
LINE
8
0
6
CONTINUOUS
10
-0.028150
20
0.015498
30
0.0
11
-0.027833
21
0.015372
31
0.0
0
LINE
8
0
6
CONTINUOUS
10
-0.028869
20
0.016178
30
0.0
11
-0.028150
21
0.015498
31
0.0
0
LINE
8
0
6
CONTINUOUS
10
-0.029349
20
0.017196
30
0.0
11
-0.028869
21
0.016178
31
0.0
0
LINE
8
0
6
CONTINUOUS
10
-0.029519
20
0.018410
30
0.0
11
-0.029349
21
0.017196
31
0.0
0
LINE
8
0
6
CONTINUOUS
10
-0.029349
20
0.025806
30
0.0
11
-0.029519
21
0.024593
31
0.0
0
LINE
8
0
6
CONTINUOUS
10
-0.028869
20
0.026824
30
0.0
11
-0.029349
21
0.025806
31
0.0
0
LINE
8
0
6
CONTINUOUS
10
-0.028150
20
0.027504
30
0.0
11
-0.028869
21
0.026824
31
0.0
0
LINE
8
0
6
CONTINUOUS
10
-0.027833
20
0.027631
30
0.0
11
-0.028150
21
0.027504
31
0.0
0
LINE
8
0
6
CONTINUOUS
10
-0.021364
20
0.028703
30
0.0
11
-0.023795
21
0.028703
31
0.0
0
LINE
8
0
6
CONTINUOUS
10
-0.021678
20
0.028498
30
0.0
11
-0.021364
21
0.028703
31
0.0
0
LINE
8
0
6
CONTINUOUS
10
-0.027128
20
0.028140
30
0.0
11
-0.027232
21
0.027677
31
0.0
0
LINE
8
0
6
CONTINUOUS
10
-0.026812
20
0.028498
30
0.0
11
-0.027128
21
0.028140
31
0.0
0
LINE
8
0
6
CONTINUOUS
10
-0.026367
20
0.028703
30
0.0
11
-0.026812
21
0.028498
31
0.0
0
LINE
8
0
6
CONTINUOUS
10
-0.025716
20
0.028703
30
0.0
11
-0.026367
21
0.028703
31
0.0
0
LINE
8
0
6
CONTINUOUS
10
-0.023795
20
0.028703
30
0.0
11
-0.025716
21
0.028703
31
0.0
0
LINE
8
0
6
CONTINUOUS
10
-0.027232
20
0.015203
30
0.0
11
-0.027232
21
-0.017472
31
0.0
0
LINE
8
0
6
CONTINUOUS
10
-0.027232
20
-0.017472
30
0.0
11
-0.027232
21
-0.017770
31
0.0
0
LINE
8
0
6
CONTINUOUS
10
-0.027232
20
-0.017770
30
0.0
11
-0.026559
21
-0.017770
31
0.0
0
LINE
8
0
6
CONTINUOUS
10
-0.026559
20
-0.017770
30
0.0
11
-0.024574
21
-0.017770
31
0.0
0
LINE
8
0
6
CONTINUOUS
10
-0.019252
20
-0.017472
30
0.0
11
-0.019245
21
0.015022
31
0.0
0
LINE
8
0
6
CONTINUOUS
10
-0.024859
20
-0.017770
30
0.0
11
-0.024859
21
-0.020469
31
0.0
0
LINE
8
0
6
CONTINUOUS
10
-0.024859
20
-0.020695
30
0.0
11
-0.024245
21
-0.020695
31
0.0
0
LINE
8
0
6
CONTINUOUS
10
-0.024859
20
-0.020469
30
0.0
11
-0.024859
21
-0.020695
31
0.0
0
LINE
8
0
6
CONTINUOUS
10
-0.022436
20
-0.020695
30
0.0
11
-0.019521
21
-0.020695
31
0.0
0
LINE
8
0
6
CONTINUOUS
10
-0.024245
20
-0.020695
30
0.0
11
-0.022436
21
-0.020695
31
0.0
0
LINE
8
0
6
CONTINUOUS
10
-0.017584
20
-0.020469
30
0.0
11
-0.017584
21
-0.017777
31
0.0
0
LINE
8
0
6
CONTINUOUS
10
-0.017584
20
-0.020695
30
0.0
11
-0.017584
21
-0.020469
31
0.0
0
LINE
8
0
6
CONTINUOUS
10
-0.019521
20
-0.020695
30
0.0
11
-0.017584
21
-0.020695
31
0.0
0
LINE
8
0
6
CONTINUOUS
10
-0.030992
20
-0.020695
30
0.0
11
-0.031566
21
-0.020809
31
0.0
0
LINE
8
0
6
CONTINUOUS
10
-0.030224
20
-0.020695
30
0.0
11
-0.030992
21
-0.020695
31
0.0
0
LINE
8
0
6
CONTINUOUS
10
-0.024316
20
-0.020695
30
0.0
11
-0.027961
21
-0.020695
31
0.0
0
LINE
8
0
6
CONTINUOUS
10
-0.027961
20
-0.020695
30
0.0
11
-0.030224
21
-0.020695
31
0.0
0
LINE
8
0
6
CONTINUOUS
10
-0.031566
20
-0.020809
30
0.0
11
-0.032053
21
-0.021135
31
0.0
0
LINE
8
0
6
CONTINUOUS
10
-0.032053
20
-0.021135
30
0.0
11
-0.032377
21
-0.021621
31
0.0
0
LINE
8
0
6
CONTINUOUS
10
-0.022296
20
-0.020809
30
0.0
11
-0.021893
21
-0.020695
31
0.0
0
LINE
8
0
6
CONTINUOUS
10
-0.021893
20
-0.020695
30
0.0
11
-0.024316
21
-0.020695
31
0.0
0
LINE
8
0
6
CONTINUOUS
10
-0.032377
20
-0.021621
30
0.0
11
-0.032491
21
-0.022195
31
0.0
0
LINE
8
0
6
CONTINUOUS
10
-0.022639
20
-0.021135
30
0.0
11
-0.022296
21
-0.020809
31
0.0
0
LINE
8
0
6
CONTINUOUS
10
-0.032491
20
-0.022195
30
0.0
11
-0.032491
21
-0.022329
31
0.0
0
LINE
8
0
6
CONTINUOUS
10
-0.022866
20
-0.021621
30
0.0
11
-0.022639
21
-0.021135
31
0.0
0
LINE
8
0
6
CONTINUOUS
10
-0.032491
20
-0.022329
30
0.0
11
-0.032491
21
-0.028484
31
0.0
0
LINE
8
0
6
CONTINUOUS
10
-0.022947
20
-0.022195
30
0.0
11
-0.022866
21
-0.021621
31
0.0
0
LINE
8
0
6
CONTINUOUS
10
-0.032491
20
-0.028695
30
0.0
11
-0.031687
21
-0.028695
31
0.0
0
LINE
8
0
6
CONTINUOUS
10
-0.032491
20
-0.028484
30
0.0
11
-0.032491
21
-0.028695
31
0.0
0
LINE
8
0
6
CONTINUOUS
10
-0.022947
20
-0.022329
30
0.0
11
-0.022947
21
-0.022195
31
0.0
0
LINE
8
0
6
CONTINUOUS
10
-0.029313
20
-0.028695
30
0.0
11
-0.025488
21
-0.028695
31
0.0
0
LINE
8
0
6
CONTINUOUS
10
-0.031687
20
-0.028695
30
0.0
11
-0.029313
21
-0.028695
31
0.0
0
LINE
8
0
6
CONTINUOUS
10
-0.022947
20
-0.028484
30
0.0
11
-0.022947
21
-0.022329
31
0.0
0
LINE
8
0
6
CONTINUOUS
10
-0.022947
20
-0.028695
30
0.0
11
-0.022947
21
-0.028484
31
0.0
0
LINE
8
0
6
CONTINUOUS
10
-0.025488
20
-0.028695
30
0.0
11
-0.022947
21
-0.028695
31
0.0
0
LINE
8
0
6
CONTINUOUS
10
-0.019252
20
-0.017770
30
0.0
11
-0.019252
21
-0.017472
31
0.0
0
LINE
8
0
6
CONTINUOUS
10
-0.021377
20
-0.017770
30
0.0
11
-0.019252
21
-0.017770
31
0.0
0
LINE
8
0
6
CONTINUOUS
10
-0.025671
20
0.027880
30
0.0
11
-0.019230
21
0.028677
31
0.0
0
LINE
8
0
6
CONTINUOUS
10
-0.021364
20
0.028703
30
0.0
11
-0.021678
21
0.028498
31
0.0
0
LINE
8
0
6
CONTINUOUS
10
-0.024574
20
-0.017770
30
0.0
11
-0.021377
21
-0.017770
31
0.0
0
LINE
8
0
6
CONTINUOUS
10
-0.018614
20
0.028703
30
0.0
11
-0.020581
21
0.028703
31
0.0
0
LINE
8
0
6
CONTINUOUS
10
-0.019230
20
0.028677
30
0.0
11
-0.018614
21
0.028703
31
0.0
0
LINE
8
0
6
CONTINUOUS
10
-0.027986
20
0.024606
30
0.0
11
-0.027810
21
0.025859
31
0.0
0
LINE
8
0
6
CONTINUOUS
10
-0.027986
20
0.018396
30
0.0
11
-0.027986
21
0.024606
31
0.0
0
LINE
8
0
6
CONTINUOUS
10
-0.027308
20
0.026921
30
0.0
11
-0.026557
21
0.027631
31
0.0
0
LINE
8
0
6
CONTINUOUS
10
-0.026557
20
0.027631
30
0.0
11
-0.025671
21
0.027880
31
0.0
0
LINE
8
0
6
CONTINUOUS
10
-0.027833
20
0.015372
30
0.0
11
-0.026945
21
0.015123
31
0.0
0
LINE
8
0
6
CONTINUOUS
10
-0.027810
20
0.025859
30
0.0
11
-0.027308
21
0.026921
31
0.0
0
LINE
8
0
6
CONTINUOUS
10
-0.020691
20
0.028677
30
0.0
11
-0.026949
21
0.027880
31
0.0
0
LINE
8
0
6
CONTINUOUS
10
-0.020581
20
0.028703
30
0.0
11
-0.020799
21
0.028703
31
0.0
0
LINE
8
0
6
CONTINUOUS
10
0.016287
20
0.027425
30
0.0
11
0.016287
21
0.016282
31
0.0
0
LINE
8
0
6
CONTINUOUS
10
0.026525
20
0.016082
30
0.0
11
0.027027
21
0.017144
31
0.0
0
LINE
8
0
6
CONTINUOUS
10
0.018448
20
0.015022
30
0.0
11
0.024888
21
0.015123
31
0.0
0
LINE
8
0
6
CONTINUOUS
10
0.024888
20
0.015123
30
0.0
11
0.025774
21
0.015372
31
0.0
0
LINE
8
0
6
CONTINUOUS
10
0.025774
20
0.015372
30
0.0
11
0.026525
21
0.016082
31
0.0
0
LINE
8
0
6
CONTINUOUS
10
0.027027
20
0.017144
30
0.0
11
0.027203
21
0.018396
31
0.0
0
LINE
8
0
6
CONTINUOUS
10
0.016287
20
0.016030
30
0.0
11
0.016383
21
0.015531
31
0.0
0
LINE
8
0
6
CONTINUOUS
10
0.016213
20
0.028140
30
0.0
11
0.016287
21
0.027677
31
0.0
0
LINE
8
0
6
CONTINUOUS
10
0.015978
20
0.028498
30
0.0
11
0.016213
21
0.028140
31
0.0
0
LINE
8
0
6
CONTINUOUS
10
-0.019230
20
0.028677
30
0.0
11
-0.025671
21
0.027880
31
0.0
0
LINE
8
0
6
CONTINUOUS
10
-0.025671
20
0.015123
30
0.0
11
-0.019245
21
0.015024
31
0.0
0
LINE
8
0
6
CONTINUOUS
10
-0.017071
20
0.016284
30
0.0
11
-0.017071
21
0.027425
31
0.0
0
LINE
8
0
6
CONTINUOUS
10
-0.016997
20
0.028140
30
0.0
11
-0.016762
21
0.028498
31
0.0
0
LINE
8
0
6
CONTINUOUS
10
-0.017071
20
0.027677
30
0.0
11
-0.016997
21
0.028140
31
0.0
0
LINE
8
0
6
CONTINUOUS
10
-0.017168
20
0.015533
30
0.0
11
-0.017071
21
0.016033
31
0.0
0
LINE
8
0
6
CONTINUOUS
10
0.015392
20
0.027677
30
0.0
11
0.016291
21
0.027677
31
0.0
0
LINE
8
0
6
CONTINUOUS
10
0.014747
20
0.028703
30
0.0
11
0.010879
21
0.028703
31
0.0
0
LINE
8
0
6
CONTINUOUS
10
0.015079
20
0.028498
30
0.0
11
0.014747
21
0.028703
31
0.0
0
LINE
8
0
6
CONTINUOUS
10
-0.006364
20
0.027677
30
0.0
11
-0.000392
21
0.027677
31
0.0
0
LINE
8
0
6
CONTINUOUS
10
-0.012037
20
0.027677
30
0.0
11
-0.006364
21
0.027677
31
0.0
0
LINE
8
0
6
CONTINUOUS
10
-0.000392
20
0.027677
30
0.0
11
0.005581
21
0.027677
31
0.0
0
LINE
8
0
6
CONTINUOUS
10
-0.016176
20
0.027677
30
0.0
11
-0.012037
21
0.027677
31
0.0
0
LINE
8
0
6
CONTINUOUS
10
-0.016098
20
0.028140
30
0.0
11
-0.016176
21
0.027677
31
0.0
0
LINE
8
0
6
CONTINUOUS
10
-0.000392
20
0.028703
30
0.0
11
-0.006172
21
0.028703
31
0.0
0
LINE
8
0
6
CONTINUOUS
10
0.005581
20
0.027677
30
0.0
11
0.011254
21
0.027677
31
0.0
0
LINE
8
0
6
CONTINUOUS
10
-0.015863
20
0.028498
30
0.0
11
-0.016098
21
0.028140
31
0.0
0
LINE
8
0
6
CONTINUOUS
10
-0.006172
20
0.028703
30
0.0
11
-0.011662
21
0.028703
31
0.0
0
LINE
8
0
6
CONTINUOUS
10
0.005389
20
0.028703
30
0.0
11
-0.000392
21
0.028703
31
0.0
0
LINE
8
0
6
CONTINUOUS
10
0.015392
20
0.027677
30
0.0
11
0.015314
21
0.028140
31
0.0
0
LINE
8
0
6
CONTINUOUS
10
0.011254
20
0.027677
30
0.0
11
0.015392
21
0.027677
31
0.0
0
LINE
8
0
6
CONTINUOUS
10
0.010879
20
0.028703
30
0.0
11
0.005389
21
0.028703
31
0.0
0
LINE
8
0
6
CONTINUOUS
10
0.015314
20
0.028140
30
0.0
11
0.015079
21
0.028498
31
0.0
0
LINE
8
0
6
CONTINUOUS
10
-0.011662
20
0.028703
30
0.0
11
-0.015531
21
0.028703
31
0.0
0
LINE
8
0
6
CONTINUOUS
10
-0.015531
20
0.028703
30
0.0
11
-0.015863
21
0.028498
31
0.0
0
LINE
8
0
6
CONTINUOUS
10
-0.006364
20
0.027677
30
0.0
11
-0.012037
21
0.027677
31
0.0
0
LINE
8
0
6
CONTINUOUS
10
0.005581
20
0.027677
30
0.0
11
-0.000392
21
0.027677
31
0.0
0
LINE
8
0
6
CONTINUOUS
10
0.011254
20
0.027677
30
0.0
11
0.005581
21
0.027677
31
0.0
0
LINE
8
0
6
CONTINUOUS
10
-0.006364
20
-0.017770
30
0.0
11
-0.000392
21
-0.017770
31
0.0
0
LINE
8
0
6
CONTINUOUS
10
-0.012037
20
-0.017770
30
0.0
11
-0.006364
21
-0.017770
31
0.0
0
LINE
8
0
6
CONTINUOUS
10
-0.000392
20
-0.017770
30
0.0
11
0.005581
21
-0.017770
31
0.0
0
LINE
8
0
6
CONTINUOUS
10
-0.022297
20
-0.020809
30
0.0
11
-0.022639
21
-0.021135
31
0.0
0
LINE
8
0
6
CONTINUOUS
10
0.005581
20
-0.017770
30
0.0
11
0.011254
21
-0.017770
31
0.0
0
LINE
8
0
6
CONTINUOUS
10
-0.022639
20
-0.021135
30
0.0
11
-0.022866
21
-0.021621
31
0.0
0
LINE
8
0
6
CONTINUOUS
10
-0.021893
20
-0.020695
30
0.0
11
-0.022297
21
-0.020809
31
0.0
0
LINE
8
0
6
CONTINUOUS
10
-0.019470
20
-0.020695
30
0.0
11
-0.021893
21
-0.020695
31
0.0
0
LINE
8
0
6
CONTINUOUS
10
-0.017584
20
-0.017770
30
0.0
11
-0.017584
21
-0.020469
31
0.0
0
LINE
8
0
6
CONTINUOUS
10
-0.017584
20
-0.020695
30
0.0
11
-0.015647
21
-0.020695
31
0.0
0
LINE
8
0
6
CONTINUOUS
10
-0.017584
20
-0.020469
30
0.0
11
-0.017584
21
-0.020695
31
0.0
0
LINE
8
0
6
CONTINUOUS
10
-0.019252
20
-0.017472
30
0.0
11
-0.019252
21
-0.017770
31
0.0
0
LINE
8
0
6
CONTINUOUS
10
-0.019252
20
-0.017770
30
0.0
11
-0.017127
21
-0.017770
31
0.0
0
LINE
8
0
6
CONTINUOUS
10
0.018469
20
-0.017472
30
0.0
11
0.018461
21
0.015022
31
0.0
0
LINE
8
0
6
CONTINUOUS
10
-0.022866
20
-0.021621
30
0.0
11
-0.022947
21
-0.022195
31
0.0
0
LINE
8
0
6
CONTINUOUS
10
-0.005836
20
-0.020695
30
0.0
11
-0.000392
21
-0.020695
31
0.0
0
LINE
8
0
6
CONTINUOUS
10
-0.017778
20
-0.020695
30
0.0
11
-0.021816
21
-0.020695
31
0.0
0
LINE
8
0
6
CONTINUOUS
10
-0.015819
20
-0.020695
30
0.0
11
-0.017778
21
-0.020695
31
0.0
0
LINE
8
0
6
CONTINUOUS
10
-0.000392
20
-0.020695
30
0.0
11
0.005053
21
-0.020695
31
0.0
0
LINE
8
0
6
CONTINUOUS
10
-0.011007
20
-0.020695
30
0.0
11
-0.005836
21
-0.020695
31
0.0
0
LINE
8
0
6
CONTINUOUS
10
-0.015647
20
-0.020695
30
0.0
11
-0.011007
21
-0.020695
31
0.0
0
LINE
8
0
6
CONTINUOUS
10
-0.019245
20
0.015024
30
0.0
11
-0.019252
21
-0.017472
31
0.0
0
LINE
8
0
6
CONTINUOUS
10
0.010224
20
-0.020695
30
0.0
11
0.014863
21
-0.020695
31
0.0
0
LINE
8
0
6
CONTINUOUS
10
0.005053
20
-0.020695
30
0.0
11
0.010224
21
-0.020695
31
0.0
0
LINE
8
0
6
CONTINUOUS
10
-0.000392
20
-0.020695
30
0.0
11
-0.005898
21
-0.020695
31
0.0
0
LINE
8
0
6
CONTINUOUS
10
-0.012037
20
0.027677
30
0.0
11
-0.017075
21
0.027677
31
0.0
0
LINE
8
0
6
CONTINUOUS
10
0.016801
20
-0.020469
30
0.0
11
0.016801
21
-0.017777
31
0.0
0
LINE
8
0
6
CONTINUOUS
10
-0.005898
20
-0.020695
30
0.0
11
-0.011127
21
-0.020695
31
0.0
0
LINE
8
0
6
CONTINUOUS
10
-0.011127
20
-0.020695
30
0.0
11
-0.015819
21
-0.020695
31
0.0
0
LINE
8
0
6
CONTINUOUS
10
0.016801
20
-0.020695
30
0.0
11
0.016801
21
-0.020469
31
0.0
0
LINE
8
0
6
CONTINUOUS
10
0.014863
20
-0.020695
30
0.0
11
0.016801
21
-0.020695
31
0.0
0
LINE
8
0
6
CONTINUOUS
10
-0.000392
20
-0.020695
30
0.0
11
-0.007201
21
-0.020695
31
0.0
0
LINE
8
0
6
CONTINUOUS
10
0.006418
20
-0.020695
30
0.0
11
-0.000392
21
-0.020695
31
0.0
0
LINE
8
0
6
CONTINUOUS
10
-0.007201
20
-0.020695
30
0.0
11
-0.013668
21
-0.020695
31
0.0
0
LINE
8
0
6
CONTINUOUS
10
-0.013668
20
-0.020695
30
0.0
11
-0.019470
21
-0.020695
31
0.0
0
LINE
8
0
6
CONTINUOUS
10
0.018687
20
-0.020695
30
0.0
11
0.012885
21
-0.020695
31
0.0
0
LINE
8
0
6
CONTINUOUS
10
0.012885
20
-0.020695
30
0.0
11
0.006418
21
-0.020695
31
0.0
0
LINE
8
0
6
CONTINUOUS
10
0.021513
20
-0.020809
30
0.0
11
0.021110
21
-0.020695
31
0.0
0
LINE
8
0
6
CONTINUOUS
10
0.021110
20
-0.020695
30
0.0
11
0.018687
21
-0.020695
31
0.0
0
LINE
8
0
6
CONTINUOUS
10
0.021856
20
-0.021135
30
0.0
11
0.021513
21
-0.020809
31
0.0
0
LINE
8
0
6
CONTINUOUS
10
0.022083
20
-0.021621
30
0.0
11
0.021856
21
-0.021135
31
0.0
0
LINE
8
0
6
CONTINUOUS
10
-0.007534
20
-0.028695
30
0.0
11
-0.000392
21
-0.028695
31
0.0
0
LINE
8
0
6
CONTINUOUS
10
0.022164
20
-0.022195
30
0.0
11
0.022083
21
-0.021621
31
0.0
0
LINE
8
0
6
CONTINUOUS
10
-0.000392
20
-0.028695
30
0.0
11
0.006751
21
-0.028695
31
0.0
0
LINE
8
0
6
CONTINUOUS
10
-0.014319
20
-0.028695
30
0.0
11
-0.007534
21
-0.028695
31
0.0
0
LINE
8
0
6
CONTINUOUS
10
-0.020406
20
-0.028695
30
0.0
11
-0.014319
21
-0.028695
31
0.0
0
LINE
8
0
6
CONTINUOUS
10
0.022164
20
-0.022329
30
0.0
11
0.022164
21
-0.022195
31
0.0
0
LINE
8
0
6
CONTINUOUS
10
0.013536
20
-0.028695
30
0.0
11
0.019622
21
-0.028695
31
0.0
0
LINE
8
0
6
CONTINUOUS
10
0.006751
20
-0.028695
30
0.0
11
0.013536
21
-0.028695
31
0.0
0
LINE
8
0
6
CONTINUOUS
10
0.022164
20
-0.028484
30
0.0
11
0.022164
21
-0.022329
31
0.0
0
LINE
8
0
6
CONTINUOUS
10
0.016291
20
0.027677
30
0.0
11
0.011254
21
0.027677
31
0.0
0
LINE
8
0
6
CONTINUOUS
10
0.022164
20
-0.028695
30
0.0
11
0.022164
21
-0.028484
31
0.0
0
LINE
8
0
6
CONTINUOUS
10
0.019622
20
-0.028695
30
0.0
11
0.022164
21
-0.028695
31
0.0
0
LINE
8
0
6
CONTINUOUS
10
0.018469
20
-0.017770
30
0.0
11
0.018469
21
-0.017472
31
0.0
0
LINE
8
0
6
CONTINUOUS
10
0.016344
20
-0.017770
30
0.0
11
0.018469
21
-0.017770
31
0.0
0
LINE
8
0
6
CONTINUOUS
10
-0.022947
20
-0.028695
30
0.0
11
-0.020406
21
-0.028695
31
0.0
0
LINE
8
0
6
CONTINUOUS
10
-0.022947
20
-0.028484
30
0.0
11
-0.022947
21
-0.028695
31
0.0
0
LINE
8
0
6
CONTINUOUS
10
-0.022947
20
-0.022329
30
0.0
11
-0.022947
21
-0.028484
31
0.0
0
LINE
8
0
6
CONTINUOUS
10
-0.022947
20
-0.022195
30
0.0
11
-0.022947
21
-0.022329
31
0.0
0
LINE
8
0
6
CONTINUOUS
10
0.024888
20
0.027880
30
0.0
11
0.018448
21
0.028677
31
0.0
0
LINE
8
0
6
CONTINUOUS
10
-0.016997
20
0.028140
30
0.0
11
-0.017075
21
0.027677
31
0.0
0
LINE
8
0
6
CONTINUOUS
10
-0.016762
20
0.028498
30
0.0
11
-0.016997
21
0.028140
31
0.0
0
LINE
8
0
6
CONTINUOUS
10
-0.016430
20
0.028703
30
0.0
11
-0.016762
21
0.028498
31
0.0
0
LINE
8
0
6
CONTINUOUS
10
0.015978
20
0.028498
30
0.0
11
0.015646
21
0.028703
31
0.0
0
LINE
8
0
6
CONTINUOUS
10
0.016213
20
0.028140
30
0.0
11
0.015978
21
0.028498
31
0.0
0
LINE
8
0
6
CONTINUOUS
10
0.016291
20
0.027677
30
0.0
11
0.016213
21
0.028140
31
0.0
0
LINE
8
0
6
CONTINUOUS
10
-0.000392
20
0.027677
30
0.0
11
-0.006364
21
0.027677
31
0.0
0
LINE
8
0
6
CONTINUOUS
10
0.011254
20
-0.017770
30
0.0
11
0.016344
21
-0.017770
31
0.0
0
LINE
8
0
6
CONTINUOUS
10
-0.017127
20
-0.017770
30
0.0
11
-0.012037
21
-0.017770
31
0.0
0
LINE
8
0
6
CONTINUOUS
10
0.017831
20
0.028703
30
0.0
11
0.015864
21
0.028703
31
0.0
0
LINE
8
0
6
CONTINUOUS
10
0.018448
20
0.028677
30
0.0
11
0.017831
21
0.028703
31
0.0
0
LINE
8
0
6
CONTINUOUS
10
0.015646
20
0.028703
30
0.0
11
0.015978
21
0.028498
31
0.0
0
LINE
8
0
6
CONTINUOUS
10
-0.016762
20
0.028498
30
0.0
11
-0.016430
21
0.028703
31
0.0
0
LINE
8
0
6
CONTINUOUS
10
-0.017071
20
0.027425
30
0.0
11
-0.017071
21
0.027677
31
0.0
0
LINE
8
0
6
CONTINUOUS
10
-0.017071
20
0.016033
30
0.0
11
-0.017071
21
0.016284
31
0.0
0
LINE
8
0
6
CONTINUOUS
10
0.016287
20
0.016282
30
0.0
11
0.016287
21
0.016030
31
0.0
0
LINE
8
0
6
CONTINUOUS
10
0.016287
20
0.027677
30
0.0
11
0.016287
21
0.027425
31
0.0
0
LINE
8
0
6
CONTINUOUS
10
-0.027810
20
0.025859
30
0.0
11
-0.027986
21
0.024606
31
0.0
0
LINE
8
0
6
CONTINUOUS
10
-0.027308
20
0.016082
30
0.0
11
-0.026557
21
0.015372
31
0.0
0
LINE
8
0
6
CONTINUOUS
10
-0.027986
20
0.024606
30
0.0
11
-0.027986
21
0.018396
31
0.0
0
LINE
8
0
6
CONTINUOUS
10
-0.025671
20
0.027880
30
0.0
11
-0.026557
21
0.027631
31
0.0
0
LINE
8
0
6
CONTINUOUS
10
-0.027308
20
0.026921
30
0.0
11
-0.027810
21
0.025859
31
0.0
0
LINE
8
0
6
CONTINUOUS
10
-0.027810
20
0.017144
30
0.0
11
-0.027308
21
0.016082
31
0.0
0
LINE
8
0
6
CONTINUOUS
10
-0.027986
20
0.018396
30
0.0
11
-0.027810
21
0.017144
31
0.0
0
LINE
8
0
6
CONTINUOUS
10
-0.026557
20
0.027631
30
0.0
11
-0.027308
21
0.026921
31
0.0
0
LINE
8
0
6
CONTINUOUS
10
-0.018614
20
0.028703
30
0.0
11
-0.019230
21
0.028677
31
0.0
0
LINE
8
0
6
CONTINUOUS
10
-0.016648
20
0.028703
30
0.0
11
-0.018614
21
0.028703
31
0.0
0
LINE
8
0
6
CONTINUOUS
10
-0.026557
20
0.015372
30
0.0
11
-0.025671
21
0.015123
31
0.0
0
LINE
8
0
6
CONTINUOUS
10
0.027203
20
0.024606
30
0.0
11
0.027027
21
0.025859
31
0.0
0
LINE
8
0
6
CONTINUOUS
10
0.027203
20
0.018396
30
0.0
11
0.027203
21
0.024606
31
0.0
0
LINE
8
0
6
CONTINUOUS
10
0.026525
20
0.026921
30
0.0
11
0.025774
21
0.027631
31
0.0
0
LINE
8
0
6
CONTINUOUS
10
0.025774
20
0.027631
30
0.0
11
0.024888
21
0.027880
31
0.0
0
LINE
8
0
6
CONTINUOUS
10
0.027027
20
0.025859
30
0.0
11
0.026525
21
0.026921
31
0.0
0
LINE
8
0
6
CONTINUOUS
10
0.031991
20
0.005313
30
0.0
11
0.031932
21
0.005313
31
0.0
0
LINE
8
0
6
CONTINUOUS
10
0.031932
20
-0.004687
30
0.0
11
0.031991
21
-0.004687
31
0.0
0
LINE
8
0
6
CONTINUOUS
10
0.031991
20
-0.004687
30
0.0
11
0.032241
21
-0.004619
31
0.0
0
LINE
8
0
6
CONTINUOUS
10
0.032241
20
-0.004619
30
0.0
11
0.032424
21
-0.004435
31
0.0
0
LINE
8
0
6
CONTINUOUS
10
0.032491
20
-0.004183
30
0.0
11
0.032491
21
-0.004029
31
0.0
0
LINE
8
0
6
CONTINUOUS
10
0.032424
20
-0.004435
30
0.0
11
0.032491
21
-0.004183
31
0.0
0
LINE
8
0
6
CONTINUOUS
10
0.032491
20
-0.004029
30
0.0
11
0.032491
21
-0.003580
31
0.0
0
LINE
8
0
6
CONTINUOUS
10
0.032491
20
-0.003580
30
0.0
11
0.032491
21
-0.002866
31
0.0
0
LINE
8
0
6
CONTINUOUS
10
0.032491
20
-0.002866
30
0.0
11
0.032491
21
-0.001935
31
0.0
0
LINE
8
0
6
CONTINUOUS
10
0.032491
20
-0.001935
30
0.0
11
0.032491
21
-0.000851
31
0.0
0
LINE
8
0
6
CONTINUOUS
10
0.032491
20
-0.000851
30
0.0
11
0.032491
21
0.000313
31
0.0
0
LINE
8
0
6
CONTINUOUS
10
0.032491
20
0.001477
30
0.0
11
0.032491
21
0.002561
31
0.0
0
LINE
8
0
6
CONTINUOUS
10
0.032491
20
0.002561
30
0.0
11
0.032491
21
0.003492
31
0.0
0
LINE
8
0
6
CONTINUOUS
10
0.032491
20
0.003492
30
0.0
11
0.032491
21
0.004206
31
0.0
0
LINE
8
0
6
CONTINUOUS
10
0.032491
20
0.004206
30
0.0
11
0.032491
21
0.004656
31
0.0
0
LINE
8
0
6
CONTINUOUS
10
0.032241
20
0.005245
30
0.0
11
0.031991
21
0.005313
31
0.0
0
LINE
8
0
6
CONTINUOUS
10
0.032424
20
0.005061
30
0.0
11
0.032241
21
0.005245
31
0.0
0
LINE
8
0
6
CONTINUOUS
10
0.032491
20
0.004809
30
0.0
11
0.032424
21
0.005061
31
0.0
0
LINE
8
0
6
CONTINUOUS
10
0.032491
20
0.004656
30
0.0
11
0.032491
21
0.004809
31
0.0
0
LINE
8
0
6
CONTINUOUS
10
0.031932
20
0.005313
30
0.0
11
0.026449
21
0.005313
31
0.0
0
LINE
8
0
6
CONTINUOUS
10
0.026449
20
-0.004687
30
0.0
11
0.031932
21
-0.004687
31
0.0
0
ENDSEC
0
EOF
