  0
SECTION
  2
HEADER
  9
$ACADVER
  1
AC1015
  9
$ACADMAINTVER
 70
     6
  9
$DWGCODEPAGE
  3
ANSI_1252
  9
$INSBASE
 10
0.0
 20
0.0
 30
0.0
  9
$EXTMIN
 10
-0.096
 20
0.158
 30
0.0
  9
$EXTMAX
 10
448.933
 20
1327.842
 30
0.0
  9
$LIMMIN
 10
0.0
 20
0.0
  9
$LIMMAX
 10
12.0
 20
9.0
  9
$ORTHOMODE
 70
     0
  9
$REGENMODE
 70
     1
  9
$FILLMODE
 70
     1
  9
$QTEXTMODE
 70
     0
  9
$MIRRTEXT
 70
     1
  9
$LTSCALE
 40
1.0
  9
$ATTMODE
 70
     1
  9
$TEXTSIZE
 40
0.2
  9
$TRACEWID
 40
0.05
  9
$TEXTSTYLE
  7
Standard
  9
$CLAYER
  8
0
  9
$CELTYPE
  6
ByBlock
  9
$CECOLOR
 62
   256
  9
$CELTSCALE
 40
1.0
  9
$DISPSILH
 70
     0
  9
$DIMSCALE
 40
1.0
  9
$DIMASZ
 40
0.18
  9
$DIMEXO
 40
0.0625
  9
$DIMDLI
 40
0.38
  9
$DIMRND
 40
0.0
  9
$DIMDLE
 40
0.0
  9
$DIMEXE
 40
0.18
  9
$DIMTP
 40
0.0
  9
$DIMTM
 40
0.0
  9
$DIMTXT
 40
0.18
  9
$DIMCEN
 40
0.09
  9
$DIMTSZ
 40
0.0
  9
$DIMTOL
 70
     0
  9
$DIMLIM
 70
     0
  9
$DIMTIH
 70
     1
  9
$DIMTOH
 70
     1
  9
$DIMSE1
 70
     0
  9
$DIMSE2
 70
     0
  9
$DIMTAD
 70
     0
  9
$DIMZIN
 70
     0
  9
$DIMBLK
  1

  9
$DIMASO
 70
     1
  9
$DIMSHO
 70
     1
  9
$DIMPOST
  1

  9
$DIMAPOST
  1

  9
$DIMALT
 70
     0
  9
$DIMALTD
 70
     2
  9
$DIMALTF
 40
25.4
  9
$DIMLFAC
 40
1.0
  9
$DIMTOFL
 70
     0
  9
$DIMTVP
 40
0.0
  9
$DIMTIX
 70
     0
  9
$DIMSOXD
 70
     0
  9
$DIMSAH
 70
     0
  9
$DIMBLK1
  1

  9
$DIMBLK2
  1

  9
$DIMSTYLE
  2
Standard
  9
$DIMCLRD
 70
     0
  9
$DIMCLRE
 70
     0
  9
$DIMCLRT
 70
     0
  9
$DIMTFAC
 40
1.0
  9
$DIMGAP
 40
0.09
  9
$DIMJUST
 70
     0
  9
$DIMSD1
 70
     0
  9
$DIMSD2
 70
     0
  9
$DIMTOLJ
 70
     1
  9
$DIMTZIN
 70
     0
  9
$DIMALTZ
 70
     0
  9
$DIMALTTZ
 70
     0
  9
$DIMUPT
 70
     0
  9
$DIMDEC
 70
     4
  9
$DIMTDEC
 70
     4
  9
$DIMALTU
 70
     2
  9
$DIMALTTD
 70
     2
  9
$DIMTXSTY
  7
Standard
  9
$DIMAUNIT
 70
     0
  9
$DIMADEC
 70
     0
  9
$DIMALTRND
 40
0.0
  9
$DIMAZIN
 70
     0
  9
$DIMDSEP
 70
    46
  9
$DIMATFIT
 70
     3
  9
$DIMFRAC
 70
     0
  9
$DIMLDRBLK
  1

  9
$DIMLUNIT
 70
     2
  9
$DIMLWD
 70
    -2
  9
$DIMLWE
 70
    -2
  9
$DIMTMOVE
 70
     2
  9
$LUNITS
 70
     2
  9
$LUPREC
 70
     4
  9
$SKETCHINC
 40
0.1
  9
$FILLETRAD
 40
0.5
  9
$AUNITS
 70
     0
  9
$AUPREC
 70
     0
  9
$MENU
  1
.
  9
$ELEVATION
 40
0.0
  9
$PELEVATION
 40
0.0
  9
$THICKNESS
 40
0.0
  9
$LIMCHECK
 70
     0
  9
$CHAMFERA
 40
0.5
  9
$CHAMFERB
 40
0.5
  9
$CHAMFERC
 40
1.0
  9
$CHAMFERD
 40
0.0
  9
$SKPOLY
 70
     0
  9
$TDCREATE
 40
2456647.964938148
  9
$TDUCREATE
 40
2456647.923271481
  9
$TDUPDATE
 40
2456647.986147095
  9
$TDUUPDATE
 40
2456647.944480428
  9
$TDINDWG
 40
0.0212085995
  9
$TDUSRTIMER
 40
0.0212085995
  9
$USRTIMER
 70
     1
  9
$ANGBASE
 50
0.0
  9
$ANGDIR
 70
     0
  9
$PDMODE
 70
     0
  9
$PDSIZE
 40
0.0
  9
$PLINEWID
 40
0.0
  9
$SPLFRAME
 70
     0
  9
$SPLINETYPE
 70
     6
  9
$SPLINESEGS
 70
     8
  9
$HANDSEED
  5
A43
  9
$SURFTAB1
 70
     6
  9
$SURFTAB2
 70
     6
  9
$SURFTYPE
 70
     6
  9
$SURFU
 70
     6
  9
$SURFV
 70
     6
  9
$UCSBASE
  2

  9
$UCSNAME
  2

  9
$UCSORG
 10
0.0
 20
0.0
 30
0.0
  9
$UCSXDIR
 10
1.0
 20
0.0
 30
0.0
  9
$UCSYDIR
 10
0.0
 20
1.0
 30
0.0
  9
$UCSORTHOREF
  2

  9
$UCSORTHOVIEW
 70
     0
  9
$UCSORGTOP
 10
0.0
 20
0.0
 30
0.0
  9
$UCSORGBOTTOM
 10
0.0
 20
0.0
 30
0.0
  9
$UCSORGLEFT
 10
0.0
 20
0.0
 30
0.0
  9
$UCSORGRIGHT
 10
0.0
 20
0.0
 30
0.0
  9
$UCSORGFRONT
 10
0.0
 20
0.0
 30
0.0
  9
$UCSORGBACK
 10
0.0
 20
0.0
 30
0.0
  9
$PUCSBASE
  2

  9
$PUCSNAME
  2

  9
$PUCSORG
 10
0.0
 20
0.0
 30
0.0
  9
$PUCSXDIR
 10
1.0
 20
0.0
 30
0.0
  9
$PUCSYDIR
 10
0.0
 20
1.0
 30
0.0
  9
$PUCSORTHOREF
  2

  9
$PUCSORTHOVIEW
 70
     0
  9
$PUCSORGTOP
 10
0.0
 20
0.0
 30
0.0
  9
$PUCSORGBOTTOM
 10
0.0
 20
0.0
 30
0.0
  9
$PUCSORGLEFT
 10
0.0
 20
0.0
 30
0.0
  9
$PUCSORGRIGHT
 10
0.0
 20
0.0
 30
0.0
  9
$PUCSORGFRONT
 10
0.0
 20
0.0
 30
0.0
  9
$PUCSORGBACK
 10
0.0
 20
0.0
 30
0.0
  9
$USERI1
 70
     0
  9
$USERI2
 70
     0
  9
$USERI3
 70
     0
  9
$USERI4
 70
     0
  9
$USERI5
 70
     0
  9
$USERR1
 40
0.0
  9
$USERR2
 40
0.0
  9
$USERR3
 40
0.0
  9
$USERR4
 40
0.0
  9
$USERR5
 40
0.0
  9
$WORLDVIEW
 70
     1
  9
$SHADEDGE
 70
     3
  9
$SHADEDIF
 70
    70
  9
$TILEMODE
 70
     1
  9
$MAXACTVP
 70
    64
  9
$PINSBASE
 10
0.0
 20
0.0
 30
0.0
  9
$PLIMCHECK
 70
     0
  9
$PEXTMIN
 10
1.000000000000E+20
 20
1.000000000000E+20
 30
1.000000000000E+20
  9
$PEXTMAX
 10
-1.000000000000E+20
 20
-1.000000000000E+20
 30
-1.000000000000E+20
  9
$PLIMMIN
 10
0.0
 20
0.0
  9
$PLIMMAX
 10
12.0
 20
9.0
  9
$UNITMODE
 70
     0
  9
$VISRETAIN
 70
     1
  9
$PLINEGEN
 70
     0
  9
$PSLTSCALE
 70
     1
  9
$TREEDEPTH
 70
  3020
  9
$CMLSTYLE
  2
Standard
  9
$CMLJUST
 70
     0
  9
$CMLSCALE
 40
1.0
  9
$PROXYGRAPHICS
 70
     1
  9
$MEASUREMENT
 70
     0
  9
$CELWEIGHT
370
    -1
  9
$ENDCAPS
280
     0
  9
$JOINSTYLE
280
     0
  9
$LWDISPLAY
290
     0
  9
$INSUNITS
 70
     0
  9
$HYPERLINKBASE
  1

  9
$STYLESHEET
  1

  9
$XEDIT
290
     1
  9
$CEPSNTYPE
380
     0
  9
$PSTYLEMODE
290
     1
  9
$FINGERPRINTGUID
  2
{87390D74-3B3F-4A5A-8709-557C61D79E86}
  9
$VERSIONGUID
  2
{FAEB1C32-E019-11D5-929B-00C0DF256EC4}
  9
$EXTNAMES
290
     1
  9
$PSVPSCALE
 40
0.0
  9
$OLESTARTUP
290
     0
  0
ENDSEC
  0
SECTION
  2
CLASSES
  0
CLASS
  1
ACDBDICTIONARYWDFLT
  2
AcDbDictionaryWithDefault
  3
ObjectDBX Classes
 90
        0
280
     0
281
     0
  0
CLASS
  1
SCALE
  2
AcDbScale
  3
ObjectDBX Classes
 90
     1153
280
     0
281
     0
  0
CLASS
  1
DICTIONARYVAR
  2
AcDbDictionaryVar
  3
ObjectDBX Classes
 90
        0
280
     0
281
     0
  0
CLASS
  1
ACDBPLACEHOLDER
  2
AcDbPlaceHolder
  3
ObjectDBX Classes
 90
        0
280
     0
281
     0
  0
CLASS
  1
LAYOUT
  2
AcDbLayout
  3
ObjectDBX Classes
 90
        0
280
     0
281
     0
  0
ENDSEC
  0
SECTION
  2
TABLES
  0
TABLE
  2
VPORT
  5
8
330
0
100
AcDbSymbolTable
 70
     1
  0
VPORT
  5
931
330
8
100
AcDbSymbolTableRecord
100
AcDbViewportTableRecord
  2
*Active
 70
     0
 10
0.0
 20
0.0
 11
1.0
 21
1.0
 12
224.4185
 22
663.921
 13
0.0
 23
0.0
 14
0.5
 24
0.5
 15
0.5
 25
0.5
 16
0.0
 26
0.0
 36
1.0
 17
0.0
 27
0.0
 37
0.0
 40
1354.39884
 41
1.729542302358
 42
50.0
 43
0.0
 44
0.0
 50
0.0
 51
0.0
 71
    16
 72
   100
 73
     1
 74
     3
 75
     0
 76
     0
 77
     0
 78
     0
281
     0
 65
     1
110
0.0
120
0.0
130
0.0
111
1.0
121
0.0
131
0.0
112
0.0
122
1.0
132
0.0
 79
     0
146
0.0
  0
ENDTAB
  0
TABLE
  2
LTYPE
  5
5
330
0
100
AcDbSymbolTable
 70
     1
  0
LTYPE
  5
14
330
5
100
AcDbSymbolTableRecord
100
AcDbLinetypeTableRecord
  2
ByBlock
 70
     0
  3

 72
    65
 73
     0
 40
0.0
  0
LTYPE
  5
15
330
5
100
AcDbSymbolTableRecord
100
AcDbLinetypeTableRecord
  2
ByLayer
 70
     0
  3

 72
    65
 73
     0
 40
0.0
  0
LTYPE
  5
16
330
5
100
AcDbSymbolTableRecord
100
AcDbLinetypeTableRecord
  2
Continuous
 70
     0
  3
Solid line
 72
    65
 73
     0
 40
0.0
  0
ENDTAB
  0
TABLE
  2
LAYER
  5
2
330
0
100
AcDbSymbolTable
 70
     1
  0
LAYER
  5
10
330
2
100
AcDbSymbolTableRecord
100
AcDbLayerTableRecord
  2
0
 70
     0
 62
     7
  6
Continuous
370
    -3
390
F
  0
ENDTAB
  0
TABLE
  2
STYLE
  5
3
330
0
100
AcDbSymbolTable
 70
     1
  0
STYLE
  5
11
330
3
100
AcDbSymbolTableRecord
100
AcDbTextStyleTableRecord
  2
Standard
 70
     0
 40
0.0
 41
1.0
 50
0.0
 71
     0
 42
0.2
  3
txt
  4

  0
ENDTAB
  0
TABLE
  2
VIEW
  5
6
330
0
100
AcDbSymbolTable
 70
     0
  0
ENDTAB
  0
TABLE
  2
UCS
  5
7
330
0
100
AcDbSymbolTable
 70
     0
  0
ENDTAB
  0
TABLE
  2
APPID
  5
9
330
0
100
AcDbSymbolTable
 70
     1
  0
APPID
  5
12
330
9
100
AcDbSymbolTableRecord
100
AcDbRegAppTableRecord
  2
ACAD
 70
     0
  0
ENDTAB
  0
TABLE
  2
DIMSTYLE
  5
A
330
0
100
AcDbSymbolTable
 70
     1
100
AcDbDimStyleTable
  0
DIMSTYLE
105
20
330
A
100
AcDbSymbolTableRecord
100
AcDbDimStyleTableRecord
  2
Standard
 70
     0
340
11
  0
ENDTAB
  0
TABLE
  2
BLOCK_RECORD
  5
1
330
0
100
AcDbSymbolTable
 70
     0
  0
BLOCK_RECORD
  5
1D
330
1
100
AcDbSymbolTableRecord
100
AcDbBlockTableRecord
  2
*Model_Space
340
1E
  0
BLOCK_RECORD
  5
1B
330
1
100
AcDbSymbolTableRecord
100
AcDbBlockTableRecord
  2
*Paper_Space
340
1C
  0
ENDTAB
  0
ENDSEC
  0
SECTION
  2
BLOCKS
  0
BLOCK
  5
934
330
1D
100
AcDbEntity
  8
0
100
AcDbBlockBegin
  2
*Model_Space
 70
     0
 10
0.0
 20
0.0
 30
0.0
  3
*Model_Space
  1
*Model_Space
  0
ENDBLK
  5
935
330
1D
100
AcDbEntity
  8
0
100
AcDbBlockEnd
  0
BLOCK
  5
932
330
1B
100
AcDbEntity
 67
     1
  8
0
100
AcDbBlockBegin
  2
*Paper_Space
 70
     0
 10
0.0
 20
0.0
 30
0.0
  3
*Paper_Space
  1
*Paper_Space
  0
ENDBLK
  5
933
330
1B
100
AcDbEntity
 67
     1
  8
0
100
AcDbBlockEnd
  0
ENDSEC
  0
SECTION
  2
ENTITIES
  0
LINE
  5
22
330
1D
100
AcDbEntity
  8
0
100
AcDbLine
 10
119.807
 20
187.528
 30
0.0
 11
123.729
 21
184.222
 31
0.0
  0
LINE
  5
26
330
1D
100
AcDbEntity
  8
0
100
AcDbLine
 10
116.629
 20
191.376
 30
0.0
 11
119.807
 21
187.528
 31
0.0
  0
LINE
  5
28
330
1D
100
AcDbEntity
  8
0
100
AcDbLine
 10
123.385
 20
184.511970423253
 30
0.0
 11
123.385
 21
181.462
 31
0.0
  0
LINE
  5
29
330
1D
100
AcDbEntity
  8
0
100
AcDbLine
 10
114.141
 20
196.002
 30
0.0
 11
114.684
 21
194.876
 31
0.0
  0
LINE
  5
2B
330
1D
100
AcDbEntity
  8
0
100
AcDbLine
 10
113.135
 20
198.561
 30
0.0
 11
114.141
 21
196.002
 31
0.0
  0
LINE
  5
2E
330
1D
100
AcDbEntity
  8
0
100
AcDbLine
 10
114.684
 20
194.876
 30
0.0
 11
116.629
 21
191.376
 31
0.0
  0
LINE
  5
2F
330
1D
100
AcDbEntity
  8
0
100
AcDbLine
 10
118.845
 20
199.79
 30
0.0
 11
120.597
 21
195.691
 31
0.0
  0
LINE
  5
30
330
1D
100
AcDbEntity
  8
0
100
AcDbLine
 10
112.607
 20
200.613
 30
0.0
 11
113.135
 21
198.561
 31
0.0
  0
LINE
  5
37
330
1D
100
AcDbEntity
  8
0
100
AcDbLine
 10
118.772
 20
200.355
 30
0.0
 11
118.845
 21
199.79
 31
0.0
  0
LINE
  5
38
330
1D
100
AcDbEntity
  8
0
100
AcDbLine
 10
119.120762343038
 20
201.751551044377
 30
0.0
 11
120.083
 21
202.588
 31
0.0
  0
LINE
  5
39
330
1D
100
AcDbEntity
  8
0
100
AcDbLine
 10
120.083
 20
202.588
 30
0.0
 11
126.093765448739
 21
202.655623526424
 31
0.0
  0
LINE
  5
3C
330
1D
100
AcDbEntity
  8
0
100
AcDbLine
 10
118.772
 20
200.355
 30
0.0
 11
119.120762343038
 21
201.751551044377
 31
0.0
  0
LINE
  5
3E
330
1D
100
AcDbEntity
  8
0
100
AcDbLine
 10
120.597
 20
195.691
 30
0.0
 11
123.53
 21
191.823
 31
0.0
  0
LINE
  5
40
330
1D
100
AcDbEntity
  8
0
100
AcDbLine
 10
112.032
 20
203.762
 30
0.0
 11
112.607
 21
200.613
 31
0.0
  0
LINE
  5
42
330
1D
100
AcDbEntity
  8
0
100
AcDbLine
 10
111.937
 20
205.791
 30
0.0
 11
112.032
 21
203.762
 31
0.0
  0
LINE
  5
46
330
1D
100
AcDbEntity
  8
0
100
AcDbLine
 10
112.214
 20
211.278
 30
0.0
 11
112.513268656505
 21
212.397983713055
 31
0.0
  0
LINE
  5
48
330
1D
100
AcDbEntity
  8
0
100
AcDbLine
 10
111.909
 20
206.592
 30
0.0
 11
111.937
 21
205.791
 31
0.0
  0
LINE
  5
49
330
1D
100
AcDbEntity
  8
0
100
AcDbLine
 10
111.909
 20
206.592
 30
0.0
 11
112.214
 21
211.278
 31
0.0
  0
LINE
  5
4B
330
1D
100
AcDbEntity
  8
0
100
AcDbLine
 10
118.738
 20
213.165
 30
0.0
 11
120.126
 21
216.802
 31
0.0
  0
LINE
  5
4C
330
1D
100
AcDbEntity
  8
0
100
AcDbLine
 10
118.738
 20
213.165
 30
0.0
 11
118.956930837364
 21
212.12605589233
 31
0.0
  0
LINE
  5
4D
330
1D
100
AcDbEntity
  8
0
100
AcDbLine
 10
112.956
 20
214.308
 30
0.0
 11
113.596
 21
216.45
 31
0.0
  0
LINE
  5
4F
330
1D
100
AcDbEntity
  8
0
100
AcDbLine
 10
113.596
 20
216.45
 30
0.0
 11
114.519
 21
218.537
 31
0.0
  0
LINE
  5
54
330
1D
100
AcDbEntity
  8
0
100
AcDbLine
 10
119.303
 20
211.585
 30
0.0
 11
120.399
 21
210.968
 31
0.0
  0
LINE
  5
55
330
1D
100
AcDbEntity
  8
0
100
AcDbLine
 10
118.956930837364
 20
212.12605589233
 30
0.0
 11
119.303
 21
211.585
 31
0.0
  0
LINE
  5
5B
330
1D
100
AcDbEntity
  8
0
100
AcDbLine
 10
120.399
 20
210.968
 30
0.0
 11
130.288
 21
210.93
 31
0.0
  0
LINE
  5
5C
330
1D
100
AcDbEntity
  8
0
100
AcDbLine
 10
120.126
 20
216.802
 30
0.0
 11
122.958
 21
220.91
 31
0.0
  0
LINE
  5
5E
330
1D
100
AcDbEntity
  8
0
100
AcDbLine
 10
114.519
 20
218.537
 30
0.0
 11
115.26
 21
220.016
 31
0.0
  0
LINE
  5
60
330
1D
100
AcDbEntity
  8
0
100
AcDbLine
 10
115.26
 20
220.016
 30
0.0
 11
117.362
 21
223.329
 31
0.0
  0
LINE
  5
62
330
1D
100
AcDbEntity
  8
0
100
AcDbLine
 10
120.155215446605
 20
226.389146994503
 30
0.0
 11
120.428
 21
226.688
 31
0.0
  0
LINE
  5
63
330
1D
100
AcDbEntity
  8
0
100
AcDbLine
 10
117.362
 20
223.329
 30
0.0
 11
119.070677595771
 21
225.200966093997
 31
0.0
  0
LINE
  5
64
330
1D
100
AcDbEntity
  8
0
100
AcDbLine
 10
121.82
 20
228.022
 30
0.0
 11
122.854
 21
228.82
 31
0.0
  0
LINE
  5
65
330
1D
100
AcDbEntity
  8
0
100
AcDbLine
 10
122.854
 20
228.82
 30
0.0
 11
123.953
 21
229.526
 31
0.0
  0
LINE
  5
68
330
1D
100
AcDbEntity
  8
0
100
AcDbLine
 10
120.428
 20
226.688
 30
0.0
 11
121.82
 21
228.022
 31
0.0
  0
LINE
  5
69
330
1D
100
AcDbEntity
  8
0
100
AcDbLine
 10
122.958
 20
220.91
 30
0.0
 11
125.648
 21
223.807
 31
0.0
  0
LINE
  5
6E
330
1D
100
AcDbEntity
  8
0
100
AcDbLine
 10
123.385
 20
202.625148826744
 30
0.0
 11
123.385
 21
192.397869052632
 31
0.0
  0
LINE
  5
6F
330
1D
100
AcDbEntity
  8
0
100
AcDbLine
 10
123.385
 20
221.321600490196
 30
0.0
 11
123.385
 21
211.002
 31
0.0
  0
LINE
  5
70
330
1D
100
AcDbEntity
  8
0
100
AcDbLine
 10
123.385
 20
232.222
 30
0.0
 11
123.385
 21
229.1611155596
 31
0.0
  0
LINE
  5
71
330
1D
100
AcDbEntity
  8
0
100
AcDbLine
 10
123.385
 20
232.222
 30
0.0
 11
123.768
 21
232.222
 31
0.0
  0
LINE
  5
72
330
1D
100
AcDbEntity
  8
0
100
AcDbLine
 10
123.385
 20
232.222
 30
0.0
 11
124.013
 21
232.798
 31
0.0
  0
LINE
  5
73
330
1D
100
AcDbEntity
  8
0
100
AcDbLine
 10
123.385
 20
229.1611155596
 30
0.0
 11
123.385
 21
232.222
 31
0.0
  0
LINE
  5
74
330
1D
100
AcDbEntity
  8
0
100
AcDbLine
 10
123.385
 20
211.002
 30
0.0
 11
123.385
 21
221.321600490196
 31
0.0
  0
LINE
  5
75
330
1D
100
AcDbEntity
  8
0
100
AcDbLine
 10
123.385
 20
192.397869052632
 30
0.0
 11
123.385
 21
202.625148826744
 31
0.0
  0
LINE
  5
76
330
1D
100
AcDbEntity
  8
0
100
AcDbLine
 10
123.854
 20
180.955
 30
0.0
 11
124.247
 21
180.954
 31
0.0
  0
LINE
  5
77
330
1D
100
AcDbEntity
  8
0
100
AcDbLine
 10
123.854
 20
180.955
 30
0.0
 11
125.308
 21
180.649
 31
0.0
  0
LINE
  5
78
330
1D
100
AcDbEntity
  8
0
100
AcDbLine
 10
124.247
 20
180.954
 30
0.0
 11
125.085
 21
180.976
 31
0.0
  0
LINE
  5
79
330
1D
100
AcDbEntity
  8
0
100
AcDbLine
 10
125.085
 20
180.976
 30
0.0
 11
126.402
 21
180.952
 31
0.0
  0
LINE
  5
7B
330
1D
100
AcDbEntity
  8
0
100
AcDbLine
 10
126.402
 20
180.952
 30
0.0
 11
128.212
 21
180.954
 31
0.0
  0
LINE
  5
7C
330
1D
100
AcDbEntity
  8
0
100
AcDbLine
 10
126.147
 20
180.047
 30
0.0
 11
126.735
 21
179.066
 31
0.0
  0
LINE
  5
7D
330
1D
100
AcDbEntity
  8
0
100
AcDbLine
 10
126.735
 20
179.066
 30
0.0
 11
126.883
 21
151.842
 31
0.0
  0
LINE
  5
7F
330
1D
100
AcDbEntity
  8
0
100
AcDbLine
 10
125.308
 20
180.649
 30
0.0
 11
126.147
 21
180.047
 31
0.0
  0
LINE
  5
80
330
1D
100
AcDbEntity
  8
0
100
AcDbLine
 10
126.883
 20
151.842
 30
0.0
 11
127.15
 21
147.091
 31
0.0
  0
LINE
  5
81
330
1D
100
AcDbEntity
  8
0
100
AcDbLine
 10
127.15
 20
147.091
 30
0.0
 11
127.947
 21
142.4
 31
0.0
  0
LINE
  5
82
330
1D
100
AcDbEntity
  8
0
100
AcDbLine
 10
123.729
 20
184.222
 30
0.0
 11
128.549
 21
181.586
 31
0.0
  0
LINE
  5
83
330
1D
100
AcDbEntity
  8
0
100
AcDbLine
 10
123.720700623929
 20
229.338974289563
 30
0.0
 11
123.953
 21
229.526
 31
0.0
  0
LINE
  5
84
330
1D
100
AcDbEntity
  8
0
100
AcDbLine
 10
123.53
 20
191.823
 30
0.0
 11
126.774
 21
189.181
 31
0.0
  0
LINE
  5
86
330
1D
100
AcDbEntity
  8
0
100
AcDbLine
 10
126.348356982962
 20
202.555044154879
 30
0.0
 11
126.943
 21
201.143
 31
0.0
  0
LINE
  5
87
330
1D
100
AcDbEntity
  8
0
100
AcDbLine
 10
126.093765448739
 20
202.655623526424
 30
0.0
 11
126.348356982962
 21
202.555044154879
 31
0.0
  0
LINE
  5
8F
330
1D
100
AcDbEntity
  8
0
100
AcDbLine
 10
126.774
 20
189.181
 30
0.0
 11
129.435
 21
187.569
 31
0.0
  0
LINE
  5
90
330
1D
100
AcDbEntity
  8
0
100
AcDbLine
 10
126.943
 20
201.143
 30
0.0
 11
128.216
 21
198.927
 31
0.0
  0
LINE
  5
92
330
1D
100
AcDbEntity
  8
0
100
AcDbLine
 10
123.953
 20
229.526
 30
0.0
 11
127.118
 21
231.454
 31
0.0
  0
LINE
  5
93
330
1D
100
AcDbEntity
  8
0
100
AcDbLine
 10
126.027
 20
211.002
 30
0.0
 11
126.394547323182
 21
211.186608996417
 31
0.0
  0
LINE
  5
94
330
1D
100
AcDbEntity
  8
0
100
AcDbLine
 10
126.394547323182
 20
211.186608996416
 30
0.0
 11
126.705
 21
211.993
 31
0.0
  0
LINE
  5
95
330
1D
100
AcDbEntity
  8
0
100
AcDbLine
 10
125.648
 20
223.807
 30
0.0
 11
129.556
 21
226.322
 31
0.0
  0
LINE
  5
96
330
1D
100
AcDbEntity
  8
0
100
AcDbLine
 10
124.679
 20
232.223
 30
0.0
 11
126.092
 21
232.223
 31
0.0
  0
LINE
  5
97
330
1D
100
AcDbEntity
  8
0
100
AcDbLine
 10
126.092
 20
232.223
 30
0.0
 11
127.95
 21
232.224
 31
0.0
  0
LINE
  5
9A
330
1D
100
AcDbEntity
  8
0
100
AcDbLine
 10
127.118
 20
231.454
 30
0.0
 11
130.936
 21
232.957
 31
0.0
  0
LINE
  5
9C
330
1D
100
AcDbEntity
  8
0
100
AcDbLine
 10
126.705
 20
211.993
 30
0.0
 11
127.966
 21
214.407
 31
0.0
  0
LINE
  5
9E
330
1D
100
AcDbEntity
  8
0
100
AcDbLine
 10
123.768
 20
232.222
 30
0.0
 11
124.679
 21
232.223
 31
0.0
  0
LINE
  5
A0
330
1D
100
AcDbEntity
  8
0
100
AcDbLine
 10
123.385
 20
181.462
 30
0.0
 11
123.385
 21
184.511970423253
 31
0.0
  0
LINE
  5
A2
330
1D
100
AcDbEntity
  8
0
100
AcDbLine
 10
123.385
 20
181.462
 30
0.0
 11
123.854
 21
180.955
 31
0.0
  0
LINE
  5
A3
330
1D
100
AcDbEntity
  8
0
100
AcDbLine
 10
124.013
 20
232.798
 30
0.0
 11
126.698
 21
232.842
 31
0.0
  0
LINE
  5
A5
330
1D
100
AcDbEntity
  8
0
100
AcDbLine
 10
126.698
 20
232.842
 30
0.0
 11
127.162
 21
232.842
 31
0.0
  0
LINE
  5
A6
330
1D
100
AcDbEntity
  8
0
100
AcDbLine
 10
126.698
 20
232.842
 30
0.0
 11
126.785
 21
232.842
 31
0.0
  0
LINE
  5
A7
330
1D
100
AcDbEntity
  8
0
100
AcDbLine
 10
127.162
 20
232.842
 30
0.0
 11
127.221
 21
232.842
 31
0.0
  0
LINE
  5
A8
330
1D
100
AcDbEntity
  8
0
100
AcDbLine
 10
126.785
 20
232.842
 30
0.0
 11
127.419
 21
232.842
 31
0.0
  0
LINE
  5
A9
330
1D
100
AcDbEntity
  8
0
100
AcDbLine
 10
84.0943
 20
250.836
 30
0.0
 11
85.8573
 21
252.185
 31
0.0
  0
LINE
  5
AA
330
1D
100
AcDbEntity
  8
0
100
AcDbLine
 10
85.8573
 20
252.185
 30
0.0
 11
87.6953
 21
253.385
 31
0.0
  0
LINE
  5
AB
330
1D
100
AcDbEntity
  8
0
100
AcDbLine
 10
87.6953
 20
253.385
 30
0.0
 11
89.4963
 21
254.584
 31
0.0
  0
LINE
  5
AC
330
1D
100
AcDbEntity
  8
0
100
AcDbLine
 10
89.4963
 20
254.584
 30
0.0
 11
90.5843
 21
255.634
 31
0.0
  0
LINE
  5
AD
330
1D
100
AcDbEntity
  8
0
100
AcDbLine
 10
90.5843
 20
255.634
 30
0.0
 11
91.2973
 21
256.346
 31
0.0
  0
LINE
  5
AE
330
1D
100
AcDbEntity
  8
0
100
AcDbLine
 10
100.439
 20
283.542
 30
0.0
 11
100.455
 21
295.742
 31
0.0
  0
LINE
  5
AF
330
1D
100
AcDbEntity
  8
0
100
AcDbLine
 10
123.693
 20
283.542
 30
0.0
 11
124.269
 21
283.542
 31
0.0
  0
LINE
  5
B0
330
1D
100
AcDbEntity
  8
0
100
AcDbLine
 10
124.269
 20
283.542
 30
0.0
 11
125.805
 21
283.542
 31
0.0
  0
LINE
  5
B1
330
1D
100
AcDbEntity
  8
0
100
AcDbLine
 10
125.805
 20
283.542
 30
0.0
 11
127.221
 21
283.542
 31
0.0
  0
LINE
  5
B2
330
1D
100
AcDbEntity
  8
0
100
AcDbLine
 10
125.805
 20
283.542
 30
0.0
 11
128.301
 21
283.542
 31
0.0
  0
LINE
  5
B3
330
1D
100
AcDbEntity
  8
0
100
AcDbLine
 10
91.5663
 20
256.574
 30
0.0
 11
91.5663
 21
283.698088419571
 31
0.0
  0
LINE
  5
B4
330
1D
100
AcDbEntity
  8
0
100
AcDbLine
 10
91.2973
 20
256.346
 30
0.0
 11
91.5663
 21
256.574
 31
0.0
  0
LINE
  5
B5
330
1D
100
AcDbEntity
  8
0
100
AcDbLine
 10
82.1433
 20
248.849
 30
0.0
 11
84.0943
 21
250.836
 31
0.0
  0
LINE
  5
B6
330
1D
100
AcDbEntity
  8
0
100
AcDbLine
 10
80.3433
 20
247.725
 30
0.0
 11
82.1433
 21
248.849
 31
0.0
  0
LINE
  5
B7
330
1D
100
AcDbEntity
  8
0
100
AcDbLine
 10
78.8423
 20
247.05
 30
0.0
 11
80.3433
 21
247.725
 31
0.0
  0
LINE
  5
B8
330
1D
100
AcDbEntity
  8
0
100
AcDbLine
 10
77.6043
 20
246.675
 30
0.0
 11
78.8423
 21
247.05
 31
0.0
  0
LINE
  5
B9
330
1D
100
AcDbEntity
  8
0
100
AcDbLine
 10
76.9293
 20
246.6
 30
0.0
 11
77.6043
 21
246.675
 31
0.0
  0
LINE
  5
BA
330
1D
100
AcDbEntity
  8
0
100
AcDbLine
 10
76.5663
 20
246.574
 30
0.0
 11
76.9293
 21
246.6
 31
0.0
  0
LINE
  5
BB
330
1D
100
AcDbEntity
  8
0
100
AcDbLine
 10
76.5663
 20
246.574
 30
0.0
 11
76.5663
 21
283.962685909993
 31
0.0
  0
LINE
  5
C1
330
1D
100
AcDbEntity
  8
0
100
AcDbLine
 10
72.7428
 20
336.939
 30
0.0
 11
73.0663
 21
336.939
 31
0.0
  0
LINE
  5
C2
330
1D
100
AcDbEntity
  8
0
100
AcDbLine
 10
72.4024
 20
336.939
 30
0.0
 11
72.7428
 21
336.939
 31
0.0
  0
LINE
  5
C5
330
1D
100
AcDbEntity
  8
0
100
AcDbLine
 10
73.317
 20
284.414
 30
0.0
 11
73.3449
 21
336.305
 31
0.0
  0
LINE
  5
C6
330
1D
100
AcDbEntity
  8
0
100
AcDbLine
 10
73.309
 20
284.257
 30
0.0
 11
73.3579
 21
284.152
 31
0.0
  0
LINE
  5
C9
330
1D
100
AcDbEntity
  8
0
100
AcDbLine
 10
73.309
 20
284.257
 30
0.0
 11
73.317
 21
284.414
 31
0.0
  0
LINE
  5
CA
330
1D
100
AcDbEntity
  8
0
100
AcDbLine
 10
73.8846
 20
284.01
 30
0.0
 11
75.0169
 21
283.99
 31
0.0
  0
LINE
  5
CB
330
1D
100
AcDbEntity
  8
0
100
AcDbLine
 10
73.5664
 20
284.048
 30
0.0
 11
73.8846
 21
284.01
 31
0.0
  0
LINE
  5
CD
330
1D
100
AcDbEntity
  8
0
100
AcDbLine
 10
73.3579
 20
284.152
 30
0.0
 11
73.5664
 21
284.048
 31
0.0
  0
LINE
  5
CF
330
1D
100
AcDbEntity
  8
0
100
AcDbLine
 10
74.0663
 20
336.574
 30
0.0
 11
75.9663
 21
336.574
 31
0.0
  0
LINE
  5
D0
330
1D
100
AcDbEntity
  8
0
100
AcDbLine
 10
73.4623
 20
336.934
 30
0.0
 11
74.5183
 21
336.934
 31
0.0
  0
LINE
  5
D1
330
1D
100
AcDbEntity
  8
0
100
AcDbLine
 10
73.0663
 20
336.934
 30
0.0
 11
73.3303
 21
336.574
 31
0.0
  0
LINE
  5
D2
330
1D
100
AcDbEntity
  8
0
100
AcDbLine
 10
73.0663
 20
336.934
 30
0.0
 11
73.4623
 21
336.934
 31
0.0
  0
LINE
  5
D3
330
1D
100
AcDbEntity
  8
0
100
AcDbLine
 10
72.8548
 20
336.939
 30
0.0
 11
73.169
 21
336.939
 31
0.0
  0
LINE
  5
D4
330
1D
100
AcDbEntity
  8
0
100
AcDbLine
 10
73.169
 20
336.939
 30
0.0
 11
74.2278
 21
336.939
 31
0.0
  0
LINE
  5
DA
330
1D
100
AcDbEntity
  8
0
100
AcDbLine
 10
75.0169
 20
283.99
 30
0.0
 11
76.2489
 21
283.969
 31
0.0
  0
LINE
  5
DD
330
1D
100
AcDbEntity
  8
0
100
AcDbLine
 10
76.5663
 20
283.962685909993
 30
0.0
 11
76.5663
 21
246.574
 31
0.0
  0
LINE
  5
DE
330
1D
100
AcDbEntity
  8
0
100
AcDbLine
 10
78.3663
 20
336.574
 30
0.0
 11
81.0663
 21
336.574
 31
0.0
  0
LINE
  5
DF
330
1D
100
AcDbEntity
  8
0
100
AcDbLine
 10
75.9663
 20
336.574
 30
0.0
 11
78.3663
 21
336.574
 31
0.0
  0
LINE
  5
E3
330
1D
100
AcDbEntity
  8
0
100
AcDbLine
 10
78.6103
 20
336.934
 30
0.0
 11
81.2503
 21
336.934
 31
0.0
  0
LINE
  5
E4
330
1D
100
AcDbEntity
  8
0
100
AcDbLine
 10
76.2783
 20
336.934
 30
0.0
 11
78.6103
 21
336.934
 31
0.0
  0
LINE
  5
E5
330
1D
100
AcDbEntity
  8
0
100
AcDbLine
 10
74.5183
 20
336.934
 30
0.0
 11
76.2783
 21
336.934
 31
0.0
  0
LINE
  5
E6
330
1D
100
AcDbEntity
  8
0
100
AcDbLine
 10
75.3456
 20
336.939
 30
0.0
 11
77.4565
 21
336.939
 31
0.0
  0
LINE
  5
E7
330
1D
100
AcDbEntity
  8
0
100
AcDbLine
 10
74.2278
 20
336.939
 30
0.0
 11
75.9586
 21
336.939
 31
0.0
  0
LINE
  5
E8
330
1D
100
AcDbEntity
  8
0
100
AcDbLine
 10
78.2484
 20
336.939
 30
0.0
 11
80.9344
 21
336.939
 31
0.0
  0
LINE
  5
EF
330
1D
100
AcDbEntity
  8
0
100
AcDbLine
 10
81.0663
 20
336.574
 30
0.0
 11
84.0663
 21
336.574
 31
0.0
  0
LINE
  5
F0
330
1D
100
AcDbEntity
  8
0
100
AcDbLine
 10
81.2503
 20
336.934
 30
0.0
 11
84.0663
 21
336.934
 31
0.0
  0
LINE
  5
F4
330
1D
100
AcDbEntity
  8
0
100
AcDbLine
 10
84.0663
 20
336.574
 30
0.0
 11
87.0663
 21
336.574
 31
0.0
  0
LINE
  5
101
330
1D
100
AcDbEntity
  8
0
100
AcDbLine
 10
87.0663
 20
336.574
 30
0.0
 11
89.7663
 21
336.574
 31
0.0
  0
LINE
  5
102
330
1D
100
AcDbEntity
  8
0
100
AcDbLine
 10
84.0663
 20
336.934
 30
0.0
 11
86.8823
 21
336.934
 31
0.0
  0
LINE
  5
103
330
1D
100
AcDbEntity
  8
0
100
AcDbLine
 10
86.8823
 20
336.934
 30
0.0
 11
89.5223
 21
336.934
 31
0.0
  0
LINE
  5
107
330
1D
100
AcDbEntity
  8
0
100
AcDbLine
 10
91.5663
 20
283.698088419571
 30
0.0
 11
91.5663
 21
256.574
 31
0.0
  0
LINE
  5
108
330
1D
100
AcDbEntity
  8
0
100
AcDbLine
 10
89.7663
 20
336.574
 30
0.0
 11
92.1663
 21
336.574
 31
0.0
  0
LINE
  5
109
330
1D
100
AcDbEntity
  8
0
100
AcDbLine
 10
89.5223
 20
336.934
 30
0.0
 11
91.8543
 21
336.934
 31
0.0
  0
LINE
  5
10A
330
1D
100
AcDbEntity
  8
0
100
AcDbLine
 10
91.8543
 20
336.934
 30
0.0
 11
93.6143
 21
336.934
 31
0.0
  0
LINE
  5
10B
330
1D
100
AcDbEntity
  8
0
100
AcDbLine
 10
82.6928
 20
336.939
 30
0.0
 11
85.5127
 21
336.939
 31
0.0
  0
LINE
  5
10C
330
1D
100
AcDbEntity
  8
0
100
AcDbLine
 10
85.5127
 20
336.939
 30
0.0
 11
88.2507
 21
336.939
 31
0.0
  0
LINE
  5
10D
330
1D
100
AcDbEntity
  8
0
100
AcDbLine
 10
80.9344
 20
336.939
 30
0.0
 11
83.8349
 21
336.939
 31
0.0
  0
LINE
  5
10E
330
1D
100
AcDbEntity
  8
0
100
AcDbLine
 10
89.4976
 20
336.939
 30
0.0
 11
91.8693
 21
336.939
 31
0.0
  0
LINE
  5
11B
330
1D
100
AcDbEntity
  8
0
100
AcDbLine
 10
92.1663
 20
336.574
 30
0.0
 11
94.0663
 21
336.574
 31
0.0
  0
LINE
  5
11C
330
1D
100
AcDbEntity
  8
0
100
AcDbLine
 10
95.557333333333
 20
336.305
 30
0.0
 11
96.383
 21
336.305
 31
0.0
  0
LINE
  5
11E
330
1D
100
AcDbEntity
  8
0
100
AcDbLine
 10
94.0663
 20
336.574
 30
0.0
 11
95.1663
 21
336.574
 31
0.0
  0
LINE
  5
11F
330
1D
100
AcDbEntity
  8
0
100
AcDbLine
 10
93.6143
 20
336.934
 30
0.0
 11
94.6703
 21
336.934
 31
0.0
  0
LINE
  5
120
330
1D
100
AcDbEntity
  8
0
100
AcDbLine
 10
94.6703
 20
336.934
 30
0.0
 11
95.0663
 21
336.934
 31
0.0
  0
LINE
  5
121
330
1D
100
AcDbEntity
  8
0
100
AcDbLine
 10
94.8023
 20
336.574
 30
0.0
 11
95.0663
 21
336.934
 31
0.0
  0
LINE
  5
122
330
1D
100
AcDbEntity
  8
0
100
AcDbLine
 10
94.898
 20
336.939
 30
0.0
 11
95.3519
 21
336.939
 31
0.0
  0
LINE
  5
123
330
1D
100
AcDbEntity
  8
0
100
AcDbLine
 10
91.8693
 20
336.939
 30
0.0
 11
93.7122
 21
336.939
 31
0.0
  0
LINE
  5
124
330
1D
100
AcDbEntity
  8
0
100
AcDbLine
 10
11.4177
 20
464.677
 30
0.0
 11
12.2165
 21
464.836
 31
0.0
  0
LINE
  5
125
330
1D
100
AcDbEntity
  8
0
100
AcDbLine
 10
12.2165
 20
464.836
 30
0.0
 11
63.1027
 21
486.436
 31
0.0
  0
LINE
  5
126
330
1D
100
AcDbEntity
  8
0
100
AcDbLine
 10
12.2165
 20
464.836
 30
0.0
 11
63.1027
 21
486.436
 31
0.0
  0
LINE
  5
127
330
1D
100
AcDbEntity
  8
0
100
AcDbLine
 10
11.0938
 20
464.726
 30
0.0
 11
11.4177
 21
464.677
 31
0.0
  0
LINE
  5
128
330
1D
100
AcDbEntity
  8
0
100
AcDbLine
 10
72.0023
 20
337.046
 30
0.0
 11
72.4024
 21
336.939
 31
0.0
  0
LINE
  5
129
330
1D
100
AcDbEntity
  8
0
100
AcDbLine
 10
71.7095
 20
337.339
 30
0.0
 11
72.0023
 21
337.046
 31
0.0
  0
LINE
  5
12A
330
1D
100
AcDbEntity
  8
0
100
AcDbLine
 10
71.6027
 20
337.74
 30
0.0
 11
71.7027
 21
482.94
 31
0.0
  0
LINE
  5
12B
330
1D
100
AcDbEntity
  8
0
100
AcDbLine
 10
71.6027
 20
337.74
 30
0.0
 11
71.7095
 21
337.339
 31
0.0
  0
LINE
  5
12C
330
1D
100
AcDbEntity
  8
0
100
AcDbLine
 10
93.7122
 20
336.939
 30
0.0
 11
94.898
 21
336.939
 31
0.0
  0
LINE
  5
12D
330
1D
100
AcDbEntity
  8
0
100
AcDbLine
 10
95.0663
 20
336.939
 30
0.0
 11
95.3519
 21
336.939
 31
0.0
  0
LINE
  5
12E
330
1D
100
AcDbEntity
  8
0
100
AcDbLine
 10
10.1025
 20
465.849
 30
0.0
 11
10.1025
 21
465.725
 31
0.0
  0
LINE
  5
12F
330
1D
100
AcDbEntity
  8
0
100
AcDbLine
 10
10.2353
 20
465.228
 30
0.0
 11
10.5973
 21
464.862
 31
0.0
  0
LINE
  5
130
330
1D
100
AcDbEntity
  8
0
100
AcDbLine
 10
10.1025
 20
465.725
 30
0.0
 11
10.2353
 21
465.228
 31
0.0
  0
LINE
  5
131
330
1D
100
AcDbEntity
  8
0
100
AcDbLine
 10
10.1025
 20
465.725
 30
0.0
 11
10.1028
 21
466.37
 31
0.0
  0
LINE
  5
132
330
1D
100
AcDbEntity
  8
0
100
AcDbLine
 10
10.1025
 20
465.725
 30
0.0
 11
10.1025
 21
465.849
 31
0.0
  0
LINE
  5
133
330
1D
100
AcDbEntity
  8
0
100
AcDbLine
 10
10.5973
 20
464.862
 30
0.0
 11
11.0938
 21
464.726
 31
0.0
  0
LINE
  5
239
330
1D
100
AcDbEntity
  8
0
100
AcDbLine
 10
10.1024
 20
547.141
 30
0.0
 11
10.1028
 21
548.03
 31
0.0
  0
LINE
  5
23D
330
1D
100
AcDbEntity
  8
0
100
AcDbLine
 10
64.5566
 20
487.004
 30
0.0
 11
65.7759
 21
487.396
 31
0.0
  0
LINE
  5
23E
330
1D
100
AcDbEntity
  8
0
100
AcDbLine
 10
63.1027
 20
486.436
 30
0.0
 11
64.5566
 21
487.004
 31
0.0
  0
LINE
  5
241
330
1D
100
AcDbEntity
  8
0
100
AcDbLine
 10
65.7759
 20
487.396
 30
0.0
 11
66.5738
 21
487.598
 31
0.0
  0
LINE
  5
246
330
1D
100
AcDbEntity
  8
0
100
AcDbLine
 10
66.5738
 20
487.598
 30
0.0
 11
68.0011
 21
487.798
 31
0.0
  0
LINE
  5
247
330
1D
100
AcDbEntity
  8
0
100
AcDbLine
 10
71.4881
 20
485.134
 30
0.0
 11
71.6563
 21
484.055
 31
0.0
  0
LINE
  5
248
330
1D
100
AcDbEntity
  8
0
100
AcDbLine
 10
71.6563
 20
484.055
 30
0.0
 11
71.7027
 21
482.94
 31
0.0
  0
LINE
  5
249
330
1D
100
AcDbEntity
  8
0
100
AcDbLine
 10
71.1413
 20
486.141
 30
0.0
 11
71.4881
 21
485.134
 31
0.0
  0
LINE
  5
24A
330
1D
100
AcDbEntity
  8
0
100
AcDbLine
 10
70.6154
 20
486.918
 30
0.0
 11
71.1413
 21
486.141
 31
0.0
  0
LINE
  5
24B
330
1D
100
AcDbEntity
  8
0
100
AcDbLine
 10
69.8573
 20
487.477
 30
0.0
 11
70.6154
 21
486.918
 31
0.0
  0
LINE
  5
24C
330
1D
100
AcDbEntity
  8
0
100
AcDbLine
 10
68.7816
 20
487.776
 30
0.0
 11
69.8573
 21
487.477
 31
0.0
  0
LINE
  5
24D
330
1D
100
AcDbEntity
  8
0
100
AcDbLine
 10
68.0011
 20
487.798
 30
0.0
 11
68.7816
 21
487.776
 31
0.0
  0
LINE
  5
252
330
1D
100
AcDbEntity
  8
0
100
AcDbLine
 10
10.2349
 20
548.65
 30
0.0
 11
10.5975
 21
549.016
 31
0.0
  0
LINE
  5
253
330
1D
100
AcDbEntity
  8
0
100
AcDbLine
 10
10.1026
 20
548.154
 30
0.0
 11
10.2349
 21
548.65
 31
0.0
  0
LINE
  5
257
330
1D
100
AcDbEntity
  8
0
100
AcDbLine
 10
88.9582
 20
510.595
 30
0.0
 11
90.2225
 21
508.841
 31
0.0
  0
LINE
  5
258
330
1D
100
AcDbEntity
  8
0
100
AcDbLine
 10
91.3589
 20
507.001
 30
0.0
 11
93.2158
 21
503.169
 31
0.0
  0
LINE
  5
259
330
1D
100
AcDbEntity
  8
0
100
AcDbLine
 10
93.2158
 20
503.169
 30
0.0
 11
94.4677
 21
499.552
 31
0.0
  0
LINE
  5
25A
330
1D
100
AcDbEntity
  8
0
100
AcDbLine
 10
94.4677
 20
499.552
 30
0.0
 11
95.3775
 21
495.796
 31
0.0
  0
LINE
  5
25B
330
1D
100
AcDbEntity
  8
0
100
AcDbLine
 10
90.2225
 20
508.841
 30
0.0
 11
91.3589
 21
507.001
 31
0.0
  0
LINE
  5
25C
330
1D
100
AcDbEntity
  8
0
100
AcDbLine
 10
83.9291
 20
515.774
 30
0.0
 11
86.0993
 21
513.803
 31
0.0
  0
LINE
  5
25D
330
1D
100
AcDbEntity
  8
0
100
AcDbLine
 10
81.6123
 20
517.585
 30
0.0
 11
83.9291
 21
515.774
 31
0.0
  0
LINE
  5
25E
330
1D
100
AcDbEntity
  8
0
100
AcDbLine
 10
79.1817
 20
519.256
 30
0.0
 11
81.6123
 21
517.585
 31
0.0
  0
LINE
  5
25F
330
1D
100
AcDbEntity
  8
0
100
AcDbLine
 10
76.6527
 20
520.809
 30
0.0
 11
79.1817
 21
519.256
 31
0.0
  0
LINE
  5
260
330
1D
100
AcDbEntity
  8
0
100
AcDbLine
 10
73.4589
 20
522.581
 30
0.0
 11
76.6527
 21
520.809
 31
0.0
  0
LINE
  5
261
330
1D
100
AcDbEntity
  8
0
100
AcDbLine
 10
70.1342
 20
524.261
 30
0.0
 11
73.4589
 21
522.581
 31
0.0
  0
LINE
  5
262
330
1D
100
AcDbEntity
  8
0
100
AcDbLine
 10
12.2166
 20
549.042
 30
0.0
 11
63.1026
 21
527.442
 31
0.0
  0
LINE
  5
263
330
1D
100
AcDbEntity
  8
0
100
AcDbLine
 10
12.2166
 20
549.042
 30
0.0
 11
63.1026
 21
527.442
 31
0.0
  0
LINE
  5
264
330
1D
100
AcDbEntity
  8
0
100
AcDbLine
 10
11.0937
 20
549.152
 30
0.0
 11
11.4181
 21
549.201
 31
0.0
  0
LINE
  5
265
330
1D
100
AcDbEntity
  8
0
100
AcDbLine
 10
11.4181
 20
549.201
 30
0.0
 11
12.2166
 21
549.042
 31
0.0
  0
LINE
  5
266
330
1D
100
AcDbEntity
  8
0
100
AcDbLine
 10
10.5975
 20
549.016
 30
0.0
 11
11.0937
 21
549.152
 31
0.0
  0
LINE
  5
267
330
1D
100
AcDbEntity
  8
0
100
AcDbLine
 10
63.1026
 20
527.442
 30
0.0
 11
70.1342
 21
524.261
 31
0.0
  0
LINE
  5
268
330
1D
100
AcDbEntity
  8
0
100
AcDbLine
 10
86.0993
 20
513.803
 30
0.0
 11
87.5803
 21
512.248
 31
0.0
  0
LINE
  5
269
330
1D
100
AcDbEntity
  8
0
100
AcDbLine
 10
87.5803
 20
512.248
 30
0.0
 11
88.9582
 21
510.595
 31
0.0
  0
LINE
  5
26F
330
1D
100
AcDbEntity
  8
0
100
AcDbLine
 10
95.1663
 20
336.574
 30
0.0
 11
95.5663
 21
336.574
 31
0.0
  0
LINE
  5
270
330
1D
100
AcDbEntity
  8
0
100
AcDbLine
 10
95.557333333333
 20
336.305
 30
0.0
 11
95.5663
 21
336.574
 31
0.0
  0
LINE
  5
271
330
1D
100
AcDbEntity
  8
0
100
AcDbLine
 10
95.3519
 20
336.939
 30
0.0
 11
95.4618
 21
336.94
 31
0.0
  0
LINE
  5
275
330
1D
100
AcDbEntity
  8
0
100
AcDbLine
 10
100.345
 20
283.543
 30
0.0
 11
100.439
 21
283.542
 31
0.0
  0
LINE
  5
276
330
1D
100
AcDbEntity
  8
0
100
AcDbLine
 10
99.382
 20
283.56
 30
0.0
 11
99.601039050501
 21
283.556416539051
 31
0.0
  0
LINE
  5
277
330
1D
100
AcDbEntity
  8
0
100
AcDbLine
 10
99.683
 20
283.555
 30
0.0
 11
100.322
 21
283.544
 31
0.0
  0
LINE
  5
278
330
1D
100
AcDbEntity
  8
0
100
AcDbLine
 10
100.004284916206
 20
283.549469273743
 30
0.0
 11
100.345
 21
283.543
 31
0.0
  0
LINE
  5
279
330
1D
100
AcDbEntity
  8
0
100
AcDbLine
 10
100.455
 20
295.742
 30
0.0
 11
100.896
 21
296.288
 31
0.0
  0
LINE
  5
27B
330
1D
100
AcDbEntity
  8
0
100
AcDbLine
 10
100.896
 20
296.288
 30
0.0
 11
109.372
 21
296.602
 31
0.0
  0
LINE
  5
27D
330
1D
100
AcDbEntity
  8
0
100
AcDbLine
 10
100.322
 20
283.544
 30
0.0
 11
100.439
 21
283.542
 31
0.0
  0
LINE
  5
285
330
1D
100
AcDbEntity
  8
0
100
AcDbLine
 10
109.569
 20
296.625
 30
0.0
 11
109.715
 21
296.604
 31
0.0
  0
LINE
  5
286
330
1D
100
AcDbEntity
  8
0
100
AcDbLine
 10
109.490904153355
 20
296.798546325879
 30
0.0
 11
109.569
 21
296.625
 31
0.0
  0
LINE
  5
287
330
1D
100
AcDbEntity
  8
0
100
AcDbLine
 10
109.715
 20
296.604
 30
0.0
 11
123.446224339627
 21
296.490513997363
 31
0.0
  0
LINE
  5
2CD
330
1D
100
AcDbEntity
  8
0
100
AcDbLine
 10
109.202
 20
323.519
 30
0.0
 11
109.381
 21
323.366
 31
0.0
  0
LINE
  5
2E9
330
1D
100
AcDbEntity
  8
0
100
AcDbLine
 10
109.43
 20
323.286
 30
0.0
 11
109.643
 21
323.515
 31
0.0
  0
LINE
  5
2EB
330
1D
100
AcDbEntity
  8
0
100
AcDbLine
 10
109.643
 20
323.515
 30
0.0
 11
123.309
 21
323.613166990619
 31
0.0
  0
LINE
  5
2EF
330
1D
100
AcDbEntity
  8
0
100
AcDbLine
 10
123.309
 20
296.507780706959
 30
0.0
 11
123.309
 21
284.157
 31
0.0
  0
LINE
  5
2F0
330
1D
100
AcDbEntity
  8
0
100
AcDbLine
 10
100.462
 20
324.383
 30
0.0
 11
100.948
 21
323.792
 31
0.0
  0
LINE
  5
2F1
330
1D
100
AcDbEntity
  8
0
100
AcDbLine
 10
100.948
 20
323.792
 30
0.0
 11
109.202
 21
323.519
 31
0.0
  0
LINE
  5
2F2
330
1D
100
AcDbEntity
  8
0
100
AcDbLine
 10
123.309
 20
323.521471841384
 30
0.0
 11
123.309
 21
335.927
 31
0.0
  0
LINE
  5
2F3
330
1D
100
AcDbEntity
  8
0
100
AcDbLine
 10
123.309
 20
284.157
 30
0.0
 11
123.309
 21
296.507780706959
 31
0.0
  0
LINE
  5
2F4
330
1D
100
AcDbEntity
  8
0
100
AcDbLine
 10
123.309
 20
284.157
 30
0.0
 11
123.693
 21
283.542
 31
0.0
  0
LINE
  5
2F5
330
1D
100
AcDbEntity
  8
0
100
AcDbLine
 10
96.383
 20
336.305
 30
0.0
 11
97.5591
 21
336.305
 31
0.0
  0
LINE
  5
2F6
330
1D
100
AcDbEntity
  8
0
100
AcDbLine
 10
97.5591
 20
336.305
 30
0.0
 11
98.5517
 21
336.305
 31
0.0
  0
LINE
  5
2F7
330
1D
100
AcDbEntity
  8
0
100
AcDbLine
 10
98.5517
 20
336.305
 30
0.0
 11
99.777
 21
336.305
 31
0.0
  0
LINE
  5
2F8
330
1D
100
AcDbEntity
  8
0
100
AcDbLine
 10
99.777
 20
336.305
 30
0.0
 11
100.299
 21
336.305
 31
0.0
  0
LINE
  5
2F9
330
1D
100
AcDbEntity
  8
0
100
AcDbLine
 10
100.299
 20
336.305
 30
0.0
 11
100.442
 21
336.305
 31
0.0
  0
LINE
  5
2FA
330
1D
100
AcDbEntity
  8
0
100
AcDbLine
 10
100.442
 20
336.305
 30
0.0
 11
100.462
 21
324.383
 31
0.0
  0
LINE
  5
2FB
330
1D
100
AcDbEntity
  8
0
100
AcDbLine
 10
123.693
 20
336.542
 30
0.0
 11
124.269
 21
336.542
 31
0.0
  0
LINE
  5
2FC
330
1D
100
AcDbEntity
  8
0
100
AcDbLine
 10
123.309
 20
335.927
 30
0.0
 11
123.693
 21
336.542
 31
0.0
  0
LINE
  5
2FD
330
1D
100
AcDbEntity
  8
0
100
AcDbLine
 10
123.309
 20
335.927
 30
0.0
 11
123.309
 21
323.521471841384
 31
0.0
  0
LINE
  5
2FE
330
1D
100
AcDbEntity
  8
0
100
AcDbLine
 10
95.8023
 20
336.939
 30
0.0
 11
96.2024
 21
337.046
 31
0.0
  0
LINE
  5
2FF
330
1D
100
AcDbEntity
  8
0
100
AcDbLine
 10
95.4618
 20
336.94
 30
0.0
 11
95.8023
 21
336.939
 31
0.0
  0
LINE
  5
300
330
1D
100
AcDbEntity
  8
0
100
AcDbLine
 10
96.2024
 20
337.046
 30
0.0
 11
96.495
 21
337.339
 31
0.0
  0
LINE
  5
301
330
1D
100
AcDbEntity
  8
0
100
AcDbLine
 10
95.3775
 20
495.796
 30
0.0
 11
95.9016
 21
492.621
 31
0.0
  0
LINE
  5
302
330
1D
100
AcDbEntity
  8
0
100
AcDbLine
 10
95.9016
 20
492.621
 30
0.0
 11
96.2463
 21
489.43
 31
0.0
  0
LINE
  5
303
330
1D
100
AcDbEntity
  8
0
100
AcDbLine
 10
96.4401
 20
486.202
 30
0.0
 11
96.5023
 21
482.94
 31
0.0
  0
LINE
  5
304
330
1D
100
AcDbEntity
  8
0
100
AcDbLine
 10
96.2463
 20
489.43
 30
0.0
 11
96.4401
 21
486.202
 31
0.0
  0
LINE
  5
305
330
1D
100
AcDbEntity
  8
0
100
AcDbLine
 10
96.495
 20
337.339
 30
0.0
 11
96.6019
 21
337.74
 31
0.0
  0
LINE
  5
306
330
1D
100
AcDbEntity
  8
0
100
AcDbLine
 10
96.5023
 20
482.94
 30
0.0
 11
96.6019
 21
337.74
 31
0.0
  0
LINE
  5
307
330
1D
100
AcDbEntity
  8
0
100
AcDbLine
 10
123.768
 20
757.388
 30
0.0
 11
123.768
 21
709.388
 31
0.0
  0
LINE
  5
308
330
1D
100
AcDbEntity
  8
0
100
AcDbLine
 10
123.768
 20
757.388
 30
0.0
 11
124.152
 21
759.388
 31
0.0
  0
LINE
  5
309
330
1D
100
AcDbEntity
  8
0
100
AcDbLine
 10
124.269
 20
336.542
 30
0.0
 11
125.805
 21
336.542
 31
0.0
  0
LINE
  5
30B
330
1D
100
AcDbEntity
  8
0
100
AcDbLine
 10
125.805
 20
336.542
 30
0.0
 11
128.301
 21
336.542
 31
0.0
  0
LINE
  5
30D
330
1D
100
AcDbEntity
  8
0
100
AcDbLine
 10
126.264
 20
707.388
 30
0.0
 11
128.76
 21
707.388
 31
0.0
  0
LINE
  5
30E
330
1D
100
AcDbEntity
  8
0
100
AcDbLine
 10
126.264
 20
707.388
 30
0.0
 11
127.221
 21
707.388
 31
0.0
  0
LINE
  5
30F
330
1D
100
AcDbEntity
  8
0
100
AcDbLine
 10
124.728
 20
707.388
 30
0.0
 11
126.264
 21
707.388
 31
0.0
  0
LINE
  5
310
330
1D
100
AcDbEntity
  8
0
100
AcDbLine
 10
126.264
 20
759.388
 30
0.0
 11
128.76
 21
759.388
 31
0.0
  0
LINE
  5
311
330
1D
100
AcDbEntity
  8
0
100
AcDbLine
 10
124.728
 20
759.388
 30
0.0
 11
126.264
 21
759.388
 31
0.0
  0
LINE
  5
312
330
1D
100
AcDbEntity
  8
0
100
AcDbLine
 10
124.152
 20
759.388
 30
0.0
 11
124.728
 21
759.388
 31
0.0
  0
LINE
  5
313
330
1D
100
AcDbEntity
  8
0
100
AcDbLine
 10
124.152
 20
707.388
 30
0.0
 11
124.728
 21
707.388
 31
0.0
  0
LINE
  5
314
330
1D
100
AcDbEntity
  8
0
100
AcDbLine
 10
123.768
 20
709.388
 30
0.0
 11
123.768
 21
757.388
 31
0.0
  0
LINE
  5
315
330
1D
100
AcDbEntity
  8
0
100
AcDbLine
 10
123.768
 20
709.388
 30
0.0
 11
124.152
 21
707.388
 31
0.0
  0
LINE
  5
316
330
1D
100
AcDbEntity
  8
0
100
AcDbLine
 10
127.221
 20
283.542
 30
0.0
 11
127.221
 21
232.797045522166
 31
0.0
  0
LINE
  5
317
330
1D
100
AcDbEntity
  8
0
100
AcDbLine
 10
127.221
 20
707.388
 30
0.0
 11
127.221
 21
336.542
 31
0.0
  0
LINE
  5
318
330
1D
100
AcDbEntity
  8
0
100
AcDbLine
 10
127.221
 20
232.797045522166
 30
0.0
 11
127.221
 21
283.542
 31
0.0
  0
LINE
  5
31D
330
1D
100
AcDbEntity
  8
0
100
AcDbLine
 10
127.947
 20
142.4
 30
0.0
 11
129.265
 21
137.828
 31
0.0
  0
LINE
  5
31E
330
1D
100
AcDbEntity
  8
0
100
AcDbLine
 10
127.95
 20
232.224
 30
0.0
 11
129.075268503737
 21
232.224501456552
 31
0.0
  0
LINE
  5
31F
330
1D
100
AcDbEntity
  8
0
100
AcDbLine
 10
127.966
 20
214.407
 30
0.0
 11
130.404
 21
217.14
 31
0.0
  0
LINE
  5
320
330
1D
100
AcDbEntity
  8
0
100
AcDbLine
 10
127.419
 20
232.842
 30
0.0
 11
128.574
 21
232.842
 31
0.0
  0
LINE
  5
322
330
1D
100
AcDbEntity
  8
0
100
AcDbLine
 10
128.212
 20
180.954
 30
0.0
 11
130.335624124303
 21
180.954967482517
 31
0.0
  0
LINE
  5
325
330
1D
100
AcDbEntity
  8
0
100
AcDbLine
 10
128.549
 20
181.586
 30
0.0
 11
131.066
 21
180.697
 31
0.0
  0
LINE
  5
328
330
1D
100
AcDbEntity
  8
0
100
AcDbLine
 10
129.435
 20
187.569
 30
0.0
 11
135.643
 21
185.357
 31
0.0
  0
LINE
  5
329
330
1D
100
AcDbEntity
  8
0
100
AcDbLine
 10
129.556
 20
226.322
 30
0.0
 11
134.304
 21
227.942
 31
0.0
  0
LINE
  5
32A
330
1D
100
AcDbEntity
  8
0
100
AcDbLine
 10
128.574
 20
232.842
 30
0.0
 11
130.198
 21
232.842
 31
0.0
  0
LINE
  5
32B
330
1D
100
AcDbEntity
  8
0
100
AcDbLine
 10
129.265
 20
137.828
 30
0.0
 11
131.086
 21
133.431
 31
0.0
  0
LINE
  5
32C
330
1D
100
AcDbEntity
  8
0
100
AcDbLine
 10
128.216
 20
198.927
 30
0.0
 11
130.729
 21
196.257
 31
0.0
  0
LINE
  5
32D
330
1D
100
AcDbEntity
  8
0
100
AcDbLine
 10
128.301
 20
336.542
 30
0.0
 11
131.565
 21
336.542
 31
0.0
  0
LINE
  5
32E
330
1D
100
AcDbEntity
  8
0
100
AcDbLine
 10
128.301
 20
283.542
 30
0.0
 11
131.565
 21
283.542
 31
0.0
  0
LINE
  5
330
330
1D
100
AcDbEntity
  8
0
100
AcDbLine
 10
128.76
 20
759.388
 30
0.0
 11
132.024
 21
759.388
 31
0.0
  0
LINE
  5
331
330
1D
100
AcDbEntity
  8
0
100
AcDbLine
 10
128.76
 20
707.388
 30
0.0
 11
132.024
 21
707.388
 31
0.0
  0
LINE
  5
332
330
1D
100
AcDbEntity
  8
0
100
AcDbLine
 10
127.221
 20
336.542
 30
0.0
 11
127.221
 21
707.388
 31
0.0
  0
LINE
  5
333
330
1D
100
AcDbEntity
  8
0
100
AcDbLine
 10
117.069
 20
900.302
 30
0.0
 11
122.309
 21
896.347283018868
 31
0.0
  0
LINE
  5
336
330
1D
100
AcDbEntity
  8
0
100
AcDbLine
 10
109.389
 20
913.862
 30
0.0
 11
112.269
 21
906.662
 31
0.0
  0
LINE
  5
337
330
1D
100
AcDbEntity
  8
0
100
AcDbLine
 10
112.269
 20
906.662
 30
0.0
 11
117.069
 21
900.302
 31
0.0
  0
LINE
  5
33B
330
1D
100
AcDbEntity
  8
0
100
AcDbLine
 10
109.389
 20
929.222
 30
0.0
 11
112.269
 21
936.422
 31
0.0
  0
LINE
  5
33D
330
1D
100
AcDbEntity
  8
0
100
AcDbLine
 10
112.269
 20
936.422
 30
0.0
 11
117.069
 21
942.782
 31
0.0
  0
LINE
  5
33E
330
1D
100
AcDbEntity
  8
0
100
AcDbLine
 10
108.309
 20
921.542
 30
0.0
 11
109.389
 21
929.222
 31
0.0
  0
LINE
  5
33F
330
1D
100
AcDbEntity
  8
0
100
AcDbLine
 10
108.309
 20
921.542
 30
0.0
 11
109.389
 21
913.862
 31
0.0
  0
LINE
  5
340
330
1D
100
AcDbEntity
  8
0
100
AcDbLine
 10
122.693
 20
895.542
 30
0.0
 11
123.269
 21
895.542
 31
0.0
  0
LINE
  5
341
330
1D
100
AcDbEntity
  8
0
100
AcDbLine
 10
123.269
 20
895.542
 30
0.0
 11
124.805
 21
895.542
 31
0.0
  0
LINE
  5
342
330
1D
100
AcDbEntity
  8
0
100
AcDbLine
 10
122.309
 20
896.342
 30
0.0
 11
122.693
 21
895.542
 31
0.0
  0
LINE
  5
343
330
1D
100
AcDbEntity
  8
0
100
AcDbLine
 10
122.309
 20
896.342
 30
0.0
 11
122.309
 21
946.742
 31
0.0
  0
LINE
  5
345
330
1D
100
AcDbEntity
  8
0
100
AcDbLine
 10
123.376
 20
895.542
 30
0.0
 11
123.429
 21
895.502
 31
0.0
  0
LINE
  5
346
330
1D
100
AcDbEntity
  8
0
100
AcDbLine
 10
124.805
 20
895.542
 30
0.0
 11
127.301
 21
895.542
 31
0.0
  0
LINE
  5
347
330
1D
100
AcDbEntity
  8
0
100
AcDbLine
 10
123.429
 20
895.502
 30
0.0
 11
128.975
 21
893.2836
 31
0.0
  0
LINE
  5
348
330
1D
100
AcDbEntity
  8
0
100
AcDbLine
 10
122.693
 20
947.542
 30
0.0
 11
123.269
 21
947.542
 31
0.0
  0
LINE
  5
349
330
1D
100
AcDbEntity
  8
0
100
AcDbLine
 10
123.269
 20
947.542
 30
0.0
 11
124.805
 21
947.542
 31
0.0
  0
LINE
  5
34A
330
1D
100
AcDbEntity
  8
0
100
AcDbLine
 10
124.805
 20
947.542
 30
0.0
 11
127.301
 21
947.542
 31
0.0
  0
LINE
  5
34B
330
1D
100
AcDbEntity
  8
0
100
AcDbLine
 10
122.309
 20
946.742
 30
0.0
 11
122.693
 21
947.542
 31
0.0
  0
LINE
  5
34C
330
1D
100
AcDbEntity
  8
0
100
AcDbLine
 10
122.309
 20
946.742
 30
0.0
 11
122.309
 21
896.342
 31
0.0
  0
LINE
  5
34E
330
1D
100
AcDbEntity
  8
0
100
AcDbLine
 10
127.301
 20
895.542
 30
0.0
 11
128.975
 21
895.542
 31
0.0
  0
LINE
  5
34F
330
1D
100
AcDbEntity
  8
0
100
AcDbLine
 10
127.301
 20
895.542
 30
0.0
 11
130.565
 21
895.542
 31
0.0
  0
LINE
  5
350
330
1D
100
AcDbEntity
  8
0
100
AcDbLine
 10
127.301
 20
947.542
 30
0.0
 11
130.565
 21
947.542
 31
0.0
  0
LINE
  5
353
330
1D
100
AcDbEntity
  8
0
100
AcDbLine
 10
123.376
 20
947.542
 30
0.0
 11
123.429
 21
947.582
 31
0.0
  0
LINE
  5
354
330
1D
100
AcDbEntity
  8
0
100
AcDbLine
 10
117.069
 20
942.782
 30
0.0
 11
122.309
 21
946.736716981132
 31
0.0
  0
LINE
  5
355
330
1D
100
AcDbEntity
  8
0
100
AcDbLine
 10
125.189
 20
1085.542
 30
0.0
 11
126.469
 21
1085.542
 31
0.0
  0
LINE
  5
356
330
1D
100
AcDbEntity
  8
0
100
AcDbLine
 10
126.469
 20
1085.542
 30
0.0
 11
127.829
 21
1085.542
 31
0.0
  0
LINE
  5
357
330
1D
100
AcDbEntity
  8
0
100
AcDbLine
 10
127.829
 20
1085.542
 30
0.0
 11
129.349
 21
1085.542
 31
0.0
  0
LINE
  5
358
330
1D
100
AcDbEntity
  8
0
100
AcDbLine
 10
124.029
 20
1085.542
 30
0.0
 11
125.189
 21
1085.542
 31
0.0
  0
LINE
  5
359
330
1D
100
AcDbEntity
  8
0
100
AcDbLine
 10
122.949
 20
1085.542
 30
0.0
 11
124.029
 21
1085.542
 31
0.0
  0
LINE
  5
35A
330
1D
100
AcDbEntity
  8
0
100
AcDbLine
 10
122.029
 20
1085.542
 30
0.0
 11
122.949
 21
1085.542
 31
0.0
  0
LINE
  5
35B
330
1D
100
AcDbEntity
  8
0
100
AcDbLine
 10
121.229
 20
1085.542
 30
0.0
 11
122.029
 21
1085.542
 31
0.0
  0
LINE
  5
35C
330
1D
100
AcDbEntity
  8
0
100
AcDbLine
 10
120.549
 20
1085.542
 30
0.0
 11
121.229
 21
1085.542
 31
0.0
  0
LINE
  5
35D
330
1D
100
AcDbEntity
  8
0
100
AcDbLine
 10
120.029
 20
1085.542
 30
0.0
 11
120.549
 21
1085.542
 31
0.0
  0
LINE
  5
35E
330
1D
100
AcDbEntity
  8
0
100
AcDbLine
 10
119.629
 20
1085.542
 30
0.0
 11
120.029
 21
1085.542
 31
0.0
  0
LINE
  5
35F
330
1D
100
AcDbEntity
  8
0
100
AcDbLine
 10
119.429
 20
1085.542
 30
0.0
 11
119.629
 21
1085.542
 31
0.0
  0
LINE
  5
360
330
1D
100
AcDbEntity
  8
0
100
AcDbLine
 10
119.429
 20
1085.542
 30
0.0
 11
119.429
 21
1085.92
 31
0.0
  0
LINE
  5
361
330
1D
100
AcDbEntity
  8
0
100
AcDbLine
 10
119.309
 20
1085.542
 30
0.0
 11
119.429
 21
1085.542
 31
0.0
  0
LINE
  5
362
330
1D
100
AcDbEntity
  8
0
100
AcDbLine
 10
119.309
 20
1085.542
 30
0.0
 11
119.309
 21
1085.92
 31
0.0
  0
LINE
  5
363
330
1D
100
AcDbEntity
  8
0
100
AcDbLine
 10
123.429
 20
947.582
 30
0.0
 11
128.975
 21
949.8004
 31
0.0
  0
LINE
  5
364
330
1D
100
AcDbEntity
  8
0
100
AcDbLine
 10
128.975
 20
895.542
 30
0.0
 11
128.975
 21
759.388
 31
0.0
  0
LINE
  5
365
330
1D
100
AcDbEntity
  8
0
100
AcDbLine
 10
3.077
 20
1085.92
 30
0.0
 11
6.335
 21
1085.92
 31
0.0
  0
LINE
  5
366
330
1D
100
AcDbEntity
  8
0
100
AcDbLine
 10
1.054
 20
1085.92
 30
0.0
 11
3.077
 21
1085.92
 31
0.0
  0
LINE
  5
367
330
1D
100
AcDbEntity
  8
0
100
AcDbLine
 10
0.282
 20
1085.92
 30
0.0
 11
1.054
 21
1085.92
 31
0.0
  0
LINE
  5
368
330
1D
100
AcDbEntity
  8
0
100
AcDbLine
 10
0.282
 20
1085.92
 30
0.0
 11
0.542
 21
1085.931
 31
0.0
  0
LINE
  5
369
330
1D
100
AcDbEntity
  8
0
100
AcDbLine
 10
0.282
 20
1085.92
 30
0.0
 11
0.773
 21
1085.92
 31
0.0
  0
LINE
  5
36A
330
1D
100
AcDbEntity
  8
0
100
AcDbLine
 10
0.773
 20
1085.92
 30
0.0
 11
2.514
 21
1085.92
 31
0.0
  0
LINE
  5
36B
330
1D
100
AcDbEntity
  8
0
100
AcDbLine
 10
10.794
 20
1085.92
 30
0.0
 11
16.42
 21
1085.92
 31
0.0
  0
LINE
  5
36C
330
1D
100
AcDbEntity
  8
0
100
AcDbLine
 10
6.335
 20
1085.92
 30
0.0
 11
10.794
 21
1085.92
 31
0.0
  0
LINE
  5
36D
330
1D
100
AcDbEntity
  8
0
100
AcDbLine
 10
23.158
 20
1085.92
 30
0.0
 11
30.948
 21
1085.92
 31
0.0
  0
LINE
  5
36E
330
1D
100
AcDbEntity
  8
0
100
AcDbLine
 10
16.42
 20
1085.92
 30
0.0
 11
23.158
 21
1085.92
 31
0.0
  0
LINE
  5
36F
330
1D
100
AcDbEntity
  8
0
100
AcDbLine
 10
39.7179
 20
1085.92
 30
0.0
 11
49.3883
 21
1085.92
 31
0.0
  0
LINE
  5
370
330
1D
100
AcDbEntity
  8
0
100
AcDbLine
 10
30.948
 20
1085.92
 30
0.0
 11
39.7179
 21
1085.92
 31
0.0
  0
LINE
  5
371
330
1D
100
AcDbEntity
  8
0
100
AcDbLine
 10
57.4558
 20
1085.92
 30
0.0
 11
68.511
 21
1085.92
 31
0.0
  0
LINE
  5
372
330
1D
100
AcDbEntity
  8
0
100
AcDbLine
 10
68.511
 20
1085.92
 30
0.0
 11
80.2065
 21
1085.92
 31
0.0
  0
LINE
  5
373
330
1D
100
AcDbEntity
  8
0
100
AcDbLine
 10
80.2065
 20
1085.92
 30
0.0
 11
92.4342
 21
1085.92
 31
0.0
  0
LINE
  5
374
330
1D
100
AcDbEntity
  8
0
100
AcDbLine
 10
92.4342
 20
1085.92
 30
0.0
 11
105.089
 21
1085.92
 31
0.0
  0
LINE
  5
375
330
1D
100
AcDbEntity
  8
0
100
AcDbLine
 10
105.089
 20
1085.92
 30
0.0
 11
118.055
 21
1085.92
 31
0.0
  0
LINE
  5
377
330
1D
100
AcDbEntity
  8
0
100
AcDbLine
 10
119.309
 20
1085.92
 30
0.0
 11
119.309
 21
1085.542
 31
0.0
  0
LINE
  5
378
330
1D
100
AcDbEntity
  8
0
100
AcDbLine
 10
118.055
 20
1085.92
 30
0.0
 11
119.309
 21
1085.92
 31
0.0
  0
LINE
  5
379
330
1D
100
AcDbEntity
  8
0
100
AcDbLine
 10
120.995
 20
1085.92
 30
0.0
 11
134.177
 21
1085.92
 31
0.0
  0
LINE
  5
37A
330
1D
100
AcDbEntity
  8
0
100
AcDbLine
 10
107.976
 20
1085.92
 30
0.0
 11
120.995
 21
1085.92
 31
0.0
  0
LINE
  5
37B
330
1D
100
AcDbEntity
  8
0
100
AcDbLine
 10
95.2416
 20
1085.92
 30
0.0
 11
107.976
 21
1085.92
 31
0.0
  0
LINE
  5
37C
330
1D
100
AcDbEntity
  8
0
100
AcDbLine
 10
82.9062
 20
1085.92
 30
0.0
 11
95.2416
 21
1085.92
 31
0.0
  0
LINE
  5
37D
330
1D
100
AcDbEntity
  8
0
100
AcDbLine
 10
71.0831
 20
1085.92
 30
0.0
 11
82.9062
 21
1085.92
 31
0.0
  0
LINE
  5
37E
330
1D
100
AcDbEntity
  8
0
100
AcDbLine
 10
59.8752
 20
1085.92
 30
0.0
 11
71.0831
 21
1085.92
 31
0.0
  0
LINE
  5
37F
330
1D
100
AcDbEntity
  8
0
100
AcDbLine
 10
49.3883
 20
1085.92
 30
0.0
 11
59.8752
 21
1085.92
 31
0.0
  0
LINE
  5
380
330
1D
100
AcDbEntity
  8
0
100
AcDbLine
 10
47.1428
 20
1085.92
 30
0.0
 11
57.4558
 21
1085.92
 31
0.0
  0
LINE
  5
381
330
1D
100
AcDbEntity
  8
0
100
AcDbLine
 10
37.666
 20
1085.92
 30
0.0
 11
47.1428
 21
1085.92
 31
0.0
  0
LINE
  5
382
330
1D
100
AcDbEntity
  8
0
100
AcDbLine
 10
29.11
 20
1085.92
 30
0.0
 11
37.666
 21
1085.92
 31
0.0
  0
LINE
  5
383
330
1D
100
AcDbEntity
  8
0
100
AcDbLine
 10
21.55
 20
1085.92
 30
0.0
 11
29.11
 21
1085.92
 31
0.0
  0
LINE
  5
384
330
1D
100
AcDbEntity
  8
0
100
AcDbLine
 10
15.057
 20
1085.92
 30
0.0
 11
21.55
 21
1085.92
 31
0.0
  0
LINE
  5
385
330
1D
100
AcDbEntity
  8
0
100
AcDbLine
 10
9.69
 20
1085.92
 30
0.0
 11
15.057
 21
1085.92
 31
0.0
  0
LINE
  5
386
330
1D
100
AcDbEntity
  8
0
100
AcDbLine
 10
5.498
 20
1085.92
 30
0.0
 11
9.69
 21
1085.92
 31
0.0
  0
LINE
  5
387
330
1D
100
AcDbEntity
  8
0
100
AcDbLine
 10
-0.096
 20
1086.517
 30
0.0
 11
-0.083
 21
1086.258
 31
0.0
  0
LINE
  5
388
330
1D
100
AcDbEntity
  8
0
100
AcDbLine
 10
-0.096
 20
1086.517
 30
0.0
 11
0.023
 21
1086.746
 31
0.0
  0
LINE
  5
389
330
1D
100
AcDbEntity
  8
0
100
AcDbLine
 10
0.023
 20
1086.746
 30
0.0
 11
117.195
 21
1214.612
 31
0.0
  0
LINE
  5
38A
330
1D
100
AcDbEntity
  8
0
100
AcDbLine
 10
0.023
 20
1086.746
 30
0.0
 11
117.195
 21
1214.612
 31
0.0
  0
LINE
  5
38B
330
1D
100
AcDbEntity
  8
0
100
AcDbLine
 10
-0.083
 20
1086.258
 30
0.0
 11
0.054
 21
1086.04
 31
0.0
  0
LINE
  5
38C
330
1D
100
AcDbEntity
  8
0
100
AcDbLine
 10
0.054
 20
1086.04
 30
0.0
 11
0.282
 21
1085.92
 31
0.0
  0
LINE
  5
38D
330
1D
100
AcDbEntity
  8
0
100
AcDbLine
 10
2.514
 20
1085.92
 30
0.0
 11
5.498
 21
1085.92
 31
0.0
  0
LINE
  5
38E
330
1D
100
AcDbEntity
  8
0
100
AcDbLine
 10
117.195
 20
1214.612
 30
0.0
 11
119.43
 21
1217.772
 31
0.0
  0
LINE
  5
390
330
1D
100
AcDbEntity
  8
0
100
AcDbLine
 10
121.309
 20
1225.142
 30
0.0
 11
121.399463541667
 21
1225.142
 31
0.0
  0
LINE
  5
391
330
1D
100
AcDbEntity
  8
0
100
AcDbLine
 10
121.309
 20
1225.142
 30
0.0
 11
121.309
 21
1227.012
 31
0.0
  0
LINE
  5
392
330
1D
100
AcDbEntity
  8
0
100
AcDbLine
 10
120.832
 20
1221.372
 30
0.0
 11
121.41
 21
1225.212
 31
0.0
  0
LINE
  5
393
330
1D
100
AcDbEntity
  8
0
100
AcDbLine
 10
119.43
 20
1217.772
 30
0.0
 11
120.832
 21
1221.372
 31
0.0
  0
LINE
  5
394
330
1D
100
AcDbEntity
  8
0
100
AcDbLine
 10
121.309
 20
1227.012
 30
0.0
 11
121.309
 21
1225.142
 31
0.0
  0
LINE
  5
395
330
1D
100
AcDbEntity
  8
0
100
AcDbLine
 10
121.309
 20
1227.012
 30
0.0
 11
121.741
 21
1228.142
 31
0.0
  0
LINE
  5
396
330
1D
100
AcDbEntity
  8
0
100
AcDbLine
 10
121.309
 20
1228.752
 30
0.0
 11
121.741
 21
1228.142
 31
0.0
  0
LINE
  5
397
330
1D
100
AcDbEntity
  8
0
100
AcDbLine
 10
121.309
 20
1228.752
 30
0.0
 11
121.309
 21
1255.522
 31
0.0
  0
LINE
  5
398
330
1D
100
AcDbEntity
  8
0
100
AcDbLine
 10
121.309
 20
1228.752
 30
0.0
 11
121.957
 21
1228.752
 31
0.0
  0
LINE
  5
399
330
1D
100
AcDbEntity
  8
0
100
AcDbLine
 10
121.741
 20
1228.142
 30
0.0
 11
122.389
 21
1228.142
 31
0.0
  0
LINE
  5
39A
330
1D
100
AcDbEntity
  8
0
100
AcDbLine
 10
121.741
 20
1256.142
 30
0.0
 11
122.389
 21
1256.142
 31
0.0
  0
LINE
  5
39B
330
1D
100
AcDbEntity
  8
0
100
AcDbLine
 10
121.957
 20
1255.522
 30
0.0
 11
123.685
 21
1255.522
 31
0.0
  0
LINE
  5
39C
330
1D
100
AcDbEntity
  8
0
100
AcDbLine
 10
121.957
 20
1228.752
 30
0.0
 11
123.685
 21
1228.752
 31
0.0
  0
LINE
  5
39D
330
1D
100
AcDbEntity
  8
0
100
AcDbLine
 10
121.309
 20
1255.522
 30
0.0
 11
121.741
 21
1256.142
 31
0.0
  0
LINE
  5
39E
330
1D
100
AcDbEntity
  8
0
100
AcDbLine
 10
121.309
 20
1255.522
 30
0.0
 11
121.309
 21
1228.752
 31
0.0
  0
LINE
  5
39F
330
1D
100
AcDbEntity
  8
0
100
AcDbLine
 10
121.309
 20
1255.522
 30
0.0
 11
121.957
 21
1255.522
 31
0.0
  0
LINE
  5
3AA
330
1D
100
AcDbEntity
  8
0
100
AcDbLine
 10
122.389
 20
1228.142
 30
0.0
 11
124.117
 21
1228.142
 31
0.0
  0
LINE
  5
3AB
330
1D
100
AcDbEntity
  8
0
100
AcDbLine
 10
124.117
 20
1228.142
 30
0.0
 11
126.925
 21
1228.142
 31
0.0
  0
LINE
  5
3AC
330
1D
100
AcDbEntity
  8
0
100
AcDbLine
 10
123.685
 20
1228.752
 30
0.0
 11
126.565
 21
1228.752
 31
0.0
  0
LINE
  5
3AD
330
1D
100
AcDbEntity
  8
0
100
AcDbLine
 10
122.389
 20
1256.142
 30
0.0
 11
124.117
 21
1256.142
 31
0.0
  0
LINE
  5
3AE
330
1D
100
AcDbEntity
  8
0
100
AcDbLine
 10
124.117
 20
1256.142
 30
0.0
 11
126.925
 21
1256.142
 31
0.0
  0
LINE
  5
3AF
330
1D
100
AcDbEntity
  8
0
100
AcDbLine
 10
123.685
 20
1255.522
 30
0.0
 11
126.565
 21
1255.522
 31
0.0
  0
LINE
  5
3B0
330
1D
100
AcDbEntity
  8
0
100
AcDbLine
 10
126.565
 20
1228.752
 30
0.0
 11
130.381
 21
1228.752
 31
0.0
  0
LINE
  5
3B1
330
1D
100
AcDbEntity
  8
0
100
AcDbLine
 10
126.925
 20
1256.142
 30
0.0
 11
130.597
 21
1256.142
 31
0.0
  0
LINE
  5
3B2
330
1D
100
AcDbEntity
  8
0
100
AcDbLine
 10
126.925
 20
1228.142
 30
0.0
 11
130.597
 21
1228.142
 31
0.0
  0
LINE
  5
3B3
330
1D
100
AcDbEntity
  8
0
100
AcDbLine
 10
126.565
 20
1255.522
 30
0.0
 11
130.381
 21
1255.522
 31
0.0
  0
LINE
  5
3B6
330
1D
100
AcDbEntity
  8
0
100
AcDbLine
 10
128.713
 20
1264.152
 30
0.0
 11
128.892
 21
1264.152
 31
0.0
  0
LINE
  5
3B7
330
1D
100
AcDbEntity
  8
0
100
AcDbLine
 10
128.713
 20
1264.152
 30
0.0
 11
128.796
 21
1264.152
 31
0.0
  0
LINE
  5
3B8
330
1D
100
AcDbEntity
  8
0
100
AcDbLine
 10
128.713
 20
1264.152
 30
0.0
 11
128.9
 21
1271.942
 31
0.0
  0
LINE
  5
3B9
330
1D
100
AcDbEntity
  8
0
100
AcDbLine
 10
128.892
 20
1264.152
 30
0.0
 11
129.326
 21
1264.152
 31
0.0
  0
LINE
  5
3BA
330
1D
100
AcDbEntity
  8
0
100
AcDbLine
 10
128.918
 20
1264.152
 30
0.0
 11
129.255
 21
1264.152
 31
0.0
  0
LINE
  5
3BB
330
1D
100
AcDbEntity
  8
0
100
AcDbLine
 10
128.836
 20
1264.152
 30
0.0
 11
128.853926754832
 21
1256.142
 31
0.0
  0
LINE
  5
3BC
330
1D
100
AcDbEntity
  8
0
100
AcDbLine
 10
128.836
 20
1264.152
 30
0.0
 11
128.918
 21
1264.152
 31
0.0
  0
LINE
  5
3BD
330
1D
100
AcDbEntity
  8
0
100
AcDbLine
 10
128.9
 20
1271.942
 30
0.0
 11
128.975
 21
1282.242
 31
0.0
  0
LINE
  5
3BE
330
1D
100
AcDbEntity
  8
0
100
AcDbLine
 10
128.975
 20
1289.502
 30
0.0
 11
128.975
 21
1296.402
 31
0.0
  0
LINE
  5
3BF
330
1D
100
AcDbEntity
  8
0
100
AcDbLine
 10
128.975
 20
1289.502
 30
0.0
 11
128.975
 21
1282.242
 31
0.0
  0
LINE
  5
3C0
330
1D
100
AcDbEntity
  8
0
100
AcDbLine
 10
128.975
 20
1296.402
 30
0.0
 11
128.975
 21
1289.502
 31
0.0
  0
LINE
  5
3C1
330
1D
100
AcDbEntity
  8
0
100
AcDbLine
 10
128.975
 20
1296.402
 30
0.0
 11
128.975
 21
1302.592
 31
0.0
  0
LINE
  5
3C2
330
1D
100
AcDbEntity
  8
0
100
AcDbLine
 10
128.975
 20
1282.242
 30
0.0
 11
128.975
 21
1290.552
 31
0.0
  0
LINE
  5
3C3
330
1D
100
AcDbEntity
  8
0
100
AcDbLine
 10
128.975
 20
1282.242
 30
0.0
 11
128.975
 21
1289.502
 31
0.0
  0
LINE
  5
3C4
330
1D
100
AcDbEntity
  8
0
100
AcDbLine
 10
128.975
 20
1302.592
 30
0.0
 11
128.975
 21
1296.402
 31
0.0
  0
LINE
  5
3C5
330
1D
100
AcDbEntity
  8
0
100
AcDbLine
 10
128.975
 20
1302.592
 30
0.0
 11
128.975
 21
1307.762
 31
0.0
  0
LINE
  5
3C6
330
1D
100
AcDbEntity
  8
0
100
AcDbLine
 10
128.975
 20
1307.762
 30
0.0
 11
128.975
 21
1302.592
 31
0.0
  0
LINE
  5
3C7
330
1D
100
AcDbEntity
  8
0
100
AcDbLine
 10
128.975
 20
1307.762
 30
0.0
 11
128.975
 21
1311.652
 31
0.0
  0
LINE
  5
3C8
330
1D
100
AcDbEntity
  8
0
100
AcDbLine
 10
128.975
 20
1314.882
 30
0.0
 11
128.975
 21
1314.062
 31
0.0
  0
LINE
  5
3C9
330
1D
100
AcDbEntity
  8
0
100
AcDbLine
 10
128.975
 20
1314.062
 30
0.0
 11
128.975
 21
1311.652
 31
0.0
  0
LINE
  5
3CA
330
1D
100
AcDbEntity
  8
0
100
AcDbLine
 10
128.975
 20
1314.062
 30
0.0
 11
128.975
 21
1314.882
 31
0.0
  0
LINE
  5
3CB
330
1D
100
AcDbEntity
  8
0
100
AcDbLine
 10
128.975
 20
1311.652
 30
0.0
 11
128.975
 21
1307.762
 31
0.0
  0
LINE
  5
3CC
330
1D
100
AcDbEntity
  8
0
100
AcDbLine
 10
128.975
 20
1311.652
 30
0.0
 11
128.975
 21
1314.062
 31
0.0
  0
LINE
  5
3CD
330
1D
100
AcDbEntity
  8
0
100
AcDbLine
 10
128.975
 20
1319.602
 30
0.0
 11
128.975
 21
1318.662
 31
0.0
  0
LINE
  5
3CE
330
1D
100
AcDbEntity
  8
0
100
AcDbLine
 10
128.975
 20
1319.602
 30
0.0
 11
131.022
 21
1323.852
 31
0.0
  0
LINE
  5
3CF
330
1D
100
AcDbEntity
  8
0
100
AcDbLine
 10
128.975
 20
1318.662
 30
0.0
 11
128.975
 21
1319.602
 31
0.0
  0
LINE
  5
3D0
330
1D
100
AcDbEntity
  8
0
100
AcDbLine
 10
128.975
 20
1318.662
 30
0.0
 11
128.975
 21
1315.902
 31
0.0
  0
LINE
  5
3D1
330
1D
100
AcDbEntity
  8
0
100
AcDbLine
 10
128.975
 20
1315.902
 30
0.0
 11
128.975
 21
1311.452
 31
0.0
  0
LINE
  5
3D2
330
1D
100
AcDbEntity
  8
0
100
AcDbLine
 10
128.975
 20
1315.902
 30
0.0
 11
128.975
 21
1318.662
 31
0.0
  0
LINE
  5
3D3
330
1D
100
AcDbEntity
  8
0
100
AcDbLine
 10
128.975
 20
1311.452
 30
0.0
 11
128.975
 21
1305.532
 31
0.0
  0
LINE
  5
3D4
330
1D
100
AcDbEntity
  8
0
100
AcDbLine
 10
128.975
 20
1311.452
 30
0.0
 11
128.975
 21
1315.902
 31
0.0
  0
LINE
  5
3D5
330
1D
100
AcDbEntity
  8
0
100
AcDbLine
 10
128.975
 20
1305.532
 30
0.0
 11
128.975
 21
1298.452
 31
0.0
  0
LINE
  5
3D6
330
1D
100
AcDbEntity
  8
0
100
AcDbLine
 10
128.975
 20
1305.532
 30
0.0
 11
128.975
 21
1311.452
 31
0.0
  0
LINE
  5
3D7
330
1D
100
AcDbEntity
  8
0
100
AcDbLine
 10
128.975
 20
1298.452
 30
0.0
 11
128.975
 21
1290.552
 31
0.0
  0
LINE
  5
3D8
330
1D
100
AcDbEntity
  8
0
100
AcDbLine
 10
128.975
 20
1298.452
 30
0.0
 11
128.975
 21
1305.532
 31
0.0
  0
LINE
  5
3D9
330
1D
100
AcDbEntity
  8
0
100
AcDbLine
 10
128.975
 20
1290.552
 30
0.0
 11
128.975
 21
1282.242
 31
0.0
  0
LINE
  5
3DA
330
1D
100
AcDbEntity
  8
0
100
AcDbLine
 10
128.975
 20
1290.552
 30
0.0
 11
128.975
 21
1298.452
 31
0.0
  0
LINE
  5
3DB
330
1D
100
AcDbEntity
  8
0
100
AcDbLine
 10
128.975
 20
1085.542
 30
0.0
 11
128.975
 21
947.542
 31
0.0
  0
LINE
  5
3DC
330
1D
100
AcDbEntity
  8
0
100
AcDbLine
 10
129.349
 20
1085.542
 30
0.0
 11
130.869
 21
1085.542
 31
0.0
  0
LINE
  5
3DD
330
1D
100
AcDbEntity
  8
0
100
AcDbLine
 10
129.326
 20
1264.152
 30
0.0
 11
130.007
 21
1264.152
 31
0.0
  0
LINE
  5
3DE
330
1D
100
AcDbEntity
  8
0
100
AcDbLine
 10
130.007
 20
1264.152
 30
0.0
 11
130.916
 21
1264.152
 31
0.0
  0
LINE
  5
3DF
330
1D
100
AcDbEntity
  8
0
100
AcDbLine
 10
129.255
 20
1264.152
 30
0.0
 11
129.841
 21
1264.152
 31
0.0
  0
LINE
  5
3E0
330
1D
100
AcDbEntity
  8
0
100
AcDbLine
 10
129.841
 20
1264.152
 30
0.0
 11
130.659
 21
1264.152
 31
0.0
  0
LINE
  5
3E1
330
1D
100
AcDbEntity
  8
0
100
AcDbLine
 10
128.975
 20
947.542
 30
0.0
 11
128.975
 21
1085.542
 31
0.0
  0
LINE
  5
3E2
330
1D
100
AcDbEntity
  8
0
100
AcDbLine
 10
128.975
 20
759.388
 30
0.0
 11
128.975
 21
895.542
 31
0.0
  0
LINE
  5
3E3
330
1D
100
AcDbEntity
  8
0
100
AcDbLine
 10
130.288
 20
210.93
 30
0.0
 11
135.254
 21
210.929
 31
0.0
  0
LINE
  5
3E4
330
1D
100
AcDbEntity
  8
0
100
AcDbLine
 10
130.198
 20
232.842
 30
0.0
 11
130.643870924817
 21
232.842
 31
0.0
  0
LINE
  5
3E6
330
1D
100
AcDbEntity
  8
0
100
AcDbLine
 10
130.404
 20
217.14
 30
0.0
 11
132.059
 21
218.233
 31
0.0
  0
LINE
  5
3E8
330
1D
100
AcDbEntity
  8
0
100
AcDbLine
 10
130.381
 20
1228.752
 30
0.0
 11
134.701
 21
1228.752
 31
0.0
  0
LINE
  5
3E9
330
1D
100
AcDbEntity
  8
0
100
AcDbLine
 10
130.381
 20
1255.522
 30
0.0
 11
134.701
 21
1255.522
 31
0.0
  0
LINE
  5
3EA
330
1D
100
AcDbEntity
  8
0
100
AcDbLine
 10
131.066
 20
180.697
 30
0.0
 11
132.753
 21
180.264
 31
0.0
  0
LINE
  5
3ED
330
1D
100
AcDbEntity
  8
0
100
AcDbLine
 10
130.936
 20
232.957
 30
0.0
 11
132.032
 21
233.287
 31
0.0
  0
LINE
  5
3EE
330
1D
100
AcDbEntity
  8
0
100
AcDbLine
 10
131.086
 20
133.431
 30
0.0
 11
133.387
 21
129.267
 31
0.0
  0
LINE
  5
3EF
330
1D
100
AcDbEntity
  8
0
100
AcDbLine
 10
130.729
 20
196.257
 30
0.0
 11
134.087
 21
194.26
 31
0.0
  0
LINE
  5
3F0
330
1D
100
AcDbEntity
  8
0
100
AcDbLine
 10
130.565
 20
947.542
 30
0.0
 11
134.277
 21
947.542
 31
0.0
  0
LINE
  5
3F1
330
1D
100
AcDbEntity
  8
0
100
AcDbLine
 10
130.869
 20
1085.542
 30
0.0
 11
132.469
 21
1085.542
 31
0.0
  0
LINE
  5
3F2
330
1D
100
AcDbEntity
  8
0
100
AcDbLine
 10
130.565
 20
895.542
 30
0.0
 11
134.277
 21
895.542
 31
0.0
  0
LINE
  5
3F3
330
1D
100
AcDbEntity
  8
0
100
AcDbLine
 10
131.565
 20
336.542
 30
0.0
 11
135.277
 21
336.542
 31
0.0
  0
LINE
  5
3F4
330
1D
100
AcDbEntity
  8
0
100
AcDbLine
 10
131.565
 20
283.542
 30
0.0
 11
135.277
 21
283.542
 31
0.0
  0
LINE
  5
3F5
330
1D
100
AcDbEntity
  8
0
100
AcDbLine
 10
130.597
 20
1256.142
 30
0.0
 11
134.773
 21
1256.142
 31
0.0
  0
LINE
  5
3F6
330
1D
100
AcDbEntity
  8
0
100
AcDbLine
 10
130.597
 20
1228.142
 30
0.0
 11
134.773
 21
1228.142
 31
0.0
  0
LINE
  5
3F8
330
1D
100
AcDbEntity
  8
0
100
AcDbLine
 10
130.916
 20
1264.152
 30
0.0
 11
132.032
 21
1264.152
 31
0.0
  0
LINE
  5
3FD
330
1D
100
AcDbEntity
  8
0
100
AcDbLine
 10
132.024
 20
759.388
 30
0.0
 11
135.736
 21
759.388
 31
0.0
  0
LINE
  5
3FF
330
1D
100
AcDbEntity
  8
0
100
AcDbLine
 10
132.469
 20
1085.542
 30
0.0
 11
134.109
 21
1085.542
 31
0.0
  0
LINE
  5
400
330
1D
100
AcDbEntity
  8
0
100
AcDbLine
 10
132.032
 20
233.287
 30
0.0
 11
135.143
 21
233.941
 31
0.0
  0
LINE
  5
404
330
1D
100
AcDbEntity
  8
0
100
AcDbLine
 10
132.059
 20
218.233
 30
0.0
 11
133.557
 21
219.195
 31
0.0
  0
LINE
  5
406
330
1D
100
AcDbEntity
  8
0
100
AcDbLine
 10
132.753
 20
180.264
 30
0.0
 11
136.115
 21
179.576
 31
0.0
  0
LINE
  5
408
330
1D
100
AcDbEntity
  8
0
100
AcDbLine
 10
132.024
 20
707.388
 30
0.0
 11
135.736
 21
707.388
 31
0.0
  0
LINE
  5
409
330
1D
100
AcDbEntity
  8
0
100
AcDbLine
 10
132.032
 20
1264.152
 30
0.0
 11
133.328
 21
1264.152
 31
0.0
  0
LINE
  5
40A
330
1D
100
AcDbEntity
  8
0
100
AcDbLine
 10
131.69
 20
1264.152
 30
0.0
 11
132.909
 21
1264.152
 31
0.0
  0
LINE
  5
40B
330
1D
100
AcDbEntity
  8
0
100
AcDbLine
 10
130.659
 20
1264.152
 30
0.0
 11
131.69
 21
1264.152
 31
0.0
  0
LINE
  5
40E
330
1D
100
AcDbEntity
  8
0
100
AcDbLine
 10
133.387
 20
129.267
 30
0.0
 11
136.141
 21
125.387
 31
0.0
  0
LINE
  5
411
330
1D
100
AcDbEntity
  8
0
100
AcDbLine
 10
135.143
 20
233.941
 30
0.0
 11
137.352
 21
234.188
 31
0.0
  0
LINE
  5
413
330
1D
100
AcDbEntity
  8
0
100
AcDbLine
 10
134.304
 20
227.942
 30
0.0
 11
138.546
 21
228.65
 31
0.0
  0
LINE
  5
414
330
1D
100
AcDbEntity
  8
0
100
AcDbLine
 10
134.087
 20
194.26
 30
0.0
 11
137.578
 21
193.328
 31
0.0
  0
LINE
  5
416
330
1D
100
AcDbEntity
  8
0
100
AcDbLine
 10
133.557
 20
219.195
 30
0.0
 11
136.291
 21
220.097
 31
0.0
  0
LINE
  5
417
330
1D
100
AcDbEntity
  8
0
100
AcDbLine
 10
135.277
 20
336.542
 30
0.0
 11
139.309
 21
336.542
 31
0.0
  0
LINE
  5
419
330
1D
100
AcDbEntity
  8
0
100
AcDbLine
 10
135.643
 20
185.357
 30
0.0
 11
143.164
 21
185.482
 31
0.0
  0
LINE
  5
41B
330
1D
100
AcDbEntity
  8
0
100
AcDbLine
 10
135.277
 20
283.542
 30
0.0
 11
139.309
 21
283.542
 31
0.0
  0
LINE
  5
41C
330
1D
100
AcDbEntity
  8
0
100
AcDbLine
 10
134.109
 20
1085.542
 30
0.0
 11
135.829
 21
1085.542
 31
0.0
  0
LINE
  5
41D
330
1D
100
AcDbEntity
  8
0
100
AcDbLine
 10
134.277
 20
947.542
 30
0.0
 11
138.309
 21
947.542
 31
0.0
  0
LINE
  5
41E
330
1D
100
AcDbEntity
  8
0
100
AcDbLine
 10
134.277
 20
895.542
 30
0.0
 11
138.309
 21
895.542
 31
0.0
  0
LINE
  5
420
330
1D
100
AcDbEntity
  8
0
100
AcDbLine
 10
134.773
 20
1228.142
 30
0.0
 11
139.309
 21
1228.142
 31
0.0
  0
LINE
  5
421
330
1D
100
AcDbEntity
  8
0
100
AcDbLine
 10
134.701
 20
1228.752
 30
0.0
 11
139.309
 21
1228.752
 31
0.0
  0
LINE
  5
422
330
1D
100
AcDbEntity
  8
0
100
AcDbLine
 10
134.773
 20
1256.142
 30
0.0
 11
139.309
 21
1256.142
 31
0.0
  0
LINE
  5
423
330
1D
100
AcDbEntity
  8
0
100
AcDbLine
 10
134.701
 20
1255.522
 30
0.0
 11
139.309
 21
1255.522
 31
0.0
  0
LINE
  5
425
330
1D
100
AcDbEntity
  8
0
100
AcDbLine
 10
134.177
 20
1085.92
 30
0.0
 11
147.408
 21
1085.92
 31
0.0
  0
LINE
  5
426
330
1D
100
AcDbEntity
  8
0
100
AcDbLine
 10
135.736
 20
759.388
 30
0.0
 11
139.768
 21
759.388
 31
0.0
  0
LINE
  5
427
330
1D
100
AcDbEntity
  8
0
100
AcDbLine
 10
135.736
 20
707.388
 30
0.0
 11
139.768
 21
707.388
 31
0.0
  0
LINE
  5
428
330
1D
100
AcDbEntity
  8
0
100
AcDbLine
 10
133.328
 20
1264.152
 30
0.0
 11
134.77
 21
1264.152
 31
0.0
  0
LINE
  5
429
330
1D
100
AcDbEntity
  8
0
100
AcDbLine
 10
134.77
 20
1264.152
 30
0.0
 11
136.325
 21
1264.152
 31
0.0
  0
LINE
  5
42A
330
1D
100
AcDbEntity
  8
0
100
AcDbLine
 10
136.141
 20
125.387
 30
0.0
 11
139.312
 21
121.839
 31
0.0
  0
LINE
  5
42B
330
1D
100
AcDbEntity
  8
0
100
AcDbLine
 10
136.115
 20
179.576
 30
0.0
 11
141.173
 21
179.471
 31
0.0
  0
LINE
  5
42D
330
1D
100
AcDbEntity
  8
0
100
AcDbLine
 10
135.829
 20
1085.542
 30
0.0
 11
137.549
 21
1085.542
 31
0.0
  0
LINE
  5
42E
330
1D
100
AcDbEntity
  8
0
100
AcDbLine
 10
136.291
 20
220.097
 30
0.0
 11
138.08
 21
220.398
 31
0.0
  0
LINE
  5
42F
330
1D
100
AcDbEntity
  8
0
100
AcDbLine
 10
135.786
 20
1264.152
 30
0.0
 11
137.373
 21
1264.152
 31
0.0
  0
LINE
  5
430
330
1D
100
AcDbEntity
  8
0
100
AcDbLine
 10
134.286
 20
1264.152
 30
0.0
 11
135.786
 21
1264.152
 31
0.0
  0
LINE
  5
435
330
1D
100
AcDbEntity
  8
0
100
AcDbLine
 10
137.352
 20
234.188
 30
0.0
 11
140.313
 21
234.251
 31
0.0
  0
LINE
  5
437
330
1D
100
AcDbEntity
  8
0
100
AcDbLine
 10
135.254
 20
210.929
 30
0.0
 11
147.389
 21
210.929
 31
0.0
  0
LINE
  5
438
330
1D
100
AcDbEntity
  8
0
100
AcDbLine
 10
137.578
 20
193.328
 30
0.0
 11
141.384
 21
193.374
 31
0.0
  0
LINE
  5
43A
330
1D
100
AcDbEntity
  8
0
100
AcDbLine
 10
138.546
 20
228.65
 30
0.0
 11
143.594
 21
228.108
 31
0.0
  0
LINE
  5
43B
330
1D
100
AcDbEntity
  8
0
100
AcDbLine
 10
138.08
 20
220.398
 30
0.0
 11
140.009
 21
220.439
 31
0.0
  0
LINE
  5
43C
330
1D
100
AcDbEntity
  8
0
100
AcDbLine
 10
137.549
 20
1085.542
 30
0.0
 11
139.309
 21
1085.542
 31
0.0
  0
LINE
  5
43D
330
1D
100
AcDbEntity
  8
0
100
AcDbLine
 10
138.309
 20
947.542
 30
0.0
 11
142.341
 21
947.542
 31
0.0
  0
LINE
  5
43E
330
1D
100
AcDbEntity
  8
0
100
AcDbLine
 10
138.309
 20
895.542
 30
0.0
 11
142.341
 21
895.542
 31
0.0
  0
LINE
  5
43F
330
1D
100
AcDbEntity
  8
0
100
AcDbLine
 10
137.952
 20
1264.152
 30
0.0
 11
139.614
 21
1264.152
 31
0.0
  0
LINE
  5
441
330
1D
100
AcDbEntity
  8
0
100
AcDbLine
 10
139.309
 20
1085.542
 30
0.0
 11
141.069
 21
1085.542
 31
0.0
  0
LINE
  5
442
330
1D
100
AcDbEntity
  8
0
100
AcDbLine
 10
139.309
 20
336.542
 30
0.0
 11
143.341
 21
336.542
 31
0.0
  0
LINE
  5
443
330
1D
100
AcDbEntity
  8
0
100
AcDbLine
 10
139.309
 20
283.542
 30
0.0
 11
143.341
 21
283.542
 31
0.0
  0
LINE
  5
445
330
1D
100
AcDbEntity
  8
0
100
AcDbLine
 10
139.312
 20
121.839
 30
0.0
 11
142.86
 21
118.668
 31
0.0
  0
LINE
  5
447
330
1D
100
AcDbEntity
  8
0
100
AcDbLine
 10
139.309
 20
1228.142
 30
0.0
 11
143.845
 21
1228.142
 31
0.0
  0
LINE
  5
448
330
1D
100
AcDbEntity
  8
0
100
AcDbLine
 10
139.309
 20
1256.142
 30
0.0
 11
143.845
 21
1256.142
 31
0.0
  0
LINE
  5
449
330
1D
100
AcDbEntity
  8
0
100
AcDbLine
 10
139.309
 20
1228.752
 30
0.0
 11
143.917
 21
1228.752
 31
0.0
  0
LINE
  5
44A
330
1D
100
AcDbEntity
  8
0
100
AcDbLine
 10
139.309
 20
1255.522
 30
0.0
 11
143.917
 21
1255.522
 31
0.0
  0
LINE
  5
452
330
1D
100
AcDbEntity
  8
0
100
AcDbLine
 10
141.173
 20
179.471
 30
0.0
 11
141.701139830669
 21
179.55788272144
 31
0.0
  0
LINE
  5
454
330
1D
100
AcDbEntity
  8
0
100
AcDbLine
 10
140.313
 20
234.251
 30
0.0
 11
142.448
 21
234.082
 31
0.0
  0
LINE
  5
456
330
1D
100
AcDbEntity
  8
0
100
AcDbLine
 10
141.384
 20
193.374
 30
0.0
 11
143.241
 21
193.921
 31
0.0
  0
LINE
  5
458
330
1D
100
AcDbEntity
  8
0
100
AcDbLine
 10
140.009
 20
220.439
 30
0.0
 11
142.8
 21
220.013
 31
0.0
  0
LINE
  5
45A
330
1D
100
AcDbEntity
  8
0
100
AcDbLine
 10
139.768
 20
707.388
 30
0.0
 11
143.8
 21
707.388
 31
0.0
  0
LINE
  5
45B
330
1D
100
AcDbEntity
  8
0
100
AcDbLine
 10
141.069
 20
1085.542
 30
0.0
 11
142.789
 21
1085.542
 31
0.0
  0
LINE
  5
45E
330
1D
100
AcDbEntity
  8
0
100
AcDbLine
 10
139.768
 20
759.388
 30
0.0
 11
143.8
 21
759.388
 31
0.0
  0
LINE
  5
45F
330
1D
100
AcDbEntity
  8
0
100
AcDbLine
 10
139.614
 20
1264.152
 30
0.0
 11
141.268
 21
1264.152
 31
0.0
  0
LINE
  5
460
330
1D
100
AcDbEntity
  8
0
100
AcDbLine
 10
141.268
 20
1264.152
 30
0.0
 11
142.873
 21
1264.152
 31
0.0
  0
LINE
  5
461
330
1D
100
AcDbEntity
  8
0
100
AcDbLine
 10
142.448
 20
234.082
 30
0.0
 11
145.084
 21
233.685
 31
0.0
  0
LINE
  5
463
330
1D
100
AcDbEntity
  8
0
100
AcDbLine
 10
143.164
 20
185.482
 30
0.0
 11
148.1
 21
187.024
 31
0.0
  0
LINE
  5
464
330
1D
100
AcDbEntity
  8
0
100
AcDbLine
 10
143.183468134431
 20
193.910435520261
 30
0.0
 11
143.241
 21
193.921
 31
0.0
  0
LINE
  5
465
330
1D
100
AcDbEntity
  8
0
100
AcDbLine
 10
142.8
 20
220.013
 30
0.0
 11
145.407
 21
219.02
 31
0.0
  0
LINE
  5
467
330
1D
100
AcDbEntity
  8
0
100
AcDbLine
 10
142.86
 20
118.668
 30
0.0
 11
146.74
 21
115.914
 31
0.0
  0
LINE
  5
469
330
1D
100
AcDbEntity
  8
0
100
AcDbLine
 10
143.241
 20
193.921
 30
0.0
 11
144.185
 21
194.209
 31
0.0
  0
LINE
  5
46A
330
1D
100
AcDbEntity
  8
0
100
AcDbLine
 10
143.341
 20
336.542
 30
0.0
 11
147.053
 21
336.542
 31
0.0
  0
LINE
  5
46C
330
1D
100
AcDbEntity
  8
0
100
AcDbLine
 10
143.594
 20
228.108
 30
0.0
 11
149.888
 21
225.754
 31
0.0
  0
LINE
  5
46D
330
1D
100
AcDbEntity
  8
0
100
AcDbLine
 10
143.341
 20
283.542
 30
0.0
 11
147.053
 21
283.542
 31
0.0
  0
LINE
  5
46E
330
1D
100
AcDbEntity
  8
0
100
AcDbLine
 10
142.341
 20
947.542
 30
0.0
 11
146.053
 21
947.542
 31
0.0
  0
LINE
  5
46F
330
1D
100
AcDbEntity
  8
0
100
AcDbLine
 10
142.789
 20
1085.542
 30
0.0
 11
144.509
 21
1085.542
 31
0.0
  0
LINE
  5
470
330
1D
100
AcDbEntity
  8
0
100
AcDbLine
 10
142.341
 20
895.542
 30
0.0
 11
146.053
 21
895.542
 31
0.0
  0
LINE
  5
471
330
1D
100
AcDbEntity
  8
0
100
AcDbLine
 10
143.8
 20
707.388
 30
0.0
 11
147.512
 21
707.388
 31
0.0
  0
LINE
  5
473
330
1D
100
AcDbEntity
  8
0
100
AcDbLine
 10
144.185
 20
194.209
 30
0.0
 11
146.626
 21
195.347
 31
0.0
  0
LINE
  5
475
330
1D
100
AcDbEntity
  8
0
100
AcDbLine
 10
143.845
 20
1228.142
 30
0.0
 11
148.021
 21
1228.142
 31
0.0
  0
LINE
  5
476
330
1D
100
AcDbEntity
  8
0
100
AcDbLine
 10
143.845
 20
1256.142
 30
0.0
 11
148.021
 21
1256.142
 31
0.0
  0
LINE
  5
477
330
1D
100
AcDbEntity
  8
0
100
AcDbLine
 10
143.917
 20
1228.752
 30
0.0
 11
148.237
 21
1228.752
 31
0.0
  0
LINE
  5
478
330
1D
100
AcDbEntity
  8
0
100
AcDbLine
 10
143.917
 20
1255.522
 30
0.0
 11
148.237
 21
1255.522
 31
0.0
  0
LINE
  5
47A
330
1D
100
AcDbEntity
  8
0
100
AcDbLine
 10
143.8
 20
759.388
 30
0.0
 11
147.512
 21
759.388
 31
0.0
  0
LINE
  5
47B
330
1D
100
AcDbEntity
  8
0
100
AcDbLine
 10
142.873
 20
1264.152
 30
0.0
 11
144.391
 21
1264.152
 31
0.0
  0
LINE
  5
47C
330
1D
100
AcDbEntity
  8
0
100
AcDbLine
 10
145.141
 20
180.084
 30
0.0
 11
146.498
 21
180.347
 31
0.0
  0
LINE
  5
481
330
1D
100
AcDbEntity
  8
0
100
AcDbLine
 10
144.509
 20
1085.542
 30
0.0
 11
146.149
 21
1085.542
 31
0.0
  0
LINE
  5
484
330
1D
100
AcDbEntity
  8
0
100
AcDbLine
 10
145.084
 20
233.685
 30
0.0
 11
147.642
 21
232.961
 31
0.0
  0
LINE
  5
485
330
1D
100
AcDbEntity
  8
0
100
AcDbLine
 10
145.407
 20
219.02
 30
0.0
 11
147.773
 21
217.53
 31
0.0
  0
LINE
  5
486
330
1D
100
AcDbEntity
  8
0
100
AcDbLine
 10
146.498
 20
180.347
 30
0.0
 11
148.770974103348
 21
181.124662206976
 31
0.0
  0
LINE
  5
488
330
1D
100
AcDbEntity
  8
0
100
AcDbLine
 10
146.626
 20
195.347
 30
0.0
 11
148.795
 21
197.07
 31
0.0
  0
LINE
  5
489
330
1D
100
AcDbEntity
  8
0
100
AcDbLine
 10
146.74
 20
115.914
 30
0.0
 11
150.904
 21
113.613
 31
0.0
  0
LINE
  5
48A
330
1D
100
AcDbEntity
  8
0
100
AcDbLine
 10
146.149
 20
1085.542
 30
0.0
 11
147.749
 21
1085.542
 31
0.0
  0
LINE
  5
48B
330
1D
100
AcDbEntity
  8
0
100
AcDbLine
 10
146.053
 20
947.542
 30
0.0
 11
149.317
 21
947.542
 31
0.0
  0
LINE
  5
48C
330
1D
100
AcDbEntity
  8
0
100
AcDbLine
 10
146.053
 20
895.542
 30
0.0
 11
149.317
 21
895.542
 31
0.0
  0
LINE
  5
48F
330
1D
100
AcDbEntity
  8
0
100
AcDbLine
 10
144.391
 20
1264.152
 30
0.0
 11
145.784
 21
1264.152
 31
0.0
  0
LINE
  5
490
330
1D
100
AcDbEntity
  8
0
100
AcDbLine
 10
145.784
 20
1264.152
 30
0.0
 11
147.017
 21
1264.152
 31
0.0
  0
LINE
  5
491
330
1D
100
AcDbEntity
  8
0
100
AcDbLine
 10
147.389
 20
210.929
 30
0.0
 11
158.667
 21
210.995
 31
0.0
  0
LINE
  5
493
330
1D
100
AcDbEntity
  8
0
100
AcDbLine
 10
147.053
 20
283.542
 30
0.0
 11
150.317
 21
283.542
 31
0.0
  0
LINE
  5
494
330
1D
100
AcDbEntity
  8
0
100
AcDbLine
 10
147.053
 20
336.542
 30
0.0
 11
150.317
 21
336.542
 31
0.0
  0
LINE
  5
497
330
1D
100
AcDbEntity
  8
0
100
AcDbLine
 10
147.512
 20
707.388
 30
0.0
 11
150.776
 21
707.388
 31
0.0
  0
LINE
  5
498
330
1D
100
AcDbEntity
  8
0
100
AcDbLine
 10
147.408
 20
1085.92
 30
0.0
 11
160.564
 21
1085.92
 31
0.0
  0
LINE
  5
499
330
1D
100
AcDbEntity
  8
0
100
AcDbLine
 10
147.512
 20
759.388
 30
0.0
 11
150.776
 21
759.388
 31
0.0
  0
LINE
  5
49A
330
1D
100
AcDbEntity
  8
0
100
AcDbLine
 10
147.017
 20
1264.152
 30
0.0
 11
148.06
 21
1264.152
 31
0.0
  0
LINE
  5
49B
330
1D
100
AcDbEntity
  8
0
100
AcDbLine
 10
146.501
 20
1264.152
 30
0.0
 11
147.605
 21
1264.152
 31
0.0
  0
LINE
  5
49E
330
1D
100
AcDbEntity
  8
0
100
AcDbLine
 10
147.749
 20
1085.542
 30
0.0
 11
149.269
 21
1085.542
 31
0.0
  0
LINE
  5
49F
330
1D
100
AcDbEntity
  8
0
100
AcDbLine
 10
147.642
 20
232.961
 30
0.0
 11
150.074
 21
232.101
 31
0.0
  0
LINE
  5
4A2
330
1D
100
AcDbEntity
  8
0
100
AcDbLine
 10
147.773
 20
217.53
 30
0.0
 11
150.383
 21
214.803
 31
0.0
  0
LINE
  5
4A3
330
1D
100
AcDbEntity
  8
0
100
AcDbLine
 10
148.157096778548
 20
232.77885229048
 30
0.0
 11
149.039
 21
232.781
 31
0.0
  0
LINE
  5
4A4
330
1D
100
AcDbEntity
  8
0
100
AcDbLine
 10
148.1
 20
187.024
 30
0.0
 11
152.161
 21
189.386
 31
0.0
  0
LINE
  5
4A6
330
1D
100
AcDbEntity
  8
0
100
AcDbLine
 10
148.770974103348
 20
181.124662206976
 30
0.0
 11
150.134
 21
181.591
 31
0.0
  0
LINE
  5
4AA
330
1D
100
AcDbEntity
  8
0
100
AcDbLine
 10
149.039
 20
232.781
 30
0.0
 11
151.158
 21
232.708
 31
0.0
  0
LINE
  5
4AB
330
1D
100
AcDbEntity
  8
0
100
AcDbLine
 10
148.795
 20
197.07
 30
0.0
 11
150.612
 21
199.217
 31
0.0
  0
LINE
  5
4AC
330
1D
100
AcDbEntity
  8
0
100
AcDbLine
 10
148.303880626573
 20
180.964853547705
 30
0.0
 11
149.122
 21
180.959
 31
0.0
  0
LINE
  5
4AD
330
1D
100
AcDbEntity
  8
0
100
AcDbLine
 10
149.122
 20
180.959
 30
0.0
 11
151.158
 21
180.976
 31
0.0
  0
LINE
  5
4AF
330
1D
100
AcDbEntity
  8
0
100
AcDbLine
 10
148.021
 20
1228.142
 30
0.0
 11
151.693
 21
1228.142
 31
0.0
  0
LINE
  5
4B0
330
1D
100
AcDbEntity
  8
0
100
AcDbLine
 10
148.021
 20
1256.142
 30
0.0
 11
151.693
 21
1256.142
 31
0.0
  0
LINE
  5
4B1
330
1D
100
AcDbEntity
  8
0
100
AcDbLine
 10
148.237
 20
1228.752
 30
0.0
 11
152.053
 21
1228.752
 31
0.0
  0
LINE
  5
4B2
330
1D
100
AcDbEntity
  8
0
100
AcDbLine
 10
148.237
 20
1255.522
 30
0.0
 11
152.053
 21
1255.522
 31
0.0
  0
LINE
  5
4B4
330
1D
100
AcDbEntity
  8
0
100
AcDbLine
 10
148.06
 20
1264.152
 30
0.0
 11
148.888
 21
1264.152
 31
0.0
  0
LINE
  5
4B6
330
1D
100
AcDbEntity
  8
0
100
AcDbLine
 10
149.317
 20
947.542
 30
0.0
 11
151.813
 21
947.542
 31
0.0
  0
LINE
  5
4B7
330
1D
100
AcDbEntity
  8
0
100
AcDbLine
 10
149.317
 20
895.542
 30
0.0
 11
151.813
 21
895.542
 31
0.0
  0
LINE
  5
4B8
330
1D
100
AcDbEntity
  8
0
100
AcDbLine
 10
149.643
 20
895.542
 30
0.0
 11
151.813
 21
895.542
 31
0.0
  0
LINE
  5
4B9
330
1D
100
AcDbEntity
  8
0
100
AcDbLine
 10
149.269
 20
1085.542
 30
0.0
 11
150.789
 21
1085.542
 31
0.0
  0
LINE
  5
4BB
330
1D
100
AcDbEntity
  8
0
100
AcDbLine
 10
149.643
 20
949.0004
 30
0.0
 11
153.189
 21
947.582
 31
0.0
  0
LINE
  5
4BF
330
1D
100
AcDbEntity
  8
0
100
AcDbLine
 10
149.643
 20
894.0836
 30
0.0
 11
153.189
 21
895.502
 31
0.0
  0
LINE
  5
4C0
330
1D
100
AcDbEntity
  8
0
100
AcDbLine
 10
149.48
 20
1264.152
 30
0.0
 11
149.822
 21
1264.152
 31
0.0
  0
LINE
  5
4C2
330
1D
100
AcDbEntity
  8
0
100
AcDbLine
 10
150.134
 20
181.591
 30
0.0
 11
152.416
 21
182.762
 31
0.0
  0
LINE
  5
4C4
330
1D
100
AcDbEntity
  8
0
100
AcDbLine
 10
150.074
 20
232.101
 30
0.0
 11
152.393
 21
230.937
 31
0.0
  0
LINE
  5
4C5
330
1D
100
AcDbEntity
  8
0
100
AcDbLine
 10
149.888
 20
225.754
 30
0.0
 11
153.439
 21
223.329
 31
0.0
  0
LINE
  5
4C6
330
1D
100
AcDbEntity
  8
0
100
AcDbLine
 10
150.383
 20
214.803
 30
0.0
 11
151.687
 21
212.541
 31
0.0
  0
LINE
  5
4CA
330
1D
100
AcDbEntity
  8
0
100
AcDbLine
 10
150.612
 20
199.217
 30
0.0
 11
152.016
 21
202.163
 31
0.0
  0
LINE
  5
4CB
330
1D
100
AcDbEntity
  8
0
100
AcDbLine
 10
151.158
 20
180.976
 30
0.0
 11
154.764
 21
180.94
 31
0.0
  0
LINE
  5
4CD
330
1D
100
AcDbEntity
  8
0
100
AcDbLine
 10
151.687
 20
212.541
 30
0.0
 11
152.255608174756
 21
211.166403538695
 31
0.0
  0
LINE
  5
4CF
330
1D
100
AcDbEntity
  8
0
100
AcDbLine
 10
150.904
 20
113.613
 30
0.0
 11
155.301
 21
111.792
 31
0.0
  0
LINE
  5
4D0
330
1D
100
AcDbEntity
  8
0
100
AcDbLine
 10
151.791007114327
 20
150.408960270643
 30
0.0
 11
151.895
 21
179.063
 31
0.0
  0
LINE
  5
4D1
330
1D
100
AcDbEntity
  8
0
100
AcDbLine
 10
152.016
 20
202.163
 30
0.0
 11
152.244
 21
202.554
 31
0.0
  0
LINE
  5
4D3
330
1D
100
AcDbEntity
  8
0
100
AcDbLine
 10
152.255608174756
 20
211.166403538696
 30
0.0
 11
152.603
 21
211.002
 31
0.0
  0
LINE
  5
4D4
330
1D
100
AcDbEntity
  8
0
100
AcDbLine
 10
152.161
 20
189.386
 30
0.0
 11
154.799
 21
191.683
 31
0.0
  0
LINE
  5
4D6
330
1D
100
AcDbEntity
  8
0
100
AcDbLine
 10
151.895
 20
179.063
 30
0.0
 11
152.544
 21
180.11
 31
0.0
  0
LINE
  5
4D7
330
1D
100
AcDbEntity
  8
0
100
AcDbLine
 10
151.791
 20
150.409
 30
0.0
 11
152.407
 21
146.969
 31
0.0
  0
LINE
  5
4D8
330
1D
100
AcDbEntity
  8
0
100
AcDbLine
 10
150.317
 20
283.542
 30
0.0
 11
152.813
 21
283.542
 31
0.0
  0
LINE
  5
4D9
330
1D
100
AcDbEntity
  8
0
100
AcDbLine
 10
152.221
 20
283.542
 30
0.0
 11
152.813
 21
283.542
 31
0.0
  0
LINE
  5
4DA
330
1D
100
AcDbEntity
  8
0
100
AcDbLine
 10
150.317
 20
336.542
 30
0.0
 11
152.813
 21
336.542
 31
0.0
  0
LINE
  5
4DD
330
1D
100
AcDbEntity
  8
0
100
AcDbLine
 10
152.221
 20
283.542
 30
0.0
 11
152.221
 21
232.78661323043
 31
0.0
  0
LINE
  5
4DF
330
1D
100
AcDbEntity
  8
0
100
AcDbLine
 10
216.989
 20
84.412
 30
0.0
 11
225.309
 21
83.242
 31
0.0
  0
LINE
  5
4E1
330
1D
100
AcDbEntity
  8
0
100
AcDbLine
 10
209.189
 20
87.532
 30
0.0
 11
216.989
 21
84.412
 31
0.0
  0
LINE
  5
4E4
330
1D
100
AcDbEntity
  8
0
100
AcDbLine
 10
233.629
 20
84.412
 30
0.0
 11
241.429
 21
87.532
 31
0.0
  0
LINE
  5
4E5
330
1D
100
AcDbEntity
  8
0
100
AcDbLine
 10
225.309
 20
83.242
 30
0.0
 11
233.629
 21
84.412
 31
0.0
  0
LINE
  5
4E6
330
1D
100
AcDbEntity
  8
0
100
AcDbLine
 10
241.429
 20
87.532
 30
0.0
 11
248.319
 21
92.732
 31
0.0
  0
LINE
  5
4E7
330
1D
100
AcDbEntity
  8
0
100
AcDbLine
 10
288.882
 20
90.1576
 30
0.0
 11
289.982
 21
90.1576
 31
0.0
  0
LINE
  5
4E8
330
1D
100
AcDbEntity
  8
0
100
AcDbLine
 10
294.758
 20
0.634
 30
0.0
 11
296.259
 21
1.308
 31
0.0
  0
LINE
  5
4E9
330
1D
100
AcDbEntity
  8
0
100
AcDbLine
 10
294.682
 20
60.1576
 30
0.0
 11
296.282
 21
60.1576
 31
0.0
  0
LINE
  5
4EA
330
1D
100
AcDbEntity
  8
0
100
AcDbLine
 10
293.52
 20
0.259
 30
0.0
 11
294.758
 21
0.634
 31
0.0
  0
LINE
  5
4EB
330
1D
100
AcDbEntity
  8
0
100
AcDbLine
 10
293.482
 20
60.1576
 30
0.0
 11
294.682
 21
60.1576
 31
0.0
  0
LINE
  5
4EC
330
1D
100
AcDbEntity
  8
0
100
AcDbLine
 10
292.782
 20
60.1576
 30
0.0
 11
293.482
 21
60.1576
 31
0.0
  0
LINE
  5
4ED
330
1D
100
AcDbEntity
  8
0
100
AcDbLine
 10
292.845
 20
0.184
 30
0.0
 11
293.52
 21
0.259
 31
0.0
  0
LINE
  5
4EE
330
1D
100
AcDbEntity
  8
0
100
AcDbLine
 10
292.482
 20
60.1576
 30
0.0
 11
292.482
 21
0.158
 31
0.0
  0
LINE
  5
4EF
330
1D
100
AcDbEntity
  8
0
100
AcDbLine
 10
292.482
 20
60.1576
 30
0.0
 11
292.782
 21
60.1576
 31
0.0
  0
LINE
  5
4F0
330
1D
100
AcDbEntity
  8
0
100
AcDbLine
 10
292.482
 20
0.158
 30
0.0
 11
292.845
 21
0.184
 31
0.0
  0
LINE
  5
4F1
330
1D
100
AcDbEntity
  8
0
100
AcDbLine
 10
292.482
 20
0.158
 30
0.0
 11
292.482
 21
60.1576
 31
0.0
  0
LINE
  5
4F2
330
1D
100
AcDbEntity
  8
0
100
AcDbLine
 10
300.01
 20
4.419
 30
0.0
 11
301.773
 21
5.769
 31
0.0
  0
LINE
  5
4F3
330
1D
100
AcDbEntity
  8
0
100
AcDbLine
 10
301.773
 20
5.769
 30
0.0
 11
303.611
 21
6.968
 31
0.0
  0
LINE
  5
4F4
330
1D
100
AcDbEntity
  8
0
100
AcDbLine
 10
302.682
 20
60.1576
 30
0.0
 11
305.182
 21
60.1576
 31
0.0
  0
LINE
  5
4F5
330
1D
100
AcDbEntity
  8
0
100
AcDbLine
 10
299.982
 20
60.1576
 30
0.0
 11
301.882
 21
60.1576
 31
0.0
  0
LINE
  5
4F6
330
1D
100
AcDbEntity
  8
0
100
AcDbLine
 10
299.982
 20
60.1576
 30
0.0
 11
302.682
 21
60.1576
 31
0.0
  0
LINE
  5
4F7
330
1D
100
AcDbEntity
  8
0
100
AcDbLine
 10
301.882
 20
60.1576
 30
0.0
 11
303.682
 21
60.1576
 31
0.0
  0
LINE
  5
4F8
330
1D
100
AcDbEntity
  8
0
100
AcDbLine
 10
305.182
 20
60.1576
 30
0.0
 11
307.382
 21
60.1576
 31
0.0
  0
LINE
  5
4F9
330
1D
100
AcDbEntity
  8
0
100
AcDbLine
 10
303.682
 20
60.1576
 30
0.0
 11
305.282
 21
60.1576
 31
0.0
  0
LINE
  5
4FA
330
1D
100
AcDbEntity
  8
0
100
AcDbLine
 10
303.611
 20
6.968
 30
0.0
 11
305.412
 21
8.168
 31
0.0
  0
LINE
  5
4FB
330
1D
100
AcDbEntity
  8
0
100
AcDbLine
 10
305.412
 20
8.168
 30
0.0
 11
306.5
 21
9.217
 31
0.0
  0
LINE
  5
4FC
330
1D
100
AcDbEntity
  8
0
100
AcDbLine
 10
305.282
 20
60.1576
 30
0.0
 11
306.482
 21
60.1576
 31
0.0
  0
LINE
  5
4FD
330
1D
100
AcDbEntity
  8
0
100
AcDbLine
 10
306.482
 20
60.1576
 30
0.0
 11
307.182
 21
60.1576
 31
0.0
  0
LINE
  5
4FE
330
1D
100
AcDbEntity
  8
0
100
AcDbLine
 10
306.5
 20
9.217
 30
0.0
 11
307.213
 21
9.929
 31
0.0
  0
LINE
  5
4FF
330
1D
100
AcDbEntity
  8
0
100
AcDbLine
 10
307.182
 20
60.1576
 30
0.0
 11
307.482
 21
60.1576
 31
0.0
  0
LINE
  5
500
330
1D
100
AcDbEntity
  8
0
100
AcDbLine
 10
307.482
 20
60.1576
 30
0.0
 11
309.082
 21
60.1576
 31
0.0
  0
LINE
  5
501
330
1D
100
AcDbEntity
  8
0
100
AcDbLine
 10
307.482
 20
60.1576
 30
0.0
 11
307.482
 21
10.158
 31
0.0
  0
LINE
  5
502
330
1D
100
AcDbEntity
  8
0
100
AcDbLine
 10
307.382
 20
60.1576
 30
0.0
 11
309.082
 21
60.1576
 31
0.0
  0
LINE
  5
503
330
1D
100
AcDbEntity
  8
0
100
AcDbLine
 10
309.082
 20
60.1576
 30
0.0
 11
310.082
 21
60.1576
 31
0.0
  0
LINE
  5
504
330
1D
100
AcDbEntity
  8
0
100
AcDbLine
 10
310.482
 20
60.1576
 30
0.0
 11
311.482
 21
90.1576
 31
0.0
  0
LINE
  5
505
330
1D
100
AcDbEntity
  8
0
100
AcDbLine
 10
310.082
 20
60.1576
 30
0.0
 11
310.482
 21
60.1576
 31
0.0
  0
LINE
  5
506
330
1D
100
AcDbEntity
  8
0
100
AcDbLine
 10
307.482
 20
10.158
 30
0.0
 11
307.482
 21
60.1576
 31
0.0
  0
LINE
  5
507
330
1D
100
AcDbEntity
  8
0
100
AcDbLine
 10
307.213
 20
9.929
 30
0.0
 11
307.482
 21
10.158
 31
0.0
  0
LINE
  5
508
330
1D
100
AcDbEntity
  8
0
100
AcDbLine
 10
298.082
 20
60.1576
 30
0.0
 11
299.982
 21
60.1576
 31
0.0
  0
LINE
  5
509
330
1D
100
AcDbEntity
  8
0
100
AcDbLine
 10
298.059
 20
2.433
 30
0.0
 11
300.01
 21
4.419
 31
0.0
  0
LINE
  5
50A
330
1D
100
AcDbEntity
  8
0
100
AcDbLine
 10
296.282
 20
60.1576
 30
0.0
 11
298.082
 21
60.1576
 31
0.0
  0
LINE
  5
50B
330
1D
100
AcDbEntity
  8
0
100
AcDbLine
 10
296.259
 20
1.308
 30
0.0
 11
298.059
 21
2.433
 31
0.0
  0
LINE
  5
50C
330
1D
100
AcDbEntity
  8
0
100
AcDbLine
 10
297.282
 20
60.1576
 30
0.0
 11
299.982
 21
60.1576
 31
0.0
  0
LINE
  5
50D
330
1D
100
AcDbEntity
  8
0
100
AcDbLine
 10
294.782
 20
60.1576
 30
0.0
 11
297.282
 21
60.1576
 31
0.0
  0
LINE
  5
50E
330
1D
100
AcDbEntity
  8
0
100
AcDbLine
 10
292.582
 20
60.1576
 30
0.0
 11
294.782
 21
60.1576
 31
0.0
  0
LINE
  5
50F
330
1D
100
AcDbEntity
  8
0
100
AcDbLine
 10
290.882
 20
60.1576
 30
0.0
 11
292.582
 21
60.1576
 31
0.0
  0
LINE
  5
510
330
1D
100
AcDbEntity
  8
0
100
AcDbLine
 10
290.882
 20
60.1576
 30
0.0
 11
292.482
 21
60.1576
 31
0.0
  0
LINE
  5
511
330
1D
100
AcDbEntity
  8
0
100
AcDbLine
 10
299.982
 20
90.1576
 30
0.0
 11
302.982
 21
90.1576
 31
0.0
  0
LINE
  5
512
330
1D
100
AcDbEntity
  8
0
100
AcDbLine
 10
302.982
 20
90.1576
 30
0.0
 11
305.682
 21
90.1576
 31
0.0
  0
LINE
  5
513
330
1D
100
AcDbEntity
  8
0
100
AcDbLine
 10
305.682
 20
90.1576
 30
0.0
 11
308.082
 21
90.1576
 31
0.0
  0
LINE
  5
514
330
1D
100
AcDbEntity
  8
0
100
AcDbLine
 10
308.082
 20
90.1576
 30
0.0
 11
309.982
 21
90.1576
 31
0.0
  0
LINE
  5
515
330
1D
100
AcDbEntity
  8
0
100
AcDbLine
 10
309.982
 20
90.1576
 30
0.0
 11
311.082
 21
90.1576
 31
0.0
  0
LINE
  5
516
330
1D
100
AcDbEntity
  8
0
100
AcDbLine
 10
296.982
 20
90.1576
 30
0.0
 11
299.982
 21
90.1576
 31
0.0
  0
LINE
  5
517
330
1D
100
AcDbEntity
  8
0
100
AcDbLine
 10
294.282
 20
90.1576
 30
0.0
 11
296.982
 21
90.1576
 31
0.0
  0
LINE
  5
518
330
1D
100
AcDbEntity
  8
0
100
AcDbLine
 10
291.882
 20
90.1576
 30
0.0
 11
294.282
 21
90.1576
 31
0.0
  0
LINE
  5
519
330
1D
100
AcDbEntity
  8
0
100
AcDbLine
 10
289.982
 20
90.1576
 30
0.0
 11
291.882
 21
90.1576
 31
0.0
  0
LINE
  5
51A
330
1D
100
AcDbEntity
  8
0
100
AcDbLine
 10
289.882
 20
60.1576
 30
0.0
 11
290.882
 21
60.1576
 31
0.0
  0
LINE
  5
51B
330
1D
100
AcDbEntity
  8
0
100
AcDbLine
 10
289.482
 20
60.1576
 30
0.0
 11
289.882
 21
60.1576
 31
0.0
  0
LINE
  5
51C
330
1D
100
AcDbEntity
  8
0
100
AcDbLine
 10
288.094
 20
90.347
 30
0.0
 11
300.628911216897
 21
90.342901353965
 31
0.0
  0
LINE
  5
51E
330
1D
100
AcDbEntity
  8
0
100
AcDbLine
 10
309.749
 20
90.342
 30
0.0
 11
310.761
 21
90.342
 31
0.0
  0
LINE
  5
51F
330
1D
100
AcDbEntity
  8
0
100
AcDbLine
 10
308.094
 20
90.342
 30
0.0
 11
309.749
 21
90.342
 31
0.0
  0
LINE
  5
520
330
1D
100
AcDbEntity
  8
0
100
AcDbLine
 10
305.908
 20
90.342
 30
0.0
 11
308.094
 21
90.342
 31
0.0
  0
LINE
  5
521
330
1D
100
AcDbEntity
  8
0
100
AcDbLine
 10
303.341
 20
90.342
 30
0.0
 11
305.908
 21
90.342
 31
0.0
  0
LINE
  5
522
330
1D
100
AcDbEntity
  8
0
100
AcDbLine
 10
300.569
 20
90.342
 30
0.0
 11
303.341
 21
90.342
 31
0.0
  0
LINE
  5
525
330
1D
100
AcDbEntity
  8
0
100
AcDbLine
 10
288.482
 20
90.1576
 30
0.0
 11
289.482
 21
60.1576
 31
0.0
  0
LINE
  5
526
330
1D
100
AcDbEntity
  8
0
100
AcDbLine
 10
288.482
 20
90.1576
 30
0.0
 11
288.882
 21
90.1576
 31
0.0
  0
LINE
  5
528
330
1D
100
AcDbEntity
  8
0
100
AcDbLine
 10
366.989
 20
84.412
 30
0.0
 11
375.309
 21
83.242
 31
0.0
  0
LINE
  5
52A
330
1D
100
AcDbEntity
  8
0
100
AcDbLine
 10
359.189
 20
87.532
 30
0.0
 11
366.989
 21
84.412
 31
0.0
  0
LINE
  5
52D
330
1D
100
AcDbEntity
  8
0
100
AcDbLine
 10
383.629
 20
84.412
 30
0.0
 11
391.429
 21
87.532
 31
0.0
  0
LINE
  5
52E
330
1D
100
AcDbEntity
  8
0
100
AcDbLine
 10
375.309
 20
83.242
 30
0.0
 11
383.629
 21
84.412
 31
0.0
  0
LINE
  5
52F
330
1D
100
AcDbEntity
  8
0
100
AcDbLine
 10
391.429
 20
87.532
 30
0.0
 11
398.319
 21
92.732
 31
0.0
  0
LINE
  5
530
330
1D
100
AcDbEntity
  8
0
100
AcDbLine
 10
310.852862133808
 20
90.341502909739
 30
0.0
 11
311.975
 21
90.339
 31
0.0
  0
LINE
  5
531
330
1D
100
AcDbEntity
  8
0
100
AcDbLine
 10
311.975
 20
90.339
 30
0.0
 11
312.207008322693
 21
90.417453681373
 31
0.0
  0
LINE
  5
532
330
1D
100
AcDbEntity
  8
0
100
AcDbLine
 10
310.853226666667
 20
90.342
 30
0.0
 11
311.062
 21
90.342
 31
0.0
  0
LINE
  5
534
330
1D
100
AcDbEntity
  8
0
100
AcDbLine
 10
310.761
 20
90.342
 30
0.0
 11
311.062
 21
90.342
 31
0.0
  0
LINE
  5
535
330
1D
100
AcDbEntity
  8
0
100
AcDbLine
 10
311.082
 20
90.1576
 30
0.0
 11
311.482
 21
90.1576
 31
0.0
  0
LINE
  5
536
330
1D
100
AcDbEntity
  8
0
100
AcDbLine
 10
310.718
 20
90.1576
 30
0.0
 11
310.853226666667
 21
90.342
 31
0.0
  0
LINE
  5
537
330
1D
100
AcDbEntity
  8
0
100
AcDbLine
 10
152.407
 20
146.969
 30
0.0
 11
153.914
 21
143.332
 31
0.0
  0
LINE
  5
538
330
1D
100
AcDbEntity
  8
0
100
AcDbLine
 10
152.244
 20
202.554
 30
0.0
 11
152.349367658131
 21
202.591568412927
 31
0.0
  0
LINE
  5
53A
330
1D
100
AcDbEntity
  8
0
100
AcDbLine
 10
152.349367658131
 20
202.591568412927
 30
0.0
 11
158.180865359483
 21
202.653679039332
 31
0.0
  0
LINE
  5
53B
330
1D
100
AcDbEntity
  8
0
100
AcDbLine
 10
152.416
 20
182.762
 30
0.0
 11
155.626
 21
184.747
 31
0.0
  0
LINE
  5
53D
330
1D
100
AcDbEntity
  8
0
100
AcDbLine
 10
153.322
 20
180.649
 30
0.0
 11
154.764
 21
180.94
 31
0.0
  0
LINE
  5
540
330
1D
100
AcDbEntity
  8
0
100
AcDbLine
 10
152.544
 20
180.11
 30
0.0
 11
153.322
 21
180.649
 31
0.0
  0
LINE
  5
541
330
1D
100
AcDbEntity
  8
0
100
AcDbLine
 10
153.914
 20
143.332
 30
0.0
 11
156.199
 21
140.113
 31
0.0
  0
LINE
  5
544
330
1D
100
AcDbEntity
  8
0
100
AcDbLine
 10
153.562
 20
230.277
 30
0.0
 11
155.89619134132
 21
228.619907942256
 31
0.0
  0
LINE
  5
545
330
1D
100
AcDbEntity
  8
0
100
AcDbLine
 10
153.562
 20
230.277
 30
0.0
 11
155.89619134132
 21
228.619907942256
 31
0.0
  0
LINE
  5
547
330
1D
100
AcDbEntity
  8
0
100
AcDbLine
 10
152.393
 20
230.937
 30
0.0
 11
153.562
 21
230.277
 31
0.0
  0
LINE
  5
54A
330
1D
100
AcDbEntity
  8
0
100
AcDbLine
 10
153.598979983945
 20
232.787476592066
 30
0.0
 11
154.438
 21
232.815
 31
0.0
  0
LINE
  5
54B
330
1D
100
AcDbEntity
  8
0
100
AcDbLine
 10
153.439
 20
223.329
 30
0.0
 11
156.453
 21
220.041
 31
0.0
  0
LINE
  5
54D
330
1D
100
AcDbEntity
  8
0
100
AcDbLine
 10
154.438
 20
232.815
 30
0.0
 11
154.853
 21
232.711
 31
0.0
  0
LINE
  5
551
330
1D
100
AcDbEntity
  8
0
100
AcDbLine
 10
154.853
 20
232.711
 30
0.0
 11
155.244
 21
232.222
 31
0.0
  0
LINE
  5
552
330
1D
100
AcDbEntity
  8
0
100
AcDbLine
 10
154.799
 20
191.683
 30
0.0
 11
157.207
 21
194.609
 31
0.0
  0
LINE
  5
553
330
1D
100
AcDbEntity
  8
0
100
AcDbLine
 10
154.764
 20
180.94
 30
0.0
 11
155.245
 21
181.462
 31
0.0
  0
LINE
  5
554
330
1D
100
AcDbEntity
  8
0
100
AcDbLine
 10
154.925
 20
283.542
 30
0.0
 11
155.309
 21
284.157
 31
0.0
  0
LINE
  5
555
330
1D
100
AcDbEntity
  8
0
100
AcDbLine
 10
154.349
 20
283.542
 30
0.0
 11
154.925
 21
283.542
 31
0.0
  0
LINE
  5
556
330
1D
100
AcDbEntity
  8
0
100
AcDbLine
 10
154.349
 20
336.542
 30
0.0
 11
154.925
 21
336.542
 31
0.0
  0
LINE
  5
557
330
1D
100
AcDbEntity
  8
0
100
AcDbLine
 10
152.813
 20
336.542
 30
0.0
 11
154.349
 21
336.542
 31
0.0
  0
LINE
  5
558
330
1D
100
AcDbEntity
  8
0
100
AcDbLine
 10
152.813
 20
283.542
 30
0.0
 11
154.349
 21
283.542
 31
0.0
  0
LINE
  5
559
330
1D
100
AcDbEntity
  8
0
100
AcDbLine
 10
155.301
 20
111.792
 30
0.0
 11
159.873
 21
110.474
 31
0.0
  0
LINE
  5
55A
330
1D
100
AcDbEntity
  8
0
100
AcDbLine
 10
155.244583128349
 20
202.622405027403
 30
0.0
 11
155.244784758053
 21
192.387681255041
 31
0.0
  0
LINE
  5
55B
330
1D
100
AcDbEntity
  8
0
100
AcDbLine
 10
155.244939925925
 20
184.511360047651
 30
0.0
 11
155.245
 21
181.462
 31
0.0
  0
LINE
  5
55C
330
1D
100
AcDbEntity
  8
0
100
AcDbLine
 10
155.244216341994
 20
221.240480386753
 30
0.0
 11
155.244417187711
 21
211.045551773433
 31
0.0
  0
LINE
  5
55D
330
1D
100
AcDbEntity
  8
0
100
AcDbLine
 10
155.244
 20
232.222
 30
0.0
 11
155.244061452484
 21
229.102671911877
 31
0.0
  0
LINE
  5
561
330
1D
100
AcDbEntity
  8
0
100
AcDbLine
 10
287.914
 20
90.518
 30
0.0
 11
288.094
 21
90.347
 31
0.0
  0
LINE
  5
565
330
1D
100
AcDbEntity
  8
0
100
AcDbLine
 10
287.507
 20
92.545
 30
0.0
 11
287.914
 21
90.518
 31
0.0
  0
LINE
  5
56D
330
1D
100
AcDbEntity
  8
0
100
AcDbLine
 10
312.691
 20
90.523
 30
0.0
 11
313.13
 21
92.586
 31
0.0
  0
LINE
  5
56F
330
1D
100
AcDbEntity
  8
0
100
AcDbLine
 10
312.182
 20
90.412
 30
0.0
 11
312.691
 21
90.523
 31
0.0
  0
LINE
  5
570
330
1D
100
AcDbEntity
  8
0
100
AcDbLine
 10
352.299
 20
92.732
 30
0.0
 11
359.189
 21
87.532
 31
0.0
  0
LINE
  5
571
330
1D
100
AcDbEntity
  8
0
100
AcDbLine
 10
398.319
 20
92.732
 30
0.0
 11
401.474954827545
 21
96.913640146498
 31
0.0
  0
LINE
  5
572
330
1D
100
AcDbEntity
  8
0
100
AcDbLine
 10
398.319
 20
92.732
 30
0.0
 11
401.474954827545
 21
96.913640146498
 31
0.0
  0
LINE
  5
573
330
1D
100
AcDbEntity
  8
0
100
AcDbLine
 10
313.13
 20
92.586
 30
0.0
 11
314.032
 21
94.357
 31
0.0
  0
LINE
  5
575
330
1D
100
AcDbEntity
  8
0
100
AcDbLine
 10
202.299
 20
92.732
 30
0.0
 11
209.189
 21
87.532
 31
0.0
  0
LINE
  5
578
330
1D
100
AcDbEntity
  8
0
100
AcDbLine
 10
197.39
 20
97.04
 30
0.0
 11
197.815
 21
96.842
 31
0.0
  0
LINE
  5
57A
330
1D
100
AcDbEntity
  8
0
100
AcDbLine
 10
197.815
 20
96.842
 30
0.0
 11
203.249
 21
96.842
 31
0.0
  0
LINE
  5
57B
330
1D
100
AcDbEntity
  8
0
100
AcDbLine
 10
197.346
 20
97.759
 30
0.0
 11
197.39
 21
97.04
 31
0.0
  0
LINE
  5
57D
330
1D
100
AcDbEntity
  8
0
100
AcDbLine
 10
169.315
 20
109.41
 30
0.0
 11
197.338017456359
 21
109.41
 31
0.0
  0
LINE
  5
57E
330
1D
100
AcDbEntity
  8
0
100
AcDbLine
 10
164.564
 20
109.677
 30
0.0
 11
169.315
 21
109.41
 31
0.0
  0
LINE
  5
57F
330
1D
100
AcDbEntity
  8
0
100
AcDbLine
 10
159.873
 20
110.474
 30
0.0
 11
164.564
 21
109.677
 31
0.0
  0
LINE
  5
581
330
1D
100
AcDbEntity
  8
0
100
AcDbLine
 10
159.158955085389
 20
137.476316749106
 30
0.0
 11
162.090017876273
 21
135.856832258728
 31
0.0
  0
LINE
  5
582
330
1D
100
AcDbEntity
  8
0
100
AcDbLine
 10
163.520768604854
 20
135.295457700132
 30
0.0
 11
165.041899171328
 21
134.826298803744
 31
0.0
  0
LINE
  5
583
330
1D
100
AcDbEntity
  8
0
100
AcDbLine
 10
156.199
 20
140.113
 30
0.0
 11
159.137
 21
137.489
 31
0.0
  0
LINE
  5
584
330
1D
100
AcDbEntity
  8
0
100
AcDbLine
 10
165.041899171328
 20
134.826298803744
 30
0.0
 11
167.862
 21
134.32
 31
0.0
  0
LINE
  5
585
330
1D
100
AcDbEntity
  8
0
100
AcDbLine
 10
167.863
 20
134.32
 30
0.0
 11
197.315
 21
134.27950041851
 31
0.0
  0
LINE
  5
586
330
1D
100
AcDbEntity
  8
0
100
AcDbLine
 10
193.6994375
 20
109.41
 30
0.0
 11
193.979
 21
107.422
 31
0.0
  0
LINE
  5
5B7
330
1D
100
AcDbEntity
  8
0
100
AcDbLine
 10
197.386
 20
146.39
 30
0.0
 11
197.386
 21
146.638
 31
0.0
  0
LINE
  5
5B9
330
1D
100
AcDbEntity
  8
0
100
AcDbLine
 10
197.386
 20
146.638
 30
0.0
 11
197.815
 21
146.824
 31
0.0
  0
LINE
  5
5BB
330
1D
100
AcDbEntity
  8
0
100
AcDbLine
 10
197.386
 20
146.638
 30
0.0
 11
197.386
 21
146.39
 31
0.0
  0
LINE
  5
5BE
330
1D
100
AcDbEntity
  8
0
100
AcDbLine
 10
197.815
 20
146.824
 30
0.0
 11
289.250865062312
 21
146.824
 31
0.0
  0
LINE
  5
5C5
330
1D
100
AcDbEntity
  8
0
100
AcDbLine
 10
193.979
 20
107.422
 30
0.0
 11
197.099
 21
99.622
 31
0.0
  0
LINE
  5
5C6
330
1D
100
AcDbEntity
  8
0
100
AcDbLine
 10
197.099
 20
99.622
 30
0.0
 11
197.341638713623
 21
99.30050370445
 31
0.0
  0
LINE
  5
5C7
330
1D
100
AcDbEntity
  8
0
100
AcDbLine
 10
203.249
 20
96.842
 30
0.0
 11
281.374613496933
 21
96.842
 31
0.0
  0
LINE
  5
5D1
330
1D
100
AcDbEntity
  8
0
100
AcDbLine
 10
199.197113207547
 20
96.842
 30
0.0
 11
202.299
 21
92.732
 31
0.0
  0
LINE
  5
5D2
330
1D
100
AcDbEntity
  8
0
100
AcDbLine
 10
216.369
 20
146.824
 30
0.0
 11
216.989
 21
147.072
 31
0.0
  0
LINE
  5
5E1
330
1D
100
AcDbEntity
  8
0
100
AcDbLine
 10
216.989
 20
147.072
 30
0.0
 11
225.309
 21
148.242
 31
0.0
  0
LINE
  5
5E4
330
1D
100
AcDbEntity
  8
0
100
AcDbLine
 10
155.626
 20
184.747
 30
0.0
 11
157.678403890543
 21
186.599617001862
 31
0.0
  0
LINE
  5
5E7
330
1D
100
AcDbEntity
  8
0
100
AcDbLine
 10
157.207
 20
194.609
 30
0.0
 11
159.431
 21
198.331
 31
0.0
  0
LINE
  5
5E8
330
1D
100
AcDbEntity
  8
0
100
AcDbLine
 10
157.678403890543
 20
186.599617001862
 30
0.0
 11
159.54
 21
188.28
 31
0.0
  0
LINE
  5
5ED
330
1D
100
AcDbEntity
  8
0
100
AcDbLine
 10
159.431
 20
198.331
 30
0.0
 11
159.942
 21
200.404
 31
0.0
  0
LINE
  5
5EE
330
1D
100
AcDbEntity
  8
0
100
AcDbLine
 10
158.727
 20
202.503
 30
0.0
 11
159.498
 21
201.833
 31
0.0
  0
LINE
  5
5F0
330
1D
100
AcDbEntity
  8
0
100
AcDbLine
 10
158.180865359482
 20
202.653679039332
 30
0.0
 11
158.727
 21
202.503
 31
0.0
  0
LINE
  5
5F1
330
1D
100
AcDbEntity
  8
0
100
AcDbLine
 10
159.498
 20
201.833
 30
0.0
 11
159.814
 21
201.397
 31
0.0
  0
LINE
  5
5F6
330
1D
100
AcDbEntity
  8
0
100
AcDbLine
 10
158.389
 20
217.167
 30
0.0
 11
160.116
 21
213.119
 31
0.0
  0
LINE
  5
5F7
330
1D
100
AcDbEntity
  8
0
100
AcDbLine
 10
158.667
 20
210.995
 30
0.0
 11
159.678
 21
212.002
 31
0.0
  0
LINE
  5
5F9
330
1D
100
AcDbEntity
  8
0
100
AcDbLine
 10
159.54
 20
188.28
 30
0.0
 11
161.308
 21
190.47
 31
0.0
  0
LINE
  5
5FF
330
1D
100
AcDbEntity
  8
0
100
AcDbLine
 10
155.89619134132
 20
228.619907942256
 30
0.0
 11
156.737
 21
228.023
 31
0.0
  0
LINE
  5
600
330
1D
100
AcDbEntity
  8
0
100
AcDbLine
 10
158.734
 20
226.191
 30
0.0
 11
160.473
 21
224.338
 31
0.0
  0
LINE
  5
603
330
1D
100
AcDbEntity
  8
0
100
AcDbLine
 10
156.737
 20
228.023
 30
0.0
 11
158.734
 21
226.191
 31
0.0
  0
LINE
  5
605
330
1D
100
AcDbEntity
  8
0
100
AcDbLine
 10
156.453
 20
220.041
 30
0.0
 11
158.389
 21
217.167
 31
0.0
  0
LINE
  5
609
330
1D
100
AcDbEntity
  8
0
100
AcDbLine
 10
162.193
 20
191.778
 30
0.0
 11
164.074
 21
194.976
 31
0.0
  0
LINE
  5
60B
330
1D
100
AcDbEntity
  8
0
100
AcDbLine
 10
161.308
 20
190.47
 30
0.0
 11
162.193
 21
191.778
 31
0.0
  0
LINE
  5
60E
330
1D
100
AcDbEntity
  8
0
100
AcDbLine
 10
165.882
 20
199.732
 30
0.0
 11
166.544
 21
203.564
 31
0.0
  0
LINE
  5
60F
330
1D
100
AcDbEntity
  8
0
100
AcDbLine
 10
164.074
 20
194.976
 30
0.0
 11
165.882
 21
199.732
 31
0.0
  0
LINE
  5
612
330
1D
100
AcDbEntity
  8
0
100
AcDbLine
 10
166.663
 20
204.894
 30
0.0
 11
166.687
 21
206.003
 31
0.0
  0
LINE
  5
615
330
1D
100
AcDbEntity
  8
0
100
AcDbLine
 10
166.672
 20
208.784
 30
0.0
 11
166.687
 21
206.003
 31
0.0
  0
LINE
  5
616
330
1D
100
AcDbEntity
  8
0
100
AcDbLine
 10
166.544
 20
203.564
 30
0.0
 11
166.663
 21
204.894
 31
0.0
  0
LINE
  5
617
330
1D
100
AcDbEntity
  8
0
100
AcDbLine
 10
162.034
 20
222.189
 30
0.0
 11
163.431
 21
219.97
 31
0.0
  0
LINE
  5
618
330
1D
100
AcDbEntity
  8
0
100
AcDbLine
 10
163.431
 20
219.97
 30
0.0
 11
164.494
 21
217.682
 31
0.0
  0
LINE
  5
619
330
1D
100
AcDbEntity
  8
0
100
AcDbLine
 10
164.494
 20
217.682
 30
0.0
 11
165.508
 21
215.225
 31
0.0
  0
LINE
  5
61A
330
1D
100
AcDbEntity
  8
0
100
AcDbLine
 10
165.508
 20
215.225
 30
0.0
 11
166.114
 21
212.615
 31
0.0
  0
LINE
  5
61C
330
1D
100
AcDbEntity
  8
0
100
AcDbLine
 10
160.473
 20
224.338
 30
0.0
 11
162.034
 21
222.189
 31
0.0
  0
LINE
  5
61E
330
1D
100
AcDbEntity
  8
0
100
AcDbLine
 10
166.114
 20
212.615
 30
0.0
 11
166.174
 21
212.211
 31
0.0
  0
LINE
  5
61F
330
1D
100
AcDbEntity
  8
0
100
AcDbLine
 10
166.174
 20
212.211
 30
0.0
 11
166.672
 21
208.784
 31
0.0
  0
LINE
  5
620
330
1D
100
AcDbEntity
  8
0
100
AcDbLine
 10
159.814
 20
201.397
 30
0.0
 11
159.942
 21
200.404
 31
0.0
  0
LINE
  5
623
330
1D
100
AcDbEntity
  8
0
100
AcDbLine
 10
159.678
 20
212.002
 30
0.0
 11
160.116
 21
213.119
 31
0.0
  0
LINE
  5
63C
330
1D
100
AcDbEntity
  8
0
100
AcDbLine
 10
286.571312118243
 20
94.34058607948
 30
0.0
 11
287.507
 21
92.545
 31
0.0
  0
LINE
  5
64C
330
1D
100
AcDbEntity
  8
0
100
AcDbLine
 10
281.339
 20
96.847
 30
0.0
 11
283.58918984682
 21
96.534080241889
 31
0.0
  0
LINE
  5
678
330
1D
100
AcDbEntity
  8
0
100
AcDbLine
 10
283.58918984682
 20
96.534080241889
 30
0.0
 11
284.815439953902
 21
95.907806908419
 31
0.0
  0
LINE
  5
6BE
330
1D
100
AcDbEntity
  8
0
100
AcDbLine
 10
285.207496814592
 20
95.699561726269
 30
0.0
 11
286.571312118243
 21
94.34058607948
 31
0.0
  0
LINE
  5
6C0
330
1D
100
AcDbEntity
  8
0
100
AcDbLine
 10
314.032
 20
94.357
 30
0.0
 11
315.433
 21
95.629
 31
0.0
  0
LINE
  5
6C2
330
1D
100
AcDbEntity
  8
0
100
AcDbLine
 10
317.212
 20
96.534
 30
0.0
 11
318.973
 21
96.852
 31
0.0
  0
LINE
  5
6CB
330
1D
100
AcDbEntity
  8
0
100
AcDbLine
 10
315.433
 20
95.629
 30
0.0
 11
317.212
 21
96.534
 31
0.0
  0
LINE
  5
6E8
330
1D
100
AcDbEntity
  8
0
100
AcDbLine
 10
349.197113207547
 20
96.842
 30
0.0
 11
352.299
 21
92.732
 31
0.0
  0
LINE
  5
6E9
330
1D
100
AcDbEntity
  8
0
100
AcDbLine
 10
347.814
 20
96.842
 30
0.0
 11
353.247
 21
96.842
 31
0.0
  0
LINE
  5
6EA
330
1D
100
AcDbEntity
  8
0
100
AcDbLine
 10
353.247
 20
96.842
 30
0.0
 11
355.963
 21
96.842
 31
0.0
  0
LINE
  5
6EC
330
1D
100
AcDbEntity
  8
0
100
AcDbLine
 10
355.963
 20
96.842
 30
0.0
 11
403.154
 21
96.924
 31
0.0
  0
LINE
  5
6F3
330
1D
100
AcDbEntity
  8
0
100
AcDbLine
 10
403.154
 20
96.924
 30
0.0
 11
403.304
 21
97.321
 31
0.0
  0
LINE
  5
718
330
1D
100
AcDbEntity
  8
0
100
AcDbLine
 10
318.973
 20
96.852
 30
0.0
 11
347.814
 21
96.842
 31
0.0
  0
LINE
  5
72D
330
1D
100
AcDbEntity
  8
0
100
AcDbLine
 10
419.913
 20
96.89
 30
0.0
 11
420.394
 21
96.998
 31
0.0
  0
LINE
  5
73E
330
1D
100
AcDbEntity
  8
0
100
AcDbLine
 10
420.394
 20
96.998
 30
0.0
 11
421.501578921509
 21
97.259909839086
 31
0.0
  0
LINE
  5
742
330
1D
100
AcDbEntity
  8
0
100
AcDbLine
 10
423.109
 20
97.616
 30
0.0
 11
425.938
 21
97.95
 31
0.0
  0
LINE
  5
743
330
1D
100
AcDbEntity
  8
0
100
AcDbLine
 10
424.160673784569
 20
97.740163677641
 30
0.0
 11
424.235
 21
95.064
 31
0.0
  0
LINE
  5
747
330
1D
100
AcDbEntity
  8
0
100
AcDbLine
 10
403.964
 20
97.186
 30
0.0
 11
404.004
 21
96.906
 31
0.0
  0
LINE
  5
749
330
1D
100
AcDbEntity
  8
0
100
AcDbLine
 10
404.004
 20
96.906
 30
0.0
 11
419.913
 21
96.89
 31
0.0
  0
LINE
  5
74A
330
1D
100
AcDbEntity
  8
0
100
AcDbLine
 10
424.235
 20
95.064
 30
0.0
 11
424.407
 21
95.055
 31
0.0
  0
LINE
  5
7FE
330
1D
100
AcDbEntity
  8
0
100
AcDbLine
 10
366.369
 20
146.824
 30
0.0
 11
366.989
 21
147.072
 31
0.0
  0
LINE
  5
812
330
1D
100
AcDbEntity
  8
0
100
AcDbLine
 10
366.989
 20
147.072
 30
0.0
 11
375.309
 21
148.242
 31
0.0
  0
LINE
  5
813
330
1D
100
AcDbEntity
  8
0
100
AcDbLine
 10
383.629
 20
147.072
 30
0.0
 11
384.249
 21
146.824
 31
0.0
  0
LINE
  5
814
330
1D
100
AcDbEntity
  8
0
100
AcDbLine
 10
402.815
 20
146.824
 30
0.0
 11
403.229
 21
146.647
 31
0.0
  0
LINE
  5
815
330
1D
100
AcDbEntity
  8
0
100
AcDbLine
 10
311.626676174497
 20
146.824
 30
0.0
 11
402.815
 21
146.824
 31
0.0
  0
LINE
  5
846
330
1D
100
AcDbEntity
  8
0
100
AcDbLine
 10
404.126
 20
146.818
 30
0.0
 11
448.418
 21
146.789
 31
0.0
  0
LINE
  5
849
330
1D
100
AcDbEntity
  8
0
100
AcDbLine
 10
403.969
 20
146.611
 30
0.0
 11
404.126
 21
146.818
 31
0.0
  0
LINE
  5
850
330
1D
100
AcDbEntity
  8
0
100
AcDbLine
 10
433.784
 20
95.087
 30
0.0
 11
433.878
 21
95.291
 31
0.0
  0
LINE
  5
853
330
1D
100
AcDbEntity
  8
0
100
AcDbLine
 10
433.661
 20
95.001
 30
0.0
 11
433.784
 21
95.087
 31
0.0
  0
LINE
  5
856
330
1D
100
AcDbEntity
  8
0
100
AcDbLine
 10
425.938
 20
97.95
 30
0.0
 11
431.503
 21
98.065
 31
0.0
  0
LINE
  5
85A
330
1D
100
AcDbEntity
  8
0
100
AcDbLine
 10
433.780461651299
 20
97.757594779654
 30
0.0
 11
433.878
 21
95.291
 31
0.0
  0
LINE
  5
85B
330
1D
100
AcDbEntity
  8
0
100
AcDbLine
 10
438.198
 20
96.89
 30
0.0
 11
448.508
 21
96.907
 31
0.0
  0
LINE
  5
85D
330
1D
100
AcDbEntity
  8
0
100
AcDbLine
 10
434.077208153345
 20
97.71754079069
 30
0.0
 11
436.206543280225
 21
97.354504935724
 31
0.0
  0
LINE
  5
865
330
1D
100
AcDbEntity
  8
0
100
AcDbLine
 10
448.508
 20
96.907
 30
0.0
 11
448.913
 21
97.307
 31
0.0
  0
LINE
  5
870
330
1D
100
AcDbEntity
  8
0
100
AcDbLine
 10
448.885
 20
146.39
 30
0.0
 11
448.933
 21
145.847
 31
0.0
  0
LINE
  5
87A
330
1D
100
AcDbEntity
  8
0
100
AcDbLine
 10
448.418
 20
146.789
 30
0.0
 11
448.885
 21
146.39
 31
0.0
  0
LINE
  5
87D
330
1D
100
AcDbEntity
  8
0
100
AcDbLine
 10
424.407
 20
95.055
 30
0.0
 11
433.661
 21
95.001
 31
0.0
  0
LINE
  5
888
330
1D
100
AcDbEntity
  8
0
100
AcDbLine
 10
375.309
 20
148.242
 30
0.0
 11
383.629
 21
147.072
 31
0.0
  0
LINE
  5
899
330
1D
100
AcDbEntity
  8
0
100
AcDbLine
 10
233.629
 20
147.072
 30
0.0
 11
234.249
 21
146.824
 31
0.0
  0
LINE
  5
89A
330
1D
100
AcDbEntity
  8
0
100
AcDbLine
 10
225.309
 20
148.242
 30
0.0
 11
233.629
 21
147.072
 31
0.0
  0
LINE
  5
89B
330
1D
100
AcDbEntity
  8
0
100
AcDbLine
 10
248.319
 20
92.732
 30
0.0
 11
251.42188968193
 21
96.843328828558
 31
0.0
  0
LINE
  5
89C
330
1D
100
AcDbEntity
  8
0
100
AcDbLine
 10
155.309
 20
284.157
 30
0.0
 11
155.309
 21
335.927
 31
0.0
  0
LINE
  5
89D
330
1D
100
AcDbEntity
  8
0
100
AcDbLine
 10
155.309
 20
335.927
 30
0.0
 11
155.309
 21
284.157
 31
0.0
  0
LINE
  5
89E
330
1D
100
AcDbEntity
  8
0
100
AcDbLine
 10
154.925
 20
336.542
 30
0.0
 11
155.309
 21
335.927
 31
0.0
  0
LINE
  5
89F
330
1D
100
AcDbEntity
  8
0
100
AcDbLine
 10
289.099374944249
 20
90.357543257842
 30
0.0
 11
289.246
 21
90.1576
 31
0.0
  0
LINE
  5
8A0
330
1D
100
AcDbEntity
  8
0
100
AcDbLine
 10
152.221
 20
232.78661323043
 30
0.0
 11
152.221
 21
283.542
 31
0.0
  0
LINE
  5
8A1
330
1D
100
AcDbEntity
  8
0
100
AcDbLine
 10
150.776
 20
707.388
 30
0.0
 11
153.272
 21
707.388
 31
0.0
  0
LINE
  5
8A2
330
1D
100
AcDbEntity
  8
0
100
AcDbLine
 10
150.789
 20
1085.542
 30
0.0
 11
152.149
 21
1085.542
 31
0.0
  0
LINE
  5
8A5
330
1D
100
AcDbEntity
  8
0
100
AcDbLine
 10
150.776
 20
759.388
 30
0.0
 11
153.272
 21
759.388
 31
0.0
  0
LINE
  5
8A6
330
1D
100
AcDbEntity
  8
0
100
AcDbLine
 10
153.272
 20
707.388
 30
0.0
 11
154.808
 21
707.388
 31
0.0
  0
LINE
  5
8A7
330
1D
100
AcDbEntity
  8
0
100
AcDbLine
 10
155.384
 20
707.388
 30
0.0
 11
155.768
 21
709.388
 31
0.0
  0
LINE
  5
8A8
330
1D
100
AcDbEntity
  8
0
100
AcDbLine
 10
154.808
 20
707.388
 30
0.0
 11
155.384
 21
707.388
 31
0.0
  0
LINE
  5
8A9
330
1D
100
AcDbEntity
  8
0
100
AcDbLine
 10
153.272
 20
759.388
 30
0.0
 11
154.808
 21
759.388
 31
0.0
  0
LINE
  5
8AA
330
1D
100
AcDbEntity
  8
0
100
AcDbLine
 10
151.813
 20
947.542
 30
0.0
 11
153.349
 21
947.542
 31
0.0
  0
LINE
  5
8AB
330
1D
100
AcDbEntity
  8
0
100
AcDbLine
 10
151.813
 20
895.542
 30
0.0
 11
153.349
 21
895.542
 31
0.0
  0
LINE
  5
8AC
330
1D
100
AcDbEntity
  8
0
100
AcDbLine
 10
152.149
 20
1085.542
 30
0.0
 11
153.429
 21
1085.542
 31
0.0
  0
LINE
  5
8AE
330
1D
100
AcDbEntity
  8
0
100
AcDbLine
 10
151.693
 20
1228.142
 30
0.0
 11
154.501
 21
1228.142
 31
0.0
  0
LINE
  5
8AF
330
1D
100
AcDbEntity
  8
0
100
AcDbLine
 10
151.693
 20
1256.142
 30
0.0
 11
154.501
 21
1256.142
 31
0.0
  0
LINE
  5
8B0
330
1D
100
AcDbEntity
  8
0
100
AcDbLine
 10
152.053
 20
1228.752
 30
0.0
 11
154.933
 21
1228.752
 31
0.0
  0
LINE
  5
8B1
330
1D
100
AcDbEntity
  8
0
100
AcDbLine
 10
152.053
 20
1255.522
 30
0.0
 11
154.933
 21
1255.522
 31
0.0
  0
LINE
  5
8B3
330
1D
100
AcDbEntity
  8
0
100
AcDbLine
 10
153.189
 20
947.582
 30
0.0
 11
153.242
 21
947.542
 31
0.0
  0
LINE
  5
8B4
330
1D
100
AcDbEntity
  8
0
100
AcDbLine
 10
153.189
 20
895.502
 30
0.0
 11
153.242
 21
895.542
 31
0.0
  0
LINE
  5
8B5
330
1D
100
AcDbEntity
  8
0
100
AcDbLine
 10
153.349
 20
895.542
 30
0.0
 11
153.925
 21
895.542
 31
0.0
  0
LINE
  5
8B6
330
1D
100
AcDbEntity
  8
0
100
AcDbLine
 10
153.925
 20
895.542
 30
0.0
 11
154.309
 21
896.342
 31
0.0
  0
LINE
  5
8B7
330
1D
100
AcDbEntity
  8
0
100
AcDbLine
 10
154.309
 20
896.342
 30
0.0
 11
154.309
 21
946.742
 31
0.0
  0
LINE
  5
8B8
330
1D
100
AcDbEntity
  8
0
100
AcDbLine
 10
153.429
 20
1085.542
 30
0.0
 11
154.589
 21
1085.542
 31
0.0
  0
LINE
  5
8BA
330
1D
100
AcDbEntity
  8
0
100
AcDbLine
 10
153.349
 20
947.542
 30
0.0
 11
153.925
 21
947.542
 31
0.0
  0
LINE
  5
8BB
330
1D
100
AcDbEntity
  8
0
100
AcDbLine
 10
154.309
 20
946.742
 30
0.0
 11
154.309
 21
896.342
 31
0.0
  0
LINE
  5
8BC
330
1D
100
AcDbEntity
  8
0
100
AcDbLine
 10
153.925
 20
947.542
 30
0.0
 11
154.309
 21
946.742
 31
0.0
  0
LINE
  5
8BE
330
1D
100
AcDbEntity
  8
0
100
AcDbLine
 10
154.309
 20
946.736716981132
 30
0.0
 11
159.549
 21
942.782
 31
0.0
  0
LINE
  5
8C0
330
1D
100
AcDbEntity
  8
0
100
AcDbLine
 10
154.589
 20
1085.542
 30
0.0
 11
155.669
 21
1085.542
 31
0.0
  0
LINE
  5
8C1
330
1D
100
AcDbEntity
  8
0
100
AcDbLine
 10
154.309
 20
896.347283018868
 30
0.0
 11
159.549
 21
900.302
 31
0.0
  0
LINE
  5
8C4
330
1D
100
AcDbEntity
  8
0
100
AcDbLine
 10
154.501
 20
1228.142
 30
0.0
 11
156.229
 21
1228.142
 31
0.0
  0
LINE
  5
8C5
330
1D
100
AcDbEntity
  8
0
100
AcDbLine
 10
154.501
 20
1256.142
 30
0.0
 11
156.229
 21
1256.142
 31
0.0
  0
LINE
  5
8C6
330
1D
100
AcDbEntity
  8
0
100
AcDbLine
 10
154.933
 20
1255.522
 30
0.0
 11
156.661
 21
1255.522
 31
0.0
  0
LINE
  5
8C7
330
1D
100
AcDbEntity
  8
0
100
AcDbLine
 10
154.933
 20
1228.752
 30
0.0
 11
156.661
 21
1228.752
 31
0.0
  0
LINE
  5
8C9
330
1D
100
AcDbEntity
  8
0
100
AcDbLine
 10
154.808
 20
759.388
 30
0.0
 11
155.384
 21
759.388
 31
0.0
  0
LINE
  5
8CA
330
1D
100
AcDbEntity
  8
0
100
AcDbLine
 10
155.768
 20
709.388
 30
0.0
 11
155.768
 21
757.388
 31
0.0
  0
LINE
  5
8CB
330
1D
100
AcDbEntity
  8
0
100
AcDbLine
 10
155.669
 20
1085.542
 30
0.0
 11
156.589
 21
1085.542
 31
0.0
  0
LINE
  5
8CC
330
1D
100
AcDbEntity
  8
0
100
AcDbLine
 10
156.589
 20
1085.542
 30
0.0
 11
157.389
 21
1085.542
 31
0.0
  0
LINE
  5
8CD
330
1D
100
AcDbEntity
  8
0
100
AcDbLine
 10
157.389
 20
1085.542
 30
0.0
 11
158.069
 21
1085.542
 31
0.0
  0
LINE
  5
8CE
330
1D
100
AcDbEntity
  8
0
100
AcDbLine
 10
158.069
 20
1085.542
 30
0.0
 11
158.589
 21
1085.542
 31
0.0
  0
LINE
  5
8CF
330
1D
100
AcDbEntity
  8
0
100
AcDbLine
 10
158.589
 20
1085.542
 30
0.0
 11
158.989
 21
1085.542
 31
0.0
  0
LINE
  5
8D0
330
1D
100
AcDbEntity
  8
0
100
AcDbLine
 10
159.309
 20
1085.542
 30
0.0
 11
159.309
 21
1085.92
 31
0.0
  0
LINE
  5
8D1
330
1D
100
AcDbEntity
  8
0
100
AcDbLine
 10
158.989
 20
1085.542
 30
0.0
 11
159.189
 21
1085.542
 31
0.0
  0
LINE
  5
8D2
330
1D
100
AcDbEntity
  8
0
100
AcDbLine
 10
159.189
 20
1085.542
 30
0.0
 11
159.309
 21
1085.542
 31
0.0
  0
LINE
  5
8D5
330
1D
100
AcDbEntity
  8
0
100
AcDbLine
 10
159.549
 20
942.782
 30
0.0
 11
164.349
 21
936.422
 31
0.0
  0
LINE
  5
8D6
330
1D
100
AcDbEntity
  8
0
100
AcDbLine
 10
159.549
 20
900.302
 30
0.0
 11
164.349
 21
906.662
 31
0.0
  0
LINE
  5
8D7
330
1D
100
AcDbEntity
  8
0
100
AcDbLine
 10
159.309
 20
1085.92
 30
0.0
 11
170.643
 21
1085.92
 31
0.0
  0
LINE
  5
8D8
330
1D
100
AcDbEntity
  8
0
100
AcDbLine
 10
157.309
 20
1225.142
 30
0.0
 11
157.309
 21
1227.012
 31
0.0
  0
LINE
  5
8D9
330
1D
100
AcDbEntity
  8
0
100
AcDbLine
 10
157.1026875
 20
1225.142
 30
0.0
 11
157.309
 21
1225.142
 31
0.0
  0
LINE
  5
8DB
330
1D
100
AcDbEntity
  8
0
100
AcDbLine
 10
156.229
 20
1228.142
 30
0.0
 11
156.877
 21
1228.142
 31
0.0
  0
LINE
  5
8DC
330
1D
100
AcDbEntity
  8
0
100
AcDbLine
 10
156.229
 20
1256.142
 30
0.0
 11
156.877
 21
1256.142
 31
0.0
  0
LINE
  5
8DD
330
1D
100
AcDbEntity
  8
0
100
AcDbLine
 10
156.661
 20
1255.522
 30
0.0
 11
157.309
 21
1255.522
 31
0.0
  0
LINE
  5
8DE
330
1D
100
AcDbEntity
  8
0
100
AcDbLine
 10
156.661
 20
1228.752
 30
0.0
 11
157.309
 21
1228.752
 31
0.0
  0
LINE
  5
8E0
330
1D
100
AcDbEntity
  8
0
100
AcDbLine
 10
157.309
 20
1227.012
 30
0.0
 11
157.309
 21
1225.142
 31
0.0
  0
LINE
  5
8E1
330
1D
100
AcDbEntity
  8
0
100
AcDbLine
 10
157.309
 20
1255.522
 30
0.0
 11
157.309
 21
1228.752
 31
0.0
  0
LINE
  5
8E2
330
1D
100
AcDbEntity
  8
0
100
AcDbLine
 10
156.877
 20
1228.142
 30
0.0
 11
157.309
 21
1228.752
 31
0.0
  0
LINE
  5
8E3
330
1D
100
AcDbEntity
  8
0
100
AcDbLine
 10
156.877
 20
1228.142
 30
0.0
 11
157.309
 21
1227.012
 31
0.0
  0
LINE
  5
8E4
330
1D
100
AcDbEntity
  8
0
100
AcDbLine
 10
157.309
 20
1228.752
 30
0.0
 11
157.309
 21
1255.522
 31
0.0
  0
LINE
  5
8E5
330
1D
100
AcDbEntity
  8
0
100
AcDbLine
 10
156.877
 20
1256.142
 30
0.0
 11
157.309
 21
1255.522
 31
0.0
  0
LINE
  5
8E7
330
1D
100
AcDbEntity
  8
0
100
AcDbLine
 10
157.218536458333
 20
1225.142
 30
0.0
 11
157.786
 21
1221.372
 31
0.0
  0
LINE
  5
8E8
330
1D
100
AcDbEntity
  8
0
100
AcDbLine
 10
159.188
 20
1217.772
 30
0.0
 11
161.425
 21
1214.612
 31
0.0
  0
LINE
  5
8E9
330
1D
100
AcDbEntity
  8
0
100
AcDbLine
 10
157.786
 20
1221.372
 30
0.0
 11
159.188
 21
1217.772
 31
0.0
  0
LINE
  5
8EB
330
1D
100
AcDbEntity
  8
0
100
AcDbLine
 10
164.349
 20
936.422
 30
0.0
 11
167.229
 21
929.222
 31
0.0
  0
LINE
  5
8EE
330
1D
100
AcDbEntity
  8
0
100
AcDbLine
 10
167.229
 20
929.222
 30
0.0
 11
168.309
 21
921.542
 31
0.0
  0
LINE
  5
8F0
330
1D
100
AcDbEntity
  8
0
100
AcDbLine
 10
167.229
 20
913.862
 30
0.0
 11
168.309
 21
921.542
 31
0.0
  0
LINE
  5
8F1
330
1D
100
AcDbEntity
  8
0
100
AcDbLine
 10
164.349
 20
906.662
 30
0.0
 11
167.229
 21
913.862
 31
0.0
  0
LINE
  5
8F2
330
1D
100
AcDbEntity
  8
0
100
AcDbLine
 10
170.643
 20
1085.92
 30
0.0
 11
183.377
 21
1085.92
 31
0.0
  0
LINE
  5
8F3
330
1D
100
AcDbEntity
  8
0
100
AcDbLine
 10
183.377
 20
1085.92
 30
0.0
 11
195.713
 21
1085.92
 31
0.0
  0
LINE
  5
8F4
330
1D
100
AcDbEntity
  8
0
100
AcDbLine
 10
195.713
 20
1085.92
 30
0.0
 11
207.536
 21
1085.92
 31
0.0
  0
LINE
  5
8F5
330
1D
100
AcDbEntity
  8
0
100
AcDbLine
 10
207.536
 20
1085.92
 30
0.0
 11
218.744
 21
1085.92
 31
0.0
  0
LINE
  5
8F6
330
1D
100
AcDbEntity
  8
0
100
AcDbLine
 10
218.744
 20
1085.92
 30
0.0
 11
229.231
 21
1085.92
 31
0.0
  0
LINE
  5
8F7
330
1D
100
AcDbEntity
  8
0
100
AcDbLine
 10
229.231
 20
1085.92
 30
0.0
 11
238.901
 21
1085.92
 31
0.0
  0
LINE
  5
8F8
330
1D
100
AcDbEntity
  8
0
100
AcDbLine
 10
221.163
 20
1085.92
 30
0.0
 11
231.476
 21
1085.92
 31
0.0
  0
LINE
  5
8F9
330
1D
100
AcDbEntity
  8
0
100
AcDbLine
 10
238.901
 20
1085.92
 30
0.0
 11
247.672
 21
1085.92
 31
0.0
  0
LINE
  5
8FA
330
1D
100
AcDbEntity
  8
0
100
AcDbLine
 10
247.672
 20
1085.92
 30
0.0
 11
255.461
 21
1085.92
 31
0.0
  0
LINE
  5
8FB
330
1D
100
AcDbEntity
  8
0
100
AcDbLine
 10
231.476
 20
1085.92
 30
0.0
 11
240.953
 21
1085.92
 31
0.0
  0
LINE
  5
8FC
330
1D
100
AcDbEntity
  8
0
100
AcDbLine
 10
240.953
 20
1085.92
 30
0.0
 11
249.51
 21
1085.92
 31
0.0
  0
LINE
  5
8FD
330
1D
100
AcDbEntity
  8
0
100
AcDbLine
 10
255.461
 20
1085.92
 30
0.0
 11
262.199
 21
1085.92
 31
0.0
  0
LINE
  5
8FE
330
1D
100
AcDbEntity
  8
0
100
AcDbLine
 10
262.199
 20
1085.92
 30
0.0
 11
267.825
 21
1085.92
 31
0.0
  0
LINE
  5
8FF
330
1D
100
AcDbEntity
  8
0
100
AcDbLine
 10
249.51
 20
1085.92
 30
0.0
 11
257.069
 21
1085.92
 31
0.0
  0
LINE
  5
900
330
1D
100
AcDbEntity
  8
0
100
AcDbLine
 10
257.069
 20
1085.92
 30
0.0
 11
263.562
 21
1085.92
 31
0.0
  0
LINE
  5
901
330
1D
100
AcDbEntity
  8
0
100
AcDbLine
 10
267.825
 20
1085.92
 30
0.0
 11
272.284
 21
1085.92
 31
0.0
  0
LINE
  5
902
330
1D
100
AcDbEntity
  8
0
100
AcDbLine
 10
272.284
 20
1085.92
 30
0.0
 11
275.542
 21
1085.92
 31
0.0
  0
LINE
  5
903
330
1D
100
AcDbEntity
  8
0
100
AcDbLine
 10
263.562
 20
1085.92
 30
0.0
 11
268.929
 21
1085.92
 31
0.0
  0
LINE
  5
904
330
1D
100
AcDbEntity
  8
0
100
AcDbLine
 10
268.929
 20
1085.92
 30
0.0
 11
273.121
 21
1085.92
 31
0.0
  0
LINE
  5
905
330
1D
100
AcDbEntity
  8
0
100
AcDbLine
 10
275.542
 20
1085.92
 30
0.0
 11
277.565
 21
1085.92
 31
0.0
  0
LINE
  5
906
330
1D
100
AcDbEntity
  8
0
100
AcDbLine
 10
277.846
 20
1085.92
 30
0.0
 11
278.337
 21
1085.92
 31
0.0
  0
LINE
  5
907
330
1D
100
AcDbEntity
  8
0
100
AcDbLine
 10
278.337
 20
1085.92
 30
0.0
 11
278.565
 21
1086.04
 31
0.0
  0
LINE
  5
908
330
1D
100
AcDbEntity
  8
0
100
AcDbLine
 10
277.565
 20
1085.92
 30
0.0
 11
278.337
 21
1085.92
 31
0.0
  0
LINE
  5
909
330
1D
100
AcDbEntity
  8
0
100
AcDbLine
 10
276.105
 20
1085.92
 30
0.0
 11
277.846
 21
1085.92
 31
0.0
  0
LINE
  5
90A
330
1D
100
AcDbEntity
  8
0
100
AcDbLine
 10
273.121
 20
1085.92
 30
0.0
 11
276.105
 21
1085.92
 31
0.0
  0
LINE
  5
90B
330
1D
100
AcDbEntity
  8
0
100
AcDbLine
 10
210.108
 20
1085.92
 30
0.0
 11
221.163
 21
1085.92
 31
0.0
  0
LINE
  5
90C
330
1D
100
AcDbEntity
  8
0
100
AcDbLine
 10
198.413
 20
1085.92
 30
0.0
 11
210.108
 21
1085.92
 31
0.0
  0
LINE
  5
90D
330
1D
100
AcDbEntity
  8
0
100
AcDbLine
 10
186.185
 20
1085.92
 30
0.0
 11
198.413
 21
1085.92
 31
0.0
  0
LINE
  5
90E
330
1D
100
AcDbEntity
  8
0
100
AcDbLine
 10
173.53
 20
1085.92
 30
0.0
 11
186.185
 21
1085.92
 31
0.0
  0
LINE
  5
90F
330
1D
100
AcDbEntity
  8
0
100
AcDbLine
 10
278.701
 20
1086.258
 30
0.0
 11
278.714
 21
1086.517
 31
0.0
  0
LINE
  5
910
330
1D
100
AcDbEntity
  8
0
100
AcDbLine
 10
278.565
 20
1086.04
 30
0.0
 11
278.701
 21
1086.258
 31
0.0
  0
LINE
  5
911
330
1D
100
AcDbEntity
  8
0
100
AcDbLine
 10
278.593
 20
1086.746
 30
0.0
 11
278.714
 21
1086.517
 31
0.0
  0
LINE
  5
912
330
1D
100
AcDbEntity
  8
0
100
AcDbLine
 10
278.077
 20
1085.931
 30
0.0
 11
278.337
 21
1085.92
 31
0.0
  0
LINE
  5
913
330
1D
100
AcDbEntity
  8
0
100
AcDbLine
 10
160.564
 20
1085.92
 30
0.0
 11
173.53
 21
1085.92
 31
0.0
  0
LINE
  5
914
330
1D
100
AcDbEntity
  8
0
100
AcDbLine
 10
161.425
 20
1214.612
 30
0.0
 11
278.593
 21
1086.746
 31
0.0
  0
LINE
  5
915
330
1D
100
AcDbEntity
  8
0
100
AcDbLine
 10
155.768
 20
757.388
 30
0.0
 11
155.768
 21
709.388
 31
0.0
  0
LINE
  5
916
330
1D
100
AcDbEntity
  8
0
100
AcDbLine
 10
155.384
 20
759.388
 30
0.0
 11
155.768
 21
757.388
 31
0.0
  0
LINE
  5
917
330
1D
100
AcDbEntity
  8
0
100
AcDbLine
 10
152.221
 20
707.388
 30
0.0
 11
152.221
 21
336.542
 31
0.0
  0
LINE
  5
918
330
1D
100
AcDbEntity
  8
0
100
AcDbLine
 10
152.221
 20
707.388
 30
0.0
 11
153.272
 21
707.388
 31
0.0
  0
LINE
  5
919
330
1D
100
AcDbEntity
  8
0
100
AcDbLine
 10
152.221
 20
336.542
 30
0.0
 11
152.221
 21
707.388
 31
0.0
  0
LINE
  5
91A
330
1D
100
AcDbEntity
  8
0
100
AcDbLine
 10
149.822
 20
1264.152
 30
0.0
 11
149.905
 21
1264.152
 31
0.0
  0
LINE
  5
91B
330
1D
100
AcDbEntity
  8
0
100
AcDbLine
 10
149.782
 20
1264.152
 30
0.0
 11
149.905
 21
1264.152
 31
0.0
  0
LINE
  5
91C
330
1D
100
AcDbEntity
  8
0
100
AcDbLine
 10
149.764073245168
 20
1256.142
 30
0.0
 11
149.782
 21
1264.152
 31
0.0
  0
LINE
  5
91D
330
1D
100
AcDbEntity
  8
0
100
AcDbLine
 10
149.606
 20
1264.152
 30
0.0
 11
149.782
 21
1264.152
 31
0.0
  0
LINE
  5
91E
330
1D
100
AcDbEntity
  8
0
100
AcDbLine
 10
149.176
 20
1264.152
 30
0.0
 11
149.606
 21
1264.152
 31
0.0
  0
LINE
  5
91F
330
1D
100
AcDbEntity
  8
0
100
AcDbLine
 10
148.504
 20
1264.152
 30
0.0
 11
149.176
 21
1264.152
 31
0.0
  0
LINE
  5
920
330
1D
100
AcDbEntity
  8
0
100
AcDbLine
 10
147.605
 20
1264.152
 30
0.0
 11
148.504
 21
1264.152
 31
0.0
  0
LINE
  5
921
330
1D
100
AcDbEntity
  8
0
100
AcDbLine
 10
143.795
 20
1264.152
 30
0.0
 11
145.221
 21
1264.152
 31
0.0
  0
LINE
  5
922
330
1D
100
AcDbEntity
  8
0
100
AcDbLine
 10
142.259
 20
1264.152
 30
0.0
 11
143.795
 21
1264.152
 31
0.0
  0
LINE
  5
923
330
1D
100
AcDbEntity
  8
0
100
AcDbLine
 10
140.65
 20
1264.152
 30
0.0
 11
142.259
 21
1264.152
 31
0.0
  0
LINE
  5
924
330
1D
100
AcDbEntity
  8
0
100
AcDbLine
 10
139.008
 20
1264.152
 30
0.0
 11
140.65
 21
1264.152
 31
0.0
  0
LINE
  5
925
330
1D
100
AcDbEntity
  8
0
100
AcDbLine
 10
137.373
 20
1264.152
 30
0.0
 11
139.008
 21
1264.152
 31
0.0
  0
LINE
  5
926
330
1D
100
AcDbEntity
  8
0
100
AcDbLine
 10
136.325
 20
1264.152
 30
0.0
 11
137.952
 21
1264.152
 31
0.0
  0
LINE
  5
927
330
1D
100
AcDbEntity
  8
0
100
AcDbLine
 10
148.888
 20
1264.152
 30
0.0
 11
149.48
 21
1264.152
 31
0.0
  0
LINE
  5
928
330
1D
100
AcDbEntity
  8
0
100
AcDbLine
 10
132.909
 20
1264.152
 30
0.0
 11
134.286
 21
1264.152
 31
0.0
  0
LINE
  5
929
330
1D
100
AcDbEntity
  8
0
100
AcDbLine
 10
134.71
 20
1326.792
 30
0.0
 11
139.309
 21
1327.842
 31
0.0
  0
LINE
  5
92A
330
1D
100
AcDbEntity
  8
0
100
AcDbLine
 10
131.022
 20
1323.852
 30
0.0
 11
134.71
 21
1326.792
 31
0.0
  0
LINE
  5
92B
330
1D
100
AcDbEntity
  8
0
100
AcDbLine
 10
149.718
 20
1271.942
 30
0.0
 11
149.905
 21
1264.152
 31
0.0
  0
LINE
  5
92C
330
1D
100
AcDbEntity
  8
0
100
AcDbLine
 10
149.643
 20
1282.242
 30
0.0
 11
149.718
 21
1271.942
 31
0.0
  0
LINE
  5
92D
330
1D
100
AcDbEntity
  8
0
100
AcDbLine
 10
147.596
 20
1323.852
 30
0.0
 11
149.643
 21
1319.602
 31
0.0
  0
LINE
  5
92E
330
1D
100
AcDbEntity
  8
0
100
AcDbLine
 10
143.908
 20
1326.792
 30
0.0
 11
147.596
 21
1323.852
 31
0.0
  0
LINE
  5
92F
330
1D
100
AcDbEntity
  8
0
100
AcDbLine
 10
139.309
 20
1327.842
 30
0.0
 11
143.908
 21
1326.792
 31
0.0
  0
LINE
  5
930
330
1D
100
AcDbEntity
  8
0
100
AcDbLine
 10
145.221
 20
1264.152
 30
0.0
 11
146.501
 21
1264.152
 31
0.0
  0
LINE
  5
958
330
1D
100
AcDbEntity
  8
0
100
AcDbLine
 10
149.643
 20
1319.602
 30
0.0
 11
149.643
 21
1282.242
 31
0.0
  0
LINE
  5
959
330
1D
100
AcDbEntity
  8
0
100
AcDbLine
 10
121.399463541667
 20
1225.142
 30
0.0
 11
157.156563690746
 21
1225.142
 31
0.0
  0
LINE
  5
95A
330
1D
100
AcDbEntity
  8
0
100
AcDbLine
 10
150.776
 20
759.388
 30
0.0
 11
149.643
 21
895.542
 31
0.0
  0
LINE
  5
95B
330
1D
100
AcDbEntity
  8
0
100
AcDbLine
 10
149.643
 20
947.542
 30
0.0
 11
149.643
 21
1085.542
 31
0.0
  0
LINE
  5
95C
330
1D
100
AcDbEntity
  8
0
100
AcDbLine
 10
10.1026
 20
548.154
 30
0.0
 11
10.1028
 21
548.03
 31
0.0
  0
LINE
  5
95D
330
1D
100
AcDbEntity
  8
0
100
AcDbLine
 10
10.1024
 20
547.141
 30
0.0
 11
10.1028
 21
466.37
 31
0.0
  0
LINE
  5
95E
330
1D
100
AcDbEntity
  8
0
100
AcDbLine
 10
73.3449
 20
336.305
 30
0.0
 11
73.3449
 21
336.554090909091
 31
0.0
  0
LINE
  5
95F
330
1D
100
AcDbEntity
  8
0
100
AcDbLine
 10
73.3449
 20
336.554090909091
 30
0.0
 11
74.0663
 21
336.574
 31
0.0
  0
LINE
  5
960
330
1D
100
AcDbEntity
  8
0
100
AcDbLine
 10
109.372
 20
296.602
 30
0.0
 11
109.490904153355
 21
296.798546325879
 31
0.0
  0
LINE
  5
961
330
1D
100
AcDbEntity
  8
0
100
AcDbLine
 10
109.490904153355
 20
296.798546325879
 30
0.0
 11
109.43
 21
323.286
 31
0.0
  0
LINE
  5
962
330
1D
100
AcDbEntity
  8
0
100
AcDbLine
 10
109.43
 20
323.286
 30
0.0
 11
109.381
 21
323.366
 31
0.0
  0
LINE
  5
963
330
1D
100
AcDbEntity
  8
0
100
AcDbLine
 10
99.683
 20
283.555
 30
0.0
 11
99.601039050501
 21
283.556416539051
 31
0.0
  0
LINE
  5
964
330
1D
100
AcDbEntity
  8
0
100
AcDbLine
 10
99.382
 20
283.56
 30
0.0
 11
91.5663
 21
283.698088419571
 31
0.0
  0
LINE
  5
965
330
1D
100
AcDbEntity
  8
0
100
AcDbLine
 10
91.5663
 20
283.698088419571
 30
0.0
 11
76.2489
 21
283.969
 31
0.0
  0
LINE
  5
966
330
1D
100
AcDbEntity
  8
0
100
AcDbLine
 10
151.158
 20
232.708
 30
0.0
 11
153.574
 21
232.789
 31
0.0
  0
LINE
  5
967
330
1D
100
AcDbEntity
  8
0
100
AcDbLine
 10
119.070677595771
 20
225.200966093997
 30
0.0
 11
120.155215446605
 21
226.389146994503
 31
0.0
  0
LINE
  5
968
330
1D
100
AcDbEntity
  8
0
100
AcDbLine
 10
112.956
 20
214.308
 30
0.0
 11
112.513268656505
 21
212.397983713055
 31
0.0
  0
LINE
  5
969
330
1D
100
AcDbEntity
  8
0
100
AcDbLine
 10
141.701139830669
 20
179.55788272144
 30
0.0
 11
145.141
 21
180.084
 31
0.0
  0
LINE
  5
96A
330
1D
100
AcDbEntity
  8
0
100
AcDbLine
 10
152.349367658131
 20
202.591568412927
 30
0.0
 11
126.093765448739
 21
202.655623526424
 31
0.0
  0
LINE
  5
96B
330
1D
100
AcDbEntity
  8
0
100
AcDbLine
 10
162.090017876273
 20
135.856832258728
 30
0.0
 11
163.520768604854
 21
135.295457700132
 31
0.0
  0
LINE
  5
96C
330
1D
100
AcDbEntity
  8
0
100
AcDbLine
 10
197.386
 20
146.39
 30
0.0
 11
197.346
 21
97.759
 31
0.0
  0
LINE
  5
96D
330
1D
100
AcDbEntity
  8
0
100
AcDbLine
 10
284.815439953902
 20
95.907806908419
 30
0.0
 11
285.207496814592
 21
95.699561726269
 31
0.0
  0
LINE
  5
96E
330
1D
100
AcDbEntity
  8
0
100
AcDbLine
 10
403.304
 20
97.321
 30
0.0
 11
403.229
 21
146.647
 31
0.0
  0
LINE
  5
96F
330
1D
100
AcDbEntity
  8
0
100
AcDbLine
 10
403.969
 20
146.611
 30
0.0
 11
403.964
 21
97.186
 31
0.0
  0
LINE
  5
970
330
1D
100
AcDbEntity
  8
0
100
AcDbLine
 10
403.305350492583
 20
99.5317715845
 30
0.0
 11
403.956336381313
 21
99.5317715845
 31
0.0
  0
LINE
  5
971
330
1D
100
AcDbEntity
  8
0
100
AcDbLine
 10
403.308304100725
 20
144.09907351078
 30
0.0
 11
403.937935420441
 21
144.09907351078
 31
0.0
  0
LINE
  5
972
330
1D
100
AcDbEntity
  8
0
100
AcDbLine
 10
433.780461651299
 20
97.757594779654
 30
0.0
 11
434.077208153345
 21
97.71754079069
 31
0.0
  0
LINE
  5
973
330
1D
100
AcDbEntity
  8
0
100
AcDbLine
 10
436.206543280225
 20
97.354504935724
 30
0.0
 11
438.198
 21
96.89
 31
0.0
  0
LINE
  5
974
330
1D
100
AcDbEntity
  8
0
100
AcDbLine
 10
433.780461651299
 20
97.757594779654
 30
0.0
 11
431.503
 21
98.065
 31
0.0
  0
LINE
  5
975
330
1D
100
AcDbEntity
  8
0
100
AcDbLine
 10
421.501578921509
 20
97.259909839086
 30
0.0
 11
423.109
 21
97.616
 31
0.0
  0
LINE
  5
976
330
1D
100
AcDbEntity
  8
0
100
AcDbLine
 10
448.913
 20
97.307
 30
0.0
 11
448.933
 21
145.847
 31
0.0
  0
LINE
  5
977
330
1D
100
AcDbEntity
  8
0
100
AcDbLine
 10
325.124766650259
 20
109.540835882064
 30
0.0
 11
326.932766650259
 21
114.296835882064
 31
0.0
  0
LINE
  5
978
330
1D
100
AcDbEntity
  8
0
100
AcDbLine
 10
326.558766650259
 20
129.789835882064
 30
0.0
 11
327.164766650259
 21
127.179835882064
 31
0.0
  0
LINE
  5
97F
330
1D
100
AcDbEntity
  8
0
100
AcDbLine
 10
281.133766650259
 20
117.152835882064
 30
0.0
 11
287.144532098998
 21
117.220459408488
 31
0.0
  0
LINE
  5
980
330
1D
100
AcDbEntity
  8
0
100
AcDbLine
 10
281.449766650259
 20
125.532835882064
 30
0.0
 11
291.338766650259
 21
125.494835882064
 31
0.0
  0
LINE
  5
983
330
1D
100
AcDbEntity
  8
0
100
AcDbLine
 10
284.779766650259
 20
98.786835882064
 30
0.0
 11
289.599766650259
 21
96.150835882064
 31
0.0
  0
LINE
  5
984
330
1D
100
AcDbEntity
  8
0
100
AcDbLine
 10
284.580766650259
 20
106.387835882064
 30
0.0
 11
287.824766650259
 21
103.745835882064
 31
0.0
  0
LINE
  5
985
330
1D
100
AcDbEntity
  8
0
100
AcDbLine
 10
285.003766650259
 20
144.090835882064
 30
0.0
 11
288.168766650259
 21
146.018835882064
 31
0.0
  0
LINE
  5
988
330
1D
100
AcDbEntity
  8
0
100
AcDbLine
 10
284.008766650259
 20
135.474835882064
 30
0.0
 11
286.698766650259
 21
138.371835882064
 31
0.0
  0
LINE
  5
989
330
1D
100
AcDbEntity
  8
0
100
AcDbLine
 10
272.959766650259
 20
121.156835882064
 30
0.0
 11
273.264766650259
 21
125.842835882064
 31
0.0
  0
LINE
  5
98A
330
1D
100
AcDbEntity
  8
0
100
AcDbLine
 10
280.857766650259
 20
102.092835882064
 30
0.0
 11
284.779766650259
 21
98.786835882064
 31
0.0
  0
LINE
  5
98F
330
1D
100
AcDbEntity
  8
0
100
AcDbLine
 10
274.185766650259
 20
113.125835882064
 30
0.0
 11
275.191766650259
 21
110.566835882064
 31
0.0
  0
LINE
  5
990
330
1D
100
AcDbEntity
  8
0
100
AcDbLine
 10
273.657766650259
 20
115.177835882064
 30
0.0
 11
274.185766650259
 21
113.125835882064
 31
0.0
  0
LINE
  5
991
330
1D
100
AcDbEntity
  8
0
100
AcDbLine
 10
273.082766650259
 20
118.326835882064
 30
0.0
 11
273.657766650259
 21
115.177835882064
 31
0.0
  0
LINE
  5
992
330
1D
100
AcDbEntity
  8
0
100
AcDbLine
 10
272.987766650259
 20
120.355835882064
 30
0.0
 11
273.082766650259
 21
118.326835882064
 31
0.0
  0
LINE
  5
993
330
1D
100
AcDbEntity
  8
0
100
AcDbLine
 10
272.959766650259
 20
121.156835882064
 30
0.0
 11
272.987766650259
 21
120.355835882064
 31
0.0
  0
LINE
  5
994
330
1D
100
AcDbEntity
  8
0
100
AcDbLine
 10
277.679766650259
 20
105.940835882064
 30
0.0
 11
280.857766650259
 21
102.092835882064
 31
0.0
  0
LINE
  5
995
330
1D
100
AcDbEntity
  8
0
100
AcDbLine
 10
275.191766650259
 20
110.566835882064
 30
0.0
 11
275.734766650259
 21
109.440835882064
 31
0.0
  0
LINE
  5
996
330
1D
100
AcDbEntity
  8
0
100
AcDbLine
 10
275.734766650259
 20
109.440835882064
 30
0.0
 11
277.679766650259
 21
105.940835882064
 31
0.0
  0
LINE
  5
997
330
1D
100
AcDbEntity
  8
0
100
AcDbLine
 10
279.895766650259
 20
114.354835882064
 30
0.0
 11
281.647766650259
 21
110.255835882064
 31
0.0
  0
LINE
  5
998
330
1D
100
AcDbEntity
  8
0
100
AcDbLine
 10
280.171528993297
 20
116.316386926441
 30
0.0
 11
281.133766650259
 21
117.152835882064
 31
0.0
  0
LINE
  5
999
330
1D
100
AcDbEntity
  8
0
100
AcDbLine
 10
281.647766650259
 20
110.255835882064
 30
0.0
 11
284.580766650259
 21
106.387835882064
 31
0.0
  0
LINE
  5
99C
330
1D
100
AcDbEntity
  8
0
100
AcDbLine
 10
279.822766650259
 20
114.919835882064
 30
0.0
 11
280.171528993297
 21
116.316386926441
 31
0.0
  0
LINE
  5
99D
330
1D
100
AcDbEntity
  8
0
100
AcDbLine
 10
279.822766650259
 20
114.919835882064
 30
0.0
 11
279.895766650259
 21
114.354835882064
 31
0.0
  0
LINE
  5
99E
330
1D
100
AcDbEntity
  8
0
100
AcDbLine
 10
282.870766650259
 20
142.586835882064
 30
0.0
 11
283.904766650259
 21
143.384835882064
 31
0.0
  0
LINE
  5
99F
330
1D
100
AcDbEntity
  8
0
100
AcDbLine
 10
274.646766650259
 20
131.014835882064
 30
0.0
 11
275.569766650259
 21
133.101835882064
 31
0.0
  0
LINE
  5
9A0
330
1D
100
AcDbEntity
  8
0
100
AcDbLine
 10
273.264766650259
 20
125.842835882064
 30
0.0
 11
273.564035306764
 21
126.962819595119
 31
0.0
  0
LINE
  5
9A1
330
1D
100
AcDbEntity
  8
0
100
AcDbLine
 10
274.006766650259
 20
128.872835882064
 30
0.0
 11
274.646766650259
 21
131.014835882064
 31
0.0
  0
LINE
  5
9A2
330
1D
100
AcDbEntity
  8
0
100
AcDbLine
 10
274.006766650259
 20
128.872835882064
 30
0.0
 11
273.564035306764
 21
126.962819595119
 31
0.0
  0
LINE
  5
9A3
330
1D
100
AcDbEntity
  8
0
100
AcDbLine
 10
281.176766650259
 20
131.366835882064
 30
0.0
 11
284.008766650259
 21
135.474835882064
 31
0.0
  0
LINE
  5
9A6
330
1D
100
AcDbEntity
  8
0
100
AcDbLine
 10
279.788766650259
 20
127.729835882064
 30
0.0
 11
281.176766650259
 21
131.366835882064
 31
0.0
  0
LINE
  5
9A7
330
1D
100
AcDbEntity
  8
0
100
AcDbLine
 10
279.788766650259
 20
127.729835882064
 30
0.0
 11
280.007697487623
 21
126.690891774394
 31
0.0
  0
LINE
  5
9A8
330
1D
100
AcDbEntity
  8
0
100
AcDbLine
 10
280.353766650259
 20
126.149835882064
 30
0.0
 11
281.449766650259
 21
125.532835882064
 31
0.0
  0
LINE
  5
9A9
330
1D
100
AcDbEntity
  8
0
100
AcDbLine
 10
280.007697487623
 20
126.690891774393
 30
0.0
 11
280.353766650259
 21
126.149835882064
 31
0.0
  0
LINE
  5
9AA
330
1D
100
AcDbEntity
  8
0
100
AcDbLine
 10
275.569766650259
 20
133.101835882064
 30
0.0
 11
276.310766650259
 21
134.580835882064
 31
0.0
  0
LINE
  5
9AB
330
1D
100
AcDbEntity
  8
0
100
AcDbLine
 10
276.310766650259
 20
134.580835882064
 30
0.0
 11
278.412766650259
 21
137.893835882064
 31
0.0
  0
LINE
  5
9AC
330
1D
100
AcDbEntity
  8
0
100
AcDbLine
 10
281.205982096864
 20
140.953982876567
 30
0.0
 11
281.478766650259
 21
141.252835882064
 31
0.0
  0
LINE
  5
9AD
330
1D
100
AcDbEntity
  8
0
100
AcDbLine
 10
278.412766650259
 20
137.893835882064
 30
0.0
 11
280.12144424603
 21
139.765801976061
 31
0.0
  0
LINE
  5
9AE
330
1D
100
AcDbEntity
  8
0
100
AcDbLine
 10
281.478766650259
 20
141.252835882064
 30
0.0
 11
282.870766650259
 21
142.586835882064
 31
0.0
  0
LINE
  5
9AF
330
1D
100
AcDbEntity
  8
0
100
AcDbLine
 10
280.12144424603
 20
139.765801976061
 30
0.0
 11
281.205982096864
 21
140.953982876567
 31
0.0
  0
LINE
  5
9B0
330
1D
100
AcDbEntity
  8
0
100
AcDbLine
 10
283.904766650259
 20
143.384835882064
 30
0.0
 11
285.003766650259
 21
144.090835882064
 31
0.0
  0
LINE
  5
9B6
330
1D
100
AcDbEntity
  8
0
100
AcDbLine
 10
304.214766650259
 20
100.046835882064
 30
0.0
 11
309.150766650259
 21
101.588835882064
 31
0.0
  0
LINE
  5
9B7
330
1D
100
AcDbEntity
  8
0
100
AcDbLine
 10
305.235766650259
 20
108.773835882064
 30
0.0
 11
307.676766650259
 21
109.911835882064
 31
0.0
  0
LINE
  5
9B8
330
1D
100
AcDbEntity
  8
0
100
AcDbLine
 10
302.751906480928
 20
94.122718603504
 30
0.0
 11
306.191766650259
 21
94.648835882064
 31
0.0
  0
LINE
  5
9B9
330
1D
100
AcDbEntity
  8
0
100
AcDbLine
 10
313.40013430839
 20
117.156404294991
 30
0.0
 11
287.144532098998
 21
117.220459408488
 31
0.0
  0
LINE
  5
9BA
330
1D
100
AcDbEntity
  8
0
100
AcDbLine
 10
290.485766650259
 20
102.133835882064
 30
0.0
 11
296.693766650259
 21
99.921835882064
 31
0.0
  0
LINE
  5
9BB
330
1D
100
AcDbEntity
  8
0
100
AcDbLine
 10
293.803766650259
 20
94.828835882064
 30
0.0
 11
297.165766650259
 21
94.140835882064
 31
0.0
  0
LINE
  5
9C1
330
1D
100
AcDbEntity
  8
0
100
AcDbLine
 10
289.599766650259
 20
96.150835882064
 30
0.0
 11
292.116766650259
 21
95.261835882064
 31
0.0
  0
LINE
  5
9C2
330
1D
100
AcDbEntity
  8
0
100
AcDbLine
 10
292.116766650259
 20
95.261835882064
 30
0.0
 11
293.803766650259
 21
94.828835882064
 31
0.0
  0
LINE
  5
9C3
330
1D
100
AcDbEntity
  8
0
100
AcDbLine
 10
296.693766650259
 20
99.921835882064
 30
0.0
 11
304.214766650259
 21
100.046835882064
 31
0.0
  0
LINE
  5
9C4
330
1D
100
AcDbEntity
  8
0
100
AcDbLine
 10
297.165766650259
 20
94.140835882064
 30
0.0
 11
302.223766650259
 21
94.035835882064
 31
0.0
  0
LINE
  5
9C5
330
1D
100
AcDbEntity
  8
0
100
AcDbLine
 10
302.223766650259
 20
94.035835882064
 30
0.0
 11
302.751906480928
 21
94.122718603504
 31
0.0
  0
LINE
  5
9C6
330
1D
100
AcDbEntity
  8
0
100
AcDbLine
 10
295.137766650259
 20
108.824835882064
 30
0.0
 11
298.628766650259
 21
107.892835882064
 31
0.0
  0
LINE
  5
9C7
330
1D
100
AcDbEntity
  8
0
100
AcDbLine
 10
287.399123633221
 20
117.119880036943
 30
0.0
 11
287.993766650259
 21
115.707835882064
 31
0.0
  0
LINE
  5
9C8
330
1D
100
AcDbEntity
  8
0
100
AcDbLine
 10
287.824766650259
 20
103.745835882064
 30
0.0
 11
290.485766650259
 21
102.133835882064
 31
0.0
  0
LINE
  5
9C9
330
1D
100
AcDbEntity
  8
0
100
AcDbLine
 10
287.993766650259
 20
115.707835882064
 30
0.0
 11
289.266766650259
 21
113.491835882064
 31
0.0
  0
LINE
  5
9CA
330
1D
100
AcDbEntity
  8
0
100
AcDbLine
 10
289.266766650259
 20
113.491835882064
 30
0.0
 11
291.779766650259
 21
110.821835882064
 31
0.0
  0
LINE
  5
9CB
330
1D
100
AcDbEntity
  8
0
100
AcDbLine
 10
291.779766650259
 20
110.821835882064
 30
0.0
 11
295.137766650259
 21
108.824835882064
 31
0.0
  0
LINE
  5
9CC
330
1D
100
AcDbEntity
  8
0
100
AcDbLine
 10
287.144532098998
 20
117.220459408488
 30
0.0
 11
287.399123633221
 21
117.119880036943
 31
0.0
  0
LINE
  5
9CD
330
1D
100
AcDbEntity
  8
0
100
AcDbLine
 10
298.628766650259
 20
107.892835882064
 30
0.0
 11
302.434766650259
 21
107.938835882064
 31
0.0
  0
LINE
  5
9CE
330
1D
100
AcDbEntity
  8
0
100
AcDbLine
 10
302.434766650259
 20
107.938835882064
 30
0.0
 11
304.291766650259
 21
108.485835882064
 31
0.0
  0
LINE
  5
9CF
330
1D
100
AcDbEntity
  8
0
100
AcDbLine
 10
304.23423478469
 20
108.475271402325
 30
0.0
 11
304.291766650259
 21
108.485835882064
 31
0.0
  0
LINE
  5
9D0
330
1D
100
AcDbEntity
  8
0
100
AcDbLine
 10
304.291766650259
 20
108.485835882064
 30
0.0
 11
305.235766650259
 21
108.773835882064
 31
0.0
  0
LINE
  5
9D1
330
1D
100
AcDbEntity
  8
0
100
AcDbLine
 10
318.729170540802
 20
101.164452883926
 30
0.0
 11
320.590766650259
 21
102.844835882064
 31
0.0
  0
LINE
  5
9D2
330
1D
100
AcDbEntity
  8
0
100
AcDbLine
 10
313.466766650259
 20
97.326835882064
 30
0.0
 11
316.676766650259
 21
99.311835882064
 31
0.0
  0
LINE
  5
9D4
330
1D
100
AcDbEntity
  8
0
100
AcDbLine
 10
311.184766650259
 20
96.155835882064
 30
0.0
 11
313.466766650259
 21
97.326835882064
 31
0.0
  0
LINE
  5
9D5
330
1D
100
AcDbEntity
  8
0
100
AcDbLine
 10
306.191766650259
 20
94.648835882064
 30
0.0
 11
307.548766650259
 21
94.911835882064
 31
0.0
  0
LINE
  5
9D6
330
1D
100
AcDbEntity
  8
0
100
AcDbLine
 10
307.548766650259
 20
94.911835882064
 30
0.0
 11
309.821740753607
 21
95.68949808904
 31
0.0
  0
LINE
  5
9D8
330
1D
100
AcDbEntity
  8
0
100
AcDbLine
 10
309.821740753607
 20
95.68949808904
 30
0.0
 11
311.184766650259
 21
96.155835882064
 31
0.0
  0
LINE
  5
9DF
330
1D
100
AcDbEntity
  8
0
100
AcDbLine
 10
316.676766650259
 20
99.311835882064
 30
0.0
 11
318.729170540802
 21
101.164452883926
 31
0.0
  0
LINE
  5
9E0
330
1D
100
AcDbEntity
  8
0
100
AcDbLine
 10
313.40013430839
 20
117.156404294991
 30
0.0
 11
319.231632009742
 21
117.218514921396
 31
0.0
  0
LINE
  5
9E1
330
1D
100
AcDbEntity
  8
0
100
AcDbLine
 10
315.849766650259
 20
106.247835882064
 30
0.0
 11
318.257766650259
 21
109.173835882064
 31
0.0
  0
LINE
  5
9E2
330
1D
100
AcDbEntity
  8
0
100
AcDbLine
 10
307.676766650259
 20
109.911835882064
 30
0.0
 11
309.845766650259
 21
111.634835882064
 31
0.0
  0
LINE
  5
9E3
330
1D
100
AcDbEntity
  8
0
100
AcDbLine
 10
309.150766650259
 20
101.588835882064
 30
0.0
 11
313.211766650259
 21
103.950835882064
 31
0.0
  0
LINE
  5
9E4
330
1D
100
AcDbEntity
  8
0
100
AcDbLine
 10
309.845766650259
 20
111.634835882064
 30
0.0
 11
311.662766650259
 21
113.781835882064
 31
0.0
  0
LINE
  5
9E5
330
1D
100
AcDbEntity
  8
0
100
AcDbLine
 10
311.662766650259
 20
113.781835882064
 30
0.0
 11
313.066766650259
 21
116.727835882064
 31
0.0
  0
LINE
  5
9E6
330
1D
100
AcDbEntity
  8
0
100
AcDbLine
 10
313.066766650259
 20
116.727835882064
 30
0.0
 11
313.294766650259
 21
117.118835882064
 31
0.0
  0
LINE
  5
9E7
330
1D
100
AcDbEntity
  8
0
100
AcDbLine
 10
313.211766650259
 20
103.950835882064
 30
0.0
 11
315.849766650259
 21
106.247835882064
 31
0.0
  0
LINE
  5
9E9
330
1D
100
AcDbEntity
  8
0
100
AcDbLine
 10
313.294766650259
 20
117.118835882064
 30
0.0
 11
313.40013430839
 21
117.156404294991
 31
0.0
  0
LINE
  5
9EA
330
1D
100
AcDbEntity
  8
0
100
AcDbLine
 10
318.257766650259
 20
109.173835882064
 30
0.0
 11
320.481766650259
 21
112.895835882064
 31
0.0
  0
LINE
  5
9EB
330
1D
100
AcDbEntity
  8
0
100
AcDbLine
 10
320.590766650259
 20
102.844835882064
 30
0.0
 11
322.358766650259
 21
105.034835882064
 31
0.0
  0
LINE
  5
9EC
330
1D
100
AcDbEntity
  8
0
100
AcDbLine
 10
323.243766650259
 20
106.342835882064
 30
0.0
 11
325.124766650259
 21
109.540835882064
 31
0.0
  0
LINE
  5
9ED
330
1D
100
AcDbEntity
  8
0
100
AcDbLine
 10
322.358766650259
 20
105.034835882064
 30
0.0
 11
323.243766650259
 21
106.342835882064
 31
0.0
  0
LINE
  5
9EE
330
1D
100
AcDbEntity
  8
0
100
AcDbLine
 10
320.481766650259
 20
112.895835882064
 30
0.0
 11
320.992766650259
 21
114.968835882064
 31
0.0
  0
LINE
  5
9EF
330
1D
100
AcDbEntity
  8
0
100
AcDbLine
 10
319.777766650259
 20
117.067835882064
 30
0.0
 11
320.548766650259
 21
116.397835882064
 31
0.0
  0
LINE
  5
9F0
330
1D
100
AcDbEntity
  8
0
100
AcDbLine
 10
320.864766650259
 20
115.961835882064
 30
0.0
 11
320.992766650259
 21
114.968835882064
 31
0.0
  0
LINE
  5
9F1
330
1D
100
AcDbEntity
  8
0
100
AcDbLine
 10
320.548766650259
 20
116.397835882064
 30
0.0
 11
320.864766650259
 21
115.961835882064
 31
0.0
  0
LINE
  5
9F2
330
1D
100
AcDbEntity
  8
0
100
AcDbLine
 10
319.231632009741
 20
117.218514921396
 30
0.0
 11
319.777766650259
 21
117.067835882064
 31
0.0
  0
LINE
  5
9F3
330
1D
100
AcDbEntity
  8
0
100
AcDbLine
 10
303.850766650259
 20
134.577835882064
 30
0.0
 11
306.457766650259
 21
133.584835882064
 31
0.0
  0
LINE
  5
9F4
330
1D
100
AcDbEntity
  8
0
100
AcDbLine
 10
304.644766650259
 20
142.672835882064
 30
0.0
 11
310.938766650259
 21
140.318835882064
 31
0.0
  0
LINE
  5
9F5
330
1D
100
AcDbEntity
  8
0
100
AcDbLine
 10
306.134766650259
 20
148.249835882064
 30
0.0
 11
308.692766650259
 21
147.525835882064
 31
0.0
  0
LINE
  5
9F6
330
1D
100
AcDbEntity
  8
0
100
AcDbLine
 10
296.304766650259
 20
125.493835882064
 30
0.0
 11
308.439766650259
 21
125.493835882064
 31
0.0
  0
LINE
  5
9F7
330
1D
100
AcDbEntity
  8
0
100
AcDbLine
 10
295.354766650259
 20
142.506835882064
 30
0.0
 11
299.596766650259
 21
143.214835882064
 31
0.0
  0
LINE
  5
9F8
330
1D
100
AcDbEntity
  8
0
100
AcDbLine
 10
299.596766650259
 20
143.214835882064
 30
0.0
 11
304.644766650259
 21
142.672835882064
 31
0.0
  0
LINE
  5
9F9
330
1D
100
AcDbEntity
  8
0
100
AcDbLine
 10
291.338766650259
 20
125.494835882064
 30
0.0
 11
296.304766650259
 21
125.493835882064
 31
0.0
  0
LINE
  5
9FA
330
1D
100
AcDbEntity
  8
0
100
AcDbLine
 10
294.607766650259
 20
133.759835882064
 30
0.0
 11
297.341766650259
 21
134.661835882064
 31
0.0
  0
LINE
  5
9FB
330
1D
100
AcDbEntity
  8
0
100
AcDbLine
 10
287.445313973441
 20
125.75144487848
 30
0.0
 11
287.755766650259
 21
126.557835882064
 31
0.0
  0
LINE
  5
9FC
330
1D
100
AcDbEntity
  8
0
100
AcDbLine
 10
286.698766650259
 20
138.371835882064
 30
0.0
 11
290.606766650259
 21
140.886835882064
 31
0.0
  0
LINE
  5
9FD
330
1D
100
AcDbEntity
  8
0
100
AcDbLine
 10
287.755766650259
 20
126.557835882064
 30
0.0
 11
289.016766650259
 21
128.971835882064
 31
0.0
  0
LINE
  5
9FE
330
1D
100
AcDbEntity
  8
0
100
AcDbLine
 10
289.016766650259
 20
128.971835882064
 30
0.0
 11
291.454766650259
 21
131.704835882064
 31
0.0
  0
LINE
  5
9FF
330
1D
100
AcDbEntity
  8
0
100
AcDbLine
 10
290.606766650259
 20
140.886835882064
 30
0.0
 11
295.354766650259
 21
142.506835882064
 31
0.0
  0
LINE
  5
A00
330
1D
100
AcDbEntity
  8
0
100
AcDbLine
 10
291.454766650259
 20
131.704835882064
 30
0.0
 11
293.109766650259
 21
132.797835882064
 31
0.0
  0
LINE
  5
A01
330
1D
100
AcDbEntity
  8
0
100
AcDbLine
 10
293.109766650259
 20
132.797835882064
 30
0.0
 11
294.607766650259
 21
133.759835882064
 31
0.0
  0
LINE
  5
A02
330
1D
100
AcDbEntity
  8
0
100
AcDbLine
 10
287.077766650259
 20
125.566835882064
 30
0.0
 11
287.445313973441
 21
125.75144487848
 31
0.0
  0
LINE
  5
A03
330
1D
100
AcDbEntity
  8
0
100
AcDbLine
 10
297.341766650259
 20
134.661835882064
 30
0.0
 11
299.130766650259
 21
134.962835882064
 31
0.0
  0
LINE
  5
A04
330
1D
100
AcDbEntity
  8
0
100
AcDbLine
 10
299.130766650259
 20
134.962835882064
 30
0.0
 11
301.059766650259
 21
135.003835882064
 31
0.0
  0
LINE
  5
A05
330
1D
100
AcDbEntity
  8
0
100
AcDbLine
 10
301.059766650259
 20
135.003835882064
 30
0.0
 11
303.850766650259
 21
134.577835882064
 31
0.0
  0
LINE
  5
A06
330
1D
100
AcDbEntity
  8
0
100
AcDbLine
 10
293.082766650259
 20
147.851835882064
 30
0.0
 11
296.193766650259
 21
148.505835882064
 31
0.0
  0
LINE
  5
A09
330
1D
100
AcDbEntity
  8
0
100
AcDbLine
 10
288.168766650259
 20
146.018835882064
 30
0.0
 11
291.986766650259
 21
147.521835882064
 31
0.0
  0
LINE
  5
A12
330
1D
100
AcDbEntity
  8
0
100
AcDbLine
 10
291.986766650259
 20
147.521835882064
 30
0.0
 11
293.082766650259
 21
147.851835882064
 31
0.0
  0
LINE
  5
A13
330
1D
100
AcDbEntity
  8
0
100
AcDbLine
 10
296.193766650259
 20
148.505835882064
 30
0.0
 11
298.402766650259
 21
148.752835882064
 31
0.0
  0
LINE
  5
A14
330
1D
100
AcDbEntity
  8
0
100
AcDbLine
 10
298.402766650259
 20
148.752835882064
 30
0.0
 11
301.363766650259
 21
148.815835882064
 31
0.0
  0
LINE
  5
A15
330
1D
100
AcDbEntity
  8
0
100
AcDbLine
 10
301.363766650259
 20
148.815835882064
 30
0.0
 11
303.498766650259
 21
148.646835882064
 31
0.0
  0
LINE
  5
A16
330
1D
100
AcDbEntity
  8
0
100
AcDbLine
 10
303.498766650259
 20
148.646835882064
 30
0.0
 11
306.134766650259
 21
148.249835882064
 31
0.0
  0
LINE
  5
A17
330
1D
100
AcDbEntity
  8
0
100
AcDbLine
 10
316.946957991579
 20
143.18474382432
 30
0.0
 11
317.787766650259
 21
142.587835882064
 31
0.0
  0
LINE
  5
A18
330
1D
100
AcDbEntity
  8
0
100
AcDbLine
 10
308.439766650259
 20
125.493835882064
 30
0.0
 11
319.717766650259
 21
125.559835882064
 31
0.0
  0
LINE
  5
A19
330
1D
100
AcDbEntity
  8
0
100
AcDbLine
 10
314.489766650259
 20
137.893835882064
 30
0.0
 11
317.503766650259
 21
134.605835882064
 31
0.0
  0
LINE
  5
A1A
330
1D
100
AcDbEntity
  8
0
100
AcDbLine
 10
306.457766650259
 20
133.584835882064
 30
0.0
 11
308.823766650259
 21
132.094835882064
 31
0.0
  0
LINE
  5
A1B
330
1D
100
AcDbEntity
  8
0
100
AcDbLine
 10
308.823766650259
 20
132.094835882064
 30
0.0
 11
311.433766650259
 21
129.367835882064
 31
0.0
  0
LINE
  5
A1C
330
1D
100
AcDbEntity
  8
0
100
AcDbLine
 10
310.938766650259
 20
140.318835882064
 30
0.0
 11
314.489766650259
 21
137.893835882064
 31
0.0
  0
LINE
  5
A1D
330
1D
100
AcDbEntity
  8
0
100
AcDbLine
 10
311.433766650259
 20
129.367835882064
 30
0.0
 11
312.737766650259
 21
127.105835882064
 31
0.0
  0
LINE
  5
A1E
330
1D
100
AcDbEntity
  8
0
100
AcDbLine
 10
312.737766650259
 20
127.105835882064
 30
0.0
 11
313.306374825015
 21
125.731239420759
 31
0.0
  0
LINE
  5
A20
330
1D
100
AcDbEntity
  8
0
100
AcDbLine
 10
313.306374825014
 20
125.731239420759
 30
0.0
 11
313.653766650259
 21
125.566835882064
 31
0.0
  0
LINE
  5
A21
330
1D
100
AcDbEntity
  8
0
100
AcDbLine
 10
319.439766650259
 20
131.731835882064
 30
0.0
 11
321.166766650259
 21
127.683835882064
 31
0.0
  0
LINE
  5
A22
330
1D
100
AcDbEntity
  8
0
100
AcDbLine
 10
319.717766650259
 20
125.559835882064
 30
0.0
 11
320.728766650259
 21
126.566835882064
 31
0.0
  0
LINE
  5
A23
330
1D
100
AcDbEntity
  8
0
100
AcDbLine
 10
319.784766650259
 20
140.755835882064
 30
0.0
 11
321.523766650259
 21
138.902835882064
 31
0.0
  0
LINE
  5
A24
330
1D
100
AcDbEntity
  8
0
100
AcDbLine
 10
317.787766650259
 20
142.587835882064
 30
0.0
 11
319.784766650259
 21
140.755835882064
 31
0.0
  0
LINE
  5
A25
330
1D
100
AcDbEntity
  8
0
100
AcDbLine
 10
317.503766650259
 20
134.605835882064
 30
0.0
 11
319.439766650259
 21
131.731835882064
 31
0.0
  0
LINE
  5
A26
330
1D
100
AcDbEntity
  8
0
100
AcDbLine
 10
323.084766650259
 20
136.753835882064
 30
0.0
 11
324.481766650259
 21
134.534835882064
 31
0.0
  0
LINE
  5
A27
330
1D
100
AcDbEntity
  8
0
100
AcDbLine
 10
324.481766650259
 20
134.534835882064
 30
0.0
 11
325.544766650259
 21
132.246835882064
 31
0.0
  0
LINE
  5
A28
330
1D
100
AcDbEntity
  8
0
100
AcDbLine
 10
325.544766650259
 20
132.246835882064
 30
0.0
 11
326.558766650259
 21
129.789835882064
 31
0.0
  0
LINE
  5
A29
330
1D
100
AcDbEntity
  8
0
100
AcDbLine
 10
321.523766650259
 20
138.902835882064
 30
0.0
 11
323.084766650259
 21
136.753835882064
 31
0.0
  0
LINE
  5
A2A
330
1D
100
AcDbEntity
  8
0
100
AcDbLine
 10
320.728766650259
 20
126.566835882064
 30
0.0
 11
321.166766650259
 21
127.683835882064
 31
0.0
  0
LINE
  5
A2B
330
1D
100
AcDbEntity
  8
0
100
AcDbLine
 10
314.612766650259
 20
144.841835882064
 30
0.0
 11
316.946957991579
 21
143.18474382432
 31
0.0
  0
LINE
  5
A2C
330
1D
100
AcDbEntity
  8
0
100
AcDbLine
 10
314.612766650259
 20
144.841835882064
 30
0.0
 11
316.946957991579
 21
143.18474382432
 31
0.0
  0
LINE
  5
A2E
330
1D
100
AcDbEntity
  8
0
100
AcDbLine
 10
311.124766650259
 20
146.665835882064
 30
0.0
 11
313.443766650259
 21
145.501835882064
 31
0.0
  0
LINE
  5
A2F
330
1D
100
AcDbEntity
  8
0
100
AcDbLine
 10
308.692766650259
 20
147.525835882064
 30
0.0
 11
311.124766650259
 21
146.665835882064
 31
0.0
  0
LINE
  5
A31
330
1D
100
AcDbEntity
  8
0
100
AcDbLine
 10
313.443766650259
 20
145.501835882064
 30
0.0
 11
314.612766650259
 21
144.841835882064
 31
0.0
  0
LINE
  5
A37
330
1D
100
AcDbEntity
  8
0
100
AcDbLine
 10
326.932766650259
 20
114.296835882064
 30
0.0
 11
327.594766650259
 21
118.128835882064
 31
0.0
  0
LINE
  5
A38
330
1D
100
AcDbEntity
  8
0
100
AcDbLine
 10
327.713766650259
 20
119.458835882064
 30
0.0
 11
327.737766650259
 21
120.567835882064
 31
0.0
  0
LINE
  5
A39
330
1D
100
AcDbEntity
  8
0
100
AcDbLine
 10
327.722766650259
 20
123.348835882064
 30
0.0
 11
327.737766650259
 21
120.567835882064
 31
0.0
  0
LINE
  5
A3A
330
1D
100
AcDbEntity
  8
0
100
AcDbLine
 10
327.594766650259
 20
118.128835882064
 30
0.0
 11
327.713766650259
 21
119.458835882064
 31
0.0
  0
LINE
  5
A3B
330
1D
100
AcDbEntity
  8
0
100
AcDbLine
 10
327.164766650259
 20
127.179835882064
 30
0.0
 11
327.224766650259
 21
126.775835882064
 31
0.0
  0
LINE
  5
A3C
330
1D
100
AcDbEntity
  8
0
100
AcDbLine
 10
327.224766650259
 20
126.775835882064
 30
0.0
 11
327.722766650259
 21
123.348835882064
 31
0.0
  0
ENDSEC
  0
SECTION
  2
OBJECTS
  0
DICTIONARY
  5
C
330
0
100
AcDbDictionary
281
     1
  3
ACAD_GROUP
350
D
  3
ACAD_LAYOUT
350
1A
  3
ACAD_MLEADERSTYLE
350
A3F
  3
ACAD_MLINESTYLE
350
17
  3
ACAD_PLOTSETTINGS
350
19
  3
ACAD_PLOTSTYLENAME
350
E
  3
ACAD_SCALELIST
350
936
  3
AcDbVariableDictionary
350
A3D
  3
DWGPROPS
350
A42
  0
DICTIONARY
  5
D
102
{ACAD_REACTORS
330
C
102
}
330
C
100
AcDbDictionary
281
     1
  0
DICTIONARY
  5
1A
102
{ACAD_REACTORS
330
C
102
}
330
C
100
AcDbDictionary
281
     1
  3
Layout1
350
1C
  3
Model
350
1E
  0
DICTIONARY
  5
A3F
102
{ACAD_REACTORS
330
C
102
}
330
C
100
AcDbDictionary
281
     1
  0
DICTIONARY
  5
17
102
{ACAD_REACTORS
330
C
102
}
330
C
100
AcDbDictionary
281
     1
  3
Standard
350
18
  0
DICTIONARY
  5
19
102
{ACAD_REACTORS
330
C
102
}
330
C
100
AcDbDictionary
281
     1
  0
ACDBDICTIONARYWDFLT
  5
E
102
{ACAD_REACTORS
330
C
102
}
330
C
100
AcDbDictionary
281
     1
  3
Normal
350
F
100
AcDbDictionaryWithDefault
340
F
  0
DICTIONARY
  5
936
102
{ACAD_REACTORS
330
C
102
}
330
C
100
AcDbDictionary
281
     1
  3
A0
350
937
  3
A1
350
938
  3
A2
350
939
  3
A3
350
93A
  3
A4
350
93B
  3
A5
350
93C
  3
A6
350
93D
  3
A7
350
93E
  3
A8
350
93F
  3
A9
350
940
  3
B0
350
941
  3
B1
350
942
  3
B2
350
943
  3
B3
350
944
  3
B4
350
945
  3
B5
350
946
  3
B6
350
947
  3
B7
350
948
  3
B8
350
949
  3
B9
350
94A
  3
C0
350
94B
  3
C1
350
94C
  3
C2
350
94D
  3
C3
350
94E
  3
C4
350
94F
  3
C5
350
950
  3
C6
350
951
  3
C7
350
952
  3
C8
350
953
  3
C9
350
954
  3
D0
350
955
  3
D1
350
956
  3
D2
350
957
  0
DICTIONARY
  5
A3D
102
{ACAD_REACTORS
330
C
102
}
330
C
100
AcDbDictionary
281
     1
  3
CANNOSCALE
350
A40
  0
XRECORD
  5
A42
102
{ACAD_REACTORS
330
C
102
}
330
C
100
AcDbXrecord
280
     1
  1
DWGPROPS COOKIE
  2

  3

  4

  6

  7

  8
MARTIN
  9

300
=
301
=
302
=
303
=
304
=
305
=
306
=
307
=
308
=
309
=
 40
0.0
 41
2456647.923271481
 42
2456647.944480428
  1

 90
        0
  0
LAYOUT
  5
1C
102
{ACAD_REACTORS
330
1A
102
}
330
1A
100
AcDbPlotSettings
  1

  2
none_device
  4

  6

 40
0.0
 41
0.0
 42
0.0
 43
0.0
 44
0.0
 45
0.0
 46
0.0
 47
0.0
 48
0.0
 49
0.0
140
0.0
141
0.0
142
1.0
143
1.0
 70
   688
 72
     0
 73
     0
 74
     5
  7

 75
    16
147
1.0
148
0.0
149
0.0
100
AcDbLayout
  1
Layout1
 70
     1
 71
     1
 10
0.0
 20
0.0
 11
12.0
 21
9.0
 12
0.0
 22
0.0
 32
0.0
 14
1.000000000000E+20
 24
1.000000000000E+20
 34
1.000000000000E+20
 15
-1.000000000000E+20
 25
-1.000000000000E+20
 35
-1.000000000000E+20
146
0.0
 13
0.0
 23
0.0
 33
0.0
 16
1.0
 26
0.0
 36
0.0
 17
0.0
 27
1.0
 37
0.0
 76
     0
330
1B
  0
LAYOUT
  5
1E
102
{ACAD_REACTORS
330
1A
102
}
330
1A
100
AcDbPlotSettings
  1

  2
none_device
  4

  6

 40
0.0
 41
0.0
 42
0.0
 43
0.0
 44
0.0
 45
0.0
 46
0.0
 47
0.0
 48
0.0
 49
0.0
140
0.0
141
0.0
142
1.0
143
1.0
 70
  1712
 72
     0
 73
     0
 74
     0
  7

 75
     0
147
1.0
148
0.0
149
0.0
100
AcDbLayout
  1
Model
 70
     1
 71
     0
 10
0.0
 20
0.0
 11
12.0
 21
9.0
 12
0.0
 22
0.0
 32
0.0
 14
-0.096
 24
0.158
 34
0.0
 15
448.933
 25
1327.842
 35
0.0
146
0.0
 13
0.0
 23
0.0
 33
0.0
 16
1.0
 26
0.0
 36
0.0
 17
0.0
 27
1.0
 37
0.0
 76
     0
330
1D
331
931
  0
MLINESTYLE
  5
18
102
{ACAD_REACTORS
330
17
102
}
330
17
100
AcDbMlineStyle
  2
Standard
 70
     0
  3

 62
   256
 51
90.0
 52
90.0
 71
     2
 49
0.5
 62
   256
  6
BYLAYER
 49
-0.5
 62
   256
  6
BYLAYER
  0
ACDBPLACEHOLDER
  5
F
102
{ACAD_REACTORS
330
E
102
}
330
E
  0
SCALE
  5
937
102
{ACAD_REACTORS
330
936
102
}
330
936
100
AcDbScale
 70
     0
300
1:1
140
1.0
141
1.0
290
     1
  0
SCALE
  5
938
102
{ACAD_REACTORS
330
936
102
}
330
936
100
AcDbScale
 70
     0
300
1:2
140
1.0
141
2.0
290
     0
  0
SCALE
  5
939
102
{ACAD_REACTORS
330
936
102
}
330
936
100
AcDbScale
 70
     0
300
1:4
140
1.0
141
4.0
290
     0
  0
SCALE
  5
93A
102
{ACAD_REACTORS
330
936
102
}
330
936
100
AcDbScale
 70
     0
300
1:5
140
1.0
141
5.0
290
     0
  0
SCALE
  5
93B
102
{ACAD_REACTORS
330
936
102
}
330
936
100
AcDbScale
 70
     0
300
1:8
140
1.0
141
8.0
290
     0
  0
SCALE
  5
93C
102
{ACAD_REACTORS
330
936
102
}
330
936
100
AcDbScale
 70
     0
300
1:10
140
1.0
141
10.0
290
     0
  0
SCALE
  5
93D
102
{ACAD_REACTORS
330
936
102
}
330
936
100
AcDbScale
 70
     0
300
1:16
140
1.0
141
16.0
290
     0
  0
SCALE
  5
93E
102
{ACAD_REACTORS
330
936
102
}
330
936
100
AcDbScale
 70
     0
300
1:20
140
1.0
141
20.0
290
     0
  0
SCALE
  5
93F
102
{ACAD_REACTORS
330
936
102
}
330
936
100
AcDbScale
 70
     0
300
1:30
140
1.0
141
30.0
290
     0
  0
SCALE
  5
940
102
{ACAD_REACTORS
330
936
102
}
330
936
100
AcDbScale
 70
     0
300
1:40
140
1.0
141
40.0
290
     0
  0
SCALE
  5
941
102
{ACAD_REACTORS
330
936
102
}
330
936
100
AcDbScale
 70
     0
300
1:50
140
1.0
141
50.0
290
     0
  0
SCALE
  5
942
102
{ACAD_REACTORS
330
936
102
}
330
936
100
AcDbScale
 70
     0
300
1:100
140
1.0
141
100.0
290
     0
  0
SCALE
  5
943
102
{ACAD_REACTORS
330
936
102
}
330
936
100
AcDbScale
 70
     0
300
2:1
140
2.0
141
1.0
290
     0
  0
SCALE
  5
944
102
{ACAD_REACTORS
330
936
102
}
330
936
100
AcDbScale
 70
     0
300
4:1
140
4.0
141
1.0
290
     0
  0
SCALE
  5
945
102
{ACAD_REACTORS
330
936
102
}
330
936
100
AcDbScale
 70
     0
300
8:1
140
8.0
141
1.0
290
     0
  0
SCALE
  5
946
102
{ACAD_REACTORS
330
936
102
}
330
936
100
AcDbScale
 70
     0
300
10:1
140
10.0
141
1.0
290
     0
  0
SCALE
  5
947
102
{ACAD_REACTORS
330
936
102
}
330
936
100
AcDbScale
 70
     0
300
100:1
140
100.0
141
1.0
290
     0
  0
SCALE
  5
948
102
{ACAD_REACTORS
330
936
102
}
330
936
100
AcDbScale
 70
     0
300
1/128" = 1'-0"
140
0.0078125
141
12.0
290
     0
  0
SCALE
  5
949
102
{ACAD_REACTORS
330
936
102
}
330
936
100
AcDbScale
 70
     0
300
1/64" = 1'-0"
140
0.015625
141
12.0
290
     0
  0
SCALE
  5
94A
102
{ACAD_REACTORS
330
936
102
}
330
936
100
AcDbScale
 70
     0
300
1/32" = 1'-0"
140
0.03125
141
12.0
290
     0
  0
SCALE
  5
94B
102
{ACAD_REACTORS
330
936
102
}
330
936
100
AcDbScale
 70
     0
300
1/16" = 1'-0"
140
0.0625
141
12.0
290
     0
  0
SCALE
  5
94C
102
{ACAD_REACTORS
330
936
102
}
330
936
100
AcDbScale
 70
     0
300
3/32" = 1'-0"
140
0.09375
141
12.0
290
     0
  0
SCALE
  5
94D
102
{ACAD_REACTORS
330
936
102
}
330
936
100
AcDbScale
 70
     0
300
1/8" = 1'-0"
140
0.125
141
12.0
290
     0
  0
SCALE
  5
94E
102
{ACAD_REACTORS
330
936
102
}
330
936
100
AcDbScale
 70
     0
300
3/16" = 1'-0"
140
0.1875
141
12.0
290
     0
  0
SCALE
  5
94F
102
{ACAD_REACTORS
330
936
102
}
330
936
100
AcDbScale
 70
     0
300
1/4" = 1'-0"
140
0.25
141
12.0
290
     0
  0
SCALE
  5
950
102
{ACAD_REACTORS
330
936
102
}
330
936
100
AcDbScale
 70
     0
300
3/8" = 1'-0"
140
0.375
141
12.0
290
     0
  0
SCALE
  5
951
102
{ACAD_REACTORS
330
936
102
}
330
936
100
AcDbScale
 70
     0
300
1/2" = 1'-0"
140
0.5
141
12.0
290
     0
  0
SCALE
  5
952
102
{ACAD_REACTORS
330
936
102
}
330
936
100
AcDbScale
 70
     0
300
3/4" = 1'-0"
140
0.75
141
12.0
290
     0
  0
SCALE
  5
953
102
{ACAD_REACTORS
330
936
102
}
330
936
100
AcDbScale
 70
     0
300
1" = 1'-0"
140
1.0
141
12.0
290
     0
  0
SCALE
  5
954
102
{ACAD_REACTORS
330
936
102
}
330
936
100
AcDbScale
 70
     0
300
1-1/2" = 1'-0"
140
1.5
141
12.0
290
     0
  0
SCALE
  5
955
102
{ACAD_REACTORS
330
936
102
}
330
936
100
AcDbScale
 70
     0
300
3" = 1'-0"
140
3.0
141
12.0
290
     0
  0
SCALE
  5
956
102
{ACAD_REACTORS
330
936
102
}
330
936
100
AcDbScale
 70
     0
300
6" = 1'-0"
140
6.0
141
12.0
290
     0
  0
SCALE
  5
957
102
{ACAD_REACTORS
330
936
102
}
330
936
100
AcDbScale
 70
     0
300
1'-0" = 1'-0"
140
12.0
141
12.0
290
     0
  0
DICTIONARYVAR
  5
A40
102
{ACAD_REACTORS
330
A3D
102
}
330
A3D
100
DictionaryVariables
280
     0
  1
1:1
  0
ENDSEC
  0
SECTION
  2
THUMBNAILIMAGE
 90
    16364
310
28000000B40000005500000001000800000000000000000000000000000000000000000000000000FFFFFF000000FF0000FFFF0000FF0000FFFF0000FF000000FF00FF000000000080808000C0C0C0000000FF007F7FFF000000A5005252A50000007F003F3F7F0000004C0026264C000000260013132600003FFF007F9FFF
310
000029A5005267A500001F7F003F4F7F0000134C00262F4C000009260013172600007FFF007FBFFF000052A500527CA500003F7F003F5F7F0000264C0026394C0000132600131C260000BFFF007FDFFF00007CA5005291A500005F7F003F6F7F0000394C0026424C00001C26001321260000FFFF007FFFFF0000A5A50052A5
310
A500007F7F003F7F7F00004C4C00264C4C00002626001326260000FFBF007FFFDF0000A57C0052A59100007F5F003F7F6F00004C3900264C420000261C001326210000FF7F007FFFBF0000A5520052A57C00007F3F003F7F5F00004C2600264C39000026130013261C0000FF3F007FFF9F0000A5290052A56700007F1F003F
310
7F4F00004C1300264C2F00002609001326170000FF00007FFF7F0000A5000052A55200007F00003F7F3F00004C0000264C260000260000132613003FFF00009FFF7F0029A5000067A552001F7F00004F7F3F00134C00002F4C260009260000172613007FFF0000BFFF7F0052A500007CA552003F7F00005F7F3F00264C0000
310
394C2600132600001C261300BFFF0000DFFF7F007CA5000091A552005F7F00006F7F3F00394C0000424C26001C26000021261300FFFF0000FFFF7F00A5A50000A5A552007F7F00007F7F3F004C4C00004C4C26002626000026261300FFBF0000FFDF7F00A57C0000A59152007F5F00007F6F3F004C3900004C422600261C00
310
0026211300FF7F0000FFBF7F00A5520000A57C52007F3F00007F5F3F004C2600004C39260026130000261C1300FF3F0000FF9F7F00A5290000A56752007F1F00007F4F3F004C1300004C2F26002609000026171300FF000000FF7F7F00A5000000A55252007F0000007F3F3F004C0000004C2626002600000026131300FF00
310
3F00FF7F9F00A5002900A55267007F001F007F3F4F004C0013004C262F002600090026131700FF007F00FF7FBF00A5005200A5527C007F003F007F3F5F004C0026004C2639002600130026131C00FF00BF00FF7FDF00A5007C00A55291007F005F007F3F6F004C0039004C26420026001C0026132100FF00FF00FF7FFF00A5
310
00A500A552A5007F007F007F3F7F004C004C004C264C002600260026132600BF00FF00DF7FFF007C00A5009152A5005F007F006F3F7F0039004C0042264C001C002600211326007F00FF00BF7FFF005200A5007C52A5003F007F005F3F7F0026004C0039264C00130026001C1326003F00FF009F7FFF002900A5006752A500
310
1F007F004F3F7F0013004C002F264C000900260017132600000000002D2D2D005B5B5B0089898900B7B7B700B3B3B30000000000000000000000000000000000000000000000000000000000000000000000000000000000000000000000000000000000000000000000000000000000000000000000000000000000000000
310
00000000000000000000000000000007070000000000000000000000000000000000000000000000000000000000000000000000000000000000000000000000000000000000000000000000000000000000000000000000000000000000000000000000000000000000000000000000000000000000000000000000000000
310
00000000000000000000000000000000000000000000000000000000000000000000000000000000000000000000000000000000000000000000000000000000000000000707000000000000000000000000000000000000000000000000000000000000000000000000000000000000000000000000000000000000000000
310
00000000000000000000000000000000000000000000000000000000000000000000000000000000000000000000000000000000000000000000000000000000000000000000000000000000000000000000000000000000000000000000000000000000000000000000000000000000000000000000000000070700000000
310
00000000000000000000000000000000000000000000000000000000000000000000000000000000000000000000000000000000000000000000000000000000000000000000000000000000000000000000000000000000000000000000000000000000000000000000000000000000000000000000000000000000000000
310
00000000000000000000000000000000000000000000000000000000000000000000000000000000000000000000000707000000000000000000000000000000000000000000000000000000000000000000000000000000000000000000000000000000000000000000000000000000000000000000000000000000000000
310
00000000000000000000000000000000000000000000000000000000000000000000000000000000000000000000000000000000000000000000000000000000000000000000000000000000000000000000000000000000000000000000000000000000070700000000000000000000000000000000000000000000000000
310
00000000000000000000000000000000000000000000000000000000000000000000000000000000000000000000000000000000000000000000000000000000000000000000000000000000000000000000000000000000000000000000000000000000000000000000000000000000000000000000000000000000000000
310
00000000000000000000000000000000000000000007070700000707000007070700000000000000000000000000000000000000000000000000000000000000000000000000000000000000000000000000000000000000000000000000000000000000000000000000000000000000000000000000000000000000000000
310
00000000000000000000000000000000000000000000000000000000000000000000000000000000000000000000000000000000000000000000000000000000000000000000000000070707070707070707070707070707070700000000000000000000000000000000000000000000000000000000000000000000000000
310
00000000000000000000000000000000000000000000000000000000000000000000000000000000000000000000000000000000000000000000000000000000000000000000000000000000000000000000000000000000000000000000000000000000000000000000000000000000000000000000000000000007070707
310
00000000070707070000000007000007000000000000000000000000000000000000000000000000000000000000000000000000000000000000000000000000000000000000000000000000000000000000000000000000000000000000000000000000000000000000000000000000000000000000000000000000000000
310
00000000000000000000000000000000000000000000000000000000000000000000000000000000000000000000000007000707070000000007070707000000000700000700000000000000000000000000000000000000000000000000000000000000000000000000000000000000000000000000000000000000000000
310
00000000000000000000000000000000000000000000000000000000000000000000000000000000000000000000000000000000000000000000000000000000000000000000000000000000000000000000000000000000000000000000000000000000000707070007070707070707070707070707070707070000000000
310
00000000000000000000000000000000000000000000000000000000000000000000000000000000000000000000000000000000000000000000000000000000000000000000000000000000000000000000000000000000000000000000000000000000000000000000000000000000000000000000000000000000000000
310
00000000000000000000000000000000000000000000000000000007070000000000000000000000000000000000000000000000000000000000000000000000000000000000000000000000000000000000000000000000000000000000000000000000000000000000000000000000000000000000000000000000000000
310
00000000000000000000000000000000000000000000000000000000000000000000000000000000000000000000000000000000000000000000000000000000000000000000000000000000000000000707070000000000000000000000000000000000000000000000000000000000000000000000000000000000000000
310
00000000000000000000000000000000000000000000000000000000000000000000000000000000000000000000000000000000000000000000000000000000000000000000000000000000000000000000000000000000000000000000000000000000000000000000000000000000000000000000000000000000000000
310
00000000000707070700000000000000000000000000000000000000000000000000000000000000000000000000000000000000000000000000000000000000000000000000000000000000000000000000000000000000000000000000000000000000000000000000000000000000000000000000000000000000000000
310
00000000000000000000000000000000000000000000000000000000000000000000000000000000000000000000000000000000000000000000070707070000000000000000000000000000000000000000000000000000000000000000000000000000000000000000000000000000000000000000000000000000000000
310
00000000000000000000000000000000000000000000000000000000000000000000000000000000000000000000000000000000000000000000000000000000000000000000000000000000000000000000000000000000000000000000000000000000000000000000000000000007070707000000000000000000000000
310
00000000000000000000000000000000000000000000000000000000000000000000000000000000000000000000000000000000000000000000000000000000000000000000000000000000000000000000000000000000000000000000000000000000000000000000000000000000000000000000000000000000000000
310
00000000000000000000000000000000000000000000000000000000000000000000000700000707000000000000000000000000000000000000000000000000000000000000000000000000000000000000000000000000000000000000000000000000000000000000000000000000000000000000000000000000000000
310
00000000000000000000000000000000000000000000000000000000000000000000000000000000000000000000000000000000000000000000000000000000000000000000000000000000000000000000000000000000070700070700000000000000000000000000000000000000000000000000000000000000000000
310
00000000000000000000000000000000000000000000000000000000000000000000000000000000000000000000000000000000000000000000000000000000000000000000000000000000000000000000000000000000000000000000000000000000000000000000000000000000000000000000000000000000000000
310
00000000000000000000000000000707000707000000000000000000000000000000000000000000000000000000000000000000000000000000000000000000000000000000000000000000000000000000000000000000000000000000000000000000000000000000000000000000000000000000000000000000000000
310
00000000000000000000000000000000000000000000000000000000000000000000000000000000000000000000000000000000000000000000000000000000000000070707070707000000000000000000000000000000000000000000000000000000000000000000000000000000000000000000000000000000000000
310
00000000000000000000000000000000000000000000000000000000000000000000000000000000000000000000000000000000000000000000000000000000000000000000000000000000000000000000000000000000000000000000000000000000000000000000000000000000000000000000000007000700000700
310
00000000000000000000000000000000000000000000000000000000000000000000000000000000000000000000000000000000000000000000000000000000000000000000000000000000000000000000000000000000000000000000000000000000000000000000000000000000000000000000000000000000000000
310
00000000000000000000000000000000000000000000000000000000000000000000000000000000000000000000070707070007000000000000000000000000000000000000000000000000000000000000000000000000000000000000000000000000000000000000000000000000000000000000000000000000000000
310
00000000000000000000000000000000000000000000000000000000000000000000000000000000000000000000000000000000000000000000000000000000000000000000000000000000000000000000000000000000000000000000000000000707070007070700000000000000000000000000000000000000000000
310
00000000000000000000000000000000000000000000000000000000000000000000000000000000000000000000000000000000000000000000000000000000000000000000000000000000000000000000000000000000000000000000000000000000000000000000000000000000000000000000000000000000000000
310
00000000000000000000000000000000000000000000000007000700070700000000000000000000000000000000000000000000000000000000000000000000000000000000000000000000000000000000000000000000000000000000000000000000000000000000000000000000000000000000000000000000000000
310
00000000000000000000000000000000000000000000000000000000000000000000000000000000000000000000000000000000000000000000000000000000000000000000000000000000000700070007070000000000000000000000000000000000000000000000000000000000000000000000000000000000000000
310
00000000000000000000000000000000000000000000000000000000000000000000000000000000000000000000000000000000000000000000000000000000000000000000000000000000000000000000000000000000000000000000000000000000000000000000000000000000000000000000000000000000000000
310
00000007000700070700000000000000000000000000000000000000000000000000000000000000000000000000000000000000000000000000000000000000000000000000000000000000000000000000000000000000000000000000000000000000000000000000000000000000000000000000000000000000000000
310
00000000000000000000000000000000000000000000000000000000000000000000000000000000000000000000000000000000000000000700070007070000000000000000000000000000000000000000000000000000000000000000000000000000000000000000000000000000000000000000000000000000000000
310
00000000000000000000000000000000000000000000000000000000000000000000000000000000000000000000000000000000000000000000000000000000000000000000000000000000000000000000000000000000000000000000000000000000000000000000000000070007000707000000000000000000000000
310
00000000000000000000000000000000000000000000000000000000000000000000000000000000000000000000000000000000000000000000000000000000000000000000000000000000000000000000000000000000000000000000000000000000000000000000000000000000000000000000000000000000000000
310
00000000000000000000000000000000000000000000000000000000000000000000000700070007070000000000000000000000000000000000000000000000000000000000000000000000000000000000000000000000000000000000000000000000000000000000000000000000000000000000000000000000000000
310
00000000000000000000000000000000000000000000000000000000000000000000000000000000000000000000000000000000000000000000000000000000000000000000000000000000000000000000000000000000070007000707000000000000000000000000000000000000000000000000000000000000000000
310
00000000000000000000000000000000000000000000000000000000000000000000000000000000000000000000000000000000000000000000000000000000000000000000000000000000000000000000000000000000000000000000000000000000000000000000000000000000000000000000000000000000000000
310
00000000000000000000000707000700070007070000000000000000000000000000000000000000000000000000000000000000000000000000000000000000000000000000000000000000000000000000000000000000000000000000000000000000000000000000000000000000000000000000000000000000000000
310
00000000000000000000000000000000000000000000000000000000000000000000000000000000000000000000000000000000000000000000000000000000070007070007000707000000000000000000000000000000000000000000000000000000000000000000000000000000000000000000000000000000000000
310
00000000000000000000000000000000000000000000000000000000000000000000000000000000000000000000000000000000000000000000000000000000000000000000000000000000000000000000000000000000000000000000000000000000000000000000000000000000000000000007000000000700070700
310
00000000000000000000000000000000000000000000000000000000000000000000000000000000000000000000000000000000000000000000000000000000000000000000000000000000000000000000000000000000000000000000000000000000000000000000000000000000000000000000000000000000000000
310
00000000000000000000000000000000000000000000000000000000000000000000000000000000000000070000000707000707000000000000000000000000000000000000000000000000000000000000000000000000000000000000000000000000000000000000000000000000000000000000000000000000000000
310
00000000000000000000000000000000000000000000000000000000000000000000000000000000000000000000000000000000000000000000000000000000000000000000000000000000000000000000000000000000000000000000000007000707070000070700000000000000000000000000000000000000000000
310
00000000000000000000000000000000000000000000000000000000000000000000000000000000000000000000000000000000000000000000000000000000000000000000000000000000000000000000000000000000000000000000000000000000000000000000000000000000000000000000000000000000000000
310
00000000000000000000000000000000000000000000070700000000000707000000000000000000000000000000000000000000000000000000000000000000000000000000000000000000000000000000000000000000000000000000000000000000000000000000000000000000000000000000000000000000000000
310
00000000000000000000000000000000000000000000000000000000000000000000000000000000000000000000000000000000000000000000000000000000000000000000000000000000000000000000070700000000000000000000000000000000000000000000000000000000000000000000000000000000000000
310
00000000000000000000000000000000000000000000000000000000000000000000000000000000000000000000000000000000000000000000000000000000000000000000000000000000000000000000000000000000000000000000000000000000000000000000000000000000000000000000000000000000000000
310
00000000000000000707000000000000000000000000000000000000000000000000000000000000000000000000000000000000000000000000000000000000000000000000000000000000000000000000000000000000000000000000000000000000000000000000000000000000000000000000000000000000000000
310
00000000000000000000000000000000000000000000000000000000000000000000000000000000000000000000000000000000000000000000000000070700000000000000000000000000000000000000000000000000000000000000000000000000000000000000000000000000000000000000000000000000000000
310
00000000000000000000000000000000000000000000000000000000000000000000000000000000000000000000000000000000000000000000000000000000000000000000000000000000000000000000000000000000000000000000000000000000000000000000000000000000000007070000000000000000000000
310
00000000000000000000000000000000000000000000000000000000000000000000000000000000000000000000000000000000000000000000000000000000000000000000000000000000000000000000000000000000000000000000000000000000000000000000000000000000000000000000000000000000000000
310
00000000000000000000000000000000000000000000000000000000000000000000000000000000070700000000000000000000000000000000000000000000000000000000000000000000000000000000000000000000000000000000000000000000000000000000000000000000000000000000000000000000000000
310
00000000000000000000000000000000000000000000000000000000000000000000000000000000000000000000000000000000000000000000000000000000000000000000000000000000000000000000000000000000000000000007070000000000000000000000000000000000000000000000000000000000000000
310
00000000000000000000000000000000000000000000000000000000000000000000000000000000000000000000000000000000000000000000000000000000000000000000000000000000000000000000000000000000000000000000000000000000000000000000000000000000000000000000000000000000000000
310
00000000000000000000000000000000000000070700000000000000000000000000000000000000000000000000000000000000000000000000000000000000000000000000000000000000000000000000000000000000000000000000000000000000000000000000000000000000000000000000000000000000000000
310
00000000000000000000000000000000000000000000000000000000000000000000000000000000000000000000000000000000000000000000000000000000000000000000000007070000000000000000000000000000000000000000000000000000000000000000000000000000000000000000000000000000000000
310
00000000000000000000000000000000000000000000000000000000000000000000000000000000000000000000000000000000000000000000000000000000000000000000000000000000000000000000000000000000000000000000000000000000000000000000000000000000000000000000000000000000000707
310
00000000000000000000000000000000000000000000000000000000000000000000000000000000000000000000000000000000000000000000000000000000000000000000000000000000000000000000000000000000000000000000000000000000000000000000000000000000000000000000000000000000000000
310
00000000000000000000000000000000000000000000000000000000000000000000000000000000000000000000000000000007070700000000000000000000000000000000000000000000000000000000000000000000000000000000000000000000000000000000000000000000000000000000000000000000000000
310
00000000000000000000000000000000000000000000000000000000000000000000000000000000000000000000000000000000000000000000000000000000000000000000000000000000000000000000000000000000000000000000000000000000000000000700070000000000000000000000000000000000000000
310
00000000000000000000000000000000000000000000000000000000000000000000000000000000000000000000000000000000000000000000000000000000000000000000000000000000000000000000000000000000000000000000000000000000000000000000000000000000000000000000000000000000000000
310
00000000000000000000000000000000000000000000000000000000000007000700000000000000000000000000000000000000000000000000000000000000000000000000000000000000000000000000000000000000000000000000000000000000000000000000000000000000000000000000000000000000000000
310
00000000000000000000000000000000000000000000000000000000000000000000000000000000000000000000000000000000000000000000000000000000000000000000000000000000000000000000000707070000000000000000000000000000000000000000000000000000000000000000000000000000000000
310
00000000000000000000000000000000000000000000000000000000000000000000000000000000000000000000000000000000000000000000000000000000000000000000000000000000000000000000000000000000000000000000000000000000000000000000000000000000000000000000000000000000000000
310
00000000000000000007070000000000000000000000000000000000000000000000000000000000000000000000000000000000000000000000000000000000000000000000000000000000000000000000000000000000000000000000000000000000000000000000000000000000000000000000000000000000000000
310
00000000000000000000000000000000000000000000000000000000000000000000000000000000000000000000000000000000000000000000000000000707000000000000000000000000000000000000000000000000000000000000000000000000000000000000000000000000000000000000000000000000000000
310
00000000000000000000000000000000000000000000000000000000000000000000000000000000000000000000000000000000000000000000000000000000000000000000000000000000000000000000000000000000000000000000000000000000000000000000000000000000000000070700000000000000000000
310
00000000000000000000000000000000000000000000000000000000000000000000000000000000000000000000000000000000000000000000000000000000000000000000000000000000000000000000000000000000000000000000000000000000000000000000000000000000000000000000000000000000000000
310
00000000000000000000000000000000000000000000000000000000000000000000000000000000000707000000000000000000000000000000000000000000000000000000000000000000000000000000000000000000000000000000000000000000000000000000000000000000000000000000000000000000000000
310
00000000000000000000000000000000000000000000000000000000000000000000000000000000000000000000000000000000000000000000000000000000000000000000000000000000000000000000000000000000000000000000070700000000000000000000000000000000000000000000000000000000000000
310
00000000000000000000000000000000000000000000000000000000000000000000000000000000000000000000000000000000000000000000000000000000000000000000000000000000000000000000000000000000000000000000000000000000000000000000000000000000000000000000000000000000000000
310
00000000000000000000000000000000000000000707000000000000000000000000000000000000000000000000000000000000000000000000000000000000000000000000000000000000000000000000000000000000000000000000000000000000000000000000000000000000000000000000000000000000000000
310
00000000000000000000000000000000000000000000000000000000000000000000000000000000000000000000000000000000000000000000000000000000000000000000000000070700000000000000000000000000000000000000000000000000000000000000000000000000000000000000000000000000000000
310
00000000000000000000000000000000000000000000000000000000000000000000000000000000000000000000000000000000000000000000000000000000000000000000000000000000000000000000000000000000000000000000000000000000000000000000000000000000000000000000000000000000000007
310
07000000000000000000000000000000000000000000000000000000000000000000000000000000000000000000000000000000000000000000000000000000000000000000000000000000000000000000000000000000000000000000000000000000000000000000000000000000000000000000000000000000000000
310
00000000000000000000000000000000000000000000000000000000000000000000000000000000000000000000000000000007070707000000000000000000000000000000000000000000000000000000000000000000000000000000000000000000000000000000000000000000000000000000000000000000000000
310
00000000000000000000000000000000000000000000000000000000000000000000000000000000000000000000000000000000000000000000000000000000000000000000000000000000000000000000000000000000000000000000000000000000000000000707000700000000000000000000000000000000000000
310
00000000000000000000000000000000000000000000000000000000000000000000000000000000000000000000000000000000000000000000000000000000000000000000000000000000000000000000000000000000000000000000000000000000000000000000000000000000000000000000000000000000000000
310
00000000000000000000000000000000000000000000000000000000000007070007000000000000000000000000000000000000000000000000000000000000000000000000000000000000000000000000000000000000000000000000000000000000000000000000000000000000000000000000000000000000000000
310
00000000000000000000000000000000000000000000000000000000000000000000000000000000000000000000000000000000000000000000000000000000000000000000000000000000000000000000000707070700000000000000000000000000000000000000000000000000000000000000000000000000000000
310
00000000000000000000000000000000000000000000000000000000000000000000000000000000000000000000000000000000000000000000000000000000000000000000000000000000000000000000000000000000000000000000000000000000000000000000000000000000000000000000000000000000000000
310
00000000000000000000070700000000000000000000000000000000000000000000000000000000000000000000000000000000000000000000000000000000000000000000000000000000000000000000000000000000000000000000000000000000000000000000000000000000000000000000000000000000000000
310
00000000000000000000000000000000000000000000000000000000000000000000000000000000000000000000000000000000000000000000000000000007070000000000000000000000000000000000000000000000000000000000000000000000000000000000000000000000000000000000000000000000000000
310
00000000000000000000000000000000000000000000000000000000000000000000000000000000000000000000000000000000000000000000000000000000000000000000000000000000000000000000000000000000000000000000000000000000000000000000000000000000000000000707000000000000000000
310
00000000000000000000000000000000000000000000000000000000000000000000000000000000000000000000000000000000000000000000000000000000000000000000000000000000000000000000000000000000000000000000000000000000000000000000000000000000000000000000000000000000000000
310
00000000000000000000000000000000000000000000000000000000000000000000000000000000000007070000000000000000000000000000000000000000000000000000000000000000000000000000000000000000000000000000000000000000000000000000000000000000000000000000000000000000000000
310
00000000000000000000000000000000000000000000000000000000000000000000000000000000000000000000000000000000000000000000000000000000000000000000000000000000000000000000000000000000000000000000000707000000000000000000000000000000000000000000000000000000000000
310
00000000000000000000000000000000000000000000000000000000000000000000000000000000000000000000000000000000000000000000000000000000000000000000000000000000000000000000000000000000000000000000000000000000000000000000000000000000000000000000000000000000000000
310
00000000000000000000000000000000000000000007070000000000000000000000000000000000000000000000000000000000000000000000000000000000000000000000000000000000000000000000000000000000000000000000000000000000000000000000000000000000000000000000000000000000000000
310
00000000000000000000000000000000000000000000000000000000000000000000000000000000000000000000000000000000000000000000000000000000000000000000000000000707000000000000000000000000000000000000000000000000000000000000000000000000000000000000000000000000000000
310
00000000000000000000000000000000000000000000000000000000000000000000000000000000000000000000000000000000000000000000000000000000000000000000000000000000000000000000000000000000000000000000000000000000000000000000000000000000000000000000000000000000000000
310
07070000000000000000000000000000000000000000000000000000000000000000000000000000000000000000000000000000000000000000000000000000000000000000000000000000000000000000000000000000000000000000000000000000000000000000000000000000000000000000000000000000000000
310
00000000000000000000000000000000000000000000000000000000000000000000000000000000000000000007070707070707070707070707070707070700000000000000000000000000000000000000000000000000000000000000000000000000000000000000000000000000000000000000000000000000000000
310
00000000000000000000000000000000000000000000000000000000000000000000000000000000000000000000000000000000000000000000000000000000000000000000000000000000000000000000000000000000000000000000000000000007000000000000000000000000000007000000000000000000000000
310
00000000000000000000000000000000000000000000000000000000000000000000000000000000000000000000000000000000000000000000000000000000000000000000000000000000000000000000000000000000000000000000000000000000000000000000000000000000000000000000000000000000000000
310
00000000000000000000000000000000000000000000000000000700000000000000000000000007000000000000000000000000000000000000000000000000000000000000000000000000000000000000000000000000000000000000000000000000000000000000000000000000000000000000000000000000000000
310
00000000000000000000000000000000000000000000000000000000000000000000000000000000000000000000000000000000000000000000000000000000000000000000000000000000000000000700000000000000000000070000000000000000000000000000000000000000000000000000000000000000000000
310
00000000000000000000000000000000000000000000000000000000000000000000000000000000000000000000000000000000000000000000000000000000000000000000000000000000000000000000000000000000000000000000000000000000000000000000000000000000000000000000000000000000000000
310
00000000000007000000000000000000070000000000000000000000000000000000000000000000000000000000000000000000000000000000000000000000000000000000000000000000000000000000000000000000000000000000000000000000000000000000000000000000000000000000000000000000000000
310
00000000000000000000000000000000000000000000000000000000000000000000000000000000000000000000000000000000000000000000000007000000000000000007000000000000000000000000000000000000000000000000000000000000000000000000000000000000000000000000000000000000000000
310
00000000000000000000000000000000000000000000000000000000000000000000000000000000000000000000000000000000000000000000000000000000000000000000000000000000000000000000000000000000000000000000000000000000000000000000000000000000000007000000000000070000000000
310
00000000000000000000000000000000000000000000000000000000000000000000000000000000000000000000000000000000000000000000000000000000000000000000000000000000000000000000000000000000000000000000000000000000000000000000000000000000000000000000000000000000000000
310
00000000000000000000000000000000000000000000000000000000000000000000000000000000000700000000070000000000000000000000000000000000000000000000000000000000000000000000000000000000000000000000000000000000000000000000000000000000000000000000000000000000000000
310
00000000000000000000000000000000000000000000000000000000000000000000000000000000000000000000000000000000000000000000000000000000000000000000000000000000000000000000000000000000000000000000000700000700000000000000000000000000000000000000000000000000000000
310
00000000000000000000000000000000000000000000000000000000000000000000000000000000000000000000000000000000000000000000000000000000000000000000000000000000000000000000000000000000000000000000000000000000000000000000000000000000000000000000000000000000000000
310
00000000000000000000000000000000000000000000070707000000000000000000000000000000000000000000000000000000000000000000000000000000000000000000000000000000000000000000000000000000000000000000000000000000000000000000000000000000000000000000000000000000000000
310
00000000000000000000000000000000000000000000000000000000000000000000000000000000000000000000000000000000000000000000000000000000000000000000000000000007000700000000000000000000000000000000000000000000000000000000000000000000000000000000000000000000000000
310
00000000000000000000000000000000000000000000000000000000000000000000000000000000000000000000000000000000000000000000000000000000000000000000000000000000000000000000000000000000000000000000000000000000000000000000000000000000000000000000000000000000000000
310
00070707000000000000000000000000000000000000000000000000000000000000000000000000000000000000000000000000000000000000000000000000000000000000000000000000000000000000000000000000000000000000000000000000000000000000000000000000000000000000000000000000000000
310
00000000000000000000000000000000000000000000000000000000000000000000000000000000000000000000000000000000000007070000000000000000000000000000000000000000000000000000000000000000000000000000000000000000000000000000000000000000000000000000000000000000000000
310
00000000000000000000000000000000000000000000000000000000000000000000000000000000000000000000000000000000000000000000000000000000000000000000000000000000000000000000000000000000000000000000000000000000000000000000000707000000000000000000000000000000000000
310
00000000000000000000000000000000000000000000000000000000000000000000000000000000000000000000000000000000000000000000000000000000000000000000000000000000000000000000000000000000000000000000000000000000000000000000000000000000000000000000000000000000000000
310
00000000000000000000000000000000000000000000000000000000000000000007070000000000000000000000000000000000000000000000000000000000000000000000000000000000000000000000000000000000000000000000000000000000000000000000000000000000000000000000000000000000000000
310
00000000000000000000000000000000000000000000000000000000000000000000000000000000000000000000000000000000000000000000000000000000000000000000000000000000000000000000000000000707000000000000000000000000000000000000000000000000000000000000000000000000000000
310
00000000000000000000000000000000000000000000000000000000000000000000000000000000000000000000000000000000000000000000000000000000000000000000000000000000000000000000000000000000000000000000000000000000000000000000000000000000000000000000000000000000000000
310
000000000000000000000000000000000000000000000000000000000000000000000000000000000000000000000000000000000000000000000000000000000000000000000000000000000000000000000000000000000000000000000000000000000000000000000000
  0
ENDSEC
  0
EOF
