  0
SECTION
  2
HEADER
  9
$ACADVER
  1
AC1014
  9
$ACADMAINTVER
 70
     9
  9
$DWGCODEPAGE
  3
ANSI_1252
  9
$INSBASE
 10
0.0
 20
0.0
 30
0.0
  9
$EXTMIN
 10
0.0
 20
-0.0000000000000448
 30
0.0
  9
$EXTMAX
 10
1820.0
 20
870.0
 30
0.0
  9
$LIMMIN
 10
0.0
 20
0.0
  9
$LIMMAX
 10
12.0
 20
9.0
  9
$ORTHOMODE
 70
     0
  9
$REGENMODE
 70
     1
  9
$FILLMODE
 70
     1
  9
$QTEXTMODE
 70
     0
  9
$MIRRTEXT
 70
     1
  9
$DRAGMODE
 70
     2
  9
$LTSCALE
 40
1.0
  9
$OSMODE
 70
    37
  9
$ATTMODE
 70
     1
  9
$TEXTSIZE
 40
0.2
  9
$TRACEWID
 40
0.05
  9
$TEXTSTYLE
  7
STANDARD
  9
$CLAYER
  8
0
  9
$CELTYPE
  6
CONTINUOUS
  9
$CECOLOR
 62
   256
  9
$CELTSCALE
 40
1.0
  9
$DELOBJ
 70
     1
  9
$DISPSILH
 70
     0
  9
$DIMSCALE
 40
1.0
  9
$DIMASZ
 40
0.18
  9
$DIMEXO
 40
0.0625
  9
$DIMDLI
 40
0.38
  9
$DIMRND
 40
0.0
  9
$DIMDLE
 40
0.0
  9
$DIMEXE
 40
0.18
  9
$DIMTP
 40
0.0
  9
$DIMTM
 40
0.0
  9
$DIMTXT
 40
0.18
  9
$DIMCEN
 40
0.09
  9
$DIMTSZ
 40
0.0
  9
$DIMTOL
 70
     0
  9
$DIMLIM
 70
     0
  9
$DIMTIH
 70
     1
  9
$DIMTOH
 70
     1
  9
$DIMSE1
 70
     0
  9
$DIMSE2
 70
     0
  9
$DIMTAD
 70
     0
  9
$DIMZIN
 70
     0
  9
$DIMBLK
  1

  9
$DIMASO
 70
     1
  9
$DIMSHO
 70
     1
  9
$DIMPOST
  1

  9
$DIMAPOST
  1

  9
$DIMALT
 70
     0
  9
$DIMALTD
 70
     2
  9
$DIMALTF
 40
25.4
  9
$DIMLFAC
 40
1.0
  9
$DIMTOFL
 70
     0
  9
$DIMTVP
 40
0.0
  9
$DIMTIX
 70
     0
  9
$DIMSOXD
 70
     0
  9
$DIMSAH
 70
     0
  9
$DIMBLK1
  1

  9
$DIMBLK2
  1

  9
$DIMSTYLE
  2
STANDARD
  9
$DIMCLRD
 70
     0
  9
$DIMCLRE
 70
     0
  9
$DIMCLRT
 70
     0
  9
$DIMTFAC
 40
1.0
  9
$DIMGAP
 40
0.09
  9
$DIMJUST
 70
     0
  9
$DIMSD1
 70
     0
  9
$DIMSD2
 70
     0
  9
$DIMTOLJ
 70
     1
  9
$DIMTZIN
 70
     0
  9
$DIMALTZ
 70
     0
  9
$DIMALTTZ
 70
     0
  9
$DIMFIT
 70
     3
  9
$DIMUPT
 70
     0
  9
$DIMUNIT
 70
     2
  9
$DIMDEC
 70
     4
  9
$DIMTDEC
 70
     4
  9
$DIMALTU
 70
     2
  9
$DIMALTTD
 70
     2
  9
$DIMTXSTY
  7
STANDARD
  9
$DIMAUNIT
 70
     0
  9
$LUNITS
 70
     2
  9
$LUPREC
 70
     4
  9
$SKETCHINC
 40
0.1
  9
$FILLETRAD
 40
0.0
  9
$AUNITS
 70
     0
  9
$AUPREC
 70
     0
  9
$MENU
  1
.
  9
$ELEVATION
 40
0.0
  9
$PELEVATION
 40
0.0
  9
$THICKNESS
 40
0.0
  9
$LIMCHECK
 70
     0
  9
$BLIPMODE
 70
     0
  9
$CHAMFERA
 40
0.0
  9
$CHAMFERB
 40
0.0
  9
$CHAMFERC
 40
0.0
  9
$CHAMFERD
 40
0.0
  9
$SKPOLY
 70
     0
  9
$TDCREATE
 40
2455235.769641018
  9
$TDUPDATE
 40
2455235.826221423
  9
$TDINDWG
 40
0.0565805787
  9
$TDUSRTIMER
 40
0.0565805787
  9
$USRTIMER
 70
     1
  9
$ANGBASE
 50
0.0
  9
$ANGDIR
 70
     0
  9
$PDMODE
 70
     0
  9
$PDSIZE
 40
0.0
  9
$PLINEWID
 40
0.0
  9
$COORDS
 70
     1
  9
$SPLFRAME
 70
     0
  9
$SPLINETYPE
 70
     6
  9
$SPLINESEGS
 70
     8
  9
$ATTDIA
 70
     0
  9
$ATTREQ
 70
     1
  9
$HANDLING
 70
 22529
  9
$HANDSEED
  5
1C7
  9
$SURFTAB1
 70
     6
  9
$SURFTAB2
 70
     6
  9
$SURFTYPE
 70
     6
  9
$SURFU
 70
     6
  9
$SURFV
 70
     6
  9
$UCSNAME
  2

  9
$UCSORG
 10
0.0
 20
0.0
 30
0.0
  9
$UCSXDIR
 10
1.0
 20
0.0
 30
0.0
  9
$UCSYDIR
 10
0.0
 20
1.0
 30
0.0
  9
$PUCSNAME
  2

  9
$PUCSORG
 10
0.0
 20
0.0
 30
0.0
  9
$PUCSXDIR
 10
1.0
 20
0.0
 30
0.0
  9
$PUCSYDIR
 10
0.0
 20
1.0
 30
0.0
  9
$USERI1
 70
     0
  9
$USERI2
 70
     0
  9
$USERI3
 70
     0
  9
$USERI4
 70
     0
  9
$USERI5
 70
     0
  9
$USERR1
 40
0.0
  9
$USERR2
 40
0.0
  9
$USERR3
 40
0.0
  9
$USERR4
 40
0.0
  9
$USERR5
 40
0.0
  9
$WORLDVIEW
 70
     1
  9
$SHADEDGE
 70
     3
  9
$SHADEDIF
 70
    70
  9
$TILEMODE
 70
     1
  9
$MAXACTVP
 70
    64
  9
$PINSBASE
 10
0.0
 20
0.0
 30
0.0
  9
$PLIMCHECK
 70
     0
  9
$PEXTMIN
 10
1.000000000000000E+20
 20
1.000000000000000E+20
 30
1.000000000000000E+20
  9
$PEXTMAX
 10
-1.000000000000000E+20
 20
-1.000000000000000E+20
 30
-1.000000000000000E+20
  9
$PLIMMIN
 10
0.0
 20
0.0
  9
$PLIMMAX
 10
12.0
 20
9.0
  9
$UNITMODE
 70
     0
  9
$VISRETAIN
 70
     1
  9
$PLINEGEN
 70
     0
  9
$PSLTSCALE
 70
     1
  9
$TREEDEPTH
 70
  3020
  9
$PICKSTYLE
 70
     1
  9
$CMLSTYLE
  2
STANDARD
  9
$CMLJUST
 70
     0
  9
$CMLSCALE
 40
1.0
  9
$PROXYGRAPHICS
 70
     1
  9
$MEASUREMENT
 70
     0
  0
ENDSEC
  0
SECTION
  2
CLASSES
  0
CLASS
  1
ACDBDICTIONARYWDFLT
  2
AcDbDictionaryWithDefault
  3
AutoCAD 2000
 90
        0
280
     0
281
     0
  0
CLASS
  1
ACDBPLACEHOLDER
  2
AcDbPlaceHolder
  3
AutoCAD 2000
 90
        0
280
     0
281
     0
  0
CLASS
  1
LAYOUT
  2
AcDbLayout
  3
AutoCAD 2000
 90
        0
280
     0
281
     0
  0
CLASS
  1
DICTIONARYVAR
  2
AcDbDictionaryVar
  3
AutoCAD 2000
 90
        0
280
     0
281
     0
  0
CLASS
  1
LONG_TRANSACTION
  2
AcDbLongTransaction
  3
AutoCAD 2000
 90
        0
280
     0
281
     0
  0
CLASS
  1
LWPOLYLINE
  2
AcDbPolyline
  3
AutoCAD 2000
 90
        0
280
     0
281
     1
  0
CLASS
  1
HATCH
  2
AcDbHatch
  3
AutoCAD 2000
 90
        0
280
     0
281
     1
  0
CLASS
  1
XRECORD
  2
AcDbXrecord
  3
AutoCAD 2000
 90
        0
280
     0
281
     0
  0
ENDSEC
  0
SECTION
  2
TABLES
  0
TABLE
  2
VPORT
  5
8
330
0
100
AcDbSymbolTable
 70
     3
  0
VPORT
  5
1A2
330
8
100
AcDbSymbolTableRecord
100
AcDbViewportTableRecord
  2
*ACTIVE
 70
     0
 10
0.0
 20
0.0
 11
1.0
 21
1.0
 12
910.0
 22
434.9999999999999
 13
0.0
 23
0.0
 14
1.0
 24
1.0
 15
0.0
 25
0.0
 16
0.0
 26
0.0
 36
1.0
 17
0.0
 27
0.0
 37
0.0
 40
894.3164286782726
 41
2.041621029572836
 42
50.0
 43
0.0
 44
0.0
 50
0.0
 51
0.0
 71
     0
 72
   100
 73
     1
 74
     3
 75
     0
 76
     0
 77
     0
 78
     0
  0
ENDTAB
  0
TABLE
  2
LTYPE
  5
5
330
0
100
AcDbSymbolTable
 70
     1
  0
LTYPE
  5
13
330
5
100
AcDbSymbolTableRecord
100
AcDbLinetypeTableRecord
  2
BYBLOCK
 70
     0
  3

 72
    65
 73
     0
 40
0.0
  0
LTYPE
  5
14
330
5
100
AcDbSymbolTableRecord
100
AcDbLinetypeTableRecord
  2
BYLAYER
 70
     0
  3

 72
    65
 73
     0
 40
0.0
  0
LTYPE
  5
15
330
5
100
AcDbSymbolTableRecord
100
AcDbLinetypeTableRecord
  2
CONTINUOUS
 70
     0
  3
Solid line
 72
    65
 73
     0
 40
0.0
  0
ENDTAB
  0
TABLE
  2
LAYER
  5
2
330
0
100
AcDbSymbolTable
 70
     1
  0
LAYER
  5
10
330
2
100
AcDbSymbolTableRecord
100
AcDbLayerTableRecord
  2
0
 70
     0
 62
     7
  6
CONTINUOUS
  0
ENDTAB
  0
TABLE
  2
STYLE
  5
3
330
0
100
AcDbSymbolTable
 70
     1
  0
STYLE
  5
11
330
3
100
AcDbSymbolTableRecord
100
AcDbTextStyleTableRecord
  2
STANDARD
 70
     0
 40
0.0
 41
1.0
 50
0.0
 71
     0
 42
0.2
  3
txt
  4

  0
ENDTAB
  0
TABLE
  2
VIEW
  5
6
330
0
100
AcDbSymbolTable
 70
     0
  0
ENDTAB
  0
TABLE
  2
UCS
  5
7
330
0
100
AcDbSymbolTable
 70
     0
  0
ENDTAB
  0
TABLE
  2
APPID
  5
9
330
0
100
AcDbSymbolTable
 70
     1
  0
APPID
  5
12
330
9
100
AcDbSymbolTableRecord
100
AcDbRegAppTableRecord
  2
ACAD
 70
     0
  0
ENDTAB
  0
TABLE
  2
DIMSTYLE
  5
A
330
0
100
AcDbSymbolTable
 70
     1
  0
DIMSTYLE
105
199
330
A
100
AcDbSymbolTableRecord
100
AcDbDimStyleTableRecord
  2
STANDARD
 70
     0
  3

  4

  5

  6

  7

 40
1.0
 41
0.18
 42
0.0625
 43
0.38
 44
0.18
 45
0.0
 46
0.0
 47
0.0
 48
0.0
140
0.18
141
0.09
142
0.0
143
25.4
144
1.0
145
0.0
146
1.0
147
0.09
 71
     0
 72
     0
 73
     1
 74
     1
 75
     0
 76
     0
 77
     0
 78
     0
170
     0
171
     2
172
     0
173
     0
174
     0
175
     0
176
     0
177
     0
178
     0
270
     2
271
     4
272
     4
273
     2
274
     2
340
11
275
     0
280
     0
281
     0
282
     0
283
     1
284
     0
285
     0
286
     0
287
     3
288
     0
  0
ENDTAB
  0
TABLE
  2
BLOCK_RECORD
  5
1
330
0
100
AcDbSymbolTable
 70
     0
  0
BLOCK_RECORD
  5
1E
102
{ACAD_XDICTIONARY
360
1C5
102
}
330
1
100
AcDbSymbolTableRecord
100
AcDbBlockTableRecord
  2
*MODEL_SPACE
  0
BLOCK_RECORD
  5
1A
102
{ACAD_XDICTIONARY
360
1C3
102
}
330
1
100
AcDbSymbolTableRecord
100
AcDbBlockTableRecord
  2
*PAPER_SPACE
  0
ENDTAB
  0
ENDSEC
  0
SECTION
  2
BLOCKS
  0
BLOCK
  5
1F
330
1E
100
AcDbEntity
  8
0
100
AcDbBlockBegin
  2
*MODEL_SPACE
 70
     0
 10
0.0
 20
0.0
 30
0.0
  3
*MODEL_SPACE
  1

  0
ENDBLK
  5
20
330
1E
100
AcDbEntity
  8
0
100
AcDbBlockEnd
  0
BLOCK
  5
1B
330
1A
100
AcDbEntity
 67
     1
  8
0
100
AcDbBlockBegin
  2
*PAPER_SPACE
 70
     0
 10
0.0
 20
0.0
 30
0.0
  3
*PAPER_SPACE
  1

  0
ENDBLK
  5
1C
330
1A
100
AcDbEntity
 67
     1
  8
0
100
AcDbBlockEnd
  0
ENDSEC
  0
SECTION
  2
ENTITIES
  0
LINE
  5
22
330
1E
100
AcDbEntity
  8
0
100
AcDbLine
 10
337.0369999999999
 20
-0.0000000000000268
 30
0.0
 11
339.5249999999999
 21
-0.0000000000000286
 31
0.0
  0
LINE
  5
23
330
1E
100
AcDbEntity
  8
0
100
AcDbLine
 10
337.0369999999999
 20
-0.0000000000000241
 30
0.0
 11
337.0369999999999
 21
110.3809999999999
 31
0.0
  0
LINE
  5
24
330
1E
100
AcDbEntity
  8
0
100
AcDbLine
 10
337.0369999999999
 20
-0.0000000000000219
 30
0.0
 11
339.5249999999999
 21
-0.0000000000000201
 31
0.0
  0
LINE
  5
25
330
1E
100
AcDbEntity
  8
0
100
AcDbLine
 10
8.47259
 20
869.172
 30
0.0
 11
18.37959999999999
 21
866.548
 31
0.0
  0
LINE
  5
26
330
1E
100
AcDbEntity
  8
0
100
AcDbLine
 10
8.47259
 20
869.172
 30
0.0
 11
18.37959999999999
 21
866.548
 31
0.0
  0
LINE
  5
28
330
1E
100
AcDbEntity
  8
0
100
AcDbLine
 10
22.1338
 20
852.941
 30
0.0
 11
52.3162
 21
822.8369999999999
 31
0.0
  0
LINE
  5
29
330
1E
100
AcDbEntity
  8
0
100
AcDbLine
 10
28.0717
 20
864.3889999999998
 30
0.0
 11
55.6858
 21
855.901
 31
0.0
  0
LINE
  5
2A
330
1E
100
AcDbEntity
  8
0
100
AcDbLine
 10
204.234
 20
589.0309999999999
 30
0.0
 11
244.4779999999999
 21
510.761
 31
0.0
  0
LINE
  5
2B
330
1E
100
AcDbEntity
  8
0
100
AcDbLine
 10
139.8449999999999
 20
702.422
 30
0.0
 11
158.961
 21
672.318
 31
0.0
  0
LINE
  5
2C
330
1E
100
AcDbEntity
  8
0
100
AcDbLine
 10
117.711
 20
732.526
 30
0.0
 11
139.8449999999999
 21
702.422
 31
0.0
  0
LINE
  5
2D
330
1E
100
AcDbEntity
  8
0
100
AcDbLine
 10
177.0699999999999
 20
642.215
 30
0.0
 11
194.174
 21
612.1109999999999
 31
0.0
  0
LINE
  5
2E
330
1E
100
AcDbEntity
  8
0
100
AcDbLine
 10
158.961
 20
672.318
 30
0.0
 11
177.0699999999999
 21
642.215
 31
0.0
  0
LINE
  5
2F
330
1E
100
AcDbEntity
  8
0
100
AcDbLine
 10
194.174
 20
612.1109999999999
 30
0.0
 11
204.234
 21
589.0309999999999
 31
0.0
  0
LINE
  5
30
330
1E
100
AcDbEntity
  8
0
100
AcDbLine
 10
273.654
 20
431.488
 30
0.0
 11
298.8059999999999
 21
340.173
 31
0.0
  0
LINE
  5
31
330
1E
100
AcDbEntity
  8
0
100
AcDbLine
 10
254.519
 20
748.2029999999999
 30
0.0
 11
293.567
 21
727.9099999999999
 31
0.0
  0
LINE
  5
32
330
1E
100
AcDbEntity
  8
0
100
AcDbLine
 10
298.8059999999999
 20
340.173
 30
0.0
 11
321.9459999999999
 21
235.813
 31
0.0
  0
LINE
  5
33
330
1E
100
AcDbEntity
  8
0
100
AcDbLine
 10
321.9459999999999
 20
235.813
 30
0.0
 11
337.0369999999999
 21
117.405
 31
0.0
  0
LINE
  5
34
330
1E
100
AcDbEntity
  8
0
100
AcDbLine
 10
293.567
 20
727.9099999999999
 30
0.0
 11
339.298
 21
708.11
 31
0.0
  0
LINE
  5
37
330
1E
100
AcDbEntity
  8
0
100
AcDbLine
 10
76.4621
 20
792.7339999999999
 30
0.0
 11
97.58980000000001
 21
762.63
 31
0.0
  0
LINE
  5
38
330
1E
100
AcDbEntity
  8
0
100
AcDbLine
 10
52.3162
 20
822.8369999999999
 30
0.0
 11
76.4621
 21
792.7339999999999
 31
0.0
  0
LINE
  5
39
330
1E
100
AcDbEntity
  8
0
100
AcDbLine
 10
97.58980000000001
 20
762.63
 30
0.0
 11
117.711
 21
732.526
 31
0.0
  0
LINE
  5
3A
330
1E
100
AcDbEntity
  8
0
100
AcDbLine
 10
99.89449999999999
 20
836.1629999999999
 30
0.0
 11
134.1049999999999
 21
816.8519999999999
 31
0.0
  0
LINE
  5
3B
330
1E
100
AcDbEntity
  8
0
100
AcDbLine
 10
55.6858
 20
855.901
 30
0.0
 11
70.1733
 21
851.285
 31
0.0
  0
LINE
  5
3C
330
1E
100
AcDbEntity
  8
0
100
AcDbLine
 10
70.1733
 20
851.285
 30
0.0
 11
99.89449999999999
 21
836.1629999999999
 31
0.0
  0
LINE
  5
3E
330
1E
100
AcDbEntity
  8
0
100
AcDbLine
 10
174.352
 20
793.574
 30
0.0
 11
214.298
 21
771.002
 31
0.0
  0
LINE
  5
3F
330
1E
100
AcDbEntity
  8
0
100
AcDbLine
 10
174.352
 20
793.574
 30
0.0
 11
214.298
 21
771.002
 31
0.0
  0
LINE
  5
40
330
1E
100
AcDbEntity
  8
0
100
AcDbLine
 10
214.298
 20
771.002
 30
0.0
 11
254.519
 21
748.2029999999999
 31
0.0
  0
LINE
  5
42
330
1E
100
AcDbEntity
  8
0
100
AcDbLine
 10
134.1049999999999
 20
816.8519999999999
 30
0.0
 11
174.352
 21
793.574
 31
0.0
  0
LINE
  5
47
330
1E
100
AcDbEntity
  8
0
100
AcDbLine
 10
18.37959999999999
 20
866.548
 30
0.0
 11
28.0717
 21
864.3889999999998
 31
0.0
  0
LINE
  5
4A
330
1E
100
AcDbEntity
  8
0
100
AcDbLine
 10
5.0304
 20
870.0
 30
0.0
 11
8.47259
 21
869.172
 31
0.0
  0
LINE
  5
4D
330
1E
100
AcDbEntity
  8
0
100
AcDbLine
 10
0.0
 20
870.0
 30
0.0
 11
5.0304
 21
870.0
 31
0.0
  0
LINE
  5
4E
330
1E
100
AcDbEntity
  8
0
100
AcDbLine
 10
0.0
 20
870.0
 30
0.0
 11
22.1338
 21
852.941
 31
0.0
  0
LINE
  5
50
330
1E
100
AcDbEntity
  8
0
100
AcDbLine
 10
337.0369999999999
 20
117.405
 30
0.0
 11
337.0369999999999
 21
110.3809999999999
 31
0.0
  0
LINE
  5
51
330
1E
100
AcDbEntity
  8
0
100
AcDbLine
 10
337.0369999999999
 20
110.3809999999999
 30
0.0
 11
1694.869999999999
 21
110.3809999999999
 31
0.0
  0
LINE
  5
52
330
1E
100
AcDbEntity
  8
0
100
AcDbLine
 10
337.0369999999999
 20
110.3809999999999
 30
0.0
 11
337.0369999999999
 21
117.405
 31
0.0
  0
LINE
  5
54
330
1E
100
AcDbEntity
  8
0
100
AcDbLine
 10
337.0369999999999
 20
110.3809999999999
 30
0.0
 11
337.0369999999999
 21
-0.0000000000000241
 31
0.0
  0
LINE
  5
57
330
1E
100
AcDbEntity
  8
0
100
AcDbLine
 10
1062.03
 20
-0.0000000000000448
 30
0.0
 11
1115.74
 21
-0.0000000000000448
 31
0.0
  0
LINE
  5
58
330
1E
100
AcDbEntity
  8
0
100
AcDbLine
 10
1115.74
 20
-0.0000000000000448
 30
0.0
 11
1175.47
 21
-0.0000000000000448
 31
0.0
  0
LINE
  5
59
330
1E
100
AcDbEntity
  8
0
100
AcDbLine
 10
1175.47
 20
-0.0000000000000448
 30
0.0
 11
1218.84
 21
-0.0000000000000447
 31
0.0
  0
LINE
  5
5A
330
1E
100
AcDbEntity
  8
0
100
AcDbLine
 10
1218.84
 20
-0.0000000000000447
 30
0.0
 11
1259.29
 21
-0.0000000000000447
 31
0.0
  0
LINE
  5
5B
330
1E
100
AcDbEntity
  8
0
100
AcDbLine
 10
1259.29
 20
-0.0000000000000447
 30
0.0
 11
1314.51
 21
-0.0000000000000446
 31
0.0
  0
LINE
  5
5C
330
1E
100
AcDbEntity
  8
0
100
AcDbLine
 10
1008.31
 20
-0.0000000000000448
 30
0.0
 11
1062.03
 21
-0.0000000000000448
 31
0.0
  0
LINE
  5
5D
330
1E
100
AcDbEntity
  8
0
100
AcDbLine
 10
944.9389999999999
 20
-0.0000000000000447
 30
0.0
 11
1008.31
 21
-0.0000000000000448
 31
0.0
  0
LINE
  5
5E
330
1E
100
AcDbEntity
  8
0
100
AcDbLine
 10
1314.51
 20
-0.0000000000000446
 30
0.0
 11
1369.75
 21
-0.0000000000000444
 31
0.0
  0
LINE
  5
5F
330
1E
100
AcDbEntity
  8
0
100
AcDbLine
 10
1369.75
 20
-0.0000000000000444
 30
0.0
 11
1417.92
 21
-0.0000000000000442
 31
0.0
  0
LINE
  5
60
330
1E
100
AcDbEntity
  8
0
100
AcDbLine
 10
1417.92
 20
-0.0000000000000442
 30
0.0
 11
1465.71
 21
-0.0000000000000439
 31
0.0
  0
LINE
  5
61
330
1E
100
AcDbEntity
  8
0
100
AcDbLine
 10
881.567
 20
-0.0000000000000446
 30
0.0
 11
944.9389999999999
 21
-0.0000000000000447
 31
0.0
  0
LINE
  5
62
330
1E
100
AcDbEntity
  8
0
100
AcDbLine
 10
824.886
 20
-0.0000000000000444
 30
0.0
 11
881.567
 21
-0.0000000000000446
 31
0.0
  0
LINE
  5
63
330
1E
100
AcDbEntity
  8
0
100
AcDbLine
 10
1465.71
 20
-0.0000000000000439
 30
0.0
 11
1506.45
 21
-0.0000000000000436
 31
0.0
  0
LINE
  5
64
330
1E
100
AcDbEntity
  8
0
100
AcDbLine
 10
1506.45
 20
-0.0000000000000436
 30
0.0
 11
1540.52
 21
-0.0000000000000433
 31
0.0
  0
LINE
  5
65
330
1E
100
AcDbEntity
  8
0
100
AcDbLine
 10
768.203
 20
-0.0000000000000442
 30
0.0
 11
824.886
 21
-0.0000000000000444
 31
0.0
  0
LINE
  5
66
330
1E
100
AcDbEntity
  8
0
100
AcDbLine
 10
699.7180000000001
 20
-0.0000000000000439
 30
0.0
 11
768.203
 21
-0.0000000000000442
 31
0.0
  0
LINE
  5
67
330
1E
100
AcDbEntity
  8
0
100
AcDbLine
 10
1540.52
 20
-0.0000000000000433
 30
0.0
 11
1571.609999999999
 21
-0.0000000000000427
 31
0.0
  0
LINE
  5
68
330
1E
100
AcDbEntity
  8
0
100
AcDbLine
 10
647.355
 20
-0.0000000000000436
 30
0.0
 11
699.7180000000001
 21
-0.0000000000000439
 31
0.0
  0
LINE
  5
69
330
1E
100
AcDbEntity
  8
0
100
AcDbLine
 10
610.972
 20
-0.0000000000000433
 30
0.0
 11
647.355
 21
-0.0000000000000436
 31
0.0
  0
LINE
  5
6A
330
1E
100
AcDbEntity
  8
0
100
AcDbLine
 10
1571.609999999999
 20
-0.0000000000000427
 30
0.0
 11
1592.13
 21
-0.0000000000000422
 31
0.0
  0
LINE
  5
6B
330
1E
100
AcDbEntity
  8
0
100
AcDbLine
 10
1592.13
 20
-0.0000000000000422
 30
0.0
 11
1614.59
 21
-0.0000000000000416
 31
0.0
  0
LINE
  5
6C
330
1E
100
AcDbEntity
  8
0
100
AcDbLine
 10
575.302
 20
-0.0000000000000429
 30
0.0
 11
610.972
 21
-0.0000000000000433
 31
0.0
  0
LINE
  5
6D
330
1E
100
AcDbEntity
  8
0
100
AcDbLine
 10
545.696
 20
-0.0000000000000425
 30
0.0
 11
575.302
 21
-0.0000000000000429
 31
0.0
  0
LINE
  5
6E
330
1E
100
AcDbEntity
  8
0
100
AcDbLine
 10
1614.59
 20
-0.0000000000000416
 30
0.0
 11
1635.94
 21
-0.0000000000000409
 31
0.0
  0
LINE
  5
6F
330
1E
100
AcDbEntity
  8
0
100
AcDbLine
 10
1635.94
 20
-0.0000000000000409
 30
0.0
 11
1653.4
 21
-0.0000000000000402
 31
0.0
  0
LINE
  5
70
330
1E
100
AcDbEntity
  8
0
100
AcDbLine
 10
514.306
 20
-0.0000000000000419
 30
0.0
 11
545.696
 21
-0.0000000000000425
 31
0.0
  0
LINE
  5
71
330
1E
100
AcDbEntity
  8
0
100
AcDbLine
 10
485.414
 20
-0.0000000000000413
 30
0.0
 11
514.306
 21
-0.0000000000000419
 31
0.0
  0
LINE
  5
72
330
1E
100
AcDbEntity
  8
0
100
AcDbLine
 10
1653.4
 20
-0.0000000000000402
 30
0.0
 11
1667.55
 21
-0.0000000000000396
 31
0.0
  0
LINE
  5
73
330
1E
100
AcDbEntity
  8
0
100
AcDbLine
 10
1667.55
 20
-0.0000000000000396
 30
0.0
 11
1674.48
 21
-0.0000000000000391
 31
0.0
  0
LINE
  5
74
330
1E
100
AcDbEntity
  8
0
100
AcDbLine
 10
1674.48
 20
-0.0000000000000391
 30
0.0
 11
1683.07
 21
-0.0000000000000383
 31
0.0
  0
LINE
  5
75
330
1E
100
AcDbEntity
  8
0
100
AcDbLine
 10
459.018
 20
-0.0000000000000405
 30
0.0
 11
485.414
 21
-0.0000000000000413
 31
0.0
  0
LINE
  5
76
330
1E
100
AcDbEntity
  8
0
100
AcDbLine
 10
437.973
 20
-0.0000000000000398
 30
0.0
 11
459.018
 21
-0.0000000000000405
 31
0.0
  0
LINE
  5
77
330
1E
100
AcDbEntity
  8
0
100
AcDbLine
 10
1683.07
 20
-0.0000000000000383
 30
0.0
 11
1687.23
 21
-0.0000000000000376
 31
0.0
  0
LINE
  5
78
330
1E
100
AcDbEntity
  8
0
100
AcDbLine
 10
1687.23
 20
-0.0000000000000376
 30
0.0
 11
1690.0
 21
-0.0000000000000367
 31
0.0
  0
LINE
  5
79
330
1E
100
AcDbEntity
  8
0
100
AcDbLine
 10
1690.0
 20
-0.0000000000000367
 30
0.0
 11
1692.78
 21
-0.0000000000000356
 31
0.0
  0
LINE
  5
7A
330
1E
100
AcDbEntity
  8
0
100
AcDbLine
 10
417.285
 20
-0.0000000000000388
 30
0.0
 11
437.973
 21
-0.0000000000000398
 31
0.0
  0
LINE
  5
7B
330
1E
100
AcDbEntity
  8
0
100
AcDbLine
 10
398.7369999999999
 20
-0.0000000000000377
 30
0.0
 11
417.285
 21
-0.0000000000000388
 31
0.0
  0
LINE
  5
7C
330
1E
100
AcDbEntity
  8
0
100
AcDbLine
 10
1692.78
 20
-0.0000000000000356
 30
0.0
 11
1694.709999999999
 21
-0.0000000000000343
 31
0.0
  0
LINE
  5
7D
330
1E
100
AcDbEntity
  8
0
100
AcDbLine
 10
1694.709999999999
 20
-0.0000000000000343
 30
0.0
 11
1697.49
 21
-0.0000000000000317
 31
0.0
  0
LINE
  5
7E
330
1E
100
AcDbEntity
  8
0
100
AcDbLine
 10
381.615
 20
-0.0000000000000363
 30
0.0
 11
398.7369999999999
 21
-0.0000000000000377
 31
0.0
  0
LINE
  5
7F
330
1E
100
AcDbEntity
  8
0
100
AcDbLine
 10
370.2009999999999
 20
-0.0000000000000352
 30
0.0
 11
381.615
 21
-0.0000000000000363
 31
0.0
  0
LINE
  5
80
330
1E
100
AcDbEntity
  8
0
100
AcDbLine
 10
1697.49
 20
-0.0000000000000317
 30
0.0
 11
1697.77
 21
-0.0000000000000286
 31
0.0
  0
LINE
  5
81
330
1E
100
AcDbEntity
  8
0
100
AcDbLine
 10
359.5
 20
-0.000000000000034
 30
0.0
 11
370.2009999999999
 21
-0.0000000000000352
 31
0.0
  0
LINE
  5
82
330
1E
100
AcDbEntity
  8
0
100
AcDbLine
 10
351.296
 20
-0.0000000000000324
 30
0.0
 11
359.5
 21
-0.000000000000034
 31
0.0
  0
LINE
  5
84
330
1E
100
AcDbEntity
  8
0
100
AcDbLine
 10
1697.77
 20
-0.0000000000000286
 30
0.0
 11
1698.109999999999
 21
-0.0000000000000243
 31
0.0
  0
LINE
  5
85
330
1E
100
AcDbEntity
  8
0
100
AcDbLine
 10
346.4809999999999
 20
-0.000000000000031
 30
0.0
 11
351.296
 21
-0.0000000000000324
 31
0.0
  0
LINE
  5
86
330
1E
100
AcDbEntity
  8
0
100
AcDbLine
 10
339.5249999999999
 20
-0.0000000000000286
 30
0.0
 11
346.4809999999999
 21
-0.000000000000031
 31
0.0
  0
LINE
  5
87
330
1E
100
AcDbEntity
  8
0
100
AcDbLine
 10
1697.77
 20
-0.0000000000000201
 30
0.0
 11
1698.109999999999
 21
-0.0000000000000243
 31
0.0
  0
LINE
  5
89
330
1E
100
AcDbEntity
  8
0
100
AcDbLine
 10
339.298
 20
708.11
 30
0.0
 11
386.221
 21
688.063
 31
0.0
  0
LINE
  5
8E
330
1E
100
AcDbEntity
  8
0
100
AcDbLine
 10
1697.49
 20
-0.0000000000000169
 30
0.0
 11
1697.77
 21
-0.0000000000000201
 31
0.0
  0
LINE
  5
93
330
1E
100
AcDbEntity
  8
0
100
AcDbLine
 10
1694.709999999999
 20
-0.0000000000000144
 30
0.0
 11
1697.49
 21
-0.0000000000000169
 31
0.0
  0
LINE
  5
97
330
1E
100
AcDbEntity
  8
0
100
AcDbLine
 10
1692.78
 20
-0.0000000000000131
 30
0.0
 11
1694.709999999999
 21
-0.0000000000000144
 31
0.0
  0
LINE
  5
9A
330
1E
100
AcDbEntity
  8
0
100
AcDbLine
 10
1687.23
 20
-0.0000000000000111
 30
0.0
 11
1690.0
 21
-0.0000000000000119
 31
0.0
  0
LINE
  5
9B
330
1E
100
AcDbEntity
  8
0
100
AcDbLine
 10
1690.0
 20
-0.0000000000000119
 30
0.0
 11
1692.78
 21
-0.0000000000000131
 31
0.0
  0
LINE
  5
9C
330
1E
100
AcDbEntity
  8
0
100
AcDbLine
 10
386.221
 20
688.063
 30
0.0
 11
433.6211581636409
 21
668.461510370268
 31
0.0
  0
LINE
  5
9F
330
1E
100
AcDbEntity
  8
0
100
AcDbLine
 10
1683.07
 20
-0.0000000000000104
 30
0.0
 11
1687.23
 21
-0.0000000000000111
 31
0.0
  0
LINE
  5
A3
330
1E
100
AcDbEntity
  8
0
100
AcDbLine
 10
1667.55
 20
-0.0000000000000091
 30
0.0
 11
1674.48
 21
-0.0000000000000096
 31
0.0
  0
LINE
  5
A4
330
1E
100
AcDbEntity
  8
0
100
AcDbLine
 10
1674.48
 20
-0.0000000000000096
 30
0.0
 11
1683.07
 21
-0.0000000000000104
 31
0.0
  0
LINE
  5
A5
330
1E
100
AcDbEntity
  8
0
100
AcDbLine
 10
433.621158163642
 20
668.4615103702675
 30
0.0
 11
461.2449999999999
 21
660.053
 31
0.0
  0
LINE
  5
A8
330
1E
100
AcDbEntity
  8
0
100
AcDbLine
 10
1653.4
 20
-0.0000000000000084
 30
0.0
 11
1667.55
 21
-0.0000000000000091
 31
0.0
  0
LINE
  5
AC
330
1E
100
AcDbEntity
  8
0
100
AcDbLine
 10
1635.94
 20
-0.0000000000000077
 30
0.0
 11
1653.4
 21
-0.0000000000000084
 31
0.0
  0
LINE
  5
AD
330
1E
100
AcDbEntity
  8
0
100
AcDbLine
 10
475.7319999999999
 20
655.437
 30
0.0
 11
512.568271436828
 21
643.398597342134
 31
0.0
  0
LINE
  5
AE
330
1E
100
AcDbEntity
  8
0
100
AcDbLine
 10
475.7319999999999
 20
655.437
 30
0.0
 11
475.7319999999999
 21
655.437
 31
0.0
  0
LINE
  5
AF
330
1E
100
AcDbEntity
  8
0
100
AcDbLine
 10
461.2449999999999
 20
660.053
 30
0.0
 11
475.7319999999999
 21
655.437
 31
0.0
  0
LINE
  5
B2
330
1E
100
AcDbEntity
  8
0
100
AcDbLine
 10
1614.59
 20
-0.000000000000007
 30
0.0
 11
1635.94
 21
-0.0000000000000077
 31
0.0
  0
LINE
  5
B3
330
1E
100
AcDbEntity
  8
0
100
AcDbLine
 10
512.568271436828
 20
643.398597342134
 30
0.0
 11
557.458
 21
634.983
 31
0.0
  0
LINE
  5
B7
330
1E
100
AcDbEntity
  8
0
100
AcDbLine
 10
1592.13
 20
-0.0000000000000065
 30
0.0
 11
1614.59
 21
-0.000000000000007
 31
0.0
  0
LINE
  5
BA
330
1E
100
AcDbEntity
  8
0
100
AcDbLine
 10
1571.609999999999
 20
-0.0000000000000059
 30
0.0
 11
1592.13
 21
-0.0000000000000065
 31
0.0
  0
LINE
  5
BB
330
1E
100
AcDbEntity
  8
0
100
AcDbLine
 10
557.458
 20
634.983
 30
0.0
 11
619.208
 21
623.105
 31
0.0
  0
LINE
  5
BF
330
1E
100
AcDbEntity
  8
0
100
AcDbLine
 10
1540.52
 20
-0.0000000000000054
 30
0.0
 11
1571.609999999999
 21
-0.0000000000000059
 31
0.0
  0
LINE
  5
C2
330
1E
100
AcDbEntity
  8
0
100
AcDbLine
 10
619.208
 20
623.105
 30
0.0
 11
709.113
 21
611.254
 31
0.0
  0
LINE
  5
C6
330
1E
100
AcDbEntity
  8
0
100
AcDbLine
 10
1506.45
 20
-0.0000000000000051
 30
0.0
 11
1540.52
 21
-0.0000000000000054
 31
0.0
  0
LINE
  5
C9
330
1E
100
AcDbEntity
  8
0
100
AcDbLine
 10
1465.71
 20
-0.0000000000000047
 30
0.0
 11
1506.45
 21
-0.0000000000000051
 31
0.0
  0
LINE
  5
CA
330
1E
100
AcDbEntity
  8
0
100
AcDbLine
 10
709.113
 20
611.254
 30
0.0
 11
776.936
 21
606.341
 31
0.0
  0
LINE
  5
CE
330
1E
100
AcDbEntity
  8
0
100
AcDbLine
 10
1369.75
 20
-0.0000000000000043
 30
0.0
 11
1417.92
 21
-0.0000000000000044
 31
0.0
  0
LINE
  5
CF
330
1E
100
AcDbEntity
  8
0
100
AcDbLine
 10
1417.92
 20
-0.0000000000000044
 30
0.0
 11
1465.71
 21
-0.0000000000000047
 31
0.0
  0
LINE
  5
D0
330
1E
100
AcDbEntity
  8
0
100
AcDbLine
 10
776.936
 20
606.341
 30
0.0
 11
844.5619999999999
 21
601.23
 31
0.0
  0
LINE
  5
D4
330
1E
100
AcDbEntity
  8
0
100
AcDbLine
 10
1314.51
 20
-0.0000000000000041
 30
0.0
 11
1369.75
 21
-0.0000000000000043
 31
0.0
  0
LINE
  5
D5
330
1E
100
AcDbEntity
  8
0
100
AcDbLine
 10
844.5619999999999
 20
601.23
 30
0.0
 11
919.958
 21
599.066
 31
0.0
  0
LINE
  5
D9
330
1E
100
AcDbEntity
  8
0
100
AcDbLine
 10
1259.29
 20
-0.000000000000004
 30
0.0
 11
1314.51
 21
-0.0000000000000041
 31
0.0
  0
LINE
  5
DA
330
1E
100
AcDbEntity
  8
0
100
AcDbLine
 10
919.958
 20
599.066
 30
0.0
 11
989.4339999999999
 21
599.066
 31
0.0
  0
LINE
  5
DD
330
1E
100
AcDbEntity
  8
0
100
AcDbLine
 10
1115.74
 20
-0.0000000000000039
 30
0.0
 11
1175.47
 21
-0.0000000000000039
 31
0.0
  0
LINE
  5
DE
330
1E
100
AcDbEntity
  8
0
100
AcDbLine
 10
1175.47
 20
-0.0000000000000039
 30
0.0
 11
1218.84
 21
-0.0000000000000039
 31
0.0
  0
LINE
  5
DF
330
1E
100
AcDbEntity
  8
0
100
AcDbLine
 10
1218.84
 20
-0.0000000000000039
 30
0.0
 11
1259.29
 21
-0.000000000000004
 31
0.0
  0
LINE
  5
E0
330
1E
100
AcDbEntity
  8
0
100
AcDbLine
 10
1062.03
 20
-0.0000000000000039
 30
0.0
 11
1115.74
 21
-0.0000000000000039
 31
0.0
  0
LINE
  5
E1
330
1E
100
AcDbEntity
  8
0
100
AcDbLine
 10
989.4339999999999
 20
599.066
 30
0.0
 11
1052.59
 21
599.066
 31
0.0
  0
LINE
  5
116
330
1E
100
AcDbEntity
  8
0
100
AcDbLine
 10
1057.619999999999
 20
599.066
 30
0.0
 11
1115.74
 21
598.9259999999999
 31
0.0
  0
LINE
  5
117
330
1E
100
AcDbEntity
  8
0
100
AcDbLine
 10
1052.59
 20
599.066
 30
0.0
 11
1115.74
 21
598.9259999999999
 31
0.0
  0
LINE
  5
118
330
1E
100
AcDbEntity
  8
0
100
AcDbLine
 10
1052.59
 20
599.066
 30
0.0
 11
1057.619999999999
 21
599.066
 31
0.0
  0
LINE
  5
119
330
1E
100
AcDbEntity
  8
0
100
AcDbLine
 10
1694.869999999999
 20
110.3809999999999
 30
0.0
 11
1696.819999999999
 21
110.3809999999999
 31
0.0
  0
LINE
  5
11A
330
1E
100
AcDbEntity
  8
0
100
AcDbLine
 10
1696.819999999999
 20
110.3809999999999
 30
0.0
 11
1699.6
 21
110.3809999999999
 31
0.0
  0
LINE
  5
11B
330
1E
100
AcDbEntity
  8
0
100
AcDbLine
 10
1700.13
 20
110.3809999999999
 30
0.0
 11
1700.369999999999
 21
117.8379999999999
 31
0.0
  0
LINE
  5
11C
330
1E
100
AcDbEntity
  8
0
100
AcDbLine
 10
1699.6
 20
110.3809999999999
 30
0.0
 11
1699.78
 21
110.3809999999999
 31
0.0
  0
LINE
  5
12F
330
1E
100
AcDbEntity
  8
0
100
AcDbLine
 10
1115.74
 20
598.9259999999999
 30
0.0
 11
1182.09
 21
599.1399999999999
 31
0.0
  0
LINE
  5
130
330
1E
100
AcDbEntity
  8
0
100
AcDbLine
 10
1182.09
 20
599.1399999999999
 30
0.0
 11
1231.69
 21
599.361
 31
0.0
  0
LINE
  5
131
330
1E
100
AcDbEntity
  8
0
100
AcDbLine
 10
1278.45
 20
599.728
 30
0.0
 11
1342.64
 21
600.41
 31
0.0
  0
LINE
  5
132
330
1E
100
AcDbEntity
  8
0
100
AcDbLine
 10
1231.69
 20
599.361
 30
0.0
 11
1279.32
 21
599.6369999999999
 31
0.0
  0
LINE
  5
133
330
1E
100
AcDbEntity
  8
0
100
AcDbLine
 10
1231.69
 20
599.361
 30
0.0
 11
1278.45
 21
599.728
 31
0.0
  0
LINE
  5
134
330
1E
100
AcDbEntity
  8
0
100
AcDbLine
 10
1279.32
 20
599.6369999999999
 30
0.0
 11
1342.64
 21
600.41
 31
0.0
  0
LINE
  5
135
330
1E
100
AcDbEntity
  8
0
100
AcDbLine
 10
1342.64
 20
600.41
 30
0.0
 11
1406.46
 21
601.0169999999999
 31
0.0
  0
LINE
  5
136
330
1E
100
AcDbEntity
  8
0
100
AcDbLine
 10
1406.46
 20
601.0169999999999
 30
0.0
 11
1464.32
 21
601.6259999999999
 31
0.0
  0
LINE
  5
137
330
1E
100
AcDbEntity
  8
0
100
AcDbLine
 10
1464.32
 20
601.6259999999999
 30
0.0
 11
1518.79
 21
602.735
 31
0.0
  0
LINE
  5
138
330
1E
100
AcDbEntity
  8
0
100
AcDbLine
 10
1518.79
 20
602.735
 30
0.0
 11
1565.1
 21
606.3969999999999
 31
0.0
  0
LINE
  5
139
330
1E
100
AcDbEntity
  8
0
100
AcDbLine
 10
1565.1
 20
606.3969999999999
 30
0.0
 11
1604.71
 21
613.9619999999999
 31
0.0
  0
LINE
  5
13A
330
1E
100
AcDbEntity
  8
0
100
AcDbLine
 10
1604.71
 20
613.9619999999999
 30
0.0
 11
1640.78
 21
624.446
 31
0.0
  0
LINE
  5
13B
330
1E
100
AcDbEntity
  8
0
100
AcDbLine
 10
1640.78
 20
624.446
 30
0.0
 11
1664.74
 21
633.4169999999999
 31
0.0
  0
LINE
  5
13C
330
1E
100
AcDbEntity
  8
0
100
AcDbLine
 10
1664.74
 20
633.4169999999999
 30
0.0
 11
1695.27
 21
647.1459999999999
 31
0.0
  0
LINE
  5
13E
330
1E
100
AcDbEntity
  8
0
100
AcDbLine
 10
1702.62
 20
235.677
 30
0.0
 11
1707.14
 21
340.409
 31
0.0
  0
LINE
  5
140
330
1E
100
AcDbEntity
  8
0
100
AcDbLine
 10
1695.27
 20
647.1459999999999
 30
0.0
 11
1737.61
 21
674.1139999999999
 31
0.0
  0
LINE
  5
141
330
1E
100
AcDbEntity
  8
0
100
AcDbLine
 10
1707.14
 20
340.409
 30
0.0
 11
1718.43
 21
432.035
 31
0.0
  0
LINE
  5
142
330
1E
100
AcDbEntity
  8
0
100
AcDbLine
 10
1750.919999999999
 20
589.075
 30
0.0
 11
1753.07
 21
589.075
 31
0.0
  0
LINE
  5
143
330
1E
100
AcDbEntity
  8
0
100
AcDbLine
 10
1753.07
 20
589.075
 30
0.0
 11
1756.11
 21
589.075
 31
0.0
  0
LINE
  5
144
330
1E
100
AcDbEntity
  8
0
100
AcDbLine
 10
1737.61
 20
674.1139999999999
 30
0.0
 11
1763.51
 21
685.9689999999999
 31
0.0
  0
LINE
  5
145
330
1E
100
AcDbEntity
  8
0
100
AcDbLine
 10
1750.55
 20
590.6369999999999
 30
0.0
 11
1751.549999999999
 21
595.1349999999999
 31
0.0
  0
LINE
  5
146
330
1E
100
AcDbEntity
  8
0
100
AcDbLine
 10
1750.55
 20
590.6369999999999
 30
0.0
 11
1750.919999999999
 21
589.075
 31
0.0
  0
LINE
  5
147
330
1E
100
AcDbEntity
  8
0
100
AcDbLine
 10
1751.549999999999
 20
595.1349999999999
 30
0.0
 11
1755.31
 21
602.266
 31
0.0
  0
LINE
  5
148
330
1E
100
AcDbEntity
  8
0
100
AcDbLine
 10
1755.31
 20
602.266
 30
0.0
 11
1766.31940471801
 21
623.3690330631909
 31
0.0
  0
LINE
  5
14A
330
1E
100
AcDbEntity
  8
0
100
AcDbLine
 10
1756.11
 20
589.075
 30
0.0
 11
1756.42
 21
589.075
 31
0.0
  0
LINE
  5
14C
330
1E
100
AcDbEntity
  8
0
100
AcDbLine
 10
1766.31940471801
 20
623.3690330631909
 30
0.0
 11
1770.75
 21
630.878
 31
0.0
  0
LINE
  5
14D
330
1E
100
AcDbEntity
  8
0
100
AcDbLine
 10
1770.75
 20
630.878
 30
0.0
 11
1775.619999999999
 21
638.594
 31
0.0
  0
LINE
  5
14E
330
1E
100
AcDbEntity
  8
0
100
AcDbLine
 10
1775.619999999999
 20
638.594
 30
0.0
 11
1778.31
 21
642.433
 31
0.0
  0
LINE
  5
14F
330
1E
100
AcDbEntity
  8
0
100
AcDbLine
 10
1778.31
 20
642.433
 30
0.0
 11
1780.0
 21
643.587
 31
0.0
  0
LINE
  5
150
330
1E
100
AcDbEntity
  8
0
100
AcDbLine
 10
1780.0
 20
643.587
 30
0.0
 11
1782.23
 21
643.587
 31
0.0
  0
LINE
  5
151
330
1E
100
AcDbEntity
  8
0
100
AcDbLine
 10
1782.23
 20
643.587
 30
0.0
 11
1785.43
 21
643.587
 31
0.0
  0
LINE
  5
152
330
1E
100
AcDbEntity
  8
0
100
AcDbLine
 10
1785.43
 20
643.587
 30
0.0
 11
1785.74
 21
643.587
 31
0.0
  0
LINE
  5
153
330
1E
100
AcDbEntity
  8
0
100
AcDbLine
 10
1785.74
 20
643.587
 30
0.0
 11
1786.15
 21
643.587
 31
0.0
  0
LINE
  5
154
330
1E
100
AcDbEntity
  8
0
100
AcDbLine
 10
1763.51
 20
685.9689999999999
 30
0.0
 11
1779.85
 21
689.1869999999999
 31
0.0
  0
LINE
  5
155
330
1E
100
AcDbEntity
  8
0
100
AcDbLine
 10
1779.85
 20
689.1869999999999
 30
0.0
 11
1788.619999999999
 21
689.3769999999999
 31
0.0
  0
LINE
  5
157
330
1E
100
AcDbEntity
  8
0
100
AcDbLine
 10
1788.619999999999
 20
689.3769999999999
 30
0.0
 11
1791.42
 21
689.3769999999999
 31
0.0
  0
LINE
  5
159
330
1E
100
AcDbEntity
  8
0
100
AcDbLine
 10
1791.42
 20
689.3769999999999
 30
0.0
 11
1801.81
 21
689.3769999999999
 31
0.0
  0
LINE
  5
15A
330
1E
100
AcDbEntity
  8
0
100
AcDbLine
 10
1801.81
 20
689.3769999999999
 30
0.0
 11
1806.84
 21
689.3769999999999
 31
0.0
  0
LINE
  5
15B
330
1E
100
AcDbEntity
  8
0
100
AcDbLine
 10
1806.84
 20
689.3769999999999
 30
0.0
 11
1810.2
 21
689.3769999999999
 31
0.0
  0
LINE
  5
15C
330
1E
100
AcDbEntity
  8
0
100
AcDbLine
 10
1810.2
 20
689.3769999999999
 30
0.0
 11
1813.55
 21
689.3769999999999
 31
0.0
  0
LINE
  5
15D
330
1E
100
AcDbEntity
  8
0
100
AcDbLine
 10
1813.55
 20
689.3769999999999
 30
0.0
 11
1815.9
 21
689.3769999999999
 31
0.0
  0
LINE
  5
15E
330
1E
100
AcDbEntity
  8
0
100
AcDbLine
 10
1815.9
 20
689.3769999999999
 30
0.0
 11
1819.259999999999
 21
689.3769999999999
 31
0.0
  0
LINE
  5
15F
330
1E
100
AcDbEntity
  8
0
100
AcDbLine
 10
1819.259999999999
 20
689.3769999999999
 30
0.0
 11
1819.589999999999
 21
689.3769999999999
 31
0.0
  0
LINE
  5
160
330
1E
100
AcDbEntity
  8
0
100
AcDbLine
 10
1819.589999999999
 20
689.3769999999999
 30
0.0
 11
1820.0
 21
689.3769999999999
 31
0.0
  0
LINE
  5
161
330
1E
100
AcDbEntity
  8
0
100
AcDbLine
 10
1797.419999999999
 20
661.0310000000001
 30
0.0
 11
1820.0
 21
689.3769999999999
 31
0.0
  0
LINE
  5
162
330
1E
100
AcDbEntity
  8
0
100
AcDbLine
 10
1786.15
 20
643.587
 30
0.0
 11
1797.419999999999
 21
661.0310000000001
 31
0.0
  0
LINE
  5
163
330
1E
100
AcDbEntity
  8
0
100
AcDbLine
 10
1756.42
 20
589.075
 30
0.0
 11
1756.8
 21
589.075
 31
0.0
  0
LINE
  5
164
330
1E
100
AcDbEntity
  8
0
100
AcDbLine
 10
1734.22
 20
510.5559999999999
 30
0.0
 11
1756.8
 21
589.075
 31
0.0
  0
LINE
  5
165
330
1E
100
AcDbEntity
  8
0
100
AcDbLine
 10
1718.43
 20
432.035
 30
0.0
 11
1734.22
 21
510.5559999999999
 31
0.0
  0
LINE
  5
166
330
1E
100
AcDbEntity
  8
0
100
AcDbLine
 10
1700.369999999999
 20
117.8379999999999
 30
0.0
 11
1702.62
 21
235.677
 31
0.0
  0
LINE
  5
168
330
1E
100
AcDbEntity
  8
0
100
AcDbLine
 10
1699.78
 20
110.3809999999999
 30
0.0
 11
1700.13
 21
110.3809999999999
 31
0.0
  0
LINE
  5
16E
330
1E
100
AcDbEntity
  8
0
100
AcDbLine
 10
1008.31
 20
-0.0000000000000039
 30
0.0
 11
1062.03
 21
-0.0000000000000039
 31
0.0
  0
LINE
  5
170
330
1E
100
AcDbEntity
  8
0
100
AcDbLine
 10
944.9389999999999
 20
-0.000000000000004
 30
0.0
 11
1008.31
 21
-0.0000000000000039
 31
0.0
  0
LINE
  5
172
330
1E
100
AcDbEntity
  8
0
100
AcDbLine
 10
881.567
 20
-0.0000000000000041
 30
0.0
 11
944.9389999999999
 21
-0.000000000000004
 31
0.0
  0
LINE
  5
174
330
1E
100
AcDbEntity
  8
0
100
AcDbLine
 10
824.886
 20
-0.0000000000000043
 30
0.0
 11
881.567
 21
-0.0000000000000041
 31
0.0
  0
LINE
  5
176
330
1E
100
AcDbEntity
  8
0
100
AcDbLine
 10
768.203
 20
-0.0000000000000045
 30
0.0
 11
824.886
 21
-0.0000000000000043
 31
0.0
  0
LINE
  5
178
330
1E
100
AcDbEntity
  8
0
100
AcDbLine
 10
699.7180000000001
 20
-0.0000000000000048
 30
0.0
 11
768.203
 21
-0.0000000000000045
 31
0.0
  0
LINE
  5
17A
330
1E
100
AcDbEntity
  8
0
100
AcDbLine
 10
647.355
 20
-0.0000000000000051
 30
0.0
 11
699.7180000000001
 21
-0.0000000000000048
 31
0.0
  0
LINE
  5
17C
330
1E
100
AcDbEntity
  8
0
100
AcDbLine
 10
610.972
 20
-0.0000000000000054
 30
0.0
 11
647.355
 21
-0.0000000000000051
 31
0.0
  0
LINE
  5
17E
330
1E
100
AcDbEntity
  8
0
100
AcDbLine
 10
575.302
 20
-0.0000000000000057
 30
0.0
 11
610.972
 21
-0.0000000000000054
 31
0.0
  0
LINE
  5
180
330
1E
100
AcDbEntity
  8
0
100
AcDbLine
 10
545.696
 20
-0.0000000000000062
 30
0.0
 11
575.302
 21
-0.0000000000000057
 31
0.0
  0
LINE
  5
182
330
1E
100
AcDbEntity
  8
0
100
AcDbLine
 10
514.306
 20
-0.0000000000000068
 30
0.0
 11
545.696
 21
-0.0000000000000062
 31
0.0
  0
LINE
  5
184
330
1E
100
AcDbEntity
  8
0
100
AcDbLine
 10
485.414
 20
-0.0000000000000074
 30
0.0
 11
514.306
 21
-0.0000000000000068
 31
0.0
  0
LINE
  5
186
330
1E
100
AcDbEntity
  8
0
100
AcDbLine
 10
459.018
 20
-0.0000000000000082
 30
0.0
 11
485.414
 21
-0.0000000000000074
 31
0.0
  0
LINE
  5
188
330
1E
100
AcDbEntity
  8
0
100
AcDbLine
 10
437.973
 20
-0.0000000000000089
 30
0.0
 11
459.018
 21
-0.0000000000000082
 31
0.0
  0
LINE
  5
18A
330
1E
100
AcDbEntity
  8
0
100
AcDbLine
 10
417.285
 20
-0.0000000000000099
 30
0.0
 11
437.973
 21
-0.0000000000000089
 31
0.0
  0
LINE
  5
18C
330
1E
100
AcDbEntity
  8
0
100
AcDbLine
 10
398.7369999999999
 20
-0.000000000000011
 30
0.0
 11
417.285
 21
-0.0000000000000099
 31
0.0
  0
LINE
  5
18E
330
1E
100
AcDbEntity
  8
0
100
AcDbLine
 10
381.615
 20
-0.0000000000000124
 30
0.0
 11
398.7369999999999
 21
-0.000000000000011
 31
0.0
  0
LINE
  5
190
330
1E
100
AcDbEntity
  8
0
100
AcDbLine
 10
370.2009999999999
 20
-0.0000000000000135
 30
0.0
 11
381.615
 21
-0.0000000000000124
 31
0.0
  0
LINE
  5
192
330
1E
100
AcDbEntity
  8
0
100
AcDbLine
 10
359.5
 20
-0.0000000000000147
 30
0.0
 11
370.2009999999999
 21
-0.0000000000000135
 31
0.0
  0
LINE
  5
194
330
1E
100
AcDbEntity
  8
0
100
AcDbLine
 10
351.296
 20
-0.0000000000000163
 30
0.0
 11
359.5
 21
-0.0000000000000147
 31
0.0
  0
LINE
  5
196
330
1E
100
AcDbEntity
  8
0
100
AcDbLine
 10
346.4809999999999
 20
-0.0000000000000177
 30
0.0
 11
351.296
 21
-0.0000000000000163
 31
0.0
  0
LINE
  5
198
330
1E
100
AcDbEntity
  8
0
100
AcDbLine
 10
339.5249999999999
 20
-0.0000000000000201
 30
0.0
 11
346.4809999999999
 21
-0.0000000000000177
 31
0.0
  0
LINE
  5
19D
330
1E
100
AcDbEntity
  8
0
100
AcDbLine
 10
273.654
 20
431.488
 30
0.0
 11
244.4779999999999
 21
510.761
 31
0.0
  0
LINE
  5
19E
330
1E
100
AcDbEntity
  8
0
100
AcDbLine
 10
1700.13
 20
110.3809999999999
 30
0.0
 11
1698.109999999999
 21
-0.0000000000000243
 31
0.0
  0
ENDSEC
  0
SECTION
  2
OBJECTS
  0
DICTIONARY
  5
C
330
0
100
AcDbDictionary
  3
ACAD_GROUP
350
D
  3
ACAD_LAYOUT
350
19
  3
ACAD_MLINESTYLE
350
16
  3
ACAD_PLOTSETTINGS
350
18
  3
ACAD_PLOTSTYLENAME
350
E
  3
ACDBHEADERROUNDTRIPXREC
350
1A3
  3
ACDBVARIABLEDICTIONARY
350
1A0
  0
DICTIONARY
  5
1C5
330
1E
100
AcDbDictionary
280
     1
  3
ACAD_LAYOUTSELFREF
360
1C6
  0
DICTIONARY
  5
1C3
330
1A
100
AcDbDictionary
280
     1
  3
ACAD_LAYOUTSELFREF
360
1C4
  0
DICTIONARY
  5
D
102
{ACAD_REACTORS
330
C
102
}
330
C
100
AcDbDictionary
  0
DICTIONARY
  5
19
102
{ACAD_REACTORS
330
C
102
}
330
C
100
AcDbDictionary
  0
DICTIONARY
  5
16
102
{ACAD_REACTORS
330
C
102
}
330
C
100
AcDbDictionary
  3
STANDARD
350
17
  0
DICTIONARY
  5
18
102
{ACAD_REACTORS
330
C
102
}
330
C
100
AcDbDictionary
  0
ACDBDICTIONARYWDFLT
  5
E
102
{ACAD_REACTORS
330
C
102
}
330
C
100
AcDbDictionary
281
     1
  3
Normal
350
F
100
AcDbDictionaryWithDefault
340
F
  0
DICTIONARY
  5
1A3
102
{ACAD_REACTORS
330
C
102
}
330
C
100
AcDbDictionary
  3
CEPSNTYPE
350
1AD
  3
FINGERPRINTGUID
350
1AE
  3
HYPERLINKBASE
350
1A6
  3
INSUNITS
350
1AC
  3
LAYOUTDICT
350
1A8
  3
LWETCUNION
350
1AB
  3
PLOTSETDICT
350
1A9
  3
PLOTSTYLNAMDICT
350
1AA
  3
PSVPSCALE
350
1B0
  3
PUCSBASE
350
1B3
  3
PUCSORGBACK
350
1B9
  3
PUCSORGBOTTOM
350
1B5
  3
PUCSORGFRONT
350
1B8
  3
PUCSORGLEFT
350
1B6
  3
PUCSORGRIGHT
350
1B7
  3
PUCSORGTOP
350
1B4
  3
PUCSORTHOREF
350
1B1
  3
PUCSORTHOVIEW
350
1B2
  3
STYLESHEET
350
1A7
  3
TSTACKALIGN
350
1A4
  3
TSTACKSIZE
350
1A5
  3
UCSBASE
350
1BC
  3
UCSORGBACK
350
1C2
  3
UCSORGBOTTOM
350
1BE
  3
UCSORGFRONT
350
1C1
  3
UCSORGLEFT
350
1BF
  3
UCSORGRIGHT
350
1C0
  3
UCSORGTOP
350
1BD
  3
UCSORTHOREF
350
1BA
  3
UCSORTHOVIEW
350
1BB
  3
VERSIONGUID
350
1AF
  0
DICTIONARY
  5
1A0
102
{ACAD_REACTORS
330
C
102
}
330
C
100
AcDbDictionary
  3
DIMASSOC
350
1A1
  0
XRECORD
  5
1C6
102
{ACAD_REACTORS
330
1C5
102
}
330
1C5
100
AcDbXrecord
340
1E
  0
XRECORD
  5
1C4
102
{ACAD_REACTORS
330
1C3
102
}
330
1C3
100
AcDbXrecord
340
1A
  0
MLINESTYLE
  5
17
102
{ACAD_REACTORS
330
16
102
}
330
16
100
AcDbMlineStyle
  2
STANDARD
 70
     0
  3

 62
   256
 51
90.0
 52
90.0
 71
     2
 49
0.5
 62
   256
  6
BYLAYER
 49
-0.5
 62
   256
  6
BYLAYER
  0
ACDBPLACEHOLDER
  5
F
102
{ACAD_REACTORS
330
E
102
}
330
E
100
AcDbPlaceHolder
280
     0
  0
XRECORD
  5
1AD
102
{ACAD_REACTORS
330
1A3
102
}
330
1A3
100
AcDbXrecord
 90
        0
  0
XRECORD
  5
1AE
102
{ACAD_REACTORS
330
1A3
102
}
330
1A3
100
AcDbXrecord
  1
{B7C9F263-0A7C-462F-9B2A-472535081844}
  0
XRECORD
  5
1A6
102
{ACAD_REACTORS
330
1A3
102
}
330
1A3
100
AcDbXrecord
  1

  0
XRECORD
  5
1AC
102
{ACAD_REACTORS
330
1A3
102
}
330
1A3
100
AcDbXrecord
 90
        0
  0
XRECORD
  5
1A8
102
{ACAD_REACTORS
330
1A3
102
}
330
1A3
100
AcDbXrecord
340
19
  0
XRECORD
  5
1AB
102
{ACAD_REACTORS
330
1A3
102
}
330
1A3
100
AcDbXrecord
 90
    10781
  0
XRECORD
  5
1A9
102
{ACAD_REACTORS
330
1A3
102
}
330
1A3
100
AcDbXrecord
340
18
  0
XRECORD
  5
1AA
102
{ACAD_REACTORS
330
1A3
102
}
330
1A3
100
AcDbXrecord
340
E
  0
XRECORD
  5
1B0
102
{ACAD_REACTORS
330
1A3
102
}
330
1A3
100
AcDbXrecord
 40
0.0
  0
XRECORD
  5
1B3
102
{ACAD_REACTORS
330
1A3
102
}
330
1A3
100
AcDbXrecord
340
0
  0
XRECORD
  5
1B9
102
{ACAD_REACTORS
330
1A3
102
}
330
1A3
100
AcDbXrecord
 10
0.0
 20
0.0
 30
0.0
  0
XRECORD
  5
1B5
102
{ACAD_REACTORS
330
1A3
102
}
330
1A3
100
AcDbXrecord
 10
0.0
 20
0.0
 30
0.0
  0
XRECORD
  5
1B8
102
{ACAD_REACTORS
330
1A3
102
}
330
1A3
100
AcDbXrecord
 10
0.0
 20
0.0
 30
0.0
  0
XRECORD
  5
1B6
102
{ACAD_REACTORS
330
1A3
102
}
330
1A3
100
AcDbXrecord
 10
0.0
 20
0.0
 30
0.0
  0
XRECORD
  5
1B7
102
{ACAD_REACTORS
330
1A3
102
}
330
1A3
100
AcDbXrecord
 10
0.0
 20
0.0
 30
0.0
  0
XRECORD
  5
1B4
102
{ACAD_REACTORS
330
1A3
102
}
330
1A3
100
AcDbXrecord
 10
0.0
 20
0.0
 30
0.0
  0
XRECORD
  5
1B1
102
{ACAD_REACTORS
330
1A3
102
}
330
1A3
100
AcDbXrecord
340
0
  0
XRECORD
  5
1B2
102
{ACAD_REACTORS
330
1A3
102
}
330
1A3
100
AcDbXrecord
 70
     0
  0
XRECORD
  5
1A7
102
{ACAD_REACTORS
330
1A3
102
}
330
1A3
100
AcDbXrecord
  1

  0
XRECORD
  5
1A4
102
{ACAD_REACTORS
330
1A3
102
}
330
1A3
100
AcDbXrecord
 90
        1
  0
XRECORD
  5
1A5
102
{ACAD_REACTORS
330
1A3
102
}
330
1A3
100
AcDbXrecord
 90
       70
  0
XRECORD
  5
1BC
102
{ACAD_REACTORS
330
1A3
102
}
330
1A3
100
AcDbXrecord
340
0
  0
XRECORD
  5
1C2
102
{ACAD_REACTORS
330
1A3
102
}
330
1A3
100
AcDbXrecord
 10
0.0
 20
0.0
 30
0.0
  0
XRECORD
  5
1BE
102
{ACAD_REACTORS
330
1A3
102
}
330
1A3
100
AcDbXrecord
 10
0.0
 20
0.0
 30
0.0
  0
XRECORD
  5
1C1
102
{ACAD_REACTORS
330
1A3
102
}
330
1A3
100
AcDbXrecord
 10
0.0
 20
0.0
 30
0.0
  0
XRECORD
  5
1BF
102
{ACAD_REACTORS
330
1A3
102
}
330
1A3
100
AcDbXrecord
 10
0.0
 20
0.0
 30
0.0
  0
XRECORD
  5
1C0
102
{ACAD_REACTORS
330
1A3
102
}
330
1A3
100
AcDbXrecord
 10
0.0
 20
0.0
 30
0.0
  0
XRECORD
  5
1BD
102
{ACAD_REACTORS
330
1A3
102
}
330
1A3
100
AcDbXrecord
 10
0.0
 20
0.0
 30
0.0
  0
XRECORD
  5
1BA
102
{ACAD_REACTORS
330
1A3
102
}
330
1A3
100
AcDbXrecord
340
0
  0
XRECORD
  5
1BB
102
{ACAD_REACTORS
330
1A3
102
}
330
1A3
100
AcDbXrecord
 70
     1
  0
XRECORD
  5
1AF
102
{ACAD_REACTORS
330
1A3
102
}
330
1A3
100
AcDbXrecord
  1
{610341B4-0F54-4049-A50F-0C1F0833365F}
  0
DICTIONARYVAR
  5
1A1
102
{ACAD_REACTORS
330
1A0
102
}
330
1A0
100
DictionaryVariables
280
     0
  1
1
  0
ENDSEC
  0
EOF
