  0
SECTION
  2
HEADER
  9
$ACADVER
  1
AC1015
  9
$ACADMAINTVER
 70
     6
  9
$DWGCODEPAGE
  3
ANSI_1252
  9
$INSBASE
 10
0.0
 20
0.0
 30
0.0
  9
$EXTMIN
 10
121.0
 20
-18.76545
 30
0.0
  9
$EXTMAX
 10
564.187
 20
230.80485
 30
0.0
  9
$LIMMIN
 10
0.0
 20
0.0
  9
$LIMMAX
 10
12.0
 20
9.0
  9
$ORTHOMODE
 70
     0
  9
$REGENMODE
 70
     1
  9
$FILLMODE
 70
     1
  9
$QTEXTMODE
 70
     0
  9
$MIRRTEXT
 70
     1
  9
$LTSCALE
 40
1.0
  9
$ATTMODE
 70
     1
  9
$TEXTSIZE
 40
0.2
  9
$TRACEWID
 40
0.05
  9
$TEXTSTYLE
  7
Standard
  9
$CLAYER
  8
0
  9
$CELTYPE
  6
Continuous
  9
$CECOLOR
 62
   256
  9
$CELTSCALE
 40
1.0
  9
$DISPSILH
 70
     0
  9
$DIMSCALE
 40
1.0
  9
$DIMASZ
 40
0.18
  9
$DIMEXO
 40
0.0625
  9
$DIMDLI
 40
0.38
  9
$DIMRND
 40
0.0
  9
$DIMDLE
 40
0.0
  9
$DIMEXE
 40
0.18
  9
$DIMTP
 40
0.0
  9
$DIMTM
 40
0.0
  9
$DIMTXT
 40
0.18
  9
$DIMCEN
 40
0.09
  9
$DIMTSZ
 40
0.0
  9
$DIMTOL
 70
     0
  9
$DIMLIM
 70
     0
  9
$DIMTIH
 70
     1
  9
$DIMTOH
 70
     1
  9
$DIMSE1
 70
     0
  9
$DIMSE2
 70
     0
  9
$DIMTAD
 70
     0
  9
$DIMZIN
 70
     0
  9
$DIMBLK
  1

  9
$DIMASO
 70
     1
  9
$DIMSHO
 70
     1
  9
$DIMPOST
  1

  9
$DIMAPOST
  1

  9
$DIMALT
 70
     0
  9
$DIMALTD
 70
     2
  9
$DIMALTF
 40
25.4
  9
$DIMLFAC
 40
1.0
  9
$DIMTOFL
 70
     0
  9
$DIMTVP
 40
0.0
  9
$DIMTIX
 70
     0
  9
$DIMSOXD
 70
     0
  9
$DIMSAH
 70
     0
  9
$DIMBLK1
  1

  9
$DIMBLK2
  1

  9
$DIMSTYLE
  2
Standard
  9
$DIMCLRD
 70
     0
  9
$DIMCLRE
 70
     0
  9
$DIMCLRT
 70
     0
  9
$DIMTFAC
 40
1.0
  9
$DIMGAP
 40
0.09
  9
$DIMJUST
 70
     0
  9
$DIMSD1
 70
     0
  9
$DIMSD2
 70
     0
  9
$DIMTOLJ
 70
     1
  9
$DIMTZIN
 70
     0
  9
$DIMALTZ
 70
     0
  9
$DIMALTTZ
 70
     0
  9
$DIMUPT
 70
     0
  9
$DIMDEC
 70
     4
  9
$DIMTDEC
 70
     4
  9
$DIMALTU
 70
     2
  9
$DIMALTTD
 70
     2
  9
$DIMTXSTY
  7
Standard
  9
$DIMAUNIT
 70
     0
  9
$DIMADEC
 70
     0
  9
$DIMALTRND
 40
0.0
  9
$DIMAZIN
 70
     0
  9
$DIMDSEP
 70
    46
  9
$DIMATFIT
 70
     3
  9
$DIMFRAC
 70
     0
  9
$DIMLDRBLK
  1

  9
$DIMLUNIT
 70
     2
  9
$DIMLWD
 70
    -2
  9
$DIMLWE
 70
    -2
  9
$DIMTMOVE
 70
     0
  9
$LUNITS
 70
     2
  9
$LUPREC
 70
     4
  9
$SKETCHINC
 40
0.1
  9
$FILLETRAD
 40
0.0
  9
$AUNITS
 70
     0
  9
$AUPREC
 70
     0
  9
$MENU
  1
.
  9
$ELEVATION
 40
0.0
  9
$PELEVATION
 40
0.0
  9
$THICKNESS
 40
0.0
  9
$LIMCHECK
 70
     0
  9
$CHAMFERA
 40
0.0
  9
$CHAMFERB
 40
0.0
  9
$CHAMFERC
 40
0.0
  9
$CHAMFERD
 40
0.0
  9
$SKPOLY
 70
     0
  9
$TDCREATE
 40
2454638.692292384
  9
$TDUCREATE
 40
2454638.608959051
  9
$TDUPDATE
 40
2456209.812754988
  9
$TDUUPDATE
 40
2456209.729421655
  9
$TDINDWG
 40
0.0043630671
  9
$TDUSRTIMER
 40
0.0043630671
  9
$USRTIMER
 70
     1
  9
$ANGBASE
 50
0.0
  9
$ANGDIR
 70
     0
  9
$PDMODE
 70
     0
  9
$PDSIZE
 40
0.0
  9
$PLINEWID
 40
0.0
  9
$SPLFRAME
 70
     0
  9
$SPLINETYPE
 70
     6
  9
$SPLINESEGS
 70
     8
  9
$HANDSEED
  5
94E
  9
$SURFTAB1
 70
     6
  9
$SURFTAB2
 70
     6
  9
$SURFTYPE
 70
     6
  9
$SURFU
 70
     6
  9
$SURFV
 70
     6
  9
$UCSBASE
  2

  9
$UCSNAME
  2

  9
$UCSORG
 10
0.0
 20
0.0
 30
0.0
  9
$UCSXDIR
 10
1.0
 20
0.0
 30
0.0
  9
$UCSYDIR
 10
0.0
 20
1.0
 30
0.0
  9
$UCSORTHOREF
  2

  9
$UCSORTHOVIEW
 70
     1
  9
$UCSORGTOP
 10
0.0
 20
0.0
 30
0.0
  9
$UCSORGBOTTOM
 10
0.0
 20
0.0
 30
0.0
  9
$UCSORGLEFT
 10
0.0
 20
0.0
 30
0.0
  9
$UCSORGRIGHT
 10
0.0
 20
0.0
 30
0.0
  9
$UCSORGFRONT
 10
0.0
 20
0.0
 30
0.0
  9
$UCSORGBACK
 10
0.0
 20
0.0
 30
0.0
  9
$PUCSBASE
  2

  9
$PUCSNAME
  2

  9
$PUCSORG
 10
0.0
 20
0.0
 30
0.0
  9
$PUCSXDIR
 10
1.0
 20
0.0
 30
0.0
  9
$PUCSYDIR
 10
0.0
 20
1.0
 30
0.0
  9
$PUCSORTHOREF
  2

  9
$PUCSORTHOVIEW
 70
     0
  9
$PUCSORGTOP
 10
0.0
 20
0.0
 30
0.0
  9
$PUCSORGBOTTOM
 10
0.0
 20
0.0
 30
0.0
  9
$PUCSORGLEFT
 10
0.0
 20
0.0
 30
0.0
  9
$PUCSORGRIGHT
 10
0.0
 20
0.0
 30
0.0
  9
$PUCSORGFRONT
 10
0.0
 20
0.0
 30
0.0
  9
$PUCSORGBACK
 10
0.0
 20
0.0
 30
0.0
  9
$USERI1
 70
     0
  9
$USERI2
 70
     0
  9
$USERI3
 70
     0
  9
$USERI4
 70
     0
  9
$USERI5
 70
     0
  9
$USERR1
 40
0.0
  9
$USERR2
 40
0.0
  9
$USERR3
 40
0.0
  9
$USERR4
 40
0.0
  9
$USERR5
 40
0.0
  9
$WORLDVIEW
 70
     1
  9
$SHADEDGE
 70
     3
  9
$SHADEDIF
 70
    70
  9
$TILEMODE
 70
     1
  9
$MAXACTVP
 70
    64
  9
$PINSBASE
 10
0.0
 20
0.0
 30
0.0
  9
$PLIMCHECK
 70
     0
  9
$PEXTMIN
 10
1.000000000000E+20
 20
1.000000000000E+20
 30
1.000000000000E+20
  9
$PEXTMAX
 10
-1.000000000000E+20
 20
-1.000000000000E+20
 30
-1.000000000000E+20
  9
$PLIMMIN
 10
0.0
 20
0.0
  9
$PLIMMAX
 10
12.0
 20
9.0
  9
$UNITMODE
 70
     0
  9
$VISRETAIN
 70
     1
  9
$PLINEGEN
 70
     0
  9
$PSLTSCALE
 70
     1
  9
$TREEDEPTH
 70
  3020
  9
$CMLSTYLE
  2
Standard
  9
$CMLJUST
 70
     0
  9
$CMLSCALE
 40
1.0
  9
$PROXYGRAPHICS
 70
     1
  9
$MEASUREMENT
 70
     0
  9
$CELWEIGHT
370
    -1
  9
$ENDCAPS
280
     0
  9
$JOINSTYLE
280
     0
  9
$LWDISPLAY
290
     0
  9
$INSUNITS
 70
     0
  9
$HYPERLINKBASE
  1

  9
$STYLESHEET
  1

  9
$XEDIT
290
     1
  9
$CEPSNTYPE
380
     0
  9
$PSTYLEMODE
290
     1
  9
$FINGERPRINTGUID
  2
{53F13626-5D8F-4ABE-868F-0BAB977F0D8A}
  9
$VERSIONGUID
  2
{1C6325C6-27C3-47CC-A040-C19A359AD1BB}
  9
$EXTNAMES
290
     1
  9
$PSVPSCALE
 40
0.0
  9
$OLESTARTUP
290
     0
  0
ENDSEC
  0
SECTION
  2
CLASSES
  0
CLASS
  1
ACDBDICTIONARYWDFLT
  2
AcDbDictionaryWithDefault
  3
ObjectDBX Classes
 90
        0
280
     0
281
     0
  0
CLASS
  1
ACDBPLACEHOLDER
  2
AcDbPlaceHolder
  3
ObjectDBX Classes
 90
        0
280
     0
281
     0
  0
CLASS
  1
LAYOUT
  2
AcDbLayout
  3
ObjectDBX Classes
 90
        0
280
     0
281
     0
  0
CLASS
  1
DICTIONARYVAR
  2
AcDbDictionaryVar
  3
ObjectDBX Classes
 90
        0
280
     0
281
     0
  0
CLASS
  1
SCALE
  2
AcDbScale
  3
ObjectDBX Classes
 90
     1153
280
     0
281
     0
  0
ENDSEC
  0
SECTION
  2
TABLES
  0
TABLE
  2
VPORT
  5
8
330
0
100
AcDbSymbolTable
 70
     1
  0
VPORT
  5
5C4
330
8
100
AcDbSymbolTableRecord
100
AcDbViewportTableRecord
  2
*Active
 70
     0
 10
0.0
 20
0.0
 11
1.0
 21
1.0
 12
282.0935
 22
106.0197
 13
0.0
 23
0.0
 14
1.0
 24
1.0
 15
0.0
 25
0.0
 16
0.0
 26
0.0
 36
1.0
 17
0.0
 27
0.0
 37
0.0
 40
254.561706
 41
2.271724137931
 42
50.0
 43
0.0
 44
0.0
 50
0.0
 51
0.0
 71
    16
 72
   100
 73
     1
 74
     3
 75
     0
 76
     0
 77
     0
 78
     0
281
     0
 65
     1
110
0.0
120
0.0
130
0.0
111
1.0
121
0.0
131
0.0
112
0.0
122
1.0
132
0.0
 79
     1
146
0.0
  0
ENDTAB
  0
TABLE
  2
LTYPE
  5
5
330
0
100
AcDbSymbolTable
 70
     1
  0
LTYPE
  5
13
330
5
100
AcDbSymbolTableRecord
100
AcDbLinetypeTableRecord
  2
ByBlock
 70
     0
  3

 72
    65
 73
     0
 40
0.0
  0
LTYPE
  5
14
330
5
100
AcDbSymbolTableRecord
100
AcDbLinetypeTableRecord
  2
ByLayer
 70
     0
  3

 72
    65
 73
     0
 40
0.0
  0
LTYPE
  5
15
330
5
100
AcDbSymbolTableRecord
100
AcDbLinetypeTableRecord
  2
Continuous
 70
     0
  3
Solid line
 72
    65
 73
     0
 40
0.0
  0
ENDTAB
  0
TABLE
  2
LAYER
  5
2
330
0
100
AcDbSymbolTable
 70
     1
  0
LAYER
  5
10
330
2
100
AcDbSymbolTableRecord
100
AcDbLayerTableRecord
  2
0
 70
     0
 62
     7
  6
Continuous
370
    -3
390
F
  0
ENDTAB
  0
TABLE
  2
STYLE
  5
3
330
0
100
AcDbSymbolTable
 70
     1
  0
STYLE
  5
11
330
3
100
AcDbSymbolTableRecord
100
AcDbTextStyleTableRecord
  2
Standard
 70
     0
 40
0.0
 41
1.0
 50
0.0
 71
     0
 42
0.2
  3
txt
  4

  0
ENDTAB
  0
TABLE
  2
VIEW
  5
6
330
0
100
AcDbSymbolTable
 70
     0
  0
ENDTAB
  0
TABLE
  2
UCS
  5
7
330
0
100
AcDbSymbolTable
 70
     0
  0
ENDTAB
  0
TABLE
  2
APPID
  5
9
330
0
100
AcDbSymbolTable
 70
     1
  0
APPID
  5
12
330
9
100
AcDbSymbolTableRecord
100
AcDbRegAppTableRecord
  2
ACAD
 70
     0
  0
ENDTAB
  0
TABLE
  2
DIMSTYLE
  5
A
330
0
100
AcDbSymbolTable
 70
     1
100
AcDbDimStyleTable
  0
DIMSTYLE
105
5AC
330
A
100
AcDbSymbolTableRecord
100
AcDbDimStyleTableRecord
  2
Standard
 70
     0
340
11
  0
ENDTAB
  0
TABLE
  2
BLOCK_RECORD
  5
1
330
0
100
AcDbSymbolTable
 70
     1
  0
BLOCK_RECORD
  5
1E
330
1
100
AcDbSymbolTableRecord
100
AcDbBlockTableRecord
  2
*Model_Space
340
21
  0
BLOCK_RECORD
  5
1A
330
1
100
AcDbSymbolTableRecord
100
AcDbBlockTableRecord
  2
*Paper_Space
340
1D
  0
ENDTAB
  0
ENDSEC
  0
SECTION
  2
BLOCKS
  0
BLOCK
  5
1F
330
1E
100
AcDbEntity
  8
0
100
AcDbBlockBegin
  2
*Model_Space
 70
     0
 10
0.0
 20
0.0
 30
0.0
  3
*Model_Space
  1
*Model_Space
  0
ENDBLK
  5
20
330
1E
100
AcDbEntity
  8
0
100
AcDbBlockEnd
  0
BLOCK
  5
1B
330
1A
100
AcDbEntity
 67
     1
  8
0
100
AcDbBlockBegin
  2
*Paper_Space
 70
     0
 10
0.0
 20
0.0
 30
0.0
  3
*Paper_Space
  1
*Paper_Space
  0
ENDBLK
  5
1C
330
1A
100
AcDbEntity
 67
     1
  8
0
100
AcDbBlockEnd
  0
ENDSEC
  0
SECTION
  2
ENTITIES
  0
LINE
  5
27
330
1E
100
AcDbEntity
  8
0
100
AcDbLine
 10
298.6
 20
48.60895
 30
0.0
 11
301.933
 21
49.81215
 31
0.0
  0
LINE
  5
28
330
1E
100
AcDbEntity
  8
0
100
AcDbLine
 10
295.0
 20
48.12765
 30
0.0
 11
298.6
 21
48.60895
 31
0.0
  0
LINE
  5
29
330
1E
100
AcDbEntity
  8
0
100
AcDbLine
 10
285.133
 20
51.85755
 30
0.0
 11
288.067
 21
49.81215
 31
0.0
  0
LINE
  5
2A
330
1E
100
AcDbEntity
  8
0
100
AcDbLine
 10
304.867
 20
51.85755
 30
0.0
 11
307.133
 21
54.50455
 31
0.0
  0
LINE
  5
2B
330
1E
100
AcDbEntity
  8
0
100
AcDbLine
 10
301.933
 20
49.81215
 30
0.0
 11
304.867
 21
51.85755
 31
0.0
  0
LINE
  5
2C
330
1E
100
AcDbEntity
  8
0
100
AcDbLine
 10
288.067
 20
49.81215
 30
0.0
 11
291.4
 21
48.60895
 31
0.0
  0
LINE
  5
2D
330
1E
100
AcDbEntity
  8
0
100
AcDbLine
 10
291.4
 20
48.60895
 30
0.0
 11
295.0
 21
48.12765
 31
0.0
  0
LINE
  5
32
330
1E
100
AcDbEntity
  8
0
100
AcDbLine
 10
281.533
 20
57.51255
 30
0.0
 11
282.867
 21
54.50455
 31
0.0
  0
LINE
  5
33
330
1E
100
AcDbEntity
  8
0
100
AcDbLine
 10
309.0
 20
60.76125
 30
0.0
 11
309.0
 21
93.83885
 31
0.0
  0
LINE
  5
34
330
1E
100
AcDbEntity
  8
0
100
AcDbLine
 10
308.467
 20
57.51255
 30
0.0
 11
309.0
 21
60.76125
 31
0.0
  0
LINE
  5
35
330
1E
100
AcDbEntity
  8
0
100
AcDbLine
 10
307.133
 20
54.50455
 30
0.0
 11
308.467
 21
57.51255
 31
0.0
  0
LINE
  5
36
330
1E
100
AcDbEntity
  8
0
100
AcDbLine
 10
282.867
 20
54.50455
 30
0.0
 11
285.133
 21
51.85755
 31
0.0
  0
LINE
  5
3D
330
1E
100
AcDbEntity
  8
0
100
AcDbLine
 10
281.0
 20
60.76125
 30
0.0
 11
281.0
 21
93.83885
 31
0.0
  0
LINE
  5
3E
330
1E
100
AcDbEntity
  8
0
100
AcDbLine
 10
281.0
 20
60.76125
 30
0.0
 11
281.533
 21
57.51255
 31
0.0
  0
LINE
  5
69
330
1E
100
AcDbEntity
  8
0
100
AcDbLine
 10
281.0
 20
96.90585
 30
0.0
 11
281.0
 21
100.75685
 31
0.0
  0
LINE
  5
6A
330
1E
100
AcDbEntity
  8
0
100
AcDbLine
 10
281.0
 20
96.90585
 30
0.0
 11
281.0
 21
93.83885
 31
0.0
  0
LINE
  5
6B
330
1E
100
AcDbEntity
  8
0
100
AcDbLine
 10
309.0
 20
93.83885
 30
0.0
 11
309.0
 21
96.90585
 31
0.0
  0
LINE
  5
6C
330
1E
100
AcDbEntity
  8
0
100
AcDbLine
 10
309.0
 20
93.83885
 30
0.0
 11
309.0
 21
60.76125
 31
0.0
  0
LINE
  5
6D
330
1E
100
AcDbEntity
  8
0
100
AcDbLine
 10
309.0
 20
96.90585
 30
0.0
 11
309.0
 21
100.75685
 31
0.0
  0
LINE
  5
6E
330
1E
100
AcDbEntity
  8
0
100
AcDbLine
 10
309.0
 20
96.90585
 30
0.0
 11
309.0
 21
93.83885
 31
0.0
  0
LINE
  5
6F
330
1E
100
AcDbEntity
  8
0
100
AcDbLine
 10
281.0
 20
93.83885
 30
0.0
 11
281.0
 21
60.76125
 31
0.0
  0
LINE
  5
70
330
1E
100
AcDbEntity
  8
0
100
AcDbLine
 10
281.0
 20
93.83885
 30
0.0
 11
281.0
 21
96.90585
 31
0.0
  0
LINE
  5
7E
330
1E
100
AcDbEntity
  8
0
100
AcDbLine
 10
309.0
 20
100.75685
 30
0.0
 11
309.0
 21
96.90585
 31
0.0
  0
LINE
  5
7F
330
1E
100
AcDbEntity
  8
0
100
AcDbLine
 10
309.0
 20
100.75685
 30
0.0
 11
309.0
 21
105.32785
 31
0.0
  0
LINE
  5
80
330
1E
100
AcDbEntity
  8
0
100
AcDbLine
 10
309.0
 20
105.32785
 30
0.0
 11
309.0
 21
110.54085
 31
0.0
  0
LINE
  5
81
330
1E
100
AcDbEntity
  8
0
100
AcDbLine
 10
309.0
 20
105.32785
 30
0.0
 11
309.0
 21
100.75685
 31
0.0
  0
LINE
  5
82
330
1E
100
AcDbEntity
  8
0
100
AcDbLine
 10
281.0
 20
100.75685
 30
0.0
 11
281.0
 21
96.90585
 31
0.0
  0
LINE
  5
83
330
1E
100
AcDbEntity
  8
0
100
AcDbLine
 10
281.0
 20
100.75685
 30
0.0
 11
281.0
 21
105.32785
 31
0.0
  0
LINE
  5
84
330
1E
100
AcDbEntity
  8
0
100
AcDbLine
 10
281.0
 20
105.32785
 30
0.0
 11
281.0
 21
110.54085
 31
0.0
  0
LINE
  5
85
330
1E
100
AcDbEntity
  8
0
100
AcDbLine
 10
281.0
 20
105.32785
 30
0.0
 11
281.0
 21
100.75685
 31
0.0
  0
LINE
  5
87
330
1E
100
AcDbEntity
  8
0
100
AcDbLine
 10
309.0
 20
110.54085
 30
0.0
 11
309.0
 21
116.30485
 31
0.0
  0
LINE
  5
88
330
1E
100
AcDbEntity
  8
0
100
AcDbLine
 10
309.0
 20
110.54085
 30
0.0
 11
309.0
 21
105.32785
 31
0.0
  0
LINE
  5
89
330
1E
100
AcDbEntity
  8
0
100
AcDbLine
 10
281.0
 20
110.54085
 30
0.0
 11
281.0
 21
105.32785
 31
0.0
  0
LINE
  5
8A
330
1E
100
AcDbEntity
  8
0
100
AcDbLine
 10
281.0
 20
110.54085
 30
0.0
 11
281.0
 21
116.30485
 31
0.0
  0
LINE
  5
EA
330
1E
100
AcDbEntity
  8
0
100
AcDbLine
 10
154.63235
 20
161.01085
 30
0.0
 11
156.17647
 21
160.80485
 31
0.0
  0
LINE
  5
EB
330
1E
100
AcDbEntity
  8
0
100
AcDbLine
 10
156.17647
 20
160.80485
 30
0.0
 11
185.0
 21
160.80485
 31
0.0
  0
LINE
  5
F4
330
1E
100
AcDbEntity
  8
0
100
AcDbLine
 10
215.3677
 20
161.01085
 30
0.0
 11
216.9118
 21
161.62885
 31
0.0
  0
LINE
  5
F5
330
1E
100
AcDbEntity
  8
0
100
AcDbLine
 10
213.8235
 20
160.80485
 30
0.0
 11
215.3677
 21
161.01085
 31
0.0
  0
LINE
  5
F6
330
1E
100
AcDbEntity
  8
0
100
AcDbLine
 10
185.0
 20
160.80485
 30
0.0
 11
213.8235
 21
160.80485
 31
0.0
  0
LINE
  5
F7
330
1E
100
AcDbEntity
  8
0
100
AcDbLine
 10
156.17647
 20
161.11385
 30
0.0
 11
185.0
 21
161.11385
 31
0.0
  0
LINE
  5
F8
330
1E
100
AcDbEntity
  8
0
100
AcDbLine
 10
213.8235
 20
161.11385
 30
0.0
 11
215.3677
 21
161.31985
 31
0.0
  0
LINE
  5
F9
330
1E
100
AcDbEntity
  8
0
100
AcDbLine
 10
154.63235
 20
161.31985
 30
0.0
 11
156.17647
 21
161.11385
 31
0.0
  0
LINE
  5
FA
330
1E
100
AcDbEntity
  8
0
100
AcDbLine
 10
153.29412
 20
161.93685
 30
0.0
 11
154.63235
 21
161.31985
 31
0.0
  0
LINE
  5
FB
330
1E
100
AcDbEntity
  8
0
100
AcDbLine
 10
151.85294
 20
162.65785
 30
0.0
 11
153.08823
 21
161.62885
 31
0.0
  0
LINE
  5
FC
330
1E
100
AcDbEntity
  8
0
100
AcDbLine
 10
153.08823
 20
161.62885
 30
0.0
 11
154.63235
 21
161.01085
 31
0.0
  0
LINE
  5
FD
330
1E
100
AcDbEntity
  8
0
100
AcDbLine
 10
216.7059
 20
161.93685
 30
0.0
 11
217.9412
 21
162.86385
 31
0.0
  0
LINE
  5
FE
330
1E
100
AcDbEntity
  8
0
100
AcDbLine
 10
215.3677
 20
161.31985
 30
0.0
 11
216.7059
 21
161.93685
 31
0.0
  0
LINE
  5
FF
330
1E
100
AcDbEntity
  8
0
100
AcDbLine
 10
185.0
 20
161.11385
 30
0.0
 11
213.8235
 21
161.11385
 31
0.0
  0
LINE
  5
100
330
1E
100
AcDbEntity
  8
0
100
AcDbLine
 10
218.1471
 20
162.65785
 30
0.0
 11
219.1765
 21
163.89285
 31
0.0
  0
LINE
  5
101
330
1E
100
AcDbEntity
  8
0
100
AcDbLine
 10
216.9118
 20
161.62885
 30
0.0
 11
218.1471
 21
162.65785
 31
0.0
  0
LINE
  5
102
330
1E
100
AcDbEntity
  8
0
100
AcDbLine
 10
151.13235
 20
164.09885
 30
0.0
 11
152.05882
 21
162.86385
 31
0.0
  0
LINE
  5
103
330
1E
100
AcDbEntity
  8
0
100
AcDbLine
 10
150.823529
 20
163.89285
 30
0.0
 11
151.85294
 21
162.65785
 31
0.0
  0
LINE
  5
104
330
1E
100
AcDbEntity
  8
0
100
AcDbLine
 10
152.05882
 20
162.86385
 30
0.0
 11
153.29412
 21
161.93685
 31
0.0
  0
LINE
  5
105
330
1E
100
AcDbEntity
  8
0
100
AcDbLine
 10
217.9412
 20
162.86385
 30
0.0
 11
218.8677
 21
164.09885
 31
0.0
  0
LINE
  5
106
330
1E
100
AcDbEntity
  8
0
100
AcDbLine
 10
150.514706
 20
165.43685
 30
0.0
 11
151.13235
 21
164.09885
 31
0.0
  0
LINE
  5
107
330
1E
100
AcDbEntity
  8
0
100
AcDbLine
 10
150.205882
 20
165.43685
 30
0.0
 11
150.823529
 21
163.89285
 31
0.0
  0
LINE
  5
108
330
1E
100
AcDbEntity
  8
0
100
AcDbLine
 10
185.0
 20
165.30485
 30
0.0
 11
192.8
 21
166.40485
 31
0.0
  0
LINE
  5
109
330
1E
100
AcDbEntity
  8
0
100
AcDbLine
 10
218.8677
 20
164.09885
 30
0.0
 11
219.4853
 21
165.43685
 31
0.0
  0
LINE
  5
10A
330
1E
100
AcDbEntity
  8
0
100
AcDbLine
 10
219.4853
 20
165.43685
 30
0.0
 11
219.6912
 21
166.98085
 31
0.0
  0
LINE
  5
10B
330
1E
100
AcDbEntity
  8
0
100
AcDbLine
 10
219.1765
 20
163.89285
 30
0.0
 11
219.7941
 21
165.43685
 31
0.0
  0
LINE
  5
10C
330
1E
100
AcDbEntity
  8
0
100
AcDbLine
 10
219.7941
 20
165.43685
 30
0.0
 11
220.0
 21
166.98085
 31
0.0
  0
LINE
  5
10D
330
1E
100
AcDbEntity
  8
0
100
AcDbLine
 10
260.515
 20
165.43685
 30
0.0
 11
261.132
 21
164.09885
 31
0.0
  0
LINE
  5
10E
330
1E
100
AcDbEntity
  8
0
100
AcDbLine
 10
185.0
 20
165.80485
 30
0.0
 11
192.7
 21
166.90485
 31
0.0
  0
LINE
  5
10F
330
1E
100
AcDbEntity
  8
0
100
AcDbLine
 10
177.3
 20
166.90485
 30
0.0
 11
185.0
 21
165.80485
 31
0.0
  0
LINE
  5
110
330
1E
100
AcDbEntity
  8
0
100
AcDbLine
 10
150.308824
 20
166.98085
 30
0.0
 11
150.308824
 21
181.80485
 31
0.0
  0
LINE
  5
111
330
1E
100
AcDbEntity
  8
0
100
AcDbLine
 10
150.308824
 20
166.98085
 30
0.0
 11
150.514706
 21
165.43685
 31
0.0
  0
LINE
  5
112
330
1E
100
AcDbEntity
  8
0
100
AcDbLine
 10
150.0
 20
166.98085
 30
0.0
 11
150.0
 21
181.80485
 31
0.0
  0
LINE
  5
113
330
1E
100
AcDbEntity
  8
0
100
AcDbLine
 10
150.0
 20
166.98085
 30
0.0
 11
150.205882
 21
165.43685
 31
0.0
  0
LINE
  5
114
330
1E
100
AcDbEntity
  8
0
100
AcDbLine
 10
177.2
 20
166.40485
 30
0.0
 11
185.0
 21
165.30485
 31
0.0
  0
LINE
  5
115
330
1E
100
AcDbEntity
  8
0
100
AcDbLine
 10
192.8
 20
166.40485
 30
0.0
 11
200.2
 21
169.40485
 31
0.0
  0
LINE
  5
116
330
1E
100
AcDbEntity
  8
0
100
AcDbLine
 10
192.7
 20
166.90485
 30
0.0
 11
199.9
 21
169.80485
 31
0.0
  0
LINE
  5
117
330
1E
100
AcDbEntity
  8
0
100
AcDbLine
 10
185.0
 20
166.30485
 30
0.0
 11
192.6
 21
167.40485
 31
0.0
  0
LINE
  5
118
330
1E
100
AcDbEntity
  8
0
100
AcDbLine
 10
219.6912
 20
166.98085
 30
0.0
 11
219.6912
 21
195.80485
 31
0.0
  0
LINE
  5
119
330
1E
100
AcDbEntity
  8
0
100
AcDbLine
 10
220.0
 20
166.98085
 30
0.0
 11
220.0
 21
224.62885
 31
0.0
  0
LINE
  5
11A
330
1E
100
AcDbEntity
  8
0
100
AcDbLine
 10
260.309
 20
166.98085
 30
0.0
 11
260.309
 21
195.80485
 31
0.0
  0
LINE
  5
11B
330
1E
100
AcDbEntity
  8
0
100
AcDbLine
 10
260.309
 20
166.98085
 30
0.0
 11
260.515
 21
165.43685
 31
0.0
  0
LINE
  5
11C
330
1E
100
AcDbEntity
  8
0
100
AcDbLine
 10
260.206
 20
165.43685
 30
0.0
 11
260.824
 21
163.89285
 31
0.0
  0
LINE
  5
11D
330
1E
100
AcDbEntity
  8
0
100
AcDbLine
 10
261.132
 20
164.09885
 30
0.0
 11
262.059
 21
162.86385
 31
0.0
  0
LINE
  5
11E
330
1E
100
AcDbEntity
  8
0
100
AcDbLine
 10
260.824
 20
163.89285
 30
0.0
 11
261.853
 21
162.65785
 31
0.0
  0
LINE
  5
11F
330
1E
100
AcDbEntity
  8
0
100
AcDbLine
 10
177.4
 20
167.40485
 30
0.0
 11
185.0
 21
166.30485
 31
0.0
  0
LINE
  5
120
330
1E
100
AcDbEntity
  8
0
100
AcDbLine
 10
169.8
 20
169.40485
 30
0.0
 11
177.2
 21
166.40485
 31
0.0
  0
LINE
  5
121
330
1E
100
AcDbEntity
  8
0
100
AcDbLine
 10
200.2
 20
169.40485
 30
0.0
 11
206.5
 21
174.30485
 31
0.0
  0
LINE
  5
122
330
1E
100
AcDbEntity
  8
0
100
AcDbLine
 10
192.6
 20
167.40485
 30
0.0
 11
199.7
 21
170.30485
 31
0.0
  0
LINE
  5
123
330
1E
100
AcDbEntity
  8
0
100
AcDbLine
 10
260.0
 20
166.98085
 30
0.0
 11
260.0
 21
195.80485
 31
0.0
  0
LINE
  5
124
330
1E
100
AcDbEntity
  8
0
100
AcDbLine
 10
260.0
 20
166.98085
 30
0.0
 11
260.206
 21
165.43685
 31
0.0
  0
LINE
  5
125
330
1E
100
AcDbEntity
  8
0
100
AcDbLine
 10
262.059
 20
162.86385
 30
0.0
 11
263.294
 21
161.93685
 31
0.0
  0
LINE
  5
126
330
1E
100
AcDbEntity
  8
0
100
AcDbLine
 10
261.853
 20
162.65785
 30
0.0
 11
263.088
 21
161.62885
 31
0.0
  0
LINE
  5
127
330
1E
100
AcDbEntity
  8
0
100
AcDbLine
 10
263.294
 20
161.93685
 30
0.0
 11
264.632
 21
161.31985
 31
0.0
  0
LINE
  5
128
330
1E
100
AcDbEntity
  8
0
100
AcDbLine
 10
264.632
 20
161.31985
 30
0.0
 11
266.176
 21
161.11385
 31
0.0
  0
LINE
  5
129
330
1E
100
AcDbEntity
  8
0
100
AcDbLine
 10
266.176
 20
161.11385
 30
0.0
 11
281.0
 21
161.11385
 31
0.0
  0
LINE
  5
12A
330
1E
100
AcDbEntity
  8
0
100
AcDbLine
 10
263.088
 20
161.62885
 30
0.0
 11
264.632
 21
161.01085
 31
0.0
  0
LINE
  5
12B
330
1E
100
AcDbEntity
  8
0
100
AcDbLine
 10
264.632
 20
161.01085
 30
0.0
 11
266.176
 21
160.80485
 31
0.0
  0
LINE
  5
12C
330
1E
100
AcDbEntity
  8
0
100
AcDbLine
 10
281.0
 20
116.30485
 30
0.0
 11
281.0
 21
110.54085
 31
0.0
  0
LINE
  5
12D
330
1E
100
AcDbEntity
  8
0
100
AcDbLine
 10
281.0
 20
116.30485
 30
0.0
 11
281.0
 21
122.52285
 31
0.0
  0
LINE
  5
12E
330
1E
100
AcDbEntity
  8
0
100
AcDbLine
 10
281.0
 20
122.52285
 30
0.0
 11
281.0
 21
116.30485
 31
0.0
  0
LINE
  5
12F
330
1E
100
AcDbEntity
  8
0
100
AcDbLine
 10
281.0
 20
122.52285
 30
0.0
 11
281.0
 21
129.08785
 31
0.0
  0
LINE
  5
130
330
1E
100
AcDbEntity
  8
0
100
AcDbLine
 10
281.0
 20
135.88685
 30
0.0
 11
281.0
 21
129.08785
 31
0.0
  0
LINE
  5
131
330
1E
100
AcDbEntity
  8
0
100
AcDbLine
 10
281.0
 20
135.88685
 30
0.0
 11
281.0
 21
142.80485
 31
0.0
  0
LINE
  5
132
330
1E
100
AcDbEntity
  8
0
100
AcDbLine
 10
281.0
 20
129.08785
 30
0.0
 11
281.0
 21
122.52285
 31
0.0
  0
LINE
  5
133
330
1E
100
AcDbEntity
  8
0
100
AcDbLine
 10
281.0
 20
129.08785
 30
0.0
 11
281.0
 21
135.88685
 31
0.0
  0
LINE
  5
135
330
1E
100
AcDbEntity
  8
0
100
AcDbLine
 10
309.0
 20
116.30485
 30
0.0
 11
309.0
 21
122.52285
 31
0.0
  0
LINE
  5
136
330
1E
100
AcDbEntity
  8
0
100
AcDbLine
 10
309.0
 20
116.30485
 30
0.0
 11
309.0
 21
110.54085
 31
0.0
  0
LINE
  5
137
330
1E
100
AcDbEntity
  8
0
100
AcDbLine
 10
309.0
 20
122.52285
 30
0.0
 11
309.0
 21
129.08785
 31
0.0
  0
LINE
  5
138
330
1E
100
AcDbEntity
  8
0
100
AcDbLine
 10
309.0
 20
122.52285
 30
0.0
 11
309.0
 21
116.30485
 31
0.0
  0
LINE
  5
139
330
1E
100
AcDbEntity
  8
0
100
AcDbLine
 10
309.0
 20
135.88685
 30
0.0
 11
309.0
 21
129.08785
 31
0.0
  0
LINE
  5
13A
330
1E
100
AcDbEntity
  8
0
100
AcDbLine
 10
309.0
 20
135.88685
 30
0.0
 11
309.0
 21
142.80485
 31
0.0
  0
LINE
  5
13B
330
1E
100
AcDbEntity
  8
0
100
AcDbLine
 10
309.0
 20
129.08785
 30
0.0
 11
309.0
 21
135.88685
 31
0.0
  0
LINE
  5
13C
330
1E
100
AcDbEntity
  8
0
100
AcDbLine
 10
309.0
 20
129.08785
 30
0.0
 11
309.0
 21
122.52285
 31
0.0
  0
LINE
  5
13D
330
1E
100
AcDbEntity
  8
0
100
AcDbLine
 10
309.0
 20
142.80485
 30
0.0
 11
309.0
 21
149.72285
 31
0.0
  0
LINE
  5
13E
330
1E
100
AcDbEntity
  8
0
100
AcDbLine
 10
309.0
 20
142.80485
 30
0.0
 11
309.0
 21
135.88685
 31
0.0
  0
LINE
  5
13F
330
1E
100
AcDbEntity
  8
0
100
AcDbLine
 10
309.0
 20
149.72285
 30
0.0
 11
309.0
 21
156.52185
 31
0.0
  0
LINE
  5
140
330
1E
100
AcDbEntity
  8
0
100
AcDbLine
 10
309.0
 20
149.72285
 30
0.0
 11
309.0
 21
142.80485
 31
0.0
  0
LINE
  5
141
330
1E
100
AcDbEntity
  8
0
100
AcDbLine
 10
281.0
 20
142.80485
 30
0.0
 11
281.0
 21
149.72285
 31
0.0
  0
LINE
  5
142
330
1E
100
AcDbEntity
  8
0
100
AcDbLine
 10
281.0
 20
142.80485
 30
0.0
 11
281.0
 21
135.88685
 31
0.0
  0
LINE
  5
143
330
1E
100
AcDbEntity
  8
0
100
AcDbLine
 10
281.0
 20
163.08685
 30
0.0
 11
281.0
 21
169.30485
 31
0.0
  0
LINE
  5
144
330
1E
100
AcDbEntity
  8
0
100
AcDbLine
 10
281.0
 20
163.08685
 30
0.0
 11
281.0
 21
156.52185
 31
0.0
  0
LINE
  5
145
330
1E
100
AcDbEntity
  8
0
100
AcDbLine
 10
281.0
 20
169.30485
 30
0.0
 11
281.0
 21
175.06885
 31
0.0
  0
LINE
  5
146
330
1E
100
AcDbEntity
  8
0
100
AcDbLine
 10
281.0
 20
169.30485
 30
0.0
 11
281.0
 21
163.08685
 31
0.0
  0
LINE
  5
147
330
1E
100
AcDbEntity
  8
0
100
AcDbLine
 10
309.0
 20
168.918363513514
 30
0.0
 11
310.2
 21
169.40485
 31
0.0
  0
LINE
  5
148
330
1E
100
AcDbEntity
  8
0
100
AcDbLine
 10
309.0
 20
161.11385
 30
0.0
 11
323.824
 21
161.11385
 31
0.0
  0
LINE
  5
149
330
1E
100
AcDbEntity
  8
0
100
AcDbLine
 10
309.0
 20
160.80485
 30
0.0
 11
323.824
 21
160.80485
 31
0.0
  0
LINE
  5
14A
330
1E
100
AcDbEntity
  8
0
100
AcDbLine
 10
309.0
 20
169.30485
 30
0.0
 11
309.0
 21
175.06885
 31
0.0
  0
LINE
  5
14B
330
1E
100
AcDbEntity
  8
0
100
AcDbLine
 10
309.0
 20
169.30485
 30
0.0
 11
309.0
 21
163.08685
 31
0.0
  0
LINE
  5
14C
330
1E
100
AcDbEntity
  8
0
100
AcDbLine
 10
376.176
 20
160.80485
 30
0.0
 11
405.0
 21
160.80485
 31
0.0
  0
LINE
  5
14D
330
1E
100
AcDbEntity
  8
0
100
AcDbLine
 10
486.176
 20
160.80485
 30
0.0
 11
498.176731637747
 21
160.80485
 31
0.0
  0
LINE
  5
14E
330
1E
100
AcDbEntity
  8
0
100
AcDbLine
 10
433.824
 20
160.80485
 30
0.0
 11
435.368
 21
161.01085
 31
0.0
  0
LINE
  5
14F
330
1E
100
AcDbEntity
  8
0
100
AcDbLine
 10
405.0
 20
160.80485
 30
0.0
 11
433.824
 21
160.80485
 31
0.0
  0
LINE
  5
150
330
1E
100
AcDbEntity
  8
0
100
AcDbLine
 10
310.2
 20
169.40485
 30
0.0
 11
316.5
 21
174.30485
 31
0.0
  0
LINE
  5
151
330
1E
100
AcDbEntity
  8
0
100
AcDbLine
 10
325.368
 20
161.31985
 30
0.0
 11
326.706
 21
161.93685
 31
0.0
  0
LINE
  5
152
330
1E
100
AcDbEntity
  8
0
100
AcDbLine
 10
323.824
 20
161.11385
 30
0.0
 11
325.368
 21
161.31985
 31
0.0
  0
LINE
  5
153
330
1E
100
AcDbEntity
  8
0
100
AcDbLine
 10
376.176
 20
161.11385
 30
0.0
 11
405.0
 21
161.11385
 31
0.0
  0
LINE
  5
154
330
1E
100
AcDbEntity
  8
0
100
AcDbLine
 10
433.824
 20
161.11385
 30
0.0
 11
435.368
 21
161.31985
 31
0.0
  0
LINE
  5
155
330
1E
100
AcDbEntity
  8
0
100
AcDbLine
 10
374.632
 20
161.31985
 30
0.0
 11
376.176
 21
161.11385
 31
0.0
  0
LINE
  5
156
330
1E
100
AcDbEntity
  8
0
100
AcDbLine
 10
373.088
 20
161.62885
 30
0.0
 11
374.632
 21
161.01085
 31
0.0
  0
LINE
  5
157
330
1E
100
AcDbEntity
  8
0
100
AcDbLine
 10
435.368
 20
161.31985
 30
0.0
 11
436.706
 21
161.93685
 31
0.0
  0
LINE
  5
158
330
1E
100
AcDbEntity
  8
0
100
AcDbLine
 10
405.0
 20
161.11385
 30
0.0
 11
433.824
 21
161.11385
 31
0.0
  0
LINE
  5
159
330
1E
100
AcDbEntity
  8
0
100
AcDbLine
 10
484.632
 20
161.31985
 30
0.0
 11
486.176
 21
161.11385
 31
0.0
  0
LINE
  5
15A
330
1E
100
AcDbEntity
  8
0
100
AcDbLine
 10
483.088
 20
161.62885
 30
0.0
 11
484.632
 21
161.01085
 31
0.0
  0
LINE
  5
15B
330
1E
100
AcDbEntity
  8
0
100
AcDbLine
 10
486.176
 20
161.11385
 30
0.0
 11
498.175923698598
 21
161.11385
 31
0.0
  0
LINE
  5
15C
330
1E
100
AcDbEntity
  8
0
100
AcDbLine
 10
484.632
 20
161.01085
 30
0.0
 11
486.176
 21
160.80485
 31
0.0
  0
LINE
  5
15D
330
1E
100
AcDbEntity
  8
0
100
AcDbLine
 10
436.912
 20
161.62885
 30
0.0
 11
438.147
 21
162.65785
 31
0.0
  0
LINE
  5
15E
330
1E
100
AcDbEntity
  8
0
100
AcDbLine
 10
435.368
 20
161.01085
 30
0.0
 11
436.912
 21
161.62885
 31
0.0
  0
LINE
  5
15F
330
1E
100
AcDbEntity
  8
0
100
AcDbLine
 10
327.941
 20
162.86385
 30
0.0
 11
328.868
 21
164.09885
 31
0.0
  0
LINE
  5
160
330
1E
100
AcDbEntity
  8
0
100
AcDbLine
 10
483.294
 20
161.93685
 30
0.0
 11
484.632
 21
161.31985
 31
0.0
  0
LINE
  5
161
330
1E
100
AcDbEntity
  8
0
100
AcDbLine
 10
373.294
 20
161.93685
 30
0.0
 11
374.632
 21
161.31985
 31
0.0
  0
LINE
  5
162
330
1E
100
AcDbEntity
  8
0
100
AcDbLine
 10
370.824
 20
163.89285
 30
0.0
 11
371.853
 21
162.65785
 31
0.0
  0
LINE
  5
163
330
1E
100
AcDbEntity
  8
0
100
AcDbLine
 10
372.059
 20
162.86385
 30
0.0
 11
373.294
 21
161.93685
 31
0.0
  0
LINE
  5
164
330
1E
100
AcDbEntity
  8
0
100
AcDbLine
 10
437.941
 20
162.86385
 30
0.0
 11
438.868
 21
164.09885
 31
0.0
  0
LINE
  5
165
330
1E
100
AcDbEntity
  8
0
100
AcDbLine
 10
438.147
 20
162.65785
 30
0.0
 11
439.176
 21
163.89285
 31
0.0
  0
LINE
  5
166
330
1E
100
AcDbEntity
  8
0
100
AcDbLine
 10
480.824
 20
163.89285
 30
0.0
 11
481.853
 21
162.65785
 31
0.0
  0
LINE
  5
169
330
1E
100
AcDbEntity
  8
0
100
AcDbLine
 10
482.059
 20
162.86385
 30
0.0
 11
483.294
 21
161.93685
 31
0.0
  0
LINE
  5
16A
330
1E
100
AcDbEntity
  8
0
100
AcDbLine
 10
481.853
 20
162.65785
 30
0.0
 11
483.088
 21
161.62885
 31
0.0
  0
LINE
  5
16B
330
1E
100
AcDbEntity
  8
0
100
AcDbLine
 10
439.176
 20
163.89285
 30
0.0
 11
439.794
 21
165.43685
 31
0.0
  0
LINE
  5
16C
330
1E
100
AcDbEntity
  8
0
100
AcDbLine
 10
436.706
 20
161.93685
 30
0.0
 11
437.941
 21
162.86385
 31
0.0
  0
LINE
  5
16D
330
1E
100
AcDbEntity
  8
0
100
AcDbLine
 10
328.147
 20
162.65785
 30
0.0
 11
329.176
 21
163.89285
 31
0.0
  0
LINE
  5
16E
330
1E
100
AcDbEntity
  8
0
100
AcDbLine
 10
328.868
 20
164.09885
 30
0.0
 11
329.485
 21
165.43685
 31
0.0
  0
LINE
  5
16F
330
1E
100
AcDbEntity
  8
0
100
AcDbLine
 10
329.691
 20
166.98085
 30
0.0
 11
329.691
 21
195.80485
 31
0.0
  0
LINE
  5
170
330
1E
100
AcDbEntity
  8
0
100
AcDbLine
 10
329.485
 20
165.43685
 30
0.0
 11
329.691
 21
166.98085
 31
0.0
  0
LINE
  5
171
330
1E
100
AcDbEntity
  8
0
100
AcDbLine
 10
371.132
 20
164.09885
 30
0.0
 11
372.059
 21
162.86385
 31
0.0
  0
LINE
  5
172
330
1E
100
AcDbEntity
  8
0
100
AcDbLine
 10
481.132
 20
164.09885
 30
0.0
 11
482.059
 21
162.86385
 31
0.0
  0
LINE
  5
173
330
1E
100
AcDbEntity
  8
0
100
AcDbLine
 10
438.868
 20
164.09885
 30
0.0
 11
439.485
 21
165.43685
 31
0.0
  0
LINE
  5
174
330
1E
100
AcDbEntity
  8
0
100
AcDbLine
 10
370.515
 20
165.43685
 30
0.0
 11
371.132
 21
164.09885
 31
0.0
  0
LINE
  5
175
330
1E
100
AcDbEntity
  8
0
100
AcDbLine
 10
370.206
 20
165.43685
 30
0.0
 11
370.824
 21
163.89285
 31
0.0
  0
LINE
  5
176
330
1E
100
AcDbEntity
  8
0
100
AcDbLine
 10
370.309
 20
166.98085
 30
0.0
 11
370.309
 21
195.80485
 31
0.0
  0
LINE
  5
177
330
1E
100
AcDbEntity
  8
0
100
AcDbLine
 10
370.309
 20
166.98085
 30
0.0
 11
370.515
 21
165.43685
 31
0.0
  0
LINE
  5
178
330
1E
100
AcDbEntity
  8
0
100
AcDbLine
 10
370.0
 20
166.98085
 30
0.0
 11
370.0
 21
195.80485
 31
0.0
  0
LINE
  5
179
330
1E
100
AcDbEntity
  8
0
100
AcDbLine
 10
370.0
 20
166.98085
 30
0.0
 11
370.206
 21
165.43685
 31
0.0
  0
LINE
  5
17A
330
1E
100
AcDbEntity
  8
0
100
AcDbLine
 10
397.4
 20
167.40485
 30
0.0
 11
405.0
 21
166.30485
 31
0.0
  0
LINE
  5
17B
330
1E
100
AcDbEntity
  8
0
100
AcDbLine
 10
397.3
 20
166.90485
 30
0.0
 11
405.0
 21
165.80485
 31
0.0
  0
LINE
  5
17C
330
1E
100
AcDbEntity
  8
0
100
AcDbLine
 10
397.2
 20
166.40485
 30
0.0
 11
405.0
 21
165.30485
 31
0.0
  0
LINE
  5
17D
330
1E
100
AcDbEntity
  8
0
100
AcDbLine
 10
389.8
 20
169.40485
 30
0.0
 11
397.2
 21
166.40485
 31
0.0
  0
LINE
  5
17E
330
1E
100
AcDbEntity
  8
0
100
AcDbLine
 10
405.0
 20
166.30485
 30
0.0
 11
412.6
 21
167.40485
 31
0.0
  0
LINE
  5
17F
330
1E
100
AcDbEntity
  8
0
100
AcDbLine
 10
480.515
 20
165.43685
 30
0.0
 11
481.132
 21
164.09885
 31
0.0
  0
LINE
  5
180
330
1E
100
AcDbEntity
  8
0
100
AcDbLine
 10
480.206
 20
165.43685
 30
0.0
 11
480.824
 21
163.89285
 31
0.0
  0
LINE
  5
181
330
1E
100
AcDbEntity
  8
0
100
AcDbLine
 10
439.485
 20
165.43685
 30
0.0
 11
439.691
 21
166.98085
 31
0.0
  0
LINE
  5
184
330
1E
100
AcDbEntity
  8
0
100
AcDbLine
 10
439.794
 20
165.43685
 30
0.0
 11
440.0
 21
166.98085
 31
0.0
  0
LINE
  5
185
330
1E
100
AcDbEntity
  8
0
100
AcDbLine
 10
412.8
 20
166.40485
 30
0.0
 11
420.2
 21
169.40485
 31
0.0
  0
LINE
  5
186
330
1E
100
AcDbEntity
  8
0
100
AcDbLine
 10
412.6
 20
167.40485
 30
0.0
 11
419.7
 21
170.30485
 31
0.0
  0
LINE
  5
187
330
1E
100
AcDbEntity
  8
0
100
AcDbLine
 10
480.309
 20
166.98085
 30
0.0
 11
480.309
 21
195.80485
 31
0.0
  0
LINE
  5
188
330
1E
100
AcDbEntity
  8
0
100
AcDbLine
 10
480.309
 20
166.98085
 30
0.0
 11
480.515
 21
165.43685
 31
0.0
  0
LINE
  5
189
330
1E
100
AcDbEntity
  8
0
100
AcDbLine
 10
480.0
 20
166.98085
 30
0.0
 11
480.0
 21
195.80485
 31
0.0
  0
LINE
  5
18A
330
1E
100
AcDbEntity
  8
0
100
AcDbLine
 10
439.691
 20
166.98085
 30
0.0
 11
439.691
 21
181.80485
 31
0.0
  0
LINE
  5
18E
330
1E
100
AcDbEntity
  8
0
100
AcDbLine
 10
440.0
 20
166.98085
 30
0.0
 11
440.0
 21
181.80485
 31
0.0
  0
LINE
  5
18F
330
1E
100
AcDbEntity
  8
0
100
AcDbLine
 10
420.2
 20
169.40485
 30
0.0
 11
426.5
 21
174.30485
 31
0.0
  0
LINE
  5
190
330
1E
100
AcDbEntity
  8
0
100
AcDbLine
 10
412.7
 20
166.90485
 30
0.0
 11
419.9
 21
169.80485
 31
0.0
  0
LINE
  5
191
330
1E
100
AcDbEntity
  8
0
100
AcDbLine
 10
405.0
 20
165.80485
 30
0.0
 11
412.7
 21
166.90485
 31
0.0
  0
LINE
  5
192
330
1E
100
AcDbEntity
  8
0
100
AcDbLine
 10
405.0
 20
165.30485
 30
0.0
 11
412.8
 21
166.40485
 31
0.0
  0
LINE
  5
193
330
1E
100
AcDbEntity
  8
0
100
AcDbLine
 10
329.794
 20
165.43685
 30
0.0
 11
330.0
 21
166.98085
 31
0.0
  0
LINE
  5
194
330
1E
100
AcDbEntity
  8
0
100
AcDbLine
 10
329.176
 20
163.89285
 30
0.0
 11
329.794
 21
165.43685
 31
0.0
  0
LINE
  5
195
330
1E
100
AcDbEntity
  8
0
100
AcDbLine
 10
326.706
 20
161.93685
 30
0.0
 11
327.941
 21
162.86385
 31
0.0
  0
LINE
  5
196
330
1E
100
AcDbEntity
  8
0
100
AcDbLine
 10
326.912
 20
161.62885
 30
0.0
 11
328.147
 21
162.65785
 31
0.0
  0
LINE
  5
197
330
1E
100
AcDbEntity
  8
0
100
AcDbLine
 10
325.368
 20
161.01085
 30
0.0
 11
326.912
 21
161.62885
 31
0.0
  0
LINE
  5
198
330
1E
100
AcDbEntity
  8
0
100
AcDbLine
 10
323.824
 20
160.80485
 30
0.0
 11
325.368
 21
161.01085
 31
0.0
  0
LINE
  5
199
330
1E
100
AcDbEntity
  8
0
100
AcDbLine
 10
309.0
 20
163.08685
 30
0.0
 11
309.0
 21
156.52185
 31
0.0
  0
LINE
  5
19A
330
1E
100
AcDbEntity
  8
0
100
AcDbLine
 10
309.0
 20
163.08685
 30
0.0
 11
309.0
 21
169.30485
 31
0.0
  0
LINE
  5
19B
330
1E
100
AcDbEntity
  8
0
100
AcDbLine
 10
309.0
 20
156.52185
 30
0.0
 11
309.0
 21
149.72285
 31
0.0
  0
LINE
  5
19C
330
1E
100
AcDbEntity
  8
0
100
AcDbLine
 10
309.0
 20
156.52185
 30
0.0
 11
309.0
 21
163.08685
 31
0.0
  0
LINE
  5
19D
330
1E
100
AcDbEntity
  8
0
100
AcDbLine
 10
281.0
 20
156.52185
 30
0.0
 11
281.0
 21
149.72285
 31
0.0
  0
LINE
  5
19E
330
1E
100
AcDbEntity
  8
0
100
AcDbLine
 10
281.0
 20
156.52185
 30
0.0
 11
281.0
 21
163.08685
 31
0.0
  0
LINE
  5
19F
330
1E
100
AcDbEntity
  8
0
100
AcDbLine
 10
281.0
 20
149.72285
 30
0.0
 11
281.0
 21
142.80485
 31
0.0
  0
LINE
  5
1A0
330
1E
100
AcDbEntity
  8
0
100
AcDbLine
 10
281.0
 20
149.72285
 30
0.0
 11
281.0
 21
156.52185
 31
0.0
  0
LINE
  5
1A1
330
1E
100
AcDbEntity
  8
0
100
AcDbLine
 10
266.176
 20
160.80485
 30
0.0
 11
281.0
 21
160.80485
 31
0.0
  0
LINE
  5
1A2
330
1E
100
AcDbEntity
  8
0
100
AcDbLine
 10
170.1
 20
169.80485
 30
0.0
 11
177.3
 21
166.90485
 31
0.0
  0
LINE
  5
1A3
330
1E
100
AcDbEntity
  8
0
100
AcDbLine
 10
170.3
 20
170.30485
 30
0.0
 11
177.4
 21
167.40485
 31
0.0
  0
LINE
  5
1A4
330
1E
100
AcDbEntity
  8
0
100
AcDbLine
 10
199.9
 20
169.80485
 30
0.0
 11
206.2
 21
174.60485
 31
0.0
  0
LINE
  5
1A5
330
1E
100
AcDbEntity
  8
0
100
AcDbLine
 10
199.7
 20
170.30485
 30
0.0
 11
205.8
 21
175.00485
 31
0.0
  0
LINE
  5
1A6
330
1E
100
AcDbEntity
  8
0
100
AcDbLine
 10
309.0
 20
169.44235
 30
0.0
 11
309.9
 21
169.80485
 31
0.0
  0
LINE
  5
1AA
330
1E
100
AcDbEntity
  8
0
100
AcDbLine
 10
390.1
 20
169.80485
 30
0.0
 11
397.3
 21
166.90485
 31
0.0
  0
LINE
  5
1AB
330
1E
100
AcDbEntity
  8
0
100
AcDbLine
 10
390.3
 20
170.30485
 30
0.0
 11
397.4
 21
167.40485
 31
0.0
  0
LINE
  5
1AC
330
1E
100
AcDbEntity
  8
0
100
AcDbLine
 10
419.7
 20
170.30485
 30
0.0
 11
425.8
 21
175.00485
 31
0.0
  0
LINE
  5
1AD
330
1E
100
AcDbEntity
  8
0
100
AcDbLine
 10
419.9
 20
169.80485
 30
0.0
 11
426.2
 21
174.60485
 31
0.0
  0
LINE
  5
1AE
330
1E
100
AcDbEntity
  8
0
100
AcDbLine
 10
309.9
 20
169.80485
 30
0.0
 11
316.2
 21
174.60485
 31
0.0
  0
LINE
  5
1AF
330
1E
100
AcDbEntity
  8
0
100
AcDbLine
 10
309.7
 20
170.30485
 30
0.0
 11
315.8
 21
175.00485
 31
0.0
  0
LINE
  5
1B0
330
1E
100
AcDbEntity
  8
0
100
AcDbLine
 10
309.0
 20
170.018934507042
 30
0.0
 11
309.7
 21
170.30485
 31
0.0
  0
LINE
  5
1B1
330
1E
100
AcDbEntity
  8
0
100
AcDbLine
 10
280.3
 20
170.30485
 30
0.0
 11
281.0
 21
170.018934507042
 31
0.0
  0
LINE
  5
1B2
330
1E
100
AcDbEntity
  8
0
100
AcDbLine
 10
280.1
 20
169.80485
 30
0.0
 11
281.0
 21
169.44235
 31
0.0
  0
LINE
  5
1B3
330
1E
100
AcDbEntity
  8
0
100
AcDbLine
 10
279.8
 20
169.40485
 30
0.0
 11
281.0
 21
168.918363513514
 31
0.0
  0
LINE
  5
1B7
330
1E
100
AcDbEntity
  8
0
100
AcDbLine
 10
163.5
 20
174.30485
 30
0.0
 11
169.8
 21
169.40485
 31
0.0
  0
LINE
  5
1B8
330
1E
100
AcDbEntity
  8
0
100
AcDbLine
 10
163.8
 20
174.60485
 30
0.0
 11
170.1
 21
169.80485
 31
0.0
  0
LINE
  5
1B9
330
1E
100
AcDbEntity
  8
0
100
AcDbLine
 10
164.2
 20
175.00485
 30
0.0
 11
170.3
 21
170.30485
 31
0.0
  0
LINE
  5
1BA
330
1E
100
AcDbEntity
  8
0
100
AcDbLine
 10
205.8
 20
175.00485
 30
0.0
 11
210.5
 21
181.10485
 31
0.0
  0
LINE
  5
1BB
330
1E
100
AcDbEntity
  8
0
100
AcDbLine
 10
206.2
 20
174.60485
 30
0.0
 11
211.0
 21
180.90485
 31
0.0
  0
LINE
  5
1BC
330
1E
100
AcDbEntity
  8
0
100
AcDbLine
 10
206.5
 20
174.30485
 30
0.0
 11
211.4
 21
180.60485
 31
0.0
  0
LINE
  5
1BD
330
1E
100
AcDbEntity
  8
0
100
AcDbLine
 10
316.2
 20
174.60485
 30
0.0
 11
321.0
 21
180.90485
 31
0.0
  0
LINE
  5
1C2
330
1E
100
AcDbEntity
  8
0
100
AcDbLine
 10
383.5
 20
174.30485
 30
0.0
 11
389.8
 21
169.40485
 31
0.0
  0
LINE
  5
1C3
330
1E
100
AcDbEntity
  8
0
100
AcDbLine
 10
383.8
 20
174.60485
 30
0.0
 11
390.1
 21
169.80485
 31
0.0
  0
LINE
  5
1C5
330
1E
100
AcDbEntity
  8
0
100
AcDbLine
 10
426.2
 20
174.60485
 30
0.0
 11
431.0
 21
180.90485
 31
0.0
  0
LINE
  5
1C6
330
1E
100
AcDbEntity
  8
0
100
AcDbLine
 10
426.5
 20
174.30485
 30
0.0
 11
431.4
 21
180.60485
 31
0.0
  0
LINE
  5
1C7
330
1E
100
AcDbEntity
  8
0
100
AcDbLine
 10
316.5
 20
174.30485
 30
0.0
 11
321.4
 21
180.60485
 31
0.0
  0
LINE
  5
1C8
330
1E
100
AcDbEntity
  8
0
100
AcDbLine
 10
384.2
 20
175.00485
 30
0.0
 11
390.3
 21
170.30485
 31
0.0
  0
LINE
  5
1CB
330
1E
100
AcDbEntity
  8
0
100
AcDbLine
 10
425.8
 20
175.00485
 30
0.0
 11
430.5
 21
181.10485
 31
0.0
  0
LINE
  5
1CC
330
1E
100
AcDbEntity
  8
0
100
AcDbLine
 10
315.8
 20
175.00485
 30
0.0
 11
320.5
 21
181.10485
 31
0.0
  0
LINE
  5
1CD
330
1E
100
AcDbEntity
  8
0
100
AcDbLine
 10
309.0
 20
175.06885
 30
0.0
 11
309.0
 21
169.30485
 31
0.0
  0
LINE
  5
1CE
330
1E
100
AcDbEntity
  8
0
100
AcDbLine
 10
309.0
 20
175.06885
 30
0.0
 11
309.0
 21
180.28185
 31
0.0
  0
LINE
  5
1D0
330
1E
100
AcDbEntity
  8
0
100
AcDbLine
 10
281.0
 20
175.06885
 30
0.0
 11
281.0
 21
169.30485
 31
0.0
  0
LINE
  5
1D1
330
1E
100
AcDbEntity
  8
0
100
AcDbLine
 10
281.0
 20
175.06885
 30
0.0
 11
281.0
 21
180.28185
 31
0.0
  0
LINE
  5
1D2
330
1E
100
AcDbEntity
  8
0
100
AcDbLine
 10
274.2
 20
175.00485
 30
0.0
 11
280.3
 21
170.30485
 31
0.0
  0
LINE
  5
1D3
330
1E
100
AcDbEntity
  8
0
100
AcDbLine
 10
273.8
 20
174.60485
 30
0.0
 11
280.1
 21
169.80485
 31
0.0
  0
LINE
  5
1D4
330
1E
100
AcDbEntity
  8
0
100
AcDbLine
 10
273.5
 20
174.30485
 30
0.0
 11
279.8
 21
169.40485
 31
0.0
  0
LINE
  5
1DF
330
1E
100
AcDbEntity
  8
0
100
AcDbLine
 10
150.308824
 20
181.80485
 30
0.0
 11
150.308824
 21
166.98085
 31
0.0
  0
LINE
  5
1E0
330
1E
100
AcDbEntity
  8
0
100
AcDbLine
 10
150.0
 20
181.80485
 30
0.0
 11
150.0
 21
166.98085
 31
0.0
  0
LINE
  5
1E1
330
1E
100
AcDbEntity
  8
0
100
AcDbLine
 10
159.0
 20
180.90485
 30
0.0
 11
163.8
 21
174.60485
 31
0.0
  0
LINE
  5
1E2
330
1E
100
AcDbEntity
  8
0
100
AcDbLine
 10
158.6375
 20
181.80485
 30
0.0
 11
159.0
 21
180.90485
 31
0.0
  0
LINE
  5
1E3
330
1E
100
AcDbEntity
  8
0
100
AcDbLine
 10
159.5
 20
181.10485
 30
0.0
 11
164.2
 21
175.00485
 31
0.0
  0
LINE
  5
1E4
330
1E
100
AcDbEntity
  8
0
100
AcDbLine
 10
159.214084507042
 20
181.80485
 30
0.0
 11
159.5
 21
181.10485
 31
0.0
  0
LINE
  5
1E5
330
1E
100
AcDbEntity
  8
0
100
AcDbLine
 10
158.6
 20
180.60485
 30
0.0
 11
163.5
 21
174.30485
 31
0.0
  0
LINE
  5
1E6
330
1E
100
AcDbEntity
  8
0
100
AcDbLine
 10
158.113513513514
 20
181.80485
 30
0.0
 11
158.6
 21
180.60485
 31
0.0
  0
LINE
  5
1E7
330
1E
100
AcDbEntity
  8
0
100
AcDbLine
 10
165.1612
 20
181.80485
 30
0.0
 11
168.6042
 21
181.80485
 31
0.0
  0
LINE
  5
1E8
330
1E
100
AcDbEntity
  8
0
100
AcDbLine
 10
162.0903
 20
181.80485
 30
0.0
 11
165.1612
 21
181.80485
 31
0.0
  0
LINE
  5
1E9
330
1E
100
AcDbEntity
  8
0
100
AcDbLine
 10
162.0903
 20
181.80485
 30
0.0
 11
170.0
 21
181.80485
 31
0.0
  0
LINE
  5
1EA
330
1E
100
AcDbEntity
  8
0
100
AcDbLine
 10
134.5014
 20
181.80485
 30
0.0
 11
162.0903
 21
181.80485
 31
0.0
  0
LINE
  5
1EB
330
1E
100
AcDbEntity
  8
0
100
AcDbLine
 10
134.5014
 20
181.80485
 30
0.0
 11
170.0
 21
181.80485
 31
0.0
  0
LINE
  5
1EC
330
1E
100
AcDbEntity
  8
0
100
AcDbLine
 10
170.0
 20
181.80485
 30
0.0
 11
185.1591
 21
181.80485
 31
0.0
  0
LINE
  5
1FA
330
1E
100
AcDbEntity
  8
0
100
AcDbLine
 10
210.5
 20
181.10485
 30
0.0
 11
213.4
 21
188.20485
 31
0.0
  0
LINE
  5
1FD
330
1E
100
AcDbEntity
  8
0
100
AcDbLine
 10
211.0
 20
180.90485
 30
0.0
 11
213.9
 21
188.10485
 31
0.0
  0
LINE
  5
1FE
330
1E
100
AcDbEntity
  8
0
100
AcDbLine
 10
211.4
 20
180.60485
 30
0.0
 11
214.4
 21
188.00485
 31
0.0
  0
LINE
  5
1FF
330
1E
100
AcDbEntity
  8
0
100
AcDbLine
 10
185.1591
 20
181.80485
 30
0.0
 11
188.7182
 21
182.20485
 31
0.0
  0
LINE
  5
200
330
1E
100
AcDbEntity
  8
0
100
AcDbLine
 10
184.6318
 20
181.80485
 30
0.0
 11
185.1591
 21
181.80485
 31
0.0
  0
LINE
  5
201
330
1E
100
AcDbEntity
  8
0
100
AcDbLine
 10
182.6545
 20
181.80485
 30
0.0
 11
184.6318
 21
181.80485
 31
0.0
  0
LINE
  5
202
330
1E
100
AcDbEntity
  8
0
100
AcDbLine
 10
178.9636
 20
181.80485
 30
0.0
 11
182.6545
 21
181.80485
 31
0.0
  0
LINE
  5
203
330
1E
100
AcDbEntity
  8
0
100
AcDbLine
 10
173.2955
 20
181.80485
 30
0.0
 11
178.9636
 21
181.80485
 31
0.0
  0
LINE
  5
204
330
1E
100
AcDbEntity
  8
0
100
AcDbLine
 10
131.0296
 20
182.20485
 30
0.0
 11
134.5014
 21
181.80485
 31
0.0
  0
LINE
  5
205
330
1E
100
AcDbEntity
  8
0
100
AcDbLine
 10
127.815
 20
183.67185
 30
0.0
 11
131.0296
 21
182.20485
 31
0.0
  0
LINE
  5
206
330
1E
100
AcDbEntity
  8
0
100
AcDbLine
 10
188.7182
 20
182.20485
 30
0.0
 11
192.0136
 21
183.67185
 31
0.0
  0
LINE
  5
207
330
1E
100
AcDbEntity
  8
0
100
AcDbLine
 10
124.8575
 20
185.80485
 30
0.0
 11
127.815
 21
183.67185
 31
0.0
  0
LINE
  5
208
330
1E
100
AcDbEntity
  8
0
100
AcDbLine
 10
122.8002
 20
188.87185
 30
0.0
 11
124.8575
 21
185.80485
 31
0.0
  0
LINE
  5
209
330
1E
100
AcDbEntity
  8
0
100
AcDbLine
 10
192.0136
 20
183.67185
 30
0.0
 11
195.0454
 21
185.80485
 31
0.0
  0
LINE
  5
20A
330
1E
100
AcDbEntity
  8
0
100
AcDbLine
 10
195.0454
 20
185.80485
 30
0.0
 11
197.1545
 21
188.87185
 31
0.0
  0
LINE
  5
20B
330
1E
100
AcDbEntity
  8
0
100
AcDbLine
 10
121.3858
 20
192.20485
 30
0.0
 11
122.8002
 21
188.87185
 31
0.0
  0
LINE
  5
20C
330
1E
100
AcDbEntity
  8
0
100
AcDbLine
 10
197.1545
 20
188.87185
 30
0.0
 11
198.6045
 21
192.20485
 31
0.0
  0
LINE
  5
20D
330
1E
100
AcDbEntity
  8
0
100
AcDbLine
 10
213.4
 20
188.20485
 30
0.0
 11
214.5
 21
195.80485
 31
0.0
  0
LINE
  5
20E
330
1E
100
AcDbEntity
  8
0
100
AcDbLine
 10
213.9
 20
188.10485
 30
0.0
 11
215.0
 21
195.80485
 31
0.0
  0
LINE
  5
20F
330
1E
100
AcDbEntity
  8
0
100
AcDbLine
 10
214.4
 20
188.00485
 30
0.0
 11
215.5
 21
195.80485
 31
0.0
  0
LINE
  5
239
330
1E
100
AcDbEntity
  8
0
100
AcDbLine
 10
219.6912
 20
195.80485
 30
0.0
 11
219.6912
 21
166.98085
 31
0.0
  0
LINE
  5
23A
330
1E
100
AcDbEntity
  8
0
100
AcDbLine
 10
219.6912
 20
195.80485
 30
0.0
 11
219.6912
 21
224.62885
 31
0.0
  0
LINE
  5
23B
330
1E
100
AcDbEntity
  8
0
100
AcDbLine
 10
220.0
 20
224.62885
 30
0.0
 11
220.0
 21
166.98085
 31
0.0
  0
LINE
  5
23C
330
1E
100
AcDbEntity
  8
0
100
AcDbLine
 10
198.6045
 20
192.20485
 30
0.0
 11
199.0
 21
195.80485
 31
0.0
  0
LINE
  5
23D
330
1E
100
AcDbEntity
  8
0
100
AcDbLine
 10
168.6042
 20
181.80485
 30
0.0
 11
173.2955
 21
181.80485
 31
0.0
  0
LINE
  5
23E
330
1E
100
AcDbEntity
  8
0
100
AcDbLine
 10
260.309
 20
195.80485
 30
0.0
 11
260.309
 21
166.98085
 31
0.0
  0
LINE
  5
23F
330
1E
100
AcDbEntity
  8
0
100
AcDbLine
 10
260.309
 20
195.80485
 30
0.0
 11
260.309
 21
224.62885
 31
0.0
  0
LINE
  5
240
330
1E
100
AcDbEntity
  8
0
100
AcDbLine
 10
121.3858
 20
199.40485
 30
0.0
 11
122.8002
 21
202.73785
 31
0.0
  0
LINE
  5
241
330
1E
100
AcDbEntity
  8
0
100
AcDbLine
 10
122.8002
 20
202.73785
 30
0.0
 11
124.8575
 21
205.80485
 31
0.0
  0
LINE
  5
242
330
1E
100
AcDbEntity
  8
0
100
AcDbLine
 10
127.815
 20
207.93785
 30
0.0
 11
131.0296
 21
209.40485
 31
0.0
  0
LINE
  5
243
330
1E
100
AcDbEntity
  8
0
100
AcDbLine
 10
124.8575
 20
205.80485
 30
0.0
 11
127.815
 21
207.93785
 31
0.0
  0
LINE
  5
246
330
1E
100
AcDbEntity
  8
0
100
AcDbLine
 10
131.0296
 20
209.40485
 30
0.0
 11
134.5014
 21
209.80485
 31
0.0
  0
LINE
  5
247
330
1E
100
AcDbEntity
  8
0
100
AcDbLine
 10
158.6375
 20
209.80485
 30
0.0
 11
159.0
 21
210.70485
 31
0.0
  0
LINE
  5
248
330
1E
100
AcDbEntity
  8
0
100
AcDbLine
 10
158.113513513514
 20
209.80485
 30
0.0
 11
158.6
 21
211.00485
 31
0.0
  0
LINE
  5
249
330
1E
100
AcDbEntity
  8
0
100
AcDbLine
 10
159.214084507042
 20
209.80485
 30
0.0
 11
159.5
 21
210.50485
 31
0.0
  0
LINE
  5
24A
330
1E
100
AcDbEntity
  8
0
100
AcDbLine
 10
150.308824
 20
209.80485
 30
0.0
 11
150.308824
 21
224.62885
 31
0.0
  0
LINE
  5
24B
330
1E
100
AcDbEntity
  8
0
100
AcDbLine
 10
150.0
 20
209.80485
 30
0.0
 11
150.0
 21
224.62885
 31
0.0
  0
LINE
  5
24C
330
1E
100
AcDbEntity
  8
0
100
AcDbLine
 10
134.5014
 20
209.80485
 30
0.0
 11
170.0
 21
209.80485
 31
0.0
  0
LINE
  5
24D
330
1E
100
AcDbEntity
  8
0
100
AcDbLine
 10
170.0
 20
209.80485
 30
0.0
 11
185.1591
 21
209.80485
 31
0.0
  0
LINE
  5
24E
330
1E
100
AcDbEntity
  8
0
100
AcDbLine
 10
159.0
 20
210.70485
 30
0.0
 11
163.8
 21
217.00485
 31
0.0
  0
LINE
  5
24F
330
1E
100
AcDbEntity
  8
0
100
AcDbLine
 10
158.6
 20
211.00485
 30
0.0
 11
163.5
 21
217.30485
 31
0.0
  0
LINE
  5
250
330
1E
100
AcDbEntity
  8
0
100
AcDbLine
 10
159.5
 20
210.50485
 30
0.0
 11
164.2
 21
216.60485
 31
0.0
  0
LINE
  5
251
330
1E
100
AcDbEntity
  8
0
100
AcDbLine
 10
164.2
 20
216.60485
 30
0.0
 11
170.3
 21
221.30485
 31
0.0
  0
LINE
  5
252
330
1E
100
AcDbEntity
  8
0
100
AcDbLine
 10
163.8
 20
217.00485
 30
0.0
 11
170.1
 21
221.80485
 31
0.0
  0
LINE
  5
253
330
1E
100
AcDbEntity
  8
0
100
AcDbLine
 10
150.308824
 20
224.62885
 30
0.0
 11
150.514706
 21
226.17285
 31
0.0
  0
LINE
  5
254
330
1E
100
AcDbEntity
  8
0
100
AcDbLine
 10
150.308824
 20
224.62885
 30
0.0
 11
150.308824
 21
209.80485
 31
0.0
  0
LINE
  5
255
330
1E
100
AcDbEntity
  8
0
100
AcDbLine
 10
150.0
 20
224.62885
 30
0.0
 11
150.205882
 21
226.17285
 31
0.0
  0
LINE
  5
256
330
1E
100
AcDbEntity
  8
0
100
AcDbLine
 10
150.0
 20
224.62885
 30
0.0
 11
150.0
 21
209.80485
 31
0.0
  0
LINE
  5
257
330
1E
100
AcDbEntity
  8
0
100
AcDbLine
 10
163.5
 20
217.30485
 30
0.0
 11
169.8
 21
222.20485
 31
0.0
  0
LINE
  5
258
330
1E
100
AcDbEntity
  8
0
100
AcDbLine
 10
170.3
 20
221.30485
 30
0.0
 11
177.4
 21
224.20485
 31
0.0
  0
LINE
  5
259
330
1E
100
AcDbEntity
  8
0
100
AcDbLine
 10
177.4
 20
224.20485
 30
0.0
 11
185.0
 21
225.30485
 31
0.0
  0
LINE
  5
25A
330
1E
100
AcDbEntity
  8
0
100
AcDbLine
 10
170.1
 20
221.80485
 30
0.0
 11
177.3
 21
224.70485
 31
0.0
  0
LINE
  5
25B
330
1E
100
AcDbEntity
  8
0
100
AcDbLine
 10
169.8
 20
222.20485
 30
0.0
 11
177.2
 21
225.20485
 31
0.0
  0
LINE
  5
25C
330
1E
100
AcDbEntity
  8
0
100
AcDbLine
 10
185.1591
 20
209.80485
 30
0.0
 11
188.7182
 21
209.40485
 31
0.0
  0
LINE
  5
25D
330
1E
100
AcDbEntity
  8
0
100
AcDbLine
 10
192.6
 20
224.20485
 30
0.0
 11
199.7
 21
221.30485
 31
0.0
  0
LINE
  5
25E
330
1E
100
AcDbEntity
  8
0
100
AcDbLine
 10
188.7182
 20
209.40485
 30
0.0
 11
192.0136
 21
207.93785
 31
0.0
  0
LINE
  5
25F
330
1E
100
AcDbEntity
  8
0
100
AcDbLine
 10
192.0136
 20
207.93785
 30
0.0
 11
195.0454
 21
205.80485
 31
0.0
  0
LINE
  5
260
330
1E
100
AcDbEntity
  8
0
100
AcDbLine
 10
195.0454
 20
205.80485
 30
0.0
 11
197.1545
 21
202.73785
 31
0.0
  0
LINE
  5
261
330
1E
100
AcDbEntity
  8
0
100
AcDbLine
 10
197.1545
 20
202.73785
 30
0.0
 11
198.6045
 21
199.40485
 31
0.0
  0
LINE
  5
288
330
1E
100
AcDbEntity
  8
0
100
AcDbLine
 10
213.9
 20
203.50485
 30
0.0
 11
215.0
 21
195.80485
 31
0.0
  0
LINE
  5
289
330
1E
100
AcDbEntity
  8
0
100
AcDbLine
 10
213.4
 20
203.40485
 30
0.0
 11
214.5
 21
195.80485
 31
0.0
  0
LINE
  5
28A
330
1E
100
AcDbEntity
  8
0
100
AcDbLine
 10
206.2
 20
217.00485
 30
0.0
 11
211.0
 21
210.70485
 31
0.0
  0
LINE
  5
28B
330
1E
100
AcDbEntity
  8
0
100
AcDbLine
 10
205.8
 20
216.60485
 30
0.0
 11
210.5
 21
210.50485
 31
0.0
  0
LINE
  5
28C
330
1E
100
AcDbEntity
  8
0
100
AcDbLine
 10
211.0
 20
210.70485
 30
0.0
 11
213.9
 21
203.50485
 31
0.0
  0
LINE
  5
28D
330
1E
100
AcDbEntity
  8
0
100
AcDbLine
 10
210.5
 20
210.50485
 30
0.0
 11
213.4
 21
203.40485
 31
0.0
  0
LINE
  5
28E
330
1E
100
AcDbEntity
  8
0
100
AcDbLine
 10
199.9
 20
221.80485
 30
0.0
 11
206.2
 21
217.00485
 31
0.0
  0
LINE
  5
28F
330
1E
100
AcDbEntity
  8
0
100
AcDbLine
 10
199.7
 20
221.30485
 30
0.0
 11
205.8
 21
216.60485
 31
0.0
  0
LINE
  5
290
330
1E
100
AcDbEntity
  8
0
100
AcDbLine
 10
200.2
 20
222.20485
 30
0.0
 11
206.5
 21
217.30485
 31
0.0
  0
LINE
  5
291
330
1E
100
AcDbEntity
  8
0
100
AcDbLine
 10
206.5
 20
217.30485
 30
0.0
 11
211.4
 21
211.00485
 31
0.0
  0
LINE
  5
292
330
1E
100
AcDbEntity
  8
0
100
AcDbLine
 10
219.6912
 20
224.62885
 30
0.0
 11
219.6912
 21
195.80485
 31
0.0
  0
LINE
  5
293
330
1E
100
AcDbEntity
  8
0
100
AcDbLine
 10
211.4
 20
211.00485
 30
0.0
 11
214.4
 21
203.60485
 31
0.0
  0
LINE
  5
294
330
1E
100
AcDbEntity
  8
0
100
AcDbLine
 10
214.4
 20
203.60485
 30
0.0
 11
215.5
 21
195.80485
 31
0.0
  0
LINE
  5
295
330
1E
100
AcDbEntity
  8
0
100
AcDbLine
 10
198.6045
 20
199.40485
 30
0.0
 11
199.0
 21
195.80485
 31
0.0
  0
LINE
  5
296
330
1E
100
AcDbEntity
  8
0
100
AcDbLine
 10
121.0
 20
195.80485
 30
0.0
 11
121.3858
 21
192.20485
 31
0.0
  0
LINE
  5
297
330
1E
100
AcDbEntity
  8
0
100
AcDbLine
 10
121.0
 20
195.80485
 30
0.0
 11
121.3858
 21
199.40485
 31
0.0
  0
LINE
  5
298
330
1E
100
AcDbEntity
  8
0
100
AcDbLine
 10
260.309
 20
224.62885
 30
0.0
 11
260.515
 21
226.17285
 31
0.0
  0
LINE
  5
299
330
1E
100
AcDbEntity
  8
0
100
AcDbLine
 10
260.309
 20
224.62885
 30
0.0
 11
260.309
 21
195.80485
 31
0.0
  0
LINE
  5
29A
330
1E
100
AcDbEntity
  8
0
100
AcDbLine
 10
150.514706
 20
226.17285
 30
0.0
 11
151.13235
 21
227.51085
 31
0.0
  0
LINE
  5
29B
330
1E
100
AcDbEntity
  8
0
100
AcDbLine
 10
150.205882
 20
226.17285
 30
0.0
 11
150.823529
 21
227.71685
 31
0.0
  0
LINE
  5
29C
330
1E
100
AcDbEntity
  8
0
100
AcDbLine
 10
192.7
 20
224.70485
 30
0.0
 11
199.9
 21
221.80485
 31
0.0
  0
LINE
  5
29D
330
1E
100
AcDbEntity
  8
0
100
AcDbLine
 10
185.0
 20
225.80485
 30
0.0
 11
192.7
 21
224.70485
 31
0.0
  0
LINE
  5
29E
330
1E
100
AcDbEntity
  8
0
100
AcDbLine
 10
185.0
 20
225.30485
 30
0.0
 11
192.6
 21
224.20485
 31
0.0
  0
LINE
  5
29F
330
1E
100
AcDbEntity
  8
0
100
AcDbLine
 10
219.4853
 20
226.17285
 30
0.0
 11
219.6912
 21
224.62885
 31
0.0
  0
LINE
  5
2A0
330
1E
100
AcDbEntity
  8
0
100
AcDbLine
 10
219.7941
 20
226.17285
 30
0.0
 11
220.0
 21
224.62885
 31
0.0
  0
LINE
  5
2A1
330
1E
100
AcDbEntity
  8
0
100
AcDbLine
 10
192.8
 20
225.20485
 30
0.0
 11
200.2
 21
222.20485
 31
0.0
  0
LINE
  5
2A2
330
1E
100
AcDbEntity
  8
0
100
AcDbLine
 10
177.3
 20
224.70485
 30
0.0
 11
185.0
 21
225.80485
 31
0.0
  0
LINE
  5
2A3
330
1E
100
AcDbEntity
  8
0
100
AcDbLine
 10
177.2
 20
225.20485
 30
0.0
 11
185.0
 21
226.30485
 31
0.0
  0
LINE
  5
2A8
330
1E
100
AcDbEntity
  8
0
100
AcDbLine
 10
151.13235
 20
227.51085
 30
0.0
 11
152.05882
 21
228.74585
 31
0.0
  0
LINE
  5
2A9
330
1E
100
AcDbEntity
  8
0
100
AcDbLine
 10
150.823529
 20
227.71685
 30
0.0
 11
151.85294
 21
228.95185
 31
0.0
  0
LINE
  5
2AD
330
1E
100
AcDbEntity
  8
0
100
AcDbLine
 10
218.8677
 20
227.51085
 30
0.0
 11
219.4853
 21
226.17285
 31
0.0
  0
LINE
  5
2AE
330
1E
100
AcDbEntity
  8
0
100
AcDbLine
 10
217.9412
 20
228.74585
 30
0.0
 11
218.8677
 21
227.51085
 31
0.0
  0
LINE
  5
2AF
330
1E
100
AcDbEntity
  8
0
100
AcDbLine
 10
219.1765
 20
227.71685
 30
0.0
 11
219.7941
 21
226.17285
 31
0.0
  0
LINE
  5
2B0
330
1E
100
AcDbEntity
  8
0
100
AcDbLine
 10
185.0
 20
226.30485
 30
0.0
 11
192.8
 21
225.20485
 31
0.0
  0
LINE
  5
2B1
330
1E
100
AcDbEntity
  8
0
100
AcDbLine
 10
152.05882
 20
228.74585
 30
0.0
 11
153.29412
 21
229.67285
 31
0.0
  0
LINE
  5
2B2
330
1E
100
AcDbEntity
  8
0
100
AcDbLine
 10
151.85294
 20
228.95185
 30
0.0
 11
153.08823
 21
229.98085
 31
0.0
  0
LINE
  5
2B3
330
1E
100
AcDbEntity
  8
0
100
AcDbLine
 10
260.515
 20
226.17285
 30
0.0
 11
261.132
 21
227.51085
 31
0.0
  0
LINE
  5
2B4
330
1E
100
AcDbEntity
  8
0
100
AcDbLine
 10
261.132
 20
227.51085
 30
0.0
 11
262.059
 21
228.74585
 31
0.0
  0
LINE
  5
2B5
330
1E
100
AcDbEntity
  8
0
100
AcDbLine
 10
260.824
 20
227.71685
 30
0.0
 11
261.853
 21
228.95185
 31
0.0
  0
LINE
  5
2B6
330
1E
100
AcDbEntity
  8
0
100
AcDbLine
 10
260.0
 20
224.62885
 30
0.0
 11
260.206
 21
226.17285
 31
0.0
  0
LINE
  5
2B7
330
1E
100
AcDbEntity
  8
0
100
AcDbLine
 10
260.0
 20
224.62885
 30
0.0
 11
260.0
 21
195.80485
 31
0.0
  0
LINE
  5
2B8
330
1E
100
AcDbEntity
  8
0
100
AcDbLine
 10
262.059
 20
228.74585
 30
0.0
 11
263.294
 21
229.67285
 31
0.0
  0
LINE
  5
2B9
330
1E
100
AcDbEntity
  8
0
100
AcDbLine
 10
153.29412
 20
229.67285
 30
0.0
 11
154.63235
 21
230.28985
 31
0.0
  0
LINE
  5
2BA
330
1E
100
AcDbEntity
  8
0
100
AcDbLine
 10
154.63235
 20
230.28985
 30
0.0
 11
156.17647
 21
230.49585
 31
0.0
  0
LINE
  5
2BB
330
1E
100
AcDbEntity
  8
0
100
AcDbLine
 10
156.17647
 20
230.49585
 30
0.0
 11
185.0
 21
230.49585
 31
0.0
  0
LINE
  5
2BC
330
1E
100
AcDbEntity
  8
0
100
AcDbLine
 10
153.08823
 20
229.98085
 30
0.0
 11
154.63235
 21
230.59885
 31
0.0
  0
LINE
  5
2C2
330
1E
100
AcDbEntity
  8
0
100
AcDbLine
 10
154.63235
 20
230.59885
 30
0.0
 11
156.17647
 21
230.80485
 31
0.0
  0
LINE
  5
2C3
330
1E
100
AcDbEntity
  8
0
100
AcDbLine
 10
213.8235
 20
230.49585
 30
0.0
 11
215.3677
 21
230.28985
 31
0.0
  0
LINE
  5
2C4
330
1E
100
AcDbEntity
  8
0
100
AcDbLine
 10
185.0
 20
230.49585
 30
0.0
 11
213.8235
 21
230.49585
 31
0.0
  0
LINE
  5
2C5
330
1E
100
AcDbEntity
  8
0
100
AcDbLine
 10
216.7059
 20
229.67285
 30
0.0
 11
217.9412
 21
228.74585
 31
0.0
  0
LINE
  5
2C6
330
1E
100
AcDbEntity
  8
0
100
AcDbLine
 10
215.3677
 20
230.28985
 30
0.0
 11
216.7059
 21
229.67285
 31
0.0
  0
LINE
  5
2C7
330
1E
100
AcDbEntity
  8
0
100
AcDbLine
 10
215.3677
 20
230.59885
 30
0.0
 11
216.9118
 21
229.98085
 31
0.0
  0
LINE
  5
2C8
330
1E
100
AcDbEntity
  8
0
100
AcDbLine
 10
213.8235
 20
230.80485
 30
0.0
 11
215.3677
 21
230.59885
 31
0.0
  0
LINE
  5
2C9
330
1E
100
AcDbEntity
  8
0
100
AcDbLine
 10
185.0
 20
230.80485
 30
0.0
 11
213.8235
 21
230.80485
 31
0.0
  0
LINE
  5
2CA
330
1E
100
AcDbEntity
  8
0
100
AcDbLine
 10
156.17647
 20
230.80485
 30
0.0
 11
185.0
 21
230.80485
 31
0.0
  0
LINE
  5
2CB
330
1E
100
AcDbEntity
  8
0
100
AcDbLine
 10
261.853
 20
228.95185
 30
0.0
 11
263.088
 21
229.98085
 31
0.0
  0
LINE
  5
2CC
330
1E
100
AcDbEntity
  8
0
100
AcDbLine
 10
263.294
 20
229.67285
 30
0.0
 11
264.632
 21
230.28985
 31
0.0
  0
LINE
  5
2CD
330
1E
100
AcDbEntity
  8
0
100
AcDbLine
 10
263.088
 20
229.98085
 30
0.0
 11
264.632
 21
230.59885
 31
0.0
  0
LINE
  5
2CE
330
1E
100
AcDbEntity
  8
0
100
AcDbLine
 10
260.0
 20
195.80485
 30
0.0
 11
260.0
 21
166.98085
 31
0.0
  0
LINE
  5
2CF
330
1E
100
AcDbEntity
  8
0
100
AcDbLine
 10
260.0
 20
195.80485
 30
0.0
 11
260.0
 21
224.62885
 31
0.0
  0
LINE
  5
2D0
330
1E
100
AcDbEntity
  8
0
100
AcDbLine
 10
309.0
 20
179.698183333333
 30
0.0
 11
310.2
 21
180.60485
 31
0.0
  0
LINE
  5
2D6
330
1E
100
AcDbEntity
  8
0
100
AcDbLine
 10
309.0
 20
179.130936956522
 30
0.0
 11
310.5
 21
180.30485
 31
0.0
  0
LINE
  5
2D7
330
1E
100
AcDbEntity
  8
0
100
AcDbLine
 10
310.2
 20
180.60485
 30
0.0
 11
313.6
 21
185.10485
 31
0.0
  0
LINE
  5
2D8
330
1E
100
AcDbEntity
  8
0
100
AcDbLine
 10
378.6
 20
180.60485
 30
0.0
 11
383.5
 21
174.30485
 31
0.0
  0
LINE
  5
2DB
330
1E
100
AcDbEntity
  8
0
100
AcDbLine
 10
431.4
 20
180.60485
 30
0.0
 11
431.886486486486
 21
181.80485
 31
0.0
  0
LINE
  5
2DC
330
1E
100
AcDbEntity
  8
0
100
AcDbLine
 10
321.4
 20
180.60485
 30
0.0
 11
324.4
 21
188.00485
 31
0.0
  0
LINE
  5
2DD
330
1E
100
AcDbEntity
  8
0
100
AcDbLine
 10
310.5
 20
180.30485
 30
0.0
 11
314.1
 21
184.90485
 31
0.0
  0
LINE
  5
2DE
330
1E
100
AcDbEntity
  8
0
100
AcDbLine
 10
309.0
 20
180.28185
 30
0.0
 11
309.0
 21
184.85285
 31
0.0
  0
LINE
  5
2DF
330
1E
100
AcDbEntity
  8
0
100
AcDbLine
 10
309.0
 20
180.28185
 30
0.0
 11
309.0
 21
175.06885
 31
0.0
  0
LINE
  5
2E0
330
1E
100
AcDbEntity
  8
0
100
AcDbLine
 10
281.0
 20
180.28185
 30
0.0
 11
281.0
 21
184.85285
 31
0.0
  0
LINE
  5
2E1
330
1E
100
AcDbEntity
  8
0
100
AcDbLine
 10
281.0
 20
180.28185
 30
0.0
 11
281.0
 21
175.06885
 31
0.0
  0
LINE
  5
2E4
330
1E
100
AcDbEntity
  8
0
100
AcDbLine
 10
379.0
 20
180.90485
 30
0.0
 11
383.8
 21
174.60485
 31
0.0
  0
LINE
  5
2E5
330
1E
100
AcDbEntity
  8
0
100
AcDbLine
 10
431.0
 20
180.90485
 30
0.0
 11
431.3625
 21
181.80485
 31
0.0
  0
LINE
  5
2E6
330
1E
100
AcDbEntity
  8
0
100
AcDbLine
 10
321.0
 20
180.90485
 30
0.0
 11
323.9
 21
188.10485
 31
0.0
  0
LINE
  5
2E7
330
1E
100
AcDbEntity
  8
0
100
AcDbLine
 10
279.8
 20
180.60485
 30
0.0
 11
281.0
 21
179.698183333333
 31
0.0
  0
LINE
  5
2E8
330
1E
100
AcDbEntity
  8
0
100
AcDbLine
 10
279.5
 20
180.30485
 30
0.0
 11
281.0
 21
179.130936956522
 31
0.0
  0
LINE
  5
2E9
330
1E
100
AcDbEntity
  8
0
100
AcDbLine
 10
379.5
 20
181.10485
 30
0.0
 11
384.2
 21
175.00485
 31
0.0
  0
LINE
  5
2EA
330
1E
100
AcDbEntity
  8
0
100
AcDbLine
 10
404.841
 20
181.80485
 30
0.0
 11
405.368
 21
181.80485
 31
0.0
  0
LINE
  5
2EB
330
1E
100
AcDbEntity
  8
0
100
AcDbLine
 10
404.841
 20
181.80485
 30
0.0
 11
420.0
 21
181.80485
 31
0.0
  0
LINE
  5
2EC
330
1E
100
AcDbEntity
  8
0
100
AcDbLine
 10
405.368
 20
181.80485
 30
0.0
 11
407.345
 21
181.80485
 31
0.0
  0
LINE
  5
2ED
330
1E
100
AcDbEntity
  8
0
100
AcDbLine
 10
407.345
 20
181.80485
 30
0.0
 11
411.036
 21
181.80485
 31
0.0
  0
LINE
  5
2EE
330
1E
100
AcDbEntity
  8
0
100
AcDbLine
 10
411.036
 20
181.80485
 30
0.0
 11
416.704
 21
181.80485
 31
0.0
  0
LINE
  5
2EF
330
1E
100
AcDbEntity
  8
0
100
AcDbLine
 10
416.704
 20
181.80485
 30
0.0
 11
421.396
 21
181.80485
 31
0.0
  0
LINE
  5
2F0
330
1E
100
AcDbEntity
  8
0
100
AcDbLine
 10
420.0
 20
181.80485
 30
0.0
 11
455.499
 21
181.80485
 31
0.0
  0
LINE
  5
2F1
330
1E
100
AcDbEntity
  8
0
100
AcDbLine
 10
420.0
 20
181.80485
 30
0.0
 11
427.91
 21
181.80485
 31
0.0
  0
LINE
  5
2F2
330
1E
100
AcDbEntity
  8
0
100
AcDbLine
 10
421.396
 20
181.80485
 30
0.0
 11
424.839
 21
181.80485
 31
0.0
  0
LINE
  5
2F3
330
1E
100
AcDbEntity
  8
0
100
AcDbLine
 10
424.839
 20
181.80485
 30
0.0
 11
427.91
 21
181.80485
 31
0.0
  0
LINE
  5
2F4
330
1E
100
AcDbEntity
  8
0
100
AcDbLine
 10
427.91
 20
181.80485
 30
0.0
 11
455.499
 21
181.80485
 31
0.0
  0
LINE
  5
2F5
330
1E
100
AcDbEntity
  8
0
100
AcDbLine
 10
430.5
 20
181.10485
 30
0.0
 11
430.785915492958
 21
181.80485
 31
0.0
  0
LINE
  5
2F8
330
1E
100
AcDbEntity
  8
0
100
AcDbLine
 10
455.499
 20
181.80485
 30
0.0
 11
458.97
 21
182.20485
 31
0.0
  0
LINE
  5
2F9
330
1E
100
AcDbEntity
  8
0
100
AcDbLine
 10
439.691
 20
181.80485
 30
0.0
 11
439.691
 21
166.98085
 31
0.0
  0
LINE
  5
2FC
330
1E
100
AcDbEntity
  8
0
100
AcDbLine
 10
458.97
 20
182.20485
 30
0.0
 11
462.185
 21
183.67185
 31
0.0
  0
LINE
  5
2FD
330
1E
100
AcDbEntity
  8
0
100
AcDbLine
 10
462.185
 20
183.67185
 30
0.0
 11
465.142
 21
185.80485
 31
0.0
  0
LINE
  5
2FE
330
1E
100
AcDbEntity
  8
0
100
AcDbLine
 10
401.282
 20
182.20485
 30
0.0
 11
404.841
 21
181.80485
 31
0.0
  0
LINE
  5
2FF
330
1E
100
AcDbEntity
  8
0
100
AcDbLine
 10
397.986
 20
183.67185
 30
0.0
 11
401.282
 21
182.20485
 31
0.0
  0
LINE
  5
300
330
1E
100
AcDbEntity
  8
0
100
AcDbLine
 10
440.0
 20
181.80485
 30
0.0
 11
440.0
 21
166.98085
 31
0.0
  0
LINE
  5
301
330
1E
100
AcDbEntity
  8
0
100
AcDbLine
 10
320.5
 20
181.10485
 30
0.0
 11
323.4
 21
188.20485
 31
0.0
  0
LINE
  5
302
330
1E
100
AcDbEntity
  8
0
100
AcDbLine
 10
314.1
 20
184.90485
 30
0.0
 11
316.2
 21
190.10485
 31
0.0
  0
LINE
  5
303
330
1E
100
AcDbEntity
  8
0
100
AcDbLine
 10
309.0
 20
184.85285
 30
0.0
 11
309.0
 21
180.28185
 31
0.0
  0
LINE
  5
304
330
1E
100
AcDbEntity
  8
0
100
AcDbLine
 10
309.0
 20
184.85285
 30
0.0
 11
309.0
 21
188.70385
 31
0.0
  0
LINE
  5
305
330
1E
100
AcDbEntity
  8
0
100
AcDbLine
 10
281.0
 20
184.85285
 30
0.0
 11
281.0
 21
180.28185
 31
0.0
  0
LINE
  5
306
330
1E
100
AcDbEntity
  8
0
100
AcDbLine
 10
281.0
 20
184.85285
 30
0.0
 11
281.0
 21
188.70385
 31
0.0
  0
LINE
  5
309
330
1E
100
AcDbEntity
  8
0
100
AcDbLine
 10
465.142
 20
185.80485
 30
0.0
 11
467.2
 21
188.87185
 31
0.0
  0
LINE
  5
30B
330
1E
100
AcDbEntity
  8
0
100
AcDbLine
 10
375.6
 20
188.00485
 30
0.0
 11
378.6
 21
180.60485
 31
0.0
  0
LINE
  5
30C
330
1E
100
AcDbEntity
  8
0
100
AcDbLine
 10
394.955
 20
185.80485
 30
0.0
 11
397.986
 21
183.67185
 31
0.0
  0
LINE
  5
30D
330
1E
100
AcDbEntity
  8
0
100
AcDbLine
 10
324.4
 20
188.00485
 30
0.0
 11
325.5
 21
195.80485
 31
0.0
  0
LINE
  5
30E
330
1E
100
AcDbEntity
  8
0
100
AcDbLine
 10
313.6
 20
185.10485
 30
0.0
 11
315.7
 21
190.30485
 31
0.0
  0
LINE
  5
30F
330
1E
100
AcDbEntity
  8
0
100
AcDbLine
 10
276.4
 20
185.10485
 30
0.0
 11
279.8
 21
180.60485
 31
0.0
  0
LINE
  5
310
330
1E
100
AcDbEntity
  8
0
100
AcDbLine
 10
275.9
 20
184.90485
 30
0.0
 11
279.5
 21
180.30485
 31
0.0
  0
LINE
  5
311
330
1E
100
AcDbEntity
  8
0
100
AcDbLine
 10
269.5
 20
181.10485
 30
0.0
 11
274.2
 21
175.00485
 31
0.0
  0
LINE
  5
312
330
1E
100
AcDbEntity
  8
0
100
AcDbLine
 10
269.0
 20
180.90485
 30
0.0
 11
273.8
 21
174.60485
 31
0.0
  0
LINE
  5
313
330
1E
100
AcDbEntity
  8
0
100
AcDbLine
 10
268.6
 20
180.60485
 30
0.0
 11
273.5
 21
174.30485
 31
0.0
  0
LINE
  5
314
330
1E
100
AcDbEntity
  8
0
100
AcDbLine
 10
264.632
 20
230.28985
 30
0.0
 11
266.176
 21
230.49585
 31
0.0
  0
LINE
  5
315
330
1E
100
AcDbEntity
  8
0
100
AcDbLine
 10
264.632
 20
230.59885
 30
0.0
 11
266.176
 21
230.80485
 31
0.0
  0
LINE
  5
317
330
1E
100
AcDbEntity
  8
0
100
AcDbLine
 10
376.1
 20
188.10485
 30
0.0
 11
379.0
 21
180.90485
 31
0.0
  0
LINE
  5
318
330
1E
100
AcDbEntity
  8
0
100
AcDbLine
 10
323.9
 20
188.10485
 30
0.0
 11
325.0
 21
195.80485
 31
0.0
  0
LINE
  5
31A
330
1E
100
AcDbEntity
  8
0
100
AcDbLine
 10
376.6
 20
188.20485
 30
0.0
 11
379.5
 21
181.10485
 31
0.0
  0
LINE
  5
31B
330
1E
100
AcDbEntity
  8
0
100
AcDbLine
 10
323.4
 20
188.20485
 30
0.0
 11
324.5
 21
195.80485
 31
0.0
  0
LINE
  5
31C
330
1E
100
AcDbEntity
  8
0
100
AcDbLine
 10
273.5
 20
195.80485
 30
0.0
 11
274.3
 21
190.30485
 31
0.0
  0
LINE
  5
31D
330
1E
100
AcDbEntity
  8
0
100
AcDbLine
 10
273.5
 20
195.80485
 30
0.0
 11
274.3
 21
201.30485
 31
0.0
  0
LINE
  5
31E
330
1E
100
AcDbEntity
  8
0
100
AcDbLine
 10
266.176
 20
230.49585
 30
0.0
 11
295.0
 21
230.49585
 31
0.0
  0
LINE
  5
31F
330
1E
100
AcDbEntity
  8
0
100
AcDbLine
 10
266.176
 20
230.80485
 30
0.0
 11
295.0
 21
230.80485
 31
0.0
  0
LINE
  5
320
330
1E
100
AcDbEntity
  8
0
100
AcDbLine
 10
265.6
 20
203.60485
 30
0.0
 11
268.6
 21
211.00485
 31
0.0
  0
LINE
  5
321
330
1E
100
AcDbEntity
  8
0
100
AcDbLine
 10
266.1
 20
203.50485
 30
0.0
 11
269.0
 21
210.70485
 31
0.0
  0
LINE
  5
322
330
1E
100
AcDbEntity
  8
0
100
AcDbLine
 10
273.8
 20
201.50485
 30
0.0
 11
275.9
 21
206.70485
 31
0.0
  0
LINE
  5
323
330
1E
100
AcDbEntity
  8
0
100
AcDbLine
 10
268.6
 20
211.00485
 30
0.0
 11
273.5
 21
217.30485
 31
0.0
  0
LINE
  5
324
330
1E
100
AcDbEntity
  8
0
100
AcDbLine
 10
273.8
 20
217.00485
 30
0.0
 11
280.1
 21
221.80485
 31
0.0
  0
LINE
  5
325
330
1E
100
AcDbEntity
  8
0
100
AcDbLine
 10
273.5
 20
217.30485
 30
0.0
 11
279.8
 21
222.20485
 31
0.0
  0
LINE
  5
326
330
1E
100
AcDbEntity
  8
0
100
AcDbLine
 10
269.0
 20
210.70485
 30
0.0
 11
273.8
 21
217.00485
 31
0.0
  0
LINE
  5
327
330
1E
100
AcDbEntity
  8
0
100
AcDbLine
 10
269.5
 20
210.50485
 30
0.0
 11
274.2
 21
216.60485
 31
0.0
  0
LINE
  5
328
330
1E
100
AcDbEntity
  8
0
100
AcDbLine
 10
266.6
 20
203.40485
 30
0.0
 11
269.5
 21
210.50485
 31
0.0
  0
LINE
  5
329
330
1E
100
AcDbEntity
  8
0
100
AcDbLine
 10
273.0
 20
195.80485
 30
0.0
 11
273.8
 21
190.10485
 31
0.0
  0
LINE
  5
32A
330
1E
100
AcDbEntity
  8
0
100
AcDbLine
 10
273.0
 20
195.80485
 30
0.0
 11
273.8
 21
201.50485
 31
0.0
  0
LINE
  5
32C
330
1E
100
AcDbEntity
  8
0
100
AcDbLine
 10
315.7
 20
190.30485
 30
0.0
 11
316.5
 21
195.80485
 31
0.0
  0
LINE
  5
32D
330
1E
100
AcDbEntity
  8
0
100
AcDbLine
 10
467.2
 20
188.87185
 30
0.0
 11
468.614
 21
192.20485
 31
0.0
  0
LINE
  5
335
330
1E
100
AcDbEntity
  8
0
100
AcDbLine
 10
392.845
 20
188.87185
 30
0.0
 11
394.955
 21
185.80485
 31
0.0
  0
LINE
  5
336
330
1E
100
AcDbEntity
  8
0
100
AcDbLine
 10
316.2
 20
190.10485
 30
0.0
 11
317.0
 21
195.80485
 31
0.0
  0
LINE
  5
337
330
1E
100
AcDbEntity
  8
0
100
AcDbLine
 10
309.0
 20
188.70385
 30
0.0
 11
309.0
 21
184.85285
 31
0.0
  0
LINE
  5
338
330
1E
100
AcDbEntity
  8
0
100
AcDbLine
 10
309.0
 20
188.70385
 30
0.0
 11
309.0
 21
191.77085
 31
0.0
  0
LINE
  5
339
330
1E
100
AcDbEntity
  8
0
100
AcDbLine
 10
281.0
 20
188.70385
 30
0.0
 11
281.0
 21
184.85285
 31
0.0
  0
LINE
  5
33A
330
1E
100
AcDbEntity
  8
0
100
AcDbLine
 10
281.0
 20
188.70385
 30
0.0
 11
281.0
 21
191.77085
 31
0.0
  0
LINE
  5
33B
330
1E
100
AcDbEntity
  8
0
100
AcDbLine
 10
274.2
 20
216.60485
 30
0.0
 11
280.3
 21
221.30485
 31
0.0
  0
LINE
  5
33C
330
1E
100
AcDbEntity
  8
0
100
AcDbLine
 10
274.3
 20
201.30485
 30
0.0
 11
276.4
 21
206.50485
 31
0.0
  0
LINE
  5
33D
330
1E
100
AcDbEntity
  8
0
100
AcDbLine
 10
281.0
 20
191.77085
 30
0.0
 11
281.0
 21
188.70385
 31
0.0
  0
LINE
  5
33E
330
1E
100
AcDbEntity
  8
0
100
AcDbLine
 10
281.0
 20
191.77085
 30
0.0
 11
281.0
 21
193.99885
 31
0.0
  0
LINE
  5
33F
330
1E
100
AcDbEntity
  8
0
100
AcDbLine
 10
281.0
 20
193.99885
 30
0.0
 11
281.0
 21
195.35185
 31
0.0
  0
LINE
  5
340
330
1E
100
AcDbEntity
  8
0
100
AcDbLine
 10
281.0
 20
193.99885
 30
0.0
 11
281.0
 21
191.77085
 31
0.0
  0
LINE
  5
341
330
1E
100
AcDbEntity
  8
0
100
AcDbLine
 10
281.0
 20
195.35185
 30
0.0
 11
281.0
 21
195.80485
 31
0.0
  0
LINE
  5
342
330
1E
100
AcDbEntity
  8
0
100
AcDbLine
 10
281.0
 20
195.35185
 30
0.0
 11
281.0
 21
193.99885
 31
0.0
  0
LINE
  5
343
330
1E
100
AcDbEntity
  8
0
100
AcDbLine
 10
281.5
 20
199.40485
 30
0.0
 11
282.9
 21
202.80485
 31
0.0
  0
LINE
  5
344
330
1E
100
AcDbEntity
  8
0
100
AcDbLine
 10
281.0
 20
195.80485
 30
0.0
 11
281.5
 21
199.40485
 31
0.0
  0
LINE
  5
345
330
1E
100
AcDbEntity
  8
0
100
AcDbLine
 10
281.0
 20
195.80485
 30
0.0
 11
281.0
 21
195.35185
 31
0.0
  0
LINE
  5
346
330
1E
100
AcDbEntity
  8
0
100
AcDbLine
 10
307.1
 20
202.80485
 30
0.0
 11
308.5
 21
199.40485
 31
0.0
  0
LINE
  5
347
330
1E
100
AcDbEntity
  8
0
100
AcDbLine
 10
307.1
 20
202.80485
 30
0.0
 11
308.5
 21
199.40485
 31
0.0
  0
LINE
  5
348
330
1E
100
AcDbEntity
  8
0
100
AcDbLine
 10
308.5
 20
199.40485
 30
0.0
 11
309.0
 21
195.80485
 31
0.0
  0
LINE
  5
349
330
1E
100
AcDbEntity
  8
0
100
AcDbLine
 10
308.5
 20
199.40485
 30
0.0
 11
309.0
 21
195.80485
 31
0.0
  0
LINE
  5
34A
330
1E
100
AcDbEntity
  8
0
100
AcDbLine
 10
309.0
 20
195.80485
 30
0.0
 11
309.0
 21
195.35185
 31
0.0
  0
LINE
  5
34B
330
1E
100
AcDbEntity
  8
0
100
AcDbLine
 10
309.0
 20
195.35185
 30
0.0
 11
309.0
 21
193.99885
 31
0.0
  0
LINE
  5
34C
330
1E
100
AcDbEntity
  8
0
100
AcDbLine
 10
309.0
 20
195.35185
 30
0.0
 11
309.0
 21
195.80485
 31
0.0
  0
LINE
  5
34D
330
1E
100
AcDbEntity
  8
0
100
AcDbLine
 10
309.0
 20
191.77085
 30
0.0
 11
309.0
 21
188.70385
 31
0.0
  0
LINE
  5
34E
330
1E
100
AcDbEntity
  8
0
100
AcDbLine
 10
309.0
 20
191.77085
 30
0.0
 11
309.0
 21
193.99885
 31
0.0
  0
LINE
  5
35D
330
1E
100
AcDbEntity
  8
0
100
AcDbLine
 10
468.614
 20
192.20485
 30
0.0
 11
469.0
 21
195.80485
 31
0.0
  0
LINE
  5
36A
330
1E
100
AcDbEntity
  8
0
100
AcDbLine
 10
375.5
 20
195.80485
 30
0.0
 11
376.6
 21
203.40485
 31
0.0
  0
LINE
  5
36B
330
1E
100
AcDbEntity
  8
0
100
AcDbLine
 10
375.5
 20
195.80485
 30
0.0
 11
376.6
 21
188.20485
 31
0.0
  0
LINE
  5
36C
330
1E
100
AcDbEntity
  8
0
100
AcDbLine
 10
374.5
 20
195.80485
 30
0.0
 11
375.6
 21
203.60485
 31
0.0
  0
LINE
  5
36D
330
1E
100
AcDbEntity
  8
0
100
AcDbLine
 10
374.5
 20
195.80485
 30
0.0
 11
375.6
 21
188.00485
 31
0.0
  0
LINE
  5
36E
330
1E
100
AcDbEntity
  8
0
100
AcDbLine
 10
375.0
 20
195.80485
 30
0.0
 11
376.1
 21
203.50485
 31
0.0
  0
LINE
  5
36F
330
1E
100
AcDbEntity
  8
0
100
AcDbLine
 10
375.0
 20
195.80485
 30
0.0
 11
376.1
 21
188.10485
 31
0.0
  0
LINE
  5
370
330
1E
100
AcDbEntity
  8
0
100
AcDbLine
 10
370.309
 20
195.80485
 30
0.0
 11
370.309
 21
224.62885
 31
0.0
  0
LINE
  5
371
330
1E
100
AcDbEntity
  8
0
100
AcDbLine
 10
370.309
 20
195.80485
 30
0.0
 11
370.309
 21
166.98085
 31
0.0
  0
LINE
  5
372
330
1E
100
AcDbEntity
  8
0
100
AcDbLine
 10
370.0
 20
195.80485
 30
0.0
 11
370.0
 21
224.62885
 31
0.0
  0
LINE
  5
373
330
1E
100
AcDbEntity
  8
0
100
AcDbLine
 10
370.0
 20
195.80485
 30
0.0
 11
370.0
 21
166.98085
 31
0.0
  0
LINE
  5
374
330
1E
100
AcDbEntity
  8
0
100
AcDbLine
 10
480.309
 20
195.80485
 30
0.0
 11
480.309
 21
166.98085
 31
0.0
  0
LINE
  5
375
330
1E
100
AcDbEntity
  8
0
100
AcDbLine
 10
480.309
 20
195.80485
 30
0.0
 11
480.309
 21
224.62885
 31
0.0
  0
LINE
  5
376
330
1E
100
AcDbEntity
  8
0
100
AcDbLine
 10
480.0
 20
195.80485
 30
0.0
 11
480.0
 21
166.98085
 31
0.0
  0
LINE
  5
377
330
1E
100
AcDbEntity
  8
0
100
AcDbLine
 10
480.0
 20
195.80485
 30
0.0
 11
480.0
 21
224.62885
 31
0.0
  0
LINE
  5
380
330
1E
100
AcDbEntity
  8
0
100
AcDbLine
 10
391.395
 20
192.20485
 30
0.0
 11
392.845
 21
188.87185
 31
0.0
  0
LINE
  5
381
330
1E
100
AcDbEntity
  8
0
100
AcDbLine
 10
329.691
 20
195.80485
 30
0.0
 11
329.691
 21
224.62885
 31
0.0
  0
LINE
  5
382
330
1E
100
AcDbEntity
  8
0
100
AcDbLine
 10
329.691
 20
195.80485
 30
0.0
 11
329.691
 21
166.98085
 31
0.0
  0
LINE
  5
39A
330
1E
100
AcDbEntity
  8
0
100
AcDbLine
 10
468.614
 20
199.40485
 30
0.0
 11
469.0
 21
195.80485
 31
0.0
  0
LINE
  5
39C
330
1E
100
AcDbEntity
  8
0
100
AcDbLine
 10
391.395
 20
199.40485
 30
0.0
 11
392.845
 21
202.73785
 31
0.0
  0
LINE
  5
39D
330
1E
100
AcDbEntity
  8
0
100
AcDbLine
 10
391.0
 20
195.80485
 30
0.0
 11
391.395
 21
199.40485
 31
0.0
  0
LINE
  5
39E
330
1E
100
AcDbEntity
  8
0
100
AcDbLine
 10
391.0
 20
195.80485
 30
0.0
 11
391.395
 21
192.20485
 31
0.0
  0
LINE
  5
3A0
330
1E
100
AcDbEntity
  8
0
100
AcDbLine
 10
315.7
 20
201.30485
 30
0.0
 11
316.5
 21
195.80485
 31
0.0
  0
LINE
  5
3A7
330
1E
100
AcDbEntity
  8
0
100
AcDbLine
 10
467.2
 20
202.73785
 30
0.0
 11
468.614
 21
199.40485
 31
0.0
  0
LINE
  5
3A8
330
1E
100
AcDbEntity
  8
0
100
AcDbLine
 10
392.845
 20
202.73785
 30
0.0
 11
394.955
 21
205.80485
 31
0.0
  0
LINE
  5
3A9
330
1E
100
AcDbEntity
  8
0
100
AcDbLine
 10
316.2
 20
201.50485
 30
0.0
 11
317.0
 21
195.80485
 31
0.0
  0
LINE
  5
3AA
330
1E
100
AcDbEntity
  8
0
100
AcDbLine
 10
309.0
 20
193.99885
 30
0.0
 11
309.0
 21
191.77085
 31
0.0
  0
LINE
  5
3AB
330
1E
100
AcDbEntity
  8
0
100
AcDbLine
 10
309.0
 20
193.99885
 30
0.0
 11
309.0
 21
195.35185
 31
0.0
  0
LINE
  5
3B1
330
1E
100
AcDbEntity
  8
0
100
AcDbLine
 10
376.6
 20
203.40485
 30
0.0
 11
379.5
 21
210.50485
 31
0.0
  0
LINE
  5
3B3
330
1E
100
AcDbEntity
  8
0
100
AcDbLine
 10
375.6
 20
203.60485
 30
0.0
 11
378.6
 21
211.00485
 31
0.0
  0
LINE
  5
3B4
330
1E
100
AcDbEntity
  8
0
100
AcDbLine
 10
376.1
 20
203.50485
 30
0.0
 11
379.0
 21
210.70485
 31
0.0
  0
LINE
  5
3B5
330
1E
100
AcDbEntity
  8
0
100
AcDbLine
 10
323.9
 20
203.50485
 30
0.0
 11
325.0
 21
195.80485
 31
0.0
  0
LINE
  5
3BC
330
1E
100
AcDbEntity
  8
0
100
AcDbLine
 10
324.4
 20
203.60485
 30
0.0
 11
325.5
 21
195.80485
 31
0.0
  0
LINE
  5
3BD
330
1E
100
AcDbEntity
  8
0
100
AcDbLine
 10
323.4
 20
203.40485
 30
0.0
 11
324.5
 21
195.80485
 31
0.0
  0
LINE
  5
3BF
330
1E
100
AcDbEntity
  8
0
100
AcDbLine
 10
465.142
 20
205.80485
 30
0.0
 11
467.2
 21
202.73785
 31
0.0
  0
LINE
  5
3C1
330
1E
100
AcDbEntity
  8
0
100
AcDbLine
 10
394.955
 20
205.80485
 30
0.0
 11
397.986
 21
207.93785
 31
0.0
  0
LINE
  5
3C2
330
1E
100
AcDbEntity
  8
0
100
AcDbLine
 10
313.6
 20
206.50485
 30
0.0
 11
315.7
 21
201.30485
 31
0.0
  0
LINE
  5
3C3
330
1E
100
AcDbEntity
  8
0
100
AcDbLine
 10
304.9
 20
205.70485
 30
0.0
 11
307.1
 21
202.80485
 31
0.0
  0
LINE
  5
3C4
330
1E
100
AcDbEntity
  8
0
100
AcDbLine
 10
285.1
 20
205.70485
 30
0.0
 11
288.0
 21
207.90485
 31
0.0
  0
LINE
  5
3C5
330
1E
100
AcDbEntity
  8
0
100
AcDbLine
 10
282.9
 20
202.80485
 30
0.0
 11
285.1
 21
205.70485
 31
0.0
  0
LINE
  5
3C7
330
1E
100
AcDbEntity
  8
0
100
AcDbLine
 10
279.8
 20
211.00485
 30
0.0
 11
284.3
 21
214.40485
 31
0.0
  0
LINE
  5
3C8
330
1E
100
AcDbEntity
  8
0
100
AcDbLine
 10
279.5
 20
211.30485
 30
0.0
 11
284.1
 21
214.90485
 31
0.0
  0
LINE
  5
3C9
330
1E
100
AcDbEntity
  8
0
100
AcDbLine
 10
284.3
 20
214.40485
 30
0.0
 11
289.5
 21
216.50485
 31
0.0
  0
LINE
  5
3CA
330
1E
100
AcDbEntity
  8
0
100
AcDbLine
 10
284.1
 20
214.90485
 30
0.0
 11
289.3
 21
217.00485
 31
0.0
  0
LINE
  5
3CB
330
1E
100
AcDbEntity
  8
0
100
AcDbLine
 10
280.1
 20
221.80485
 30
0.0
 11
287.3
 21
224.70485
 31
0.0
  0
LINE
  5
3CC
330
1E
100
AcDbEntity
  8
0
100
AcDbLine
 10
287.3
 20
224.70485
 30
0.0
 11
295.0
 21
225.80485
 31
0.0
  0
LINE
  5
3CD
330
1E
100
AcDbEntity
  8
0
100
AcDbLine
 10
287.2
 20
225.20485
 30
0.0
 11
295.0
 21
226.30485
 31
0.0
  0
LINE
  5
3CE
330
1E
100
AcDbEntity
  8
0
100
AcDbLine
 10
279.8
 20
222.20485
 30
0.0
 11
287.2
 21
225.20485
 31
0.0
  0
LINE
  5
3CF
330
1E
100
AcDbEntity
  8
0
100
AcDbLine
 10
280.3
 20
221.30485
 30
0.0
 11
287.4
 21
224.20485
 31
0.0
  0
LINE
  5
3D0
330
1E
100
AcDbEntity
  8
0
100
AcDbLine
 10
288.0
 20
207.90485
 30
0.0
 11
291.4
 21
209.30485
 31
0.0
  0
LINE
  5
3D1
330
1E
100
AcDbEntity
  8
0
100
AcDbLine
 10
298.6
 20
209.30485
 30
0.0
 11
302.0
 21
207.90485
 31
0.0
  0
LINE
  5
3D3
330
1E
100
AcDbEntity
  8
0
100
AcDbLine
 10
462.185
 20
207.93785
 30
0.0
 11
465.142
 21
205.80485
 31
0.0
  0
LINE
  5
3D8
330
1E
100
AcDbEntity
  8
0
100
AcDbLine
 10
397.986
 20
207.93785
 30
0.0
 11
401.282
 21
209.40485
 31
0.0
  0
LINE
  5
3DA
330
1E
100
AcDbEntity
  8
0
100
AcDbLine
 10
314.1
 20
206.70485
 30
0.0
 11
316.2
 21
201.50485
 31
0.0
  0
LINE
  5
3DB
330
1E
100
AcDbEntity
  8
0
100
AcDbLine
 10
302.0
 20
207.90485
 30
0.0
 11
304.9
 21
205.70485
 31
0.0
  0
LINE
  5
3DC
330
1E
100
AcDbEntity
  8
0
100
AcDbLine
 10
291.096
 20
211.80485
 30
0.0
 11
291.24
 21
211.80485
 31
0.0
  0
LINE
  5
3DD
330
1E
100
AcDbEntity
  8
0
100
AcDbLine
 10
292.0
 20
211.80485
 30
0.0
 11
292.0
 21
209.388183333333
 31
0.0
  0
LINE
  5
3DE
330
1E
100
AcDbEntity
  8
0
100
AcDbLine
 10
292.0
 20
211.80485
 30
0.0
 11
292.108
 21
211.80485
 31
0.0
  0
LINE
  5
3DF
330
1E
100
AcDbEntity
  8
0
100
AcDbLine
 10
292.108
 20
211.80485
 30
0.0
 11
292.396
 21
211.80485
 31
0.0
  0
LINE
  5
3E0
330
1E
100
AcDbEntity
  8
0
100
AcDbLine
 10
292.0
 20
209.388183333333
 30
0.0
 11
292.0
 21
211.80485
 31
0.0
  0
LINE
  5
3E1
330
1E
100
AcDbEntity
  8
0
100
AcDbLine
 10
292.396
 20
211.80485
 30
0.0
 11
292.876
 21
211.80485
 31
0.0
  0
LINE
  5
3E2
330
1E
100
AcDbEntity
  8
0
100
AcDbLine
 10
292.876
 20
211.80485
 30
0.0
 11
293.512
 21
211.80485
 31
0.0
  0
LINE
  5
3E3
330
1E
100
AcDbEntity
  8
0
100
AcDbLine
 10
293.512
 20
211.80485
 30
0.0
 11
294.232
 21
211.80485
 31
0.0
  0
LINE
  5
3E4
330
1E
100
AcDbEntity
  8
0
100
AcDbLine
 10
292.248
 20
211.80485
 30
0.0
 11
293.064
 21
211.80485
 31
0.0
  0
LINE
  5
3E5
330
1E
100
AcDbEntity
  8
0
100
AcDbLine
 10
293.064
 20
211.80485
 30
0.0
 11
293.992
 21
211.80485
 31
0.0
  0
LINE
  5
3E6
330
1E
100
AcDbEntity
  8
0
100
AcDbLine
 10
294.232
 20
211.80485
 30
0.0
 11
295.0
 21
211.80485
 31
0.0
  0
LINE
  5
3E7
330
1E
100
AcDbEntity
  8
0
100
AcDbLine
 10
293.992
 20
211.80485
 30
0.0
 11
295.0
 21
211.80485
 31
0.0
  0
LINE
  5
3E8
330
1E
100
AcDbEntity
  8
0
100
AcDbLine
 10
295.0
 20
211.80485
 30
0.0
 11
296.008
 21
211.80485
 31
0.0
  0
LINE
  5
3E9
330
1E
100
AcDbEntity
  8
0
100
AcDbLine
 10
295.0
 20
211.80485
 30
0.0
 11
295.768
 21
211.80485
 31
0.0
  0
LINE
  5
3EA
330
1E
100
AcDbEntity
  8
0
100
AcDbLine
 10
291.24
 20
211.80485
 30
0.0
 11
291.624
 21
211.80485
 31
0.0
  0
LINE
  5
3EB
330
1E
100
AcDbEntity
  8
0
100
AcDbLine
 10
291.0
 20
212.03585
 30
0.0
 11
291.096
 21
211.80485
 31
0.0
  0
LINE
  5
3EC
330
1E
100
AcDbEntity
  8
0
100
AcDbLine
 10
291.0
 20
212.03585
 30
0.0
 11
291.0
 21
223.57385
 31
0.0
  0
LINE
  5
3ED
330
1E
100
AcDbEntity
  8
0
100
AcDbLine
 10
291.624
 20
211.80485
 30
0.0
 11
292.0
 21
211.80485
 31
0.0
  0
LINE
  5
3EE
330
1E
100
AcDbEntity
  8
0
100
AcDbLine
 10
291.624
 20
211.80485
 30
0.0
 11
292.248
 21
211.80485
 31
0.0
  0
LINE
  5
3EF
330
1E
100
AcDbEntity
  8
0
100
AcDbLine
 10
296.488
 20
211.80485
 30
0.0
 11
297.124
 21
211.80485
 31
0.0
  0
LINE
  5
3F0
330
1E
100
AcDbEntity
  8
0
100
AcDbLine
 10
295.768
 20
211.80485
 30
0.0
 11
296.488
 21
211.80485
 31
0.0
  0
LINE
  5
3F1
330
1E
100
AcDbEntity
  8
0
100
AcDbLine
 10
297.892
 20
211.80485
 30
0.0
 11
298.0
 21
211.80485
 31
0.0
  0
LINE
  5
3F2
330
1E
100
AcDbEntity
  8
0
100
AcDbLine
 10
298.0
 20
209.388183333333
 30
0.0
 11
298.0
 21
211.80485
 31
0.0
  0
LINE
  5
3F3
330
1E
100
AcDbEntity
  8
0
100
AcDbLine
 10
297.604
 20
211.80485
 30
0.0
 11
297.892
 21
211.80485
 31
0.0
  0
LINE
  5
3F4
330
1E
100
AcDbEntity
  8
0
100
AcDbLine
 10
297.124
 20
211.80485
 30
0.0
 11
297.604
 21
211.80485
 31
0.0
  0
LINE
  5
3F5
330
1E
100
AcDbEntity
  8
0
100
AcDbLine
 10
297.752
 20
211.80485
 30
0.0
 11
298.376
 21
211.80485
 31
0.0
  0
LINE
  5
3F6
330
1E
100
AcDbEntity
  8
0
100
AcDbLine
 10
296.936
 20
211.80485
 30
0.0
 11
297.752
 21
211.80485
 31
0.0
  0
LINE
  5
3F7
330
1E
100
AcDbEntity
  8
0
100
AcDbLine
 10
296.008
 20
211.80485
 30
0.0
 11
296.936
 21
211.80485
 31
0.0
  0
LINE
  5
3F8
330
1E
100
AcDbEntity
  8
0
100
AcDbLine
 10
298.76
 20
211.80485
 30
0.0
 11
298.904
 21
211.80485
 31
0.0
  0
LINE
  5
3F9
330
1E
100
AcDbEntity
  8
0
100
AcDbLine
 10
298.904
 20
211.80485
 30
0.0
 11
299.0
 21
212.03585
 31
0.0
  0
LINE
  5
3FA
330
1E
100
AcDbEntity
  8
0
100
AcDbLine
 10
298.376
 20
211.80485
 30
0.0
 11
298.76
 21
211.80485
 31
0.0
  0
LINE
  5
3FB
330
1E
100
AcDbEntity
  8
0
100
AcDbLine
 10
298.0
 20
211.80485
 30
0.0
 11
298.376
 21
211.80485
 31
0.0
  0
LINE
  5
3FC
330
1E
100
AcDbEntity
  8
0
100
AcDbLine
 10
298.0
 20
211.80485
 30
0.0
 11
298.0
 21
209.388183333333
 31
0.0
  0
LINE
  5
3FD
330
1E
100
AcDbEntity
  8
0
100
AcDbLine
 10
299.0
 20
212.03585
 30
0.0
 11
299.0
 21
223.57385
 31
0.0
  0
LINE
  5
3FE
330
1E
100
AcDbEntity
  8
0
100
AcDbLine
 10
305.7
 20
214.40485
 30
0.0
 11
310.2
 21
211.00485
 31
0.0
  0
LINE
  5
3FF
330
1E
100
AcDbEntity
  8
0
100
AcDbLine
 10
300.5
 20
216.50485
 30
0.0
 11
305.7
 21
214.40485
 31
0.0
  0
LINE
  5
400
330
1E
100
AcDbEntity
  8
0
100
AcDbLine
 10
299.0
 20
216.723031818182
 30
0.0
 11
300.5
 21
216.50485
 31
0.0
  0
LINE
  5
402
330
1E
100
AcDbEntity
  8
0
100
AcDbLine
 10
404.841
 20
209.80485
 30
0.0
 11
420.0
 21
209.80485
 31
0.0
  0
LINE
  5
403
330
1E
100
AcDbEntity
  8
0
100
AcDbLine
 10
401.282
 20
209.40485
 30
0.0
 11
404.841
 21
209.80485
 31
0.0
  0
LINE
  5
404
330
1E
100
AcDbEntity
  8
0
100
AcDbLine
 10
379.5
 20
210.50485
 30
0.0
 11
384.2
 21
216.60485
 31
0.0
  0
LINE
  5
405
330
1E
100
AcDbEntity
  8
0
100
AcDbLine
 10
420.0
 20
209.80485
 30
0.0
 11
455.499
 21
209.80485
 31
0.0
  0
LINE
  5
409
330
1E
100
AcDbEntity
  8
0
100
AcDbLine
 10
455.499
 20
209.80485
 30
0.0
 11
458.97
 21
209.40485
 31
0.0
  0
LINE
  5
40B
330
1E
100
AcDbEntity
  8
0
100
AcDbLine
 10
458.97
 20
209.40485
 30
0.0
 11
462.185
 21
207.93785
 31
0.0
  0
LINE
  5
40F
330
1E
100
AcDbEntity
  8
0
100
AcDbLine
 10
439.691
 20
209.80485
 30
0.0
 11
439.691
 21
224.62885
 31
0.0
  0
LINE
  5
410
330
1E
100
AcDbEntity
  8
0
100
AcDbLine
 10
430.5
 20
210.50485
 30
0.0
 11
430.785915492958
 21
209.80485
 31
0.0
  0
LINE
  5
411
330
1E
100
AcDbEntity
  8
0
100
AcDbLine
 10
310.2
 20
211.00485
 30
0.0
 11
313.6
 21
206.50485
 31
0.0
  0
LINE
  5
412
330
1E
100
AcDbEntity
  8
0
100
AcDbLine
 10
310.5
 20
211.30485
 30
0.0
 11
314.1
 21
206.70485
 31
0.0
  0
LINE
  5
415
330
1E
100
AcDbEntity
  8
0
100
AcDbLine
 10
379.0
 20
210.70485
 30
0.0
 11
383.8
 21
217.00485
 31
0.0
  0
LINE
  5
417
330
1E
100
AcDbEntity
  8
0
100
AcDbLine
 10
431.0
 20
210.70485
 30
0.0
 11
431.3625
 21
209.80485
 31
0.0
  0
LINE
  5
418
330
1E
100
AcDbEntity
  8
0
100
AcDbLine
 10
316.2
 20
217.00485
 30
0.0
 11
321.0
 21
210.70485
 31
0.0
  0
LINE
  5
41E
330
1E
100
AcDbEntity
  8
0
100
AcDbLine
 10
378.6
 20
211.00485
 30
0.0
 11
383.5
 21
217.30485
 31
0.0
  0
LINE
  5
430
330
1E
100
AcDbEntity
  8
0
100
AcDbLine
 10
384.2
 20
216.60485
 30
0.0
 11
390.3
 21
221.30485
 31
0.0
  0
LINE
  5
431
330
1E
100
AcDbEntity
  8
0
100
AcDbLine
 10
383.8
 20
217.00485
 30
0.0
 11
390.1
 21
221.80485
 31
0.0
  0
LINE
  5
444
330
1E
100
AcDbEntity
  8
0
100
AcDbLine
 10
426.2
 20
217.00485
 30
0.0
 11
431.0
 21
210.70485
 31
0.0
  0
LINE
  5
445
330
1E
100
AcDbEntity
  8
0
100
AcDbLine
 10
425.8
 20
216.60485
 30
0.0
 11
430.5
 21
210.50485
 31
0.0
  0
LINE
  5
446
330
1E
100
AcDbEntity
  8
0
100
AcDbLine
 10
431.4
 20
211.00485
 30
0.0
 11
431.886486486486
 21
209.80485
 31
0.0
  0
LINE
  5
447
330
1E
100
AcDbEntity
  8
0
100
AcDbLine
 10
321.4
 20
211.00485
 30
0.0
 11
324.4
 21
203.60485
 31
0.0
  0
LINE
  5
448
330
1E
100
AcDbEntity
  8
0
100
AcDbLine
 10
321.0
 20
210.70485
 30
0.0
 11
323.9
 21
203.50485
 31
0.0
  0
LINE
  5
449
330
1E
100
AcDbEntity
  8
0
100
AcDbLine
 10
315.8
 20
216.60485
 30
0.0
 11
320.5
 21
210.50485
 31
0.0
  0
LINE
  5
44A
330
1E
100
AcDbEntity
  8
0
100
AcDbLine
 10
320.5
 20
210.50485
 30
0.0
 11
323.4
 21
203.40485
 31
0.0
  0
LINE
  5
44B
330
1E
100
AcDbEntity
  8
0
100
AcDbLine
 10
305.9
 20
214.90485
 30
0.0
 11
310.5
 21
211.30485
 31
0.0
  0
LINE
  5
44C
330
1E
100
AcDbEntity
  8
0
100
AcDbLine
 10
300.7
 20
217.00485
 30
0.0
 11
305.9
 21
214.90485
 31
0.0
  0
LINE
  5
44D
330
1E
100
AcDbEntity
  8
0
100
AcDbLine
 10
295.0
 20
209.80485
 30
0.0
 11
298.6
 21
209.30485
 31
0.0
  0
LINE
  5
44E
330
1E
100
AcDbEntity
  8
0
100
AcDbLine
 10
291.4
 20
209.30485
 30
0.0
 11
295.0
 21
209.80485
 31
0.0
  0
LINE
  5
44F
330
1E
100
AcDbEntity
  8
0
100
AcDbLine
 10
289.5
 20
216.50485
 30
0.0
 11
291.0
 21
216.723031818182
 31
0.0
  0
LINE
  5
450
330
1E
100
AcDbEntity
  8
0
100
AcDbLine
 10
291.096
 20
223.80485
 30
0.0
 11
291.24
 21
223.80485
 31
0.0
  0
LINE
  5
451
330
1E
100
AcDbEntity
  8
0
100
AcDbLine
 10
291.24
 20
223.80485
 30
0.0
 11
291.624
 21
223.80485
 31
0.0
  0
LINE
  5
452
330
1E
100
AcDbEntity
  8
0
100
AcDbLine
 10
291.624
 20
223.80485
 30
0.0
 11
292.248
 21
223.80485
 31
0.0
  0
LINE
  5
453
330
1E
100
AcDbEntity
  8
0
100
AcDbLine
 10
292.248
 20
223.80485
 30
0.0
 11
293.064
 21
223.80485
 31
0.0
  0
LINE
  5
454
330
1E
100
AcDbEntity
  8
0
100
AcDbLine
 10
293.064
 20
223.80485
 30
0.0
 11
293.992
 21
223.80485
 31
0.0
  0
LINE
  5
455
330
1E
100
AcDbEntity
  8
0
100
AcDbLine
 10
293.992
 20
223.80485
 30
0.0
 11
295.0
 21
223.80485
 31
0.0
  0
LINE
  5
456
330
1E
100
AcDbEntity
  8
0
100
AcDbLine
 10
295.0
 20
223.80485
 30
0.0
 11
296.008
 21
223.80485
 31
0.0
  0
LINE
  5
457
330
1E
100
AcDbEntity
  8
0
100
AcDbLine
 10
291.0
 20
223.57385
 30
0.0
 11
291.096
 21
223.80485
 31
0.0
  0
LINE
  5
458
330
1E
100
AcDbEntity
  8
0
100
AcDbLine
 10
291.0
 20
223.57385
 30
0.0
 11
291.0
 21
212.03585
 31
0.0
  0
LINE
  5
459
330
1E
100
AcDbEntity
  8
0
100
AcDbLine
 10
295.0
 20
225.80485
 30
0.0
 11
302.7
 21
224.70485
 31
0.0
  0
LINE
  5
45A
330
1E
100
AcDbEntity
  8
0
100
AcDbLine
 10
295.0
 20
226.30485
 30
0.0
 11
302.8
 21
225.20485
 31
0.0
  0
LINE
  5
45B
330
1E
100
AcDbEntity
  8
0
100
AcDbLine
 10
295.0
 20
230.49585
 30
0.0
 11
323.824
 21
230.49585
 31
0.0
  0
LINE
  5
45C
330
1E
100
AcDbEntity
  8
0
100
AcDbLine
 10
295.0
 20
230.80485
 30
0.0
 11
323.824
 21
230.80485
 31
0.0
  0
LINE
  5
45D
330
1E
100
AcDbEntity
  8
0
100
AcDbLine
 10
298.76
 20
223.80485
 30
0.0
 11
298.904
 21
223.80485
 31
0.0
  0
LINE
  5
45E
330
1E
100
AcDbEntity
  8
0
100
AcDbLine
 10
298.376
 20
223.80485
 30
0.0
 11
298.76
 21
223.80485
 31
0.0
  0
LINE
  5
45F
330
1E
100
AcDbEntity
  8
0
100
AcDbLine
 10
297.752
 20
223.80485
 30
0.0
 11
298.376
 21
223.80485
 31
0.0
  0
LINE
  5
460
330
1E
100
AcDbEntity
  8
0
100
AcDbLine
 10
296.936
 20
223.80485
 30
0.0
 11
297.752
 21
223.80485
 31
0.0
  0
LINE
  5
461
330
1E
100
AcDbEntity
  8
0
100
AcDbLine
 10
296.008
 20
223.80485
 30
0.0
 11
296.936
 21
223.80485
 31
0.0
  0
LINE
  5
462
330
1E
100
AcDbEntity
  8
0
100
AcDbLine
 10
299.0
 20
223.57385
 30
0.0
 11
299.0
 21
212.03585
 31
0.0
  0
LINE
  5
463
330
1E
100
AcDbEntity
  8
0
100
AcDbLine
 10
298.904
 20
223.80485
 30
0.0
 11
299.0
 21
223.57385
 31
0.0
  0
LINE
  5
464
330
1E
100
AcDbEntity
  8
0
100
AcDbLine
 10
299.0
 20
217.243446491228
 30
0.0
 11
300.7
 21
217.00485
 31
0.0
  0
LINE
  5
465
330
1E
100
AcDbEntity
  8
0
100
AcDbLine
 10
383.5
 20
217.30485
 30
0.0
 11
389.8
 21
222.20485
 31
0.0
  0
LINE
  5
468
330
1E
100
AcDbEntity
  8
0
100
AcDbLine
 10
426.5
 20
217.30485
 30
0.0
 11
431.4
 21
211.00485
 31
0.0
  0
LINE
  5
469
330
1E
100
AcDbEntity
  8
0
100
AcDbLine
 10
309.9
 20
221.80485
 30
0.0
 11
316.2
 21
217.00485
 31
0.0
  0
LINE
  5
46A
330
1E
100
AcDbEntity
  8
0
100
AcDbLine
 10
390.3
 20
221.30485
 30
0.0
 11
397.4
 21
224.20485
 31
0.0
  0
LINE
  5
46B
330
1E
100
AcDbEntity
  8
0
100
AcDbLine
 10
390.1
 20
221.80485
 30
0.0
 11
397.3
 21
224.70485
 31
0.0
  0
LINE
  5
46C
330
1E
100
AcDbEntity
  8
0
100
AcDbLine
 10
389.8
 20
222.20485
 30
0.0
 11
397.2
 21
225.20485
 31
0.0
  0
LINE
  5
482
330
1E
100
AcDbEntity
  8
0
100
AcDbLine
 10
419.9
 20
221.80485
 30
0.0
 11
426.2
 21
217.00485
 31
0.0
  0
LINE
  5
483
330
1E
100
AcDbEntity
  8
0
100
AcDbLine
 10
419.7
 20
221.30485
 30
0.0
 11
425.8
 21
216.60485
 31
0.0
  0
LINE
  5
484
330
1E
100
AcDbEntity
  8
0
100
AcDbLine
 10
397.4
 20
224.20485
 30
0.0
 11
405.0
 21
225.30485
 31
0.0
  0
LINE
  5
489
330
1E
100
AcDbEntity
  8
0
100
AcDbLine
 10
412.6
 20
224.20485
 30
0.0
 11
419.7
 21
221.30485
 31
0.0
  0
LINE
  5
48A
330
1E
100
AcDbEntity
  8
0
100
AcDbLine
 10
420.2
 20
222.20485
 30
0.0
 11
426.5
 21
217.30485
 31
0.0
  0
LINE
  5
48B
330
1E
100
AcDbEntity
  8
0
100
AcDbLine
 10
310.2
 20
222.20485
 30
0.0
 11
316.5
 21
217.30485
 31
0.0
  0
LINE
  5
48C
330
1E
100
AcDbEntity
  8
0
100
AcDbLine
 10
316.5
 20
217.30485
 30
0.0
 11
321.4
 21
211.00485
 31
0.0
  0
LINE
  5
48D
330
1E
100
AcDbEntity
  8
0
100
AcDbLine
 10
309.7
 20
221.30485
 30
0.0
 11
315.8
 21
216.60485
 31
0.0
  0
LINE
  5
48E
330
1E
100
AcDbEntity
  8
0
100
AcDbLine
 10
302.7
 20
224.70485
 30
0.0
 11
309.9
 21
221.80485
 31
0.0
  0
LINE
  5
48F
330
1E
100
AcDbEntity
  8
0
100
AcDbLine
 10
302.8
 20
225.20485
 30
0.0
 11
310.2
 21
222.20485
 31
0.0
  0
LINE
  5
490
330
1E
100
AcDbEntity
  8
0
100
AcDbLine
 10
323.824
 20
230.49585
 30
0.0
 11
325.368
 21
230.28985
 31
0.0
  0
LINE
  5
491
330
1E
100
AcDbEntity
  8
0
100
AcDbLine
 10
326.706
 20
229.67285
 30
0.0
 11
327.941
 21
228.74585
 31
0.0
  0
LINE
  5
492
330
1E
100
AcDbEntity
  8
0
100
AcDbLine
 10
325.368
 20
230.28985
 30
0.0
 11
326.706
 21
229.67285
 31
0.0
  0
LINE
  5
493
330
1E
100
AcDbEntity
  8
0
100
AcDbLine
 10
328.868
 20
227.51085
 30
0.0
 11
329.485
 21
226.17285
 31
0.0
  0
LINE
  5
497
330
1E
100
AcDbEntity
  8
0
100
AcDbLine
 10
329.485
 20
226.17285
 30
0.0
 11
329.691
 21
224.62885
 31
0.0
  0
LINE
  5
498
330
1E
100
AcDbEntity
  8
0
100
AcDbLine
 10
329.691
 20
224.62885
 30
0.0
 11
329.691
 21
195.80485
 31
0.0
  0
LINE
  5
499
330
1E
100
AcDbEntity
  8
0
100
AcDbLine
 10
397.3
 20
224.70485
 30
0.0
 11
405.0
 21
225.80485
 31
0.0
  0
LINE
  5
49A
330
1E
100
AcDbEntity
  8
0
100
AcDbLine
 10
370.309
 20
224.62885
 30
0.0
 11
370.515
 21
226.17285
 31
0.0
  0
LINE
  5
49B
330
1E
100
AcDbEntity
  8
0
100
AcDbLine
 10
370.309
 20
224.62885
 30
0.0
 11
370.309
 21
195.80485
 31
0.0
  0
LINE
  5
49C
330
1E
100
AcDbEntity
  8
0
100
AcDbLine
 10
370.0
 20
224.62885
 30
0.0
 11
370.206
 21
226.17285
 31
0.0
  0
LINE
  5
49D
330
1E
100
AcDbEntity
  8
0
100
AcDbLine
 10
370.0
 20
224.62885
 30
0.0
 11
370.0
 21
195.80485
 31
0.0
  0
LINE
  5
49E
330
1E
100
AcDbEntity
  8
0
100
AcDbLine
 10
397.2
 20
225.20485
 30
0.0
 11
405.0
 21
226.30485
 31
0.0
  0
LINE
  5
49F
330
1E
100
AcDbEntity
  8
0
100
AcDbLine
 10
412.7
 20
224.70485
 30
0.0
 11
419.9
 21
221.80485
 31
0.0
  0
LINE
  5
4A0
330
1E
100
AcDbEntity
  8
0
100
AcDbLine
 10
480.309
 20
224.62885
 30
0.0
 11
480.515
 21
226.17285
 31
0.0
  0
LINE
  5
4A1
330
1E
100
AcDbEntity
  8
0
100
AcDbLine
 10
480.309
 20
224.62885
 30
0.0
 11
480.309
 21
195.80485
 31
0.0
  0
LINE
  5
4A4
330
1E
100
AcDbEntity
  8
0
100
AcDbLine
 10
480.0
 20
224.62885
 30
0.0
 11
480.0
 21
195.80485
 31
0.0
  0
LINE
  5
4A5
330
1E
100
AcDbEntity
  8
0
100
AcDbLine
 10
439.691
 20
224.62885
 30
0.0
 11
439.691
 21
209.80485
 31
0.0
  0
LINE
  5
4A6
330
1E
100
AcDbEntity
  8
0
100
AcDbLine
 10
370.515
 20
226.17285
 30
0.0
 11
371.132
 21
227.51085
 31
0.0
  0
LINE
  5
4A7
330
1E
100
AcDbEntity
  8
0
100
AcDbLine
 10
371.132
 20
227.51085
 30
0.0
 11
372.059
 21
228.74585
 31
0.0
  0
LINE
  5
4A8
330
1E
100
AcDbEntity
  8
0
100
AcDbLine
 10
370.824
 20
227.71685
 30
0.0
 11
371.853
 21
228.95185
 31
0.0
  0
LINE
  5
4A9
330
1E
100
AcDbEntity
  8
0
100
AcDbLine
 10
370.206
 20
226.17285
 30
0.0
 11
370.824
 21
227.71685
 31
0.0
  0
LINE
  5
4AA
330
1E
100
AcDbEntity
  8
0
100
AcDbLine
 10
405.0
 20
225.80485
 30
0.0
 11
412.7
 21
224.70485
 31
0.0
  0
LINE
  5
4AB
330
1E
100
AcDbEntity
  8
0
100
AcDbLine
 10
405.0
 20
225.30485
 30
0.0
 11
412.6
 21
224.20485
 31
0.0
  0
LINE
  5
4AC
330
1E
100
AcDbEntity
  8
0
100
AcDbLine
 10
438.868
 20
227.51085
 30
0.0
 11
439.485
 21
226.17285
 31
0.0
  0
LINE
  5
4AE
330
1E
100
AcDbEntity
  8
0
100
AcDbLine
 10
480.515
 20
226.17285
 30
0.0
 11
481.132
 21
227.51085
 31
0.0
  0
LINE
  5
4B1
330
1E
100
AcDbEntity
  8
0
100
AcDbLine
 10
481.132
 20
227.51085
 30
0.0
 11
482.059
 21
228.74585
 31
0.0
  0
LINE
  5
4B2
330
1E
100
AcDbEntity
  8
0
100
AcDbLine
 10
480.824
 20
227.71685
 30
0.0
 11
481.853
 21
228.95185
 31
0.0
  0
LINE
  5
4B3
330
1E
100
AcDbEntity
  8
0
100
AcDbLine
 10
480.206
 20
226.17285
 30
0.0
 11
480.824
 21
227.71685
 31
0.0
  0
LINE
  5
4B6
330
1E
100
AcDbEntity
  8
0
100
AcDbLine
 10
439.485
 20
226.17285
 30
0.0
 11
439.691
 21
224.62885
 31
0.0
  0
LINE
  5
4B7
330
1E
100
AcDbEntity
  8
0
100
AcDbLine
 10
439.176
 20
227.71685
 30
0.0
 11
439.794
 21
226.17285
 31
0.0
  0
LINE
  5
4B8
330
1E
100
AcDbEntity
  8
0
100
AcDbLine
 10
405.0
 20
226.30485
 30
0.0
 11
412.8
 21
225.20485
 31
0.0
  0
LINE
  5
4B9
330
1E
100
AcDbEntity
  8
0
100
AcDbLine
 10
412.8
 20
225.20485
 30
0.0
 11
420.2
 21
222.20485
 31
0.0
  0
LINE
  5
4BB
330
1E
100
AcDbEntity
  8
0
100
AcDbLine
 10
327.941
 20
228.74585
 30
0.0
 11
328.868
 21
227.51085
 31
0.0
  0
LINE
  5
4BC
330
1E
100
AcDbEntity
  8
0
100
AcDbLine
 10
372.059
 20
228.74585
 30
0.0
 11
373.294
 21
229.67285
 31
0.0
  0
LINE
  5
4BD
330
1E
100
AcDbEntity
  8
0
100
AcDbLine
 10
373.294
 20
229.67285
 30
0.0
 11
374.632
 21
230.28985
 31
0.0
  0
LINE
  5
4BE
330
1E
100
AcDbEntity
  8
0
100
AcDbLine
 10
371.853
 20
228.95185
 30
0.0
 11
373.088
 21
229.98085
 31
0.0
  0
LINE
  5
4BF
330
1E
100
AcDbEntity
  8
0
100
AcDbLine
 10
374.632
 20
230.28985
 30
0.0
 11
376.176
 21
230.49585
 31
0.0
  0
LINE
  5
4C0
330
1E
100
AcDbEntity
  8
0
100
AcDbLine
 10
376.176
 20
230.49585
 30
0.0
 11
405.0
 21
230.49585
 31
0.0
  0
LINE
  5
4C1
330
1E
100
AcDbEntity
  8
0
100
AcDbLine
 10
373.088
 20
229.98085
 30
0.0
 11
374.632
 21
230.59885
 31
0.0
  0
LINE
  5
4C2
330
1E
100
AcDbEntity
  8
0
100
AcDbLine
 10
437.941
 20
228.74585
 30
0.0
 11
438.868
 21
227.51085
 31
0.0
  0
LINE
  5
4C3
330
1E
100
AcDbEntity
  8
0
100
AcDbLine
 10
482.059
 20
228.74585
 30
0.0
 11
483.294
 21
229.67285
 31
0.0
  0
LINE
  5
4C4
330
1E
100
AcDbEntity
  8
0
100
AcDbLine
 10
483.294
 20
229.67285
 30
0.0
 11
484.632
 21
230.28985
 31
0.0
  0
LINE
  5
4C5
330
1E
100
AcDbEntity
  8
0
100
AcDbLine
 10
481.853
 20
228.95185
 30
0.0
 11
483.088
 21
229.98085
 31
0.0
  0
LINE
  5
4C6
330
1E
100
AcDbEntity
  8
0
100
AcDbLine
 10
438.147
 20
228.95185
 30
0.0
 11
439.176
 21
227.71685
 31
0.0
  0
LINE
  5
4C7
330
1E
100
AcDbEntity
  8
0
100
AcDbLine
 10
484.632
 20
230.28985
 30
0.0
 11
486.176
 21
230.49585
 31
0.0
  0
LINE
  5
4C8
330
1E
100
AcDbEntity
  8
0
100
AcDbLine
 10
486.176
 20
230.49585
 30
0.0
 11
515.0
 21
230.49585
 31
0.0
  0
LINE
  5
4C9
330
1E
100
AcDbEntity
  8
0
100
AcDbLine
 10
483.088
 20
229.98085
 30
0.0
 11
484.632
 21
230.59885
 31
0.0
  0
LINE
  5
4CA
330
1E
100
AcDbEntity
  8
0
100
AcDbLine
 10
515.0
 20
230.49585
 30
0.0
 11
543.824
 21
230.49585
 31
0.0
  0
LINE
  5
4CB
330
1E
100
AcDbEntity
  8
0
100
AcDbLine
 10
436.706
 20
229.67285
 30
0.0
 11
437.941
 21
228.74585
 31
0.0
  0
LINE
  5
4CC
330
1E
100
AcDbEntity
  8
0
100
AcDbLine
 10
435.368
 20
230.28985
 30
0.0
 11
436.706
 21
229.67285
 31
0.0
  0
LINE
  5
4CD
330
1E
100
AcDbEntity
  8
0
100
AcDbLine
 10
484.632
 20
230.59885
 30
0.0
 11
486.176
 21
230.80485
 31
0.0
  0
LINE
  5
4CE
330
1E
100
AcDbEntity
  8
0
100
AcDbLine
 10
433.824
 20
230.49585
 30
0.0
 11
435.368
 21
230.28985
 31
0.0
  0
LINE
  5
4CF
330
1E
100
AcDbEntity
  8
0
100
AcDbLine
 10
405.0
 20
230.49585
 30
0.0
 11
433.824
 21
230.49585
 31
0.0
  0
LINE
  5
4D0
330
1E
100
AcDbEntity
  8
0
100
AcDbLine
 10
435.368
 20
230.59885
 30
0.0
 11
436.912
 21
229.98085
 31
0.0
  0
LINE
  5
4D1
330
1E
100
AcDbEntity
  8
0
100
AcDbLine
 10
328.147
 20
228.95185
 30
0.0
 11
329.176
 21
227.71685
 31
0.0
  0
LINE
  5
4D2
330
1E
100
AcDbEntity
  8
0
100
AcDbLine
 10
329.176
 20
227.71685
 30
0.0
 11
329.794
 21
226.17285
 31
0.0
  0
LINE
  5
4D3
330
1E
100
AcDbEntity
  8
0
100
AcDbLine
 10
326.912
 20
229.98085
 30
0.0
 11
328.147
 21
228.95185
 31
0.0
  0
LINE
  5
4D4
330
1E
100
AcDbEntity
  8
0
100
AcDbLine
 10
376.176
 20
230.80485
 30
0.0
 11
405.0
 21
230.80485
 31
0.0
  0
LINE
  5
4D5
330
1E
100
AcDbEntity
  8
0
100
AcDbLine
 10
486.176
 20
230.80485
 30
0.0
 11
515.0
 21
230.80485
 31
0.0
  0
LINE
  5
4D6
330
1E
100
AcDbEntity
  8
0
100
AcDbLine
 10
515.0
 20
230.80485
 30
0.0
 11
543.824
 21
230.80485
 31
0.0
  0
LINE
  5
4D7
330
1E
100
AcDbEntity
  8
0
100
AcDbLine
 10
433.824
 20
230.80485
 30
0.0
 11
435.368
 21
230.59885
 31
0.0
  0
LINE
  5
4D8
330
1E
100
AcDbEntity
  8
0
100
AcDbLine
 10
405.0
 20
230.80485
 30
0.0
 11
433.824
 21
230.80485
 31
0.0
  0
LINE
  5
4D9
330
1E
100
AcDbEntity
  8
0
100
AcDbLine
 10
325.368
 20
230.59885
 30
0.0
 11
326.912
 21
229.98085
 31
0.0
  0
LINE
  5
4DA
330
1E
100
AcDbEntity
  8
0
100
AcDbLine
 10
323.824
 20
230.80485
 30
0.0
 11
325.368
 21
230.59885
 31
0.0
  0
LINE
  5
4DB
330
1E
100
AcDbEntity
  8
0
100
AcDbLine
 10
302.6
 20
224.20485
 30
0.0
 11
309.7
 21
221.30485
 31
0.0
  0
LINE
  5
4DC
330
1E
100
AcDbEntity
  8
0
100
AcDbLine
 10
295.0
 20
225.30485
 30
0.0
 11
302.6
 21
224.20485
 31
0.0
  0
LINE
  5
4DD
330
1E
100
AcDbEntity
  8
0
100
AcDbLine
 10
289.3
 20
217.00485
 30
0.0
 11
291.0
 21
217.243446491228
 31
0.0
  0
LINE
  5
4DE
330
1E
100
AcDbEntity
  8
0
100
AcDbLine
 10
287.4
 20
224.20485
 30
0.0
 11
295.0
 21
225.30485
 31
0.0
  0
LINE
  5
4DF
330
1E
100
AcDbEntity
  8
0
100
AcDbLine
 10
276.4
 20
206.50485
 30
0.0
 11
279.8
 21
211.00485
 31
0.0
  0
LINE
  5
4E0
330
1E
100
AcDbEntity
  8
0
100
AcDbLine
 10
275.9
 20
206.70485
 30
0.0
 11
279.5
 21
211.30485
 31
0.0
  0
LINE
  5
4E1
330
1E
100
AcDbEntity
  8
0
100
AcDbLine
 10
274.3
 20
190.30485
 30
0.0
 11
276.4
 21
185.10485
 31
0.0
  0
LINE
  5
4E2
330
1E
100
AcDbEntity
  8
0
100
AcDbLine
 10
273.8
 20
190.10485
 30
0.0
 11
275.9
 21
184.90485
 31
0.0
  0
LINE
  5
4E3
330
1E
100
AcDbEntity
  8
0
100
AcDbLine
 10
266.6
 20
188.20485
 30
0.0
 11
269.5
 21
181.10485
 31
0.0
  0
LINE
  5
4E4
330
1E
100
AcDbEntity
  8
0
100
AcDbLine
 10
265.5
 20
195.80485
 30
0.0
 11
266.6
 21
188.20485
 31
0.0
  0
LINE
  5
4E5
330
1E
100
AcDbEntity
  8
0
100
AcDbLine
 10
265.5
 20
195.80485
 30
0.0
 11
266.6
 21
203.40485
 31
0.0
  0
LINE
  5
4E6
330
1E
100
AcDbEntity
  8
0
100
AcDbLine
 10
266.1
 20
188.10485
 30
0.0
 11
269.0
 21
180.90485
 31
0.0
  0
LINE
  5
4E7
330
1E
100
AcDbEntity
  8
0
100
AcDbLine
 10
265.0
 20
195.80485
 30
0.0
 11
266.1
 21
188.10485
 31
0.0
  0
LINE
  5
4E8
330
1E
100
AcDbEntity
  8
0
100
AcDbLine
 10
265.0
 20
195.80485
 30
0.0
 11
266.1
 21
203.50485
 31
0.0
  0
LINE
  5
4E9
330
1E
100
AcDbEntity
  8
0
100
AcDbLine
 10
265.6
 20
188.00485
 30
0.0
 11
268.6
 21
180.60485
 31
0.0
  0
LINE
  5
4EA
330
1E
100
AcDbEntity
  8
0
100
AcDbLine
 10
264.5
 20
195.80485
 30
0.0
 11
265.6
 21
188.00485
 31
0.0
  0
LINE
  5
4EB
330
1E
100
AcDbEntity
  8
0
100
AcDbLine
 10
264.5
 20
195.80485
 30
0.0
 11
265.6
 21
203.60485
 31
0.0
  0
LINE
  5
517
330
1E
100
AcDbEntity
  8
0
100
AcDbLine
 10
530.151778702163
 20
161.11385
 30
0.0
 11
543.824
 21
161.11385
 31
0.0
  0
LINE
  5
518
330
1E
100
AcDbEntity
  8
0
100
AcDbLine
 10
530.152292845258
 20
160.80485
 30
0.0
 11
543.824
 21
160.80485
 31
0.0
  0
LINE
  5
56B
330
1E
100
AcDbEntity
  8
0
100
AcDbLine
 10
543.824
 20
230.49585
 30
0.0
 11
545.368
 21
230.28985
 31
0.0
  0
LINE
  5
56D
330
1E
100
AcDbEntity
  8
0
100
AcDbLine
 10
545.368
 20
230.28985
 30
0.0
 11
546.706
 21
229.67285
 31
0.0
  0
LINE
  5
56E
330
1E
100
AcDbEntity
  8
0
100
AcDbLine
 10
545.368
 20
230.59885
 30
0.0
 11
546.912
 21
229.98085
 31
0.0
  0
LINE
  5
571
330
1E
100
AcDbEntity
  8
0
100
AcDbLine
 10
545.368
 20
161.31985
 30
0.0
 11
546.706
 21
161.93685
 31
0.0
  0
LINE
  5
572
330
1E
100
AcDbEntity
  8
0
100
AcDbLine
 10
543.824
 20
161.11385
 30
0.0
 11
545.368
 21
161.31985
 31
0.0
  0
LINE
  5
573
330
1E
100
AcDbEntity
  8
0
100
AcDbLine
 10
546.706
 20
229.67285
 30
0.0
 11
547.941
 21
228.74585
 31
0.0
  0
LINE
  5
574
330
1E
100
AcDbEntity
  8
0
100
AcDbLine
 10
547.941
 20
162.86385
 30
0.0
 11
548.868
 21
164.09885
 31
0.0
  0
LINE
  5
575
330
1E
100
AcDbEntity
  8
0
100
AcDbLine
 10
548.868
 20
164.09885
 30
0.0
 11
549.485
 21
165.43685
 31
0.0
  0
LINE
  5
576
330
1E
100
AcDbEntity
  8
0
100
AcDbLine
 10
548.147
 20
162.65785
 30
0.0
 11
549.176
 21
163.89285
 31
0.0
  0
LINE
  5
577
330
1E
100
AcDbEntity
  8
0
100
AcDbLine
 10
549.485
 20
165.43685
 30
0.0
 11
549.691
 21
166.98085
 31
0.0
  0
LINE
  5
578
330
1E
100
AcDbEntity
  8
0
100
AcDbLine
 10
549.176
 20
163.89285
 30
0.0
 11
549.794
 21
165.43685
 31
0.0
  0
LINE
  5
579
330
1E
100
AcDbEntity
  8
0
100
AcDbLine
 10
547.941
 20
228.74585
 30
0.0
 11
548.868
 21
227.51085
 31
0.0
  0
LINE
  5
57A
330
1E
100
AcDbEntity
  8
0
100
AcDbLine
 10
548.868
 20
227.51085
 30
0.0
 11
549.485
 21
226.17285
 31
0.0
  0
LINE
  5
57B
330
1E
100
AcDbEntity
  8
0
100
AcDbLine
 10
548.147
 20
228.95185
 30
0.0
 11
549.176
 21
227.71685
 31
0.0
  0
LINE
  5
57E
330
1E
100
AcDbEntity
  8
0
100
AcDbLine
 10
549.485
 20
226.17285
 30
0.0
 11
549.691
 21
224.62885
 31
0.0
  0
LINE
  5
57F
330
1E
100
AcDbEntity
  8
0
100
AcDbLine
 10
549.691
 20
224.62885
 30
0.0
 11
549.691
 21
195.80485
 31
0.0
  0
LINE
  5
580
330
1E
100
AcDbEntity
  8
0
100
AcDbLine
 10
549.176
 20
227.71685
 30
0.0
 11
549.794
 21
226.17285
 31
0.0
  0
LINE
  5
581
330
1E
100
AcDbEntity
  8
0
100
AcDbLine
 10
549.691
 20
166.98085
 30
0.0
 11
549.691
 21
195.80485
 31
0.0
  0
LINE
  5
582
330
1E
100
AcDbEntity
  8
0
100
AcDbLine
 10
550.0
 20
195.80485
 30
0.0
 11
550.0
 21
224.62885
 31
0.0
  0
LINE
  5
583
330
1E
100
AcDbEntity
  8
0
100
AcDbLine
 10
550.0
 20
224.62885
 30
0.0
 11
550.0
 21
195.80485
 31
0.0
  0
LINE
  5
584
330
1E
100
AcDbEntity
  8
0
100
AcDbLine
 10
549.794
 20
226.17285
 30
0.0
 11
550.0
 21
224.62885
 31
0.0
  0
LINE
  5
585
330
1E
100
AcDbEntity
  8
0
100
AcDbLine
 10
549.691
 20
195.80485
 30
0.0
 11
549.691
 21
166.98085
 31
0.0
  0
LINE
  5
586
330
1E
100
AcDbEntity
  8
0
100
AcDbLine
 10
549.691
 20
195.80485
 30
0.0
 11
549.691
 21
224.62885
 31
0.0
  0
LINE
  5
587
330
1E
100
AcDbEntity
  8
0
100
AcDbLine
 10
549.794
 20
165.43685
 30
0.0
 11
550.0
 21
166.98085
 31
0.0
  0
LINE
  5
588
330
1E
100
AcDbEntity
  8
0
100
AcDbLine
 10
546.706
 20
161.93685
 30
0.0
 11
547.941
 21
162.86385
 31
0.0
  0
LINE
  5
589
330
1E
100
AcDbEntity
  8
0
100
AcDbLine
 10
546.912
 20
161.62885
 30
0.0
 11
548.147
 21
162.65785
 31
0.0
  0
LINE
  5
58A
330
1E
100
AcDbEntity
  8
0
100
AcDbLine
 10
545.368
 20
161.01085
 30
0.0
 11
546.912
 21
161.62885
 31
0.0
  0
LINE
  5
5B1
330
1E
100
AcDbEntity
  8
0
100
AcDbLine
 10
216.9118
 20
229.98085
 30
0.0
 11
218.104764063524
 21
228.943386957383
 31
0.0
  0
LINE
  5
5B2
330
1E
100
AcDbEntity
  8
0
100
AcDbLine
 10
218.104764063524
 20
228.943386957383
 30
0.0
 11
219.1765
 21
227.71685
 31
0.0
  0
LINE
  5
5B3
330
1E
100
AcDbEntity
  8
0
100
AcDbLine
 10
330.0
 20
166.98085
 30
0.0
 11
329.990395793088
 21
224.571524473744
 31
0.0
  0
LINE
  5
5B4
330
1E
100
AcDbEntity
  8
0
100
AcDbLine
 10
329.990395793088
 20
224.571524473744
 30
0.0
 11
329.794
 21
226.17285
 31
0.0
  0
LINE
  5
5B5
330
1E
100
AcDbEntity
  8
0
100
AcDbLine
 10
260.206
 20
226.17285
 30
0.0
 11
260.824
 21
227.71685
 31
0.0
  0
LINE
  5
5B6
330
1E
100
AcDbEntity
  8
0
100
AcDbLine
 10
371.853
 20
162.65785
 30
0.0
 11
373.088
 21
161.62885
 31
0.0
  0
LINE
  5
5B7
330
1E
100
AcDbEntity
  8
0
100
AcDbLine
 10
374.632
 20
161.01085
 30
0.0
 11
376.176
 21
160.80485
 31
0.0
  0
LINE
  5
5B8
330
1E
100
AcDbEntity
  8
0
100
AcDbLine
 10
374.632
 20
230.59885
 30
0.0
 11
376.176
 21
230.80485
 31
0.0
  0
LINE
  5
5B9
330
1E
100
AcDbEntity
  8
0
100
AcDbLine
 10
436.912
 20
229.98085
 30
0.0
 11
438.147
 21
228.95185
 31
0.0
  0
LINE
  5
5BA
330
1E
100
AcDbEntity
  8
0
100
AcDbLine
 10
439.794
 20
226.17285
 30
0.0
 11
440.034053180636
 21
224.740570440064
 31
0.0
  0
LINE
  5
5BB
330
1E
100
AcDbEntity
  8
0
100
AcDbLine
 10
440.034053180636
 20
224.740570440064
 30
0.0
 11
440.034053180636
 21
209.901651409012
 31
0.0
  0
LINE
  5
5BC
330
1E
100
AcDbEntity
  8
0
100
AcDbLine
 10
480.206
 20
165.43685
 30
0.0
 11
480.0
 21
166.98085
 31
0.0
  0
LINE
  5
5BD
330
1E
100
AcDbEntity
  8
0
100
AcDbLine
 10
543.824
 20
160.80485
 30
0.0
 11
545.368
 21
161.01085
 31
0.0
  0
LINE
  5
5BE
330
1E
100
AcDbEntity
  8
0
100
AcDbLine
 10
550.0
 20
166.98085
 30
0.0
 11
550.0
 21
195.80485
 31
0.0
  0
LINE
  5
5BF
330
1E
100
AcDbEntity
  8
0
100
AcDbLine
 10
545.368
 20
230.59885
 30
0.0
 11
543.824
 21
230.80485
 31
0.0
  0
LINE
  5
5C0
330
1E
100
AcDbEntity
  8
0
100
AcDbLine
 10
546.912
 20
229.98085
 30
0.0
 11
548.147
 21
228.95185
 31
0.0
  0
LINE
  5
797
330
1E
100
AcDbEntity
  8
0
100
AcDbLine
 10
483.822
 20
-9.37183
 30
0.0
 11
489.296
 21
-12.67987
 31
0.0
  0
LINE
  5
798
330
1E
100
AcDbEntity
  8
0
100
AcDbLine
 10
489.296
 20
-12.67987
 30
0.0
 11
495.063
 21
-15.25955
 31
0.0
  0
LINE
  5
799
330
1E
100
AcDbEntity
  8
0
100
AcDbLine
 10
495.063
 20
-15.25955
 30
0.0
 11
501.267
 21
-17.11185
 31
0.0
  0
LINE
  5
79A
330
1E
100
AcDbEntity
  8
0
100
AcDbLine
 10
501.267
 20
-17.11185
 30
0.0
 11
507.764
 21
-18.30275
 31
0.0
  0
LINE
  5
79B
330
1E
100
AcDbEntity
  8
0
100
AcDbLine
 10
507.764
 20
-18.30275
 30
0.0
 11
514.187
 21
-18.76545
 31
0.0
  0
LINE
  5
79C
330
1E
100
AcDbEntity
  8
0
100
AcDbLine
 10
507.764
 20
-9.42783
 30
0.0
 11
514.187
 21
-9.89038
 31
0.0
  0
LINE
  5
79D
330
1E
100
AcDbEntity
  8
0
100
AcDbLine
 10
514.187
 20
-18.76545
 30
0.0
 11
520.61
 21
-18.30275
 31
0.0
  0
LINE
  5
79E
330
1E
100
AcDbEntity
  8
0
100
AcDbLine
 10
539.078
 20
-12.67987
 30
0.0
 11
544.552
 21
-9.37183
 31
0.0
  0
LINE
  5
79F
330
1E
100
AcDbEntity
  8
0
100
AcDbLine
 10
533.311
 20
-15.25955
 30
0.0
 11
539.078
 21
-12.67987
 31
0.0
  0
LINE
  5
7A0
330
1E
100
AcDbEntity
  8
0
100
AcDbLine
 10
527.107
 20
-17.11185
 30
0.0
 11
533.311
 21
-15.25955
 31
0.0
  0
LINE
  5
7A1
330
1E
100
AcDbEntity
  8
0
100
AcDbLine
 10
520.61
 20
-18.30275
 30
0.0
 11
527.107
 21
-17.11185
 31
0.0
  0
LINE
  5
7A2
330
1E
100
AcDbEntity
  8
0
100
AcDbLine
 10
544.552
 20
-9.37183
 30
0.0
 11
549.515
 21
-5.46838
 31
0.0
  0
LINE
  5
7A3
330
1E
100
AcDbEntity
  8
0
100
AcDbLine
 10
520.61
 20
-9.42783
 30
0.0
 11
527.107
 21
-8.2369
 31
0.0
  0
LINE
  5
7A4
330
1E
100
AcDbEntity
  8
0
100
AcDbLine
 10
514.187
 20
-9.89038
 30
0.0
 11
520.61
 21
-9.42783
 31
0.0
  0
LINE
  5
7A5
330
1E
100
AcDbEntity
  8
0
100
AcDbLine
 10
464.698
 20
20.72805
 30
0.0
 11
466.012
 21
14.84035
 31
0.0
  0
LINE
  5
7A6
330
1E
100
AcDbEntity
  8
0
100
AcDbLine
 10
464.698
 20
29.60295
 30
0.0
 11
466.012
 21
23.71525
 31
0.0
  0
LINE
  5
7A7
330
1E
100
AcDbEntity
  8
0
100
AcDbLine
 10
464.187
 20
26.54975
 30
0.0
 11
464.187
 21
35.42475
 31
0.0
  0
LINE
  5
7A8
330
1E
100
AcDbEntity
  8
0
100
AcDbLine
 10
464.187
 20
26.54975
 30
0.0
 11
464.698
 21
20.72805
 31
0.0
  0
LINE
  5
7A9
330
1E
100
AcDbEntity
  8
0
100
AcDbLine
 10
464.698
 20
41.24625
 30
0.0
 11
466.012
 21
47.13385
 31
0.0
  0
LINE
  5
7AA
330
1E
100
AcDbEntity
  8
0
100
AcDbLine
 10
464.187
 20
35.42475
 30
0.0
 11
464.698
 21
41.24625
 31
0.0
  0
LINE
  5
7AB
330
1E
100
AcDbEntity
  8
0
100
AcDbLine
 10
464.187
 20
35.42475
 30
0.0
 11
464.698
 21
29.60295
 31
0.0
  0
LINE
  5
7AC
330
1E
100
AcDbEntity
  8
0
100
AcDbLine
 10
464.187
 20
35.42475
 30
0.0
 11
464.187
 21
26.54975
 31
0.0
  0
LINE
  5
7AD
330
1E
100
AcDbEntity
  8
0
100
AcDbLine
 10
468.056
 20
9.21735
 30
0.0
 11
470.902
 21
3.99105
 31
0.0
  0
LINE
  5
7AE
330
1E
100
AcDbEntity
  8
0
100
AcDbLine
 10
466.012
 20
14.84035
 30
0.0
 11
468.056
 21
9.21735
 31
0.0
  0
LINE
  5
7AF
330
1E
100
AcDbEntity
  8
0
100
AcDbLine
 10
468.056
 20
18.09235
 30
0.0
 11
470.902
 21
12.86615
 31
0.0
  0
LINE
  5
7B0
330
1E
100
AcDbEntity
  8
0
100
AcDbLine
 10
466.012
 20
23.71525
 30
0.0
 11
468.056
 21
18.09235
 31
0.0
  0
LINE
  5
7B1
330
1E
100
AcDbEntity
  8
0
100
AcDbLine
 10
474.552
 20
-0.97045
 30
0.0
 11
478.859
 21
-5.46838
 31
0.0
  0
LINE
  5
7B2
330
1E
100
AcDbEntity
  8
0
100
AcDbLine
 10
470.902
 20
3.99105
 30
0.0
 11
474.552
 21
-0.97045
 31
0.0
  0
LINE
  5
7B3
330
1E
100
AcDbEntity
  8
0
100
AcDbLine
 10
474.552
 20
7.90455
 30
0.0
 11
478.859
 21
3.40665
 31
0.0
  0
LINE
  5
7B4
330
1E
100
AcDbEntity
  8
0
100
AcDbLine
 10
470.902
 20
12.86615
 30
0.0
 11
474.552
 21
7.90455
 31
0.0
  0
LINE
  5
7B5
330
1E
100
AcDbEntity
  8
0
100
AcDbLine
 10
478.859
 20
-5.46838
 30
0.0
 11
483.822
 21
-9.37183
 31
0.0
  0
LINE
  5
7B6
330
1E
100
AcDbEntity
  8
0
100
AcDbLine
 10
478.859
 20
3.40665
 30
0.0
 11
483.822
 21
-0.49685
 31
0.0
  0
LINE
  5
7B7
330
1E
100
AcDbEntity
  8
0
100
AcDbLine
 10
479.369
 20
4.29185
 30
0.0
 11
484.26
 21
0.45525
 31
0.0
  0
LINE
  5
7B8
330
1E
100
AcDbEntity
  8
0
100
AcDbLine
 10
475.136
 20
8.72375
 30
0.0
 11
479.369
 21
4.29185
 31
0.0
  0
LINE
  5
7B9
330
1E
100
AcDbEntity
  8
0
100
AcDbLine
 10
471.486
 20
13.61935
 30
0.0
 11
475.136
 21
8.72375
 31
0.0
  0
LINE
  5
7BA
330
1E
100
AcDbEntity
  8
0
100
AcDbLine
 10
468.786
 20
18.77975
 30
0.0
 11
471.486
 21
13.61935
 31
0.0
  0
LINE
  5
7BB
330
1E
100
AcDbEntity
  8
0
100
AcDbLine
 10
466.669
 20
24.60145
 30
0.0
 11
468.786
 21
18.77975
 31
0.0
  0
LINE
  5
7BC
330
1E
100
AcDbEntity
  8
0
100
AcDbLine
 10
465.428
 20
30.09155
 30
0.0
 11
466.669
 21
24.60145
 31
0.0
  0
LINE
  5
7BD
330
1E
100
AcDbEntity
  8
0
100
AcDbLine
 10
466.012
 20
47.13385
 30
0.0
 11
468.056
 21
52.75705
 31
0.0
  0
LINE
  5
7BE
330
1E
100
AcDbEntity
  8
0
100
AcDbLine
 10
468.056
 20
52.75705
 30
0.0
 11
470.902
 21
57.98305
 31
0.0
  0
LINE
  5
7BF
330
1E
100
AcDbEntity
  8
0
100
AcDbLine
 10
470.902
 20
57.98305
 30
0.0
 11
474.552
 21
62.94465
 31
0.0
  0
LINE
  5
7C0
330
1E
100
AcDbEntity
  8
0
100
AcDbLine
 10
474.552
 20
62.94465
 30
0.0
 11
478.859
 21
67.44315
 31
0.0
  0
LINE
  5
7C1
330
1E
100
AcDbEntity
  8
0
100
AcDbLine
 10
475.136
 20
62.97025
 30
0.0
 11
479.369
 21
67.40265
 31
0.0
  0
LINE
  5
7C2
330
1E
100
AcDbEntity
  8
0
100
AcDbLine
 10
471.486
 20
58.07495
 30
0.0
 11
475.136
 21
62.97025
 31
0.0
  0
LINE
  5
7C3
330
1E
100
AcDbEntity
  8
0
100
AcDbLine
 10
468.786
 20
52.91495
 30
0.0
 11
471.486
 21
58.07495
 31
0.0
  0
LINE
  5
7C4
330
1E
100
AcDbEntity
  8
0
100
AcDbLine
 10
466.669
 20
47.09335
 30
0.0
 11
468.786
 21
52.91495
 31
0.0
  0
LINE
  5
7C5
330
1E
100
AcDbEntity
  8
0
100
AcDbLine
 10
465.428
 20
41.60265
 30
0.0
 11
466.669
 21
47.09335
 31
0.0
  0
LINE
  5
7C6
330
1E
100
AcDbEntity
  8
0
100
AcDbLine
 10
464.917
 20
35.84735
 30
0.0
 11
465.428
 21
41.60265
 31
0.0
  0
LINE
  5
7C7
330
1E
100
AcDbEntity
  8
0
100
AcDbLine
 10
464.917
 20
35.84735
 30
0.0
 11
465.428
 21
30.09155
 31
0.0
  0
LINE
  5
7C8
330
1E
100
AcDbEntity
  8
0
100
AcDbLine
 10
478.859
 20
67.44315
 30
0.0
 11
483.822
 21
71.34605
 31
0.0
  0
LINE
  5
7C9
330
1E
100
AcDbEntity
  8
0
100
AcDbLine
 10
483.822
 20
-0.49685
 30
0.0
 11
489.296
 21
-3.80492
 31
0.0
  0
LINE
  5
7CA
330
1E
100
AcDbEntity
  8
0
100
AcDbLine
 10
489.296
 20
-3.80492
 30
0.0
 11
495.063
 21
-6.38456
 31
0.0
  0
LINE
  5
7CB
330
1E
100
AcDbEntity
  8
0
100
AcDbLine
 10
484.26
 20
0.45525
 30
0.0
 11
489.661
 21
-2.85275
 31
0.0
  0
LINE
  5
7CC
330
1E
100
AcDbEntity
  8
0
100
AcDbLine
 10
489.661
 20
-2.85275
 30
0.0
 11
495.355
 21
-5.30054
 31
0.0
  0
LINE
  5
7CD
330
1E
100
AcDbEntity
  8
0
100
AcDbLine
 10
479.369
 20
67.40265
 30
0.0
 11
484.26
 21
71.23945
 31
0.0
  0
LINE
  5
7CE
330
1E
100
AcDbEntity
  8
0
100
AcDbLine
 10
483.822
 20
71.34605
 30
0.0
 11
489.296
 21
74.65385
 31
0.0
  0
LINE
  5
7CF
330
1E
100
AcDbEntity
  8
0
100
AcDbLine
 10
489.296
 20
74.65385
 30
0.0
 11
495.063
 21
77.23385
 31
0.0
  0
LINE
  5
7D0
330
1E
100
AcDbEntity
  8
0
100
AcDbLine
 10
484.26
 20
71.23945
 30
0.0
 11
489.661
 21
74.54725
 31
0.0
  0
LINE
  5
7D1
330
1E
100
AcDbEntity
  8
0
100
AcDbLine
 10
495.063
 20
-6.38456
 30
0.0
 11
501.267
 21
-8.2369
 31
0.0
  0
LINE
  5
7D2
330
1E
100
AcDbEntity
  8
0
100
AcDbLine
 10
501.267
 20
-8.2369
 30
0.0
 11
507.764
 21
-9.42783
 31
0.0
  0
LINE
  5
7D3
330
1E
100
AcDbEntity
  8
0
100
AcDbLine
 10
495.355
 20
-5.30054
 30
0.0
 11
501.778
 21
-7.21877
 31
0.0
  0
LINE
  5
7D4
330
1E
100
AcDbEntity
  8
0
100
AcDbLine
 10
501.778
 20
-7.21877
 30
0.0
 11
507.837
 21
-8.34381
 31
0.0
  0
LINE
  5
7D5
330
1E
100
AcDbEntity
  8
0
100
AcDbLine
 10
489.661
 20
74.54725
 30
0.0
 11
495.355
 21
76.99495
 31
0.0
  0
LINE
  5
7D6
330
1E
100
AcDbEntity
  8
0
100
AcDbLine
 10
495.063
 20
77.23385
 30
0.0
 11
501.267
 21
79.08615
 31
0.0
  0
LINE
  5
7D7
330
1E
100
AcDbEntity
  8
0
100
AcDbLine
 10
501.267
 20
79.08615
 30
0.0
 11
507.764
 21
80.27695
 31
0.0
  0
LINE
  5
7D8
330
1E
100
AcDbEntity
  8
0
100
AcDbLine
 10
495.355
 20
76.99495
 30
0.0
 11
501.778
 21
78.91345
 31
0.0
  0
LINE
  5
7D9
330
1E
100
AcDbEntity
  8
0
100
AcDbLine
 10
505.547
 20
79.870608057565
 30
0.0
 11
505.547
 21
89.37985
 31
0.0
  0
LINE
  5
7DA
330
1E
100
AcDbEntity
  8
0
100
AcDbLine
 10
507.837
 20
-8.34381
 30
0.0
 11
514.187
 21
-8.80635
 31
0.0
  0
LINE
  5
7DB
330
1E
100
AcDbEntity
  8
0
100
AcDbLine
 10
501.778
 20
78.91345
 30
0.0
 11
507.837
 21
80.03795
 31
0.0
  0
LINE
  5
7DC
330
1E
100
AcDbEntity
  8
0
100
AcDbLine
 10
507.764
 20
80.27695
 30
0.0
 11
514.187
 21
80.74005
 31
0.0
  0
LINE
  5
7DD
330
1E
100
AcDbEntity
  8
0
100
AcDbLine
 10
507.837
 20
80.03795
 30
0.0
 11
514.187
 21
80.50105
 31
0.0
  0
LINE
  5
7DE
330
1E
100
AcDbEntity
  8
0
100
AcDbLine
 10
520.537
 20
80.03795
 30
0.0
 11
526.596
 21
78.91345
 31
0.0
  0
LINE
  5
7DF
330
1E
100
AcDbEntity
  8
0
100
AcDbLine
 10
502.571
 20
87.99985
 30
0.0
 11
503.819
 21
86.69785
 31
0.0
  0
LINE
  5
7E0
330
1E
100
AcDbEntity
  8
0
100
AcDbLine
 10
502.187
 20
89.37985
 30
0.0
 11
502.571
 21
90.79985
 31
0.0
  0
LINE
  5
7E1
330
1E
100
AcDbEntity
  8
0
100
AcDbLine
 10
502.187
 20
89.37985
 30
0.0
 11
502.571
 21
87.99985
 31
0.0
  0
LINE
  5
7E2
330
1E
100
AcDbEntity
  8
0
100
AcDbLine
 10
502.187
 20
89.37985
 30
0.0
 11
502.187
 21
149.86085
 31
0.0
  0
LINE
  5
7E3
330
1E
100
AcDbEntity
  8
0
100
AcDbLine
 10
503.819
 20
86.69785
 30
0.0
 11
505.547
 21
85.66861
 31
0.0
  0
LINE
  5
7E4
330
1E
100
AcDbEntity
  8
0
100
AcDbLine
 10
502.571
 20
90.79985
 30
0.0
 11
503.819
 21
92.10185
 31
0.0
  0
LINE
  5
7E5
330
1E
100
AcDbEntity
  8
0
100
AcDbLine
 10
503.819
 20
92.10185
 30
0.0
 11
505.739
 21
93.24485
 31
0.0
  0
LINE
  5
7E6
330
1E
100
AcDbEntity
  8
0
100
AcDbLine
 10
505.739
 20
93.24485
 30
0.0
 11
508.235
 21
94.11285
 31
0.0
  0
LINE
  5
7E7
330
1E
100
AcDbEntity
  8
0
100
AcDbLine
 10
511.979
 20
93.16585
 30
0.0
 11
514.187
 21
93.32385
 31
0.0
  0
LINE
  5
7E8
330
1E
100
AcDbEntity
  8
0
100
AcDbLine
 10
509.867
 20
92.77085
 30
0.0
 11
511.979
 21
93.16585
 31
0.0
  0
LINE
  5
7E9
330
1E
100
AcDbEntity
  8
0
100
AcDbLine
 10
508.043
 20
92.14085
 30
0.0
 11
509.867
 21
92.77085
 31
0.0
  0
LINE
  5
7EA
330
1E
100
AcDbEntity
  8
0
100
AcDbLine
 10
506.699
 20
91.35185
 30
0.0
 11
508.043
 21
92.14085
 31
0.0
  0
LINE
  5
7EB
330
1E
100
AcDbEntity
  8
0
100
AcDbLine
 10
505.835
 20
90.40485
 30
0.0
 11
506.699
 21
91.35185
 31
0.0
  0
LINE
  5
7EC
330
1E
100
AcDbEntity
  8
0
100
AcDbLine
 10
505.547
 20
89.37985
 30
0.0
 11
505.547
 21
79.870608057565
 31
0.0
  0
LINE
  5
7ED
330
1E
100
AcDbEntity
  8
0
100
AcDbLine
 10
505.547
 20
89.37985
 30
0.0
 11
505.835
 21
90.40485
 31
0.0
  0
LINE
  5
7EE
330
1E
100
AcDbEntity
  8
0
100
AcDbLine
 10
498.79
 20
148.89585
 30
0.0
 11
500.252
 21
146.04085
 31
0.0
  0
LINE
  5
7EF
330
1E
100
AcDbEntity
  8
0
100
AcDbLine
 10
501.836
 20
144.26685
 30
0.0
 11
502.187
 21
143.992091803279
 31
0.0
  0
LINE
  5
7F0
330
1E
100
AcDbEntity
  8
0
100
AcDbLine
 10
500.252
 20
146.04085
 30
0.0
 11
500.709
 21
145.83585
 31
0.0
  0
LINE
  5
7F1
330
1E
100
AcDbEntity
  8
0
100
AcDbLine
 10
500.361049608484
 20
145.991932779564
 30
0.0
 11
501.836
 21
144.26685
 31
0.0
  0
LINE
  5
7F2
330
1E
100
AcDbEntity
  8
0
100
AcDbLine
 10
500.709
 20
145.83585
 30
0.0
 11
502.187
 21
144.256208841779
 31
0.0
  0
LINE
  5
7F3
330
1E
100
AcDbEntity
  8
0
100
AcDbLine
 10
499.127
 20
148.21985
 30
0.0
 11
499.186767041061
 21
148.121041585343
 31
0.0
  0
LINE
  5
7F4
330
1E
100
AcDbEntity
  8
0
100
AcDbLine
 10
498.154
 20
152.94685
 30
0.0
 11
498.677
 21
155.61885
 31
0.0
  0
LINE
  5
7F5
330
1E
100
AcDbEntity
  8
0
100
AcDbLine
 10
498.154
 20
152.94685
 30
0.0
 11
498.337
 21
150.54485
 31
0.0
  0
LINE
  5
7F6
330
1E
100
AcDbEntity
  8
0
100
AcDbLine
 10
498.337
 20
150.54485
 30
0.0
 11
498.79
 21
148.89585
 31
0.0
  0
LINE
  5
7F7
330
1E
100
AcDbEntity
  8
0
100
AcDbLine
 10
502.187
 20
149.86085
 30
0.0
 11
502.187
 21
89.37985
 31
0.0
  0
LINE
  5
7F8
330
1E
100
AcDbEntity
  8
0
100
AcDbLine
 10
502.187
 20
149.86085
 30
0.0
 11
502.571
 21
152.25485
 31
0.0
  0
LINE
  5
7F9
330
1E
100
AcDbEntity
  8
0
100
AcDbLine
 10
502.571
 20
152.25485
 30
0.0
 11
503.819
 21
154.48085
 31
0.0
  0
LINE
  5
7FA
330
1E
100
AcDbEntity
  8
0
100
AcDbLine
 10
498.677
 20
155.61885
 30
0.0
 11
499.982
 21
158.13485
 31
0.0
  0
LINE
  5
7FB
330
1E
100
AcDbEntity
  8
0
100
AcDbLine
 10
503.819
 20
154.48085
 30
0.0
 11
505.739
 21
156.41085
 31
0.0
  0
LINE
  5
7FC
330
1E
100
AcDbEntity
  8
0
100
AcDbLine
 10
505.739
 20
156.41085
 30
0.0
 11
508.235
 21
157.83485
 31
0.0
  0
LINE
  5
7FD
330
1E
100
AcDbEntity
  8
0
100
AcDbLine
 10
499.982
 20
158.13485
 30
0.0
 11
501.916
 21
160.40085
 31
0.0
  0
LINE
  5
7FE
330
1E
100
AcDbEntity
  8
0
100
AcDbLine
 10
508.235
 20
157.83485
 30
0.0
 11
511.115
 21
158.71485
 31
0.0
  0
LINE
  5
7FF
330
1E
100
AcDbEntity
  8
0
100
AcDbLine
 10
508.235
 20
94.11285
 30
0.0
 11
511.115
 21
94.62485
 31
0.0
  0
LINE
  5
800
330
1E
100
AcDbEntity
  8
0
100
AcDbLine
 10
511.115
 20
158.71485
 30
0.0
 11
514.187
 21
159.05185
 31
0.0
  0
LINE
  5
801
330
1E
100
AcDbEntity
  8
0
100
AcDbLine
 10
511.115
 20
94.62485
 30
0.0
 11
514.187
 21
94.82185
 31
0.0
  0
LINE
  5
802
330
1E
100
AcDbEntity
  8
0
100
AcDbLine
 10
501.916
 20
160.40085
 30
0.0
 11
504.801
 21
162.43785
 31
0.0
  0
LINE
  5
803
330
1E
100
AcDbEntity
  8
0
100
AcDbLine
 10
504.801
 20
162.43785
 30
0.0
 11
508.615
 21
163.99085
 31
0.0
  0
LINE
  5
804
330
1E
100
AcDbEntity
  8
0
100
AcDbLine
 10
514.187
 20
159.05185
 30
0.0
 11
517.259
 21
158.71485
 31
0.0
  0
LINE
  5
805
330
1E
100
AcDbEntity
  8
0
100
AcDbLine
 10
514.187
 20
94.82185
 30
0.0
 11
517.259
 21
94.62485
 31
0.0
  0
LINE
  5
806
330
1E
100
AcDbEntity
  8
0
100
AcDbLine
 10
514.187
 20
93.32385
 30
0.0
 11
516.395
 21
93.16585
 31
0.0
  0
LINE
  5
807
330
1E
100
AcDbEntity
  8
0
100
AcDbLine
 10
520.331
 20
92.14085
 30
0.0
 11
521.675
 21
91.35185
 31
0.0
  0
LINE
  5
808
330
1E
100
AcDbEntity
  8
0
100
AcDbLine
 10
518.507
 20
92.77085
 30
0.0
 11
520.331
 21
92.14085
 31
0.0
  0
LINE
  5
809
330
1E
100
AcDbEntity
  8
0
100
AcDbLine
 10
517.259
 20
158.71485
 30
0.0
 11
520.139
 21
157.83485
 31
0.0
  0
LINE
  5
80A
330
1E
100
AcDbEntity
  8
0
100
AcDbLine
 10
520.139
 20
157.83485
 30
0.0
 11
522.635
 21
156.41085
 31
0.0
  0
LINE
  5
80B
330
1E
100
AcDbEntity
  8
0
100
AcDbLine
 10
520.139
 20
94.11285
 30
0.0
 11
522.635
 21
93.24485
 31
0.0
  0
LINE
  5
80C
330
1E
100
AcDbEntity
  8
0
100
AcDbLine
 10
517.259
 20
94.62485
 30
0.0
 11
520.139
 21
94.11285
 31
0.0
  0
LINE
  5
80D
330
1E
100
AcDbEntity
  8
0
100
AcDbLine
 10
516.395
 20
93.16585
 30
0.0
 11
518.507
 21
92.77085
 31
0.0
  0
LINE
  5
80E
330
1E
100
AcDbEntity
  8
0
100
AcDbLine
 10
514.187
 20
80.74005
 30
0.0
 11
520.61
 21
80.27695
 31
0.0
  0
LINE
  5
80F
330
1E
100
AcDbEntity
  8
0
100
AcDbLine
 10
514.187
 20
80.50105
 30
0.0
 11
520.537
 21
80.03795
 31
0.0
  0
LINE
  5
810
330
1E
100
AcDbEntity
  8
0
100
AcDbLine
 10
527.107
 20
-8.2369
 30
0.0
 11
533.311
 21
-6.38456
 31
0.0
  0
LINE
  5
811
330
1E
100
AcDbEntity
  8
0
100
AcDbLine
 10
533.019
 20
76.99495
 30
0.0
 11
538.713
 21
74.54725
 31
0.0
  0
LINE
  5
812
330
1E
100
AcDbEntity
  8
0
100
AcDbLine
 10
522.827
 20
85.66861
 30
0.0
 11
524.555
 21
86.69785
 31
0.0
  0
LINE
  5
813
330
1E
100
AcDbEntity
  8
0
100
AcDbLine
 10
524.555
 20
86.69785
 30
0.0
 11
525.803
 21
87.99985
 31
0.0
  0
LINE
  5
814
330
1E
100
AcDbEntity
  8
0
100
AcDbLine
 10
526.187
 20
89.37985
 30
0.0
 11
526.187
 21
149.86085
 31
0.0
  0
LINE
  5
815
330
1E
100
AcDbEntity
  8
0
100
AcDbLine
 10
525.803
 20
87.99985
 30
0.0
 11
526.187
 21
89.37985
 31
0.0
  0
LINE
  5
816
330
1E
100
AcDbEntity
  8
0
100
AcDbLine
 10
522.635
 20
156.41085
 30
0.0
 11
524.555
 21
154.48085
 31
0.0
  0
LINE
  5
817
330
1E
100
AcDbEntity
  8
0
100
AcDbLine
 10
525.803
 20
90.79985
 30
0.0
 11
526.187
 21
89.37985
 31
0.0
  0
LINE
  5
818
330
1E
100
AcDbEntity
  8
0
100
AcDbLine
 10
526.187
 20
144.039413492063
 30
0.0
 11
526.908
 21
144.78085
 31
0.0
  0
LINE
  5
819
330
1E
100
AcDbEntity
  8
0
100
AcDbLine
 10
526.187
 20
144.727179273793
 30
0.0
 11
526.411
 21
144.92885
 31
0.0
  0
LINE
  5
81A
330
1E
100
AcDbEntity
  8
0
100
AcDbLine
 10
526.908
 20
144.78085
 30
0.0
 11
528.798
 21
147.19385
 31
0.0
  0
LINE
  5
81B
330
1E
100
AcDbEntity
  8
0
100
AcDbLine
 10
529.786
 20
149.57285
 30
0.0
 11
530.174
 21
151.66285
 31
0.0
  0
LINE
  5
81C
330
1E
100
AcDbEntity
  8
0
100
AcDbLine
 10
528.798
 20
147.19385
 30
0.0
 11
529.786
 21
149.57285
 31
0.0
  0
LINE
  5
81D
330
1E
100
AcDbEntity
  8
0
100
AcDbLine
 10
526.187
 20
149.86085
 30
0.0
 11
526.187
 21
89.37985
 31
0.0
  0
LINE
  5
81E
330
1E
100
AcDbEntity
  8
0
100
AcDbLine
 10
525.118
 20
161.43585
 30
0.0
 11
526.973
 21
159.87285
 31
0.0
  0
LINE
  5
81F
330
1E
100
AcDbEntity
  8
0
100
AcDbLine
 10
526.973
 20
159.87285
 30
0.0
 11
528.202
 21
158.33285
 31
0.0
  0
LINE
  5
820
330
1E
100
AcDbEntity
  8
0
100
AcDbLine
 10
529.945
 20
154.66485
 30
0.0
 11
530.174
 21
151.66285
 31
0.0
  0
LINE
  5
821
330
1E
100
AcDbEntity
  8
0
100
AcDbLine
 10
529.195
 20
156.69285
 30
0.0
 11
529.254989660265
 21
156.516146279193
 31
0.0
  0
LINE
  5
822
330
1E
100
AcDbEntity
  8
0
100
AcDbLine
 10
529.368
 20
156.42185
 30
0.0
 11
529.945
 21
154.66485
 31
0.0
  0
LINE
  5
823
330
1E
100
AcDbEntity
  8
0
100
AcDbLine
 10
528.202
 20
158.33285
 30
0.0
 11
529.195
 21
156.69285
 31
0.0
  0
LINE
  5
824
330
1E
100
AcDbEntity
  8
0
100
AcDbLine
 10
525.803
 20
152.25485
 30
0.0
 11
526.187
 21
149.86085
 31
0.0
  0
LINE
  5
825
330
1E
100
AcDbEntity
  8
0
100
AcDbLine
 10
524.555
 20
154.48085
 30
0.0
 11
525.803
 21
152.25485
 31
0.0
  0
LINE
  5
826
330
1E
100
AcDbEntity
  8
0
100
AcDbLine
 10
524.555
 20
92.10185
 30
0.0
 11
525.803
 21
90.79985
 31
0.0
  0
LINE
  5
827
330
1E
100
AcDbEntity
  8
0
100
AcDbLine
 10
522.635
 20
93.24485
 30
0.0
 11
524.555
 21
92.10185
 31
0.0
  0
LINE
  5
828
330
1E
100
AcDbEntity
  8
0
100
AcDbLine
 10
522.827
 20
89.37985
 30
0.0
 11
522.827
 21
79.870608057565
 31
0.0
  0
LINE
  5
829
330
1E
100
AcDbEntity
  8
0
100
AcDbLine
 10
522.539
 20
90.40485
 30
0.0
 11
522.827
 21
89.37985
 31
0.0
  0
LINE
  5
82A
330
1E
100
AcDbEntity
  8
0
100
AcDbLine
 10
522.827
 20
79.870608057565
 30
0.0
 11
522.827
 21
89.37985
 31
0.0
  0
LINE
  5
82B
330
1E
100
AcDbEntity
  8
0
100
AcDbLine
 10
521.675
 20
91.35185
 30
0.0
 11
522.539
 21
90.40485
 31
0.0
  0
LINE
  5
82C
330
1E
100
AcDbEntity
  8
0
100
AcDbLine
 10
527.107
 20
79.08615
 30
0.0
 11
533.311
 21
77.23385
 31
0.0
  0
LINE
  5
82D
330
1E
100
AcDbEntity
  8
0
100
AcDbLine
 10
520.61
 20
80.27695
 30
0.0
 11
527.107
 21
79.08615
 31
0.0
  0
LINE
  5
82E
330
1E
100
AcDbEntity
  8
0
100
AcDbLine
 10
526.596
 20
78.91345
 30
0.0
 11
533.019
 21
76.99495
 31
0.0
  0
LINE
  5
82F
330
1E
100
AcDbEntity
  8
0
100
AcDbLine
 10
549.515
 20
-5.46838
 30
0.0
 11
553.822
 21
-0.97045
 31
0.0
  0
LINE
  5
830
330
1E
100
AcDbEntity
  8
0
100
AcDbLine
 10
539.078
 20
-3.80492
 30
0.0
 11
544.552
 21
-0.49685
 31
0.0
  0
LINE
  5
831
330
1E
100
AcDbEntity
  8
0
100
AcDbLine
 10
533.311
 20
-6.38456
 30
0.0
 11
539.078
 21
-3.80492
 31
0.0
  0
LINE
  5
832
330
1E
100
AcDbEntity
  8
0
100
AcDbLine
 10
544.114
 20
71.23945
 30
0.0
 11
549.005
 21
67.40265
 31
0.0
  0
LINE
  5
833
330
1E
100
AcDbEntity
  8
0
100
AcDbLine
 10
539.078
 20
74.65385
 30
0.0
 11
544.552
 21
71.34605
 31
0.0
  0
LINE
  5
834
330
1E
100
AcDbEntity
  8
0
100
AcDbLine
 10
533.311
 20
77.23385
 30
0.0
 11
539.078
 21
74.65385
 31
0.0
  0
LINE
  5
835
330
1E
100
AcDbEntity
  8
0
100
AcDbLine
 10
538.713
 20
74.54725
 30
0.0
 11
544.114
 21
71.23945
 31
0.0
  0
LINE
  5
836
330
1E
100
AcDbEntity
  8
0
100
AcDbLine
 10
553.822
 20
-0.97045
 30
0.0
 11
557.472
 21
3.99105
 31
0.0
  0
LINE
  5
837
330
1E
100
AcDbEntity
  8
0
100
AcDbLine
 10
549.515
 20
3.40665
 30
0.0
 11
553.822
 21
7.90455
 31
0.0
  0
LINE
  5
838
330
1E
100
AcDbEntity
  8
0
100
AcDbLine
 10
549.005
 20
4.29185
 30
0.0
 11
553.238
 21
8.72375
 31
0.0
  0
LINE
  5
839
330
1E
100
AcDbEntity
  8
0
100
AcDbLine
 10
557.472
 20
3.99105
 30
0.0
 11
560.318
 21
9.21735
 31
0.0
  0
LINE
  5
83A
330
1E
100
AcDbEntity
  8
0
100
AcDbLine
 10
553.822
 20
7.90455
 30
0.0
 11
557.472
 21
12.86615
 31
0.0
  0
LINE
  5
83B
330
1E
100
AcDbEntity
  8
0
100
AcDbLine
 10
557.472
 20
12.86615
 30
0.0
 11
560.318
 21
18.09235
 31
0.0
  0
LINE
  5
83C
330
1E
100
AcDbEntity
  8
0
100
AcDbLine
 10
553.238
 20
8.72375
 30
0.0
 11
556.888
 21
13.61935
 31
0.0
  0
LINE
  5
83D
330
1E
100
AcDbEntity
  8
0
100
AcDbLine
 10
556.888
 20
13.61935
 30
0.0
 11
559.588
 21
18.77975
 31
0.0
  0
LINE
  5
83E
330
1E
100
AcDbEntity
  8
0
100
AcDbLine
 10
560.318
 20
9.21735
 30
0.0
 11
562.362
 21
14.84035
 31
0.0
  0
LINE
  5
83F
330
1E
100
AcDbEntity
  8
0
100
AcDbLine
 10
562.362
 20
14.84035
 30
0.0
 11
563.676
 21
20.72805
 31
0.0
  0
LINE
  5
840
330
1E
100
AcDbEntity
  8
0
100
AcDbLine
 10
560.318
 20
18.09235
 30
0.0
 11
562.362
 21
23.71525
 31
0.0
  0
LINE
  5
841
330
1E
100
AcDbEntity
  8
0
100
AcDbLine
 10
562.362
 20
23.71525
 30
0.0
 11
563.676
 21
29.60295
 31
0.0
  0
LINE
  5
842
330
1E
100
AcDbEntity
  8
0
100
AcDbLine
 10
559.588
 20
18.77975
 30
0.0
 11
561.705
 21
24.60145
 31
0.0
  0
LINE
  5
843
330
1E
100
AcDbEntity
  8
0
100
AcDbLine
 10
557.472
 20
57.98305
 30
0.0
 11
560.318
 21
52.75705
 31
0.0
  0
LINE
  5
844
330
1E
100
AcDbEntity
  8
0
100
AcDbLine
 10
544.552
 20
71.34605
 30
0.0
 11
549.515
 21
67.44315
 31
0.0
  0
LINE
  5
845
330
1E
100
AcDbEntity
  8
0
100
AcDbLine
 10
549.515
 20
67.44315
 30
0.0
 11
553.822
 21
62.94465
 31
0.0
  0
LINE
  5
846
330
1E
100
AcDbEntity
  8
0
100
AcDbLine
 10
549.005
 20
67.40265
 30
0.0
 11
553.238
 21
62.97025
 31
0.0
  0
LINE
  5
847
330
1E
100
AcDbEntity
  8
0
100
AcDbLine
 10
553.822
 20
62.94465
 30
0.0
 11
557.472
 21
57.98305
 31
0.0
  0
LINE
  5
848
330
1E
100
AcDbEntity
  8
0
100
AcDbLine
 10
553.238
 20
62.97025
 30
0.0
 11
556.888
 21
58.07495
 31
0.0
  0
LINE
  5
849
330
1E
100
AcDbEntity
  8
0
100
AcDbLine
 10
556.888
 20
58.07495
 30
0.0
 11
559.588
 21
52.91495
 31
0.0
  0
LINE
  5
84A
330
1E
100
AcDbEntity
  8
0
100
AcDbLine
 10
560.318
 20
52.75705
 30
0.0
 11
562.362
 21
47.13385
 31
0.0
  0
LINE
  5
84B
330
1E
100
AcDbEntity
  8
0
100
AcDbLine
 10
562.362
 20
47.13385
 30
0.0
 11
563.676
 21
41.24625
 31
0.0
  0
LINE
  5
84C
330
1E
100
AcDbEntity
  8
0
100
AcDbLine
 10
559.588
 20
52.91495
 30
0.0
 11
561.705
 21
47.09335
 31
0.0
  0
LINE
  5
84D
330
1E
100
AcDbEntity
  8
0
100
AcDbLine
 10
561.705
 20
47.09335
 30
0.0
 11
562.946
 21
41.60265
 31
0.0
  0
LINE
  5
84E
330
1E
100
AcDbEntity
  8
0
100
AcDbLine
 10
562.946
 20
41.60265
 30
0.0
 11
563.457
 21
35.84735
 31
0.0
  0
LINE
  5
84F
330
1E
100
AcDbEntity
  8
0
100
AcDbLine
 10
561.705
 20
24.60145
 30
0.0
 11
562.946
 21
30.09155
 31
0.0
  0
LINE
  5
850
330
1E
100
AcDbEntity
  8
0
100
AcDbLine
 10
564.187
 20
26.54975
 30
0.0
 11
564.187
 21
35.42475
 31
0.0
  0
LINE
  5
851
330
1E
100
AcDbEntity
  8
0
100
AcDbLine
 10
563.676
 20
20.72805
 30
0.0
 11
564.187
 21
26.54975
 31
0.0
  0
LINE
  5
852
330
1E
100
AcDbEntity
  8
0
100
AcDbLine
 10
564.187
 20
35.42475
 30
0.0
 11
564.187
 21
26.54975
 31
0.0
  0
LINE
  5
853
330
1E
100
AcDbEntity
  8
0
100
AcDbLine
 10
563.676
 20
41.24625
 30
0.0
 11
564.187
 21
35.42475
 31
0.0
  0
LINE
  5
854
330
1E
100
AcDbEntity
  8
0
100
AcDbLine
 10
563.676
 20
29.60295
 30
0.0
 11
564.187
 21
35.42475
 31
0.0
  0
LINE
  5
855
330
1E
100
AcDbEntity
  8
0
100
AcDbLine
 10
562.946
 20
30.09155
 30
0.0
 11
563.457
 21
35.84735
 31
0.0
  0
LINE
  5
856
330
1E
100
AcDbEntity
  8
0
100
AcDbLine
 10
544.552
 20
-0.49685
 30
0.0
 11
549.515
 21
3.40665
 31
0.0
  0
LINE
  5
857
330
1E
100
AcDbEntity
  8
0
100
AcDbLine
 10
544.114
 20
0.45525
 30
0.0
 11
549.005
 21
4.29185
 31
0.0
  0
LINE
  5
858
330
1E
100
AcDbEntity
  8
0
100
AcDbLine
 10
538.713
 20
-2.85275
 30
0.0
 11
544.114
 21
0.45525
 31
0.0
  0
LINE
  5
859
330
1E
100
AcDbEntity
  8
0
100
AcDbLine
 10
533.019
 20
-5.30054
 30
0.0
 11
538.713
 21
-2.85275
 31
0.0
  0
LINE
  5
85A
330
1E
100
AcDbEntity
  8
0
100
AcDbLine
 10
526.596
 20
-7.21877
 30
0.0
 11
533.019
 21
-5.30054
 31
0.0
  0
LINE
  5
85B
330
1E
100
AcDbEntity
  8
0
100
AcDbLine
 10
520.537
 20
-8.34381
 30
0.0
 11
526.596
 21
-7.21877
 31
0.0
  0
LINE
  5
85C
330
1E
100
AcDbEntity
  8
0
100
AcDbLine
 10
514.187
 20
-8.80635
 30
0.0
 11
520.537
 21
-8.34381
 31
0.0
  0
LINE
  5
861
330
1E
100
AcDbEntity
  8
0
100
AcDbLine
 10
498.169
 20
163.76185
 30
0.0
 11
498.196707367469
 21
153.165041368792
 31
0.0
  0
LINE
  5
862
330
1E
100
AcDbEntity
  8
0
100
AcDbLine
 10
498.169
 20
163.76185
 30
0.0
 11
498.391
 21
166.76685
 31
0.0
  0
LINE
  5
863
330
1E
100
AcDbEntity
  8
0
100
AcDbLine
 10
498.410618492412
 20
166.812493349202
 30
0.0
 11
498.554
 21
167.85885
 31
0.0
  0
LINE
  5
864
330
1E
100
AcDbEntity
  8
0
100
AcDbLine
 10
498.391
 20
166.76685
 30
0.0
 11
499.619
 21
169.62385
 31
0.0
  0
LINE
  5
865
330
1E
100
AcDbEntity
  8
0
100
AcDbLine
 10
508.615
 20
163.99085
 30
0.0
 11
512.44
 21
164.68485
 31
0.0
  0
LINE
  5
866
330
1E
100
AcDbEntity
  8
0
100
AcDbLine
 10
521.611
 20
163.38085
 30
0.0
 11
525.118
 21
161.43585
 31
0.0
  0
LINE
  5
867
330
1E
100
AcDbEntity
  8
0
100
AcDbLine
 10
512.44
 20
164.68485
 30
0.0
 11
517.533
 21
164.48285
 31
0.0
  0
LINE
  5
868
330
1E
100
AcDbEntity
  8
0
100
AcDbLine
 10
517.533
 20
164.48285
 30
0.0
 11
521.611
 21
163.38085
 31
0.0
  0
LINE
  5
86A
330
1E
100
AcDbEntity
  8
0
100
AcDbLine
 10
529.964
 20
166.90785
 30
0.0
 11
530.161
 21
164.99085
 31
0.0
  0
LINE
  5
86B
330
1E
100
AcDbEntity
  8
0
100
AcDbLine
 10
529.874
 20
166.98585
 30
0.0
 11
530.148
 21
163.38485
 31
0.0
  0
LINE
  5
86C
330
1E
100
AcDbEntity
  8
0
100
AcDbLine
 10
530.161
 20
164.799444948335
 30
0.0
 11
530.161
 21
190.80985
 31
0.0
  0
LINE
  5
86D
330
1E
100
AcDbEntity
  8
0
100
AcDbLine
 10
530.148
 20
163.38485
 30
0.0
 11
530.167
 21
151.96585
 31
0.0
  0
LINE
  5
86E
330
1E
100
AcDbEntity
  8
0
100
AcDbLine
 10
498.554
 20
167.85885
 30
0.0
 11
499.904
 21
170.55585
 31
0.0
  0
LINE
  5
86F
330
1E
100
AcDbEntity
  8
0
100
AcDbLine
 10
499.619
 20
169.62385
 30
0.0
 11
501.66
 21
172.18885
 31
0.0
  0
LINE
  5
870
330
1E
100
AcDbEntity
  8
0
100
AcDbLine
 10
529.209
 20
168.72385
 30
0.0
 11
529.874
 21
166.98585
 31
0.0
  0
LINE
  5
872
330
1E
100
AcDbEntity
  8
0
100
AcDbLine
 10
528.986
 20
169.69885
 30
0.0
 11
529.964
 21
166.90785
 31
0.0
  0
LINE
  5
873
330
1E
100
AcDbEntity
  8
0
100
AcDbLine
 10
499.904
 20
170.55485
 30
0.0
 11
501.216
 21
172.19485
 31
0.0
  0
LINE
  5
875
330
1E
100
AcDbEntity
  8
0
100
AcDbLine
 10
528.245
 20
170.37285
 30
0.0
 11
529.209
 21
168.72385
 31
0.0
  0
LINE
  5
877
330
1E
100
AcDbEntity
  8
0
100
AcDbLine
 10
495.746
 20
174.15685
 30
0.0
 11
498.05
 21
172.39585
 31
0.0
  0
LINE
  5
879
330
1E
100
AcDbEntity
  8
0
100
AcDbLine
 10
501.66
 20
172.18885
 30
0.0
 11
505.122
 21
174.63785
 31
0.0
  0
LINE
  5
87A
330
1E
100
AcDbEntity
  8
0
100
AcDbLine
 10
530.161
 20
172.328229603399
 30
0.0
 11
530.271
 21
172.39585
 31
0.0
  0
LINE
  5
87B
330
1E
100
AcDbEntity
  8
0
100
AcDbLine
 10
530.271
 20
172.39585
 30
0.0
 11
532.575
 21
174.15785
 31
0.0
  0
LINE
  5
87C
330
1E
100
AcDbEntity
  8
0
100
AcDbLine
 10
501.216
 20
172.19485
 30
0.0
 11
502.847
 21
173.65785
 31
0.0
  0
LINE
  5
87E
330
1E
100
AcDbEntity
  8
0
100
AcDbLine
 10
502.847
 20
173.65785
 30
0.0
 11
504.756
 21
174.90685
 31
0.0
  0
LINE
  5
87F
330
1E
100
AcDbEntity
  8
0
100
AcDbLine
 10
526.363
 20
172.97585
 30
0.0
 11
528.986
 21
169.69885
 31
0.0
  0
LINE
  5
880
330
1E
100
AcDbEntity
  8
0
100
AcDbLine
 10
523.586
 20
174.39885
 30
0.0
 11
525.933
 21
172.79885
 31
0.0
  0
LINE
  5
881
330
1E
100
AcDbEntity
  8
0
100
AcDbLine
 10
532.575
 20
174.15785
 30
0.0
 11
534.687
 21
176.14485
 31
0.0
  0
LINE
  5
883
330
1E
100
AcDbEntity
  8
0
100
AcDbLine
 10
525.933
 20
172.79885
 30
0.0
 11
528.245
 21
170.37285
 31
0.0
  0
LINE
  5
884
330
1E
100
AcDbEntity
  8
0
100
AcDbLine
 10
498.05
 20
172.39585
 30
0.0
 11
498.161
 21
172.327614872521
 31
0.0
  0
LINE
  5
885
330
1E
100
AcDbEntity
  8
0
100
AcDbLine
 10
505.122
 20
174.63785
 30
0.0
 11
508.626
 21
175.99185
 31
0.0
  0
LINE
  5
886
330
1E
100
AcDbEntity
  8
0
100
AcDbLine
 10
506.634
 20
175.22385
 30
0.0
 11
506.745777742498
 21
175.265302929036
 31
0.0
  0
LINE
  5
887
330
1E
100
AcDbEntity
  8
0
100
AcDbLine
 10
504.756
 20
174.90685
 30
0.0
 11
506.897
 21
175.91185
 31
0.0
  0
LINE
  5
888
330
1E
100
AcDbEntity
  8
0
100
AcDbLine
 10
520.877
 20
175.61785
 30
0.0
 11
523.586
 21
174.39885
 31
0.0
  0
LINE
  5
889
330
1E
100
AcDbEntity
  8
0
100
AcDbLine
 10
508.626
 20
175.99185
 30
0.0
 11
511.665
 21
176.59785
 31
0.0
  0
LINE
  5
88A
330
1E
100
AcDbEntity
  8
0
100
AcDbLine
 10
506.897
 20
175.91185
 30
0.0
 11
509.217
 21
176.64785
 31
0.0
  0
LINE
  5
88B
330
1E
100
AcDbEntity
  8
0
100
AcDbLine
 10
522.548
 20
175.47185
 30
0.0
 11
526.363
 21
172.97585
 31
0.0
  0
LINE
  5
88C
330
1E
100
AcDbEntity
  8
0
100
AcDbLine
 10
493.634
 20
176.14485
 30
0.0
 11
495.746
 21
174.15685
 31
0.0
  0
LINE
  5
88D
330
1E
100
AcDbEntity
  8
0
100
AcDbLine
 10
534.687
 20
176.14485
 30
0.0
 11
536.586
 21
178.33685
 31
0.0
  0
LINE
  5
88F
330
1E
100
AcDbEntity
  8
0
100
AcDbLine
 10
517.91
 20
176.40685
 30
0.0
 11
520.877
 21
175.61785
 31
0.0
  0
LINE
  5
890
330
1E
100
AcDbEntity
  8
0
100
AcDbLine
 10
511.665
 20
176.59785
 30
0.0
 11
514.799
 21
176.73785
 31
0.0
  0
LINE
  5
891
330
1E
100
AcDbEntity
  8
0
100
AcDbLine
 10
509.217
 20
176.64785
 30
0.0
 11
511.658
 21
177.09685
 31
0.0
  0
LINE
  5
892
330
1E
100
AcDbEntity
  8
0
100
AcDbLine
 10
514.799
 20
176.73785
 30
0.0
 11
517.91
 21
176.40685
 31
0.0
  0
LINE
  5
893
330
1E
100
AcDbEntity
  8
0
100
AcDbLine
 10
516.663
 20
177.09685
 30
0.0
 11
519.105
 21
176.64785
 31
0.0
  0
LINE
  5
894
330
1E
100
AcDbEntity
  8
0
100
AcDbLine
 10
519.105
 20
176.64785
 30
0.0
 11
522.548
 21
175.47185
 31
0.0
  0
LINE
  5
895
330
1E
100
AcDbEntity
  8
0
100
AcDbLine
 10
514.161
 20
177.24785
 30
0.0
 11
516.663
 21
177.09685
 31
0.0
  0
LINE
  5
896
330
1E
100
AcDbEntity
  8
0
100
AcDbLine
 10
530.161
 20
177.379179842932
 30
0.0
 11
531.028
 21
178.55485
 31
0.0
  0
LINE
  5
897
330
1E
100
AcDbEntity
  8
0
100
AcDbLine
 10
511.658
 20
177.09685
 30
0.0
 11
514.161
 21
177.24785
 31
0.0
  0
LINE
  5
898
330
1E
100
AcDbEntity
  8
0
100
AcDbLine
 10
497.501
 20
178.26285
 30
0.0
 11
498.161
 21
177.328857326007
 31
0.0
  0
LINE
  5
899
330
1E
100
AcDbEntity
  8
0
100
AcDbLine
 10
491.735
 20
178.33585
 30
0.0
 11
493.634
 21
176.14485
 31
0.0
  0
LINE
  5
89A
330
1E
100
AcDbEntity
  8
0
100
AcDbLine
 10
536.586
 20
178.33685
 30
0.0
 11
538.252
 21
180.71085
 31
0.0
  0
LINE
  5
89B
330
1E
100
AcDbEntity
  8
0
100
AcDbLine
 10
531.028
 20
178.55485
 30
0.0
 11
532.479
 21
181.12985
 31
0.0
  0
LINE
  5
89E
330
1E
100
AcDbEntity
  8
0
100
AcDbLine
 10
490.07
 20
180.71085
 30
0.0
 11
491.735
 21
178.33585
 31
0.0
  0
LINE
  5
89F
330
1E
100
AcDbEntity
  8
0
100
AcDbLine
 10
496.091
 20
180.64585
 30
0.0
 11
497.501
 21
178.26285
 31
0.0
  0
LINE
  5
8A0
330
1E
100
AcDbEntity
  8
0
100
AcDbLine
 10
538.252
 20
180.71085
 30
0.0
 11
539.667
 21
183.24185
 31
0.0
  0
LINE
  5
8A1
330
1E
100
AcDbEntity
  8
0
100
AcDbLine
 10
532.479
 20
181.12985
 30
0.0
 11
533.485
 21
183.34985
 31
0.0
  0
LINE
  5
8A2
330
1E
100
AcDbEntity
  8
0
100
AcDbLine
 10
488.654
 20
183.24085
 30
0.0
 11
490.07
 21
180.71085
 31
0.0
  0
LINE
  5
8A3
330
1E
100
AcDbEntity
  8
0
100
AcDbLine
 10
494.916
 20
183.18285
 30
0.0
 11
496.091
 21
180.64585
 31
0.0
  0
LINE
  5
8A4
330
1E
100
AcDbEntity
  8
0
100
AcDbLine
 10
539.667
 20
183.24185
 30
0.0
 11
540.817
 21
185.90385
 31
0.0
  0
LINE
  5
8A5
330
1E
100
AcDbEntity
  8
0
100
AcDbLine
 10
533.485
 20
183.34985
 30
0.0
 11
534.88
 21
187.71485
 31
0.0
  0
LINE
  5
8A9
330
1E
100
AcDbEntity
  8
0
100
AcDbLine
 10
494.082
 20
185.52285
 30
0.0
 11
494.916
 21
183.18285
 31
0.0
  0
LINE
  5
8AA
330
1E
100
AcDbEntity
  8
0
100
AcDbLine
 10
487.504
 20
185.90385
 30
0.0
 11
488.654
 21
183.24085
 31
0.0
  0
LINE
  5
8AB
330
1E
100
AcDbEntity
  8
0
100
AcDbLine
 10
540.817
 20
185.90385
 30
0.0
 11
541.691
 21
188.66985
 31
0.0
  0
LINE
  5
8AC
330
1E
100
AcDbEntity
  8
0
100
AcDbLine
 10
534.88
 20
187.71485
 30
0.0
 11
535.464
 21
191.42285
 31
0.0
  0
LINE
  5
8AD
330
1E
100
AcDbEntity
  8
0
100
AcDbLine
 10
493.442
 20
187.92285
 30
0.0
 11
494.082
 21
185.52285
 31
0.0
  0
LINE
  5
8AF
330
1E
100
AcDbEntity
  8
0
100
AcDbLine
 10
486.63
 20
188.66885
 30
0.0
 11
487.504
 21
185.90385
 31
0.0
  0
LINE
  5
8B0
330
1E
100
AcDbEntity
  8
0
100
AcDbLine
 10
541.691
 20
188.66985
 30
0.0
 11
542.278
 21
191.50985
 31
0.0
  0
LINE
  5
8B1
330
1E
100
AcDbEntity
  8
0
100
AcDbLine
 10
492.993
 20
190.35485
 30
0.0
 11
493.442
 21
187.91985
 31
0.0
  0
LINE
  5
8B2
330
1E
100
AcDbEntity
  8
0
100
AcDbLine
 10
492.994
 20
190.35585
 30
0.0
 11
493.442
 21
187.92285
 31
0.0
  0
LINE
  5
8B4
330
1E
100
AcDbEntity
  8
0
100
AcDbLine
 10
486.043
 20
191.50985
 30
0.0
 11
486.63
 21
188.66885
 31
0.0
  0
LINE
  5
8B5
330
1E
100
AcDbEntity
  8
0
100
AcDbLine
 10
535.464
 20
191.42285
 30
0.0
 11
535.611
 21
193.21085
 31
0.0
  0
LINE
  5
8B6
330
1E
100
AcDbEntity
  8
0
100
AcDbLine
 10
542.278
 20
191.50985
 30
0.0
 11
542.574
 21
194.39385
 31
0.0
  0
LINE
  5
8B7
330
1E
100
AcDbEntity
  8
0
100
AcDbLine
 10
498.161
 20
190.80985
 30
0.0
 11
498.17
 21
191.54885
 31
0.0
  0
LINE
  5
8B8
330
1E
100
AcDbEntity
  8
0
100
AcDbLine
 10
498.161
 20
190.80985
 30
0.0
 11
498.180088335217
 21
164.800252246379
 31
0.0
  0
LINE
  5
8B9
330
1E
100
AcDbEntity
  8
0
100
AcDbLine
 10
492.782
 20
192.19785
 30
0.0
 11
492.994
 21
190.35585
 31
0.0
  0
LINE
  5
8BA
330
1E
100
AcDbEntity
  8
0
100
AcDbLine
 10
492.782
 20
192.19785
 30
0.0
 11
492.993
 21
190.35485
 31
0.0
  0
LINE
  5
8BB
330
1E
100
AcDbEntity
  8
0
100
AcDbLine
 10
498.252
 20
193.03185
 30
0.0
 11
498.945
 21
197.57285
 31
0.0
  0
LINE
  5
8BC
330
1E
100
AcDbEntity
  8
0
100
AcDbLine
 10
535.611
 20
193.21085
 30
0.0
 11
535.661
 21
195.00585
 31
0.0
  0
LINE
  5
8BE
330
1E
100
AcDbEntity
  8
0
100
AcDbLine
 10
498.17
 20
191.54885
 30
0.0
 11
498.252
 21
193.03185
 31
0.0
  0
LINE
  5
8BF
330
1E
100
AcDbEntity
  8
0
100
AcDbLine
 10
492.674
 20
194.04785
 30
0.0
 11
492.782
 21
192.19785
 31
0.0
  0
LINE
  5
8C0
330
1E
100
AcDbEntity
  8
0
100
AcDbLine
 10
492.675
 20
194.04785
 30
0.0
 11
492.782
 21
192.19785
 31
0.0
  0
LINE
  5
8C1
330
1E
100
AcDbEntity
  8
0
100
AcDbLine
 10
485.747
 20
194.39485
 30
0.0
 11
486.043
 21
191.50985
 31
0.0
  0
LINE
  5
8C2
330
1E
100
AcDbEntity
  8
0
100
AcDbLine
 10
485.747
 20
194.39485
 30
0.0
 11
485.747
 21
197.29485
 31
0.0
  0
LINE
  5
8C3
330
1E
100
AcDbEntity
  8
0
100
AcDbLine
 10
542.574
 20
194.39385
 30
0.0
 11
542.574
 21
197.29385
 31
0.0
  0
LINE
  5
8C4
330
1E
100
AcDbEntity
  8
0
100
AcDbLine
 10
529.86
 20
195.01285
 30
0.0
 11
530.161
 21
190.80985
 31
0.0
  0
LINE
  5
8C5
330
1E
100
AcDbEntity
  8
0
100
AcDbLine
 10
492.661
 20
195.00585
 30
0.0
 11
492.703
 21
196.66085
 31
0.0
  0
LINE
  5
8C6
330
1E
100
AcDbEntity
  8
0
100
AcDbLine
 10
492.661
 20
195.00585
 30
0.0
 11
492.675
 21
194.04785
 31
0.0
  0
LINE
  5
8C7
330
1E
100
AcDbEntity
  8
0
100
AcDbLine
 10
492.661
 20
195.00585
 30
0.0
 11
492.674
 21
194.04785
 31
0.0
  0
LINE
  5
8C8
330
1E
100
AcDbEntity
  8
0
100
AcDbLine
 10
492.661
 20
195.00585
 30
0.0
 11
492.702
 21
196.66085
 31
0.0
  0
LINE
  5
8CC
330
1E
100
AcDbEntity
  8
0
100
AcDbLine
 10
492.702
 20
196.66085
 30
0.0
 11
492.828
 21
198.31285
 31
0.0
  0
LINE
  5
8CD
330
1E
100
AcDbEntity
  8
0
100
AcDbLine
 10
485.747
 20
197.29485
 30
0.0
 11
486.043
 21
200.17885
 31
0.0
  0
LINE
  5
8CE
330
1E
100
AcDbEntity
  8
0
100
AcDbLine
 10
492.828
 20
198.31285
 30
0.0
 11
493.034
 21
199.92885
 31
0.0
  0
LINE
  5
8CF
330
1E
100
AcDbEntity
  8
0
100
AcDbLine
 10
535.647
 20
195.96285
 30
0.0
 11
535.661
 21
195.00585
 31
0.0
  0
LINE
  5
8D0
330
1E
100
AcDbEntity
  8
0
100
AcDbLine
 10
498.945
 20
197.57285
 30
0.0
 11
500.469
 21
201.61885
 31
0.0
  0
LINE
  5
8D1
330
1E
100
AcDbEntity
  8
0
100
AcDbLine
 10
493.034
 20
199.92885
 30
0.0
 11
493.322
 21
201.53385
 31
0.0
  0
LINE
  5
8D2
330
1E
100
AcDbEntity
  8
0
100
AcDbLine
 10
493.322
 20
201.53385
 30
0.0
 11
494.603
 21
206.15285
 31
0.0
  0
LINE
  5
8D3
330
1E
100
AcDbEntity
  8
0
100
AcDbLine
 10
486.043
 20
200.17885
 30
0.0
 11
486.63
 21
203.01885
 31
0.0
  0
LINE
  5
8D4
330
1E
100
AcDbEntity
  8
0
100
AcDbLine
 10
535.328
 20
199.65485
 30
0.0
 11
535.54
 21
197.81285
 31
0.0
  0
LINE
  5
8D5
330
1E
100
AcDbEntity
  8
0
100
AcDbLine
 10
542.278
 20
200.17885
 30
0.0
 11
542.574
 21
197.29385
 31
0.0
  0
LINE
  5
8D6
330
1E
100
AcDbEntity
  8
0
100
AcDbLine
 10
535.267520079663
 20
199.948889997313
 30
0.0
 11
535.337
 21
199.56485
 31
0.0
  0
LINE
  5
8D7
330
1E
100
AcDbEntity
  8
0
100
AcDbLine
 10
527.903
 20
201.56885
 30
0.0
 11
529.052
 21
198.44785
 31
0.0
  0
LINE
  5
8D8
330
1E
100
AcDbEntity
  8
0
100
AcDbLine
 10
529.052
 20
198.44885
 30
0.0
 11
529.86
 21
195.01285
 31
0.0
  0
LINE
  5
8DA
330
1E
100
AcDbEntity
  8
0
100
AcDbLine
 10
486.63
 20
203.01885
 30
0.0
 11
487.504
 21
205.78485
 31
0.0
  0
LINE
  5
8DB
330
1E
100
AcDbEntity
  8
0
100
AcDbLine
 10
500.469
 20
201.61885
 30
0.0
 11
501.503
 21
203.58585
 31
0.0
  0
LINE
  5
8DC
330
1E
100
AcDbEntity
  8
0
100
AcDbLine
 10
541.691
 20
203.01985
 30
0.0
 11
542.278
 21
200.17885
 31
0.0
  0
LINE
  5
8DE
330
1E
100
AcDbEntity
  8
0
100
AcDbLine
 10
487.504
 20
205.78485
 30
0.0
 11
488.654
 21
208.44685
 31
0.0
  0
LINE
  5
8E0
330
1E
100
AcDbEntity
  8
0
100
AcDbLine
 10
494.603
 20
206.15285
 30
0.0
 11
496.493
 21
210.15485
 31
0.0
  0
LINE
  5
8E1
330
1E
100
AcDbEntity
  8
0
100
AcDbLine
 10
501.503
 20
203.58585
 30
0.0
 11
502.603
 21
205.25285
 31
0.0
  0
LINE
  5
8E2
330
1E
100
AcDbEntity
  8
0
100
AcDbLine
 10
525.161
 20
205.97685
 30
0.0
 11
526.055
 21
204.77885
 31
0.0
  0
LINE
  5
8E3
330
1E
100
AcDbEntity
  8
0
100
AcDbLine
 10
526.471
 20
204.15785
 30
0.0
 11
527.903
 21
201.56885
 31
0.0
  0
LINE
  5
8E4
330
1E
100
AcDbEntity
  8
0
100
AcDbLine
 10
534.24
 20
204.48685
 30
0.0
 11
534.88
 21
202.09085
 31
0.0
  0
LINE
  5
8E5
330
1E
100
AcDbEntity
  8
0
100
AcDbLine
 10
526.055623970016
 20
204.714421044129
 30
0.0
 11
526.471
 21
204.15785
 31
0.0
  0
LINE
  5
8E6
330
1E
100
AcDbEntity
  8
0
100
AcDbLine
 10
503.865
 20
206.79685
 30
0.0
 11
505.288
 21
208.19085
 31
0.0
  0
LINE
  5
8E7
330
1E
100
AcDbEntity
  8
0
100
AcDbLine
 10
503.864
 20
206.79685
 30
0.0
 11
505.288
 21
208.19085
 31
0.0
  0
LINE
  5
8E8
330
1E
100
AcDbEntity
  8
0
100
AcDbLine
 10
502.603
 20
205.25285
 30
0.0
 11
503.865
 21
206.79685
 31
0.0
  0
LINE
  5
8E9
330
1E
100
AcDbEntity
  8
0
100
AcDbLine
 10
502.603
 20
205.25285
 30
0.0
 11
503.864
 21
206.79685
 31
0.0
  0
LINE
  5
8EA
330
1E
100
AcDbEntity
  8
0
100
AcDbLine
 10
488.654
 20
208.44685
 30
0.0
 11
490.07
 21
210.97785
 31
0.0
  0
LINE
  5
8EB
330
1E
100
AcDbEntity
  8
0
100
AcDbLine
 10
522.322
 20
208.77585
 30
0.0
 11
523.18
 21
208.06185
 31
0.0
  0
LINE
  5
8EC
330
1E
100
AcDbEntity
  8
0
100
AcDbLine
 10
506.829
 20
209.37485
 30
0.0
 11
507.731759554752
 21
209.899207346173
 31
0.0
  0
LINE
  5
8ED
330
1E
100
AcDbEntity
  8
0
100
AcDbLine
 10
505.288
 20
208.19085
 30
0.0
 11
506.829
 21
209.37485
 31
0.0
  0
LINE
  5
8EE
330
1E
100
AcDbEntity
  8
0
100
AcDbLine
 10
532.233
 20
209.36285
 30
0.0
 11
533.405
 21
206.82685
 31
0.0
  0
LINE
  5
8EF
330
1E
100
AcDbEntity
  8
0
100
AcDbLine
 10
523.18
 20
208.06185
 30
0.0
 11
524.212
 21
207.05985
 31
0.0
  0
LINE
  5
8F0
330
1E
100
AcDbEntity
  8
0
100
AcDbLine
 10
532.232
 20
209.36285
 30
0.0
 11
533.405
 21
206.82685
 31
0.0
  0
LINE
  5
8F1
330
1E
100
AcDbEntity
  8
0
100
AcDbLine
 10
524.212
 20
207.05985
 30
0.0
 11
525.161
 21
205.97685
 31
0.0
  0
LINE
  5
8F2
330
1E
100
AcDbEntity
  8
0
100
AcDbLine
 10
540.817
 20
205.78485
 30
0.0
 11
541.691
 21
203.01985
 31
0.0
  0
LINE
  5
8F3
330
1E
100
AcDbEntity
  8
0
100
AcDbLine
 10
539.667
 20
208.44785
 30
0.0
 11
540.817
 21
205.78485
 31
0.0
  0
LINE
  5
8F5
330
1E
100
AcDbEntity
  8
0
100
AcDbLine
 10
496.493
 20
210.15485
 30
0.0
 11
498.244
 21
212.80585
 31
0.0
  0
LINE
  5
8F6
330
1E
100
AcDbEntity
  8
0
100
AcDbLine
 10
490.07
 20
210.97785
 30
0.0
 11
491.735
 21
213.35185
 31
0.0
  0
LINE
  5
8F7
330
1E
100
AcDbEntity
  8
0
100
AcDbLine
 10
518.678
 20
210.84585
 30
0.0
 11
519.624
 21
210.44085
 31
0.0
  0
LINE
  5
8F8
330
1E
100
AcDbEntity
  8
0
100
AcDbLine
 10
517.705
 20
211.17685
 30
0.0
 11
518.678
 21
210.84585
 31
0.0
  0
LINE
  5
8F9
330
1E
100
AcDbEntity
  8
0
100
AcDbLine
 10
519.624
 20
210.44085
 30
0.0
 11
520.537
 21
209.96585
 31
0.0
  0
LINE
  5
8FA
330
1E
100
AcDbEntity
  8
0
100
AcDbLine
 10
510.288
 20
211.07485
 30
0.0
 11
511.883
 21
211.48385
 31
0.0
  0
LINE
  5
8FB
330
1E
100
AcDbEntity
  8
0
100
AcDbLine
 10
508.499
 20
210.34485
 30
0.0
 11
510.288
 21
211.07485
 31
0.0
  0
LINE
  5
8FC
330
1E
100
AcDbEntity
  8
0
100
AcDbLine
 10
507.741595267995
 20
209.904920305362
 30
0.0
 11
508.499
 21
210.34485
 31
0.0
  0
LINE
  5
8FD
330
1E
100
AcDbEntity
  8
0
100
AcDbLine
 10
521.415
 20
209.42585
 30
0.0
 11
522.322
 21
208.77585
 31
0.0
  0
LINE
  5
8FE
330
1E
100
AcDbEntity
  8
0
100
AcDbLine
 10
520.537
 20
209.96585
 30
0.0
 11
521.415
 21
209.42585
 31
0.0
  0
LINE
  5
8FF
330
1E
100
AcDbEntity
  8
0
100
AcDbLine
 10
498.244
 20
212.80585
 30
0.0
 11
499.895
 21
214.80085
 31
0.0
  0
LINE
  5
900
330
1E
100
AcDbEntity
  8
0
100
AcDbLine
 10
498.245
 20
212.80585
 30
0.0
 11
499.895
 21
214.80185
 31
0.0
  0
LINE
  5
901
330
1E
100
AcDbEntity
  8
0
100
AcDbLine
 10
515.695
 20
211.59985
 30
0.0
 11
516.709
 21
211.42985
 31
0.0
  0
LINE
  5
902
330
1E
100
AcDbEntity
  8
0
100
AcDbLine
 10
513.786
 20
211.69085
 30
0.0
 11
515.695
 21
211.59985
 31
0.0
  0
LINE
  5
903
330
1E
100
AcDbEntity
  8
0
100
AcDbLine
 10
511.883
 20
211.48385
 30
0.0
 11
513.786
 21
211.69085
 31
0.0
  0
LINE
  5
904
330
1E
100
AcDbEntity
  8
0
100
AcDbLine
 10
530.809
 20
211.76485
 30
0.0
 11
532.232
 21
209.36285
 31
0.0
  0
LINE
  5
905
330
1E
100
AcDbEntity
  8
0
100
AcDbLine
 10
530.004
 20
212.90385
 30
0.0
 11
530.809
 21
211.76485
 31
0.0
  0
LINE
  5
906
330
1E
100
AcDbEntity
  8
0
100
AcDbLine
 10
516.709
 20
211.42985
 30
0.0
 11
517.705
 21
211.17685
 31
0.0
  0
LINE
  5
907
330
1E
100
AcDbEntity
  8
0
100
AcDbLine
 10
538.252
 20
210.97785
 30
0.0
 11
539.667
 21
208.44785
 31
0.0
  0
LINE
  5
90A
330
1E
100
AcDbEntity
  8
0
100
AcDbLine
 10
491.735
 20
213.35185
 30
0.0
 11
493.634
 21
215.54385
 31
0.0
  0
LINE
  5
90B
330
1E
100
AcDbEntity
  8
0
100
AcDbLine
 10
499.895
 20
214.80185
 30
0.0
 11
501.753
 21
216.60085
 31
0.0
  0
LINE
  5
90C
330
1E
100
AcDbEntity
  8
0
100
AcDbLine
 10
528.209
 20
215.03385
 30
0.0
 11
529.137
 21
213.99585
 31
0.0
  0
LINE
  5
90D
330
1E
100
AcDbEntity
  8
0
100
AcDbLine
 10
536.586
 20
213.35285
 30
0.0
 11
538.252
 21
210.97785
 31
0.0
  0
LINE
  5
90F
330
1E
100
AcDbEntity
  8
0
100
AcDbLine
 10
529.137
 20
213.99585
 30
0.0
 11
530.004
 21
212.90385
 31
0.0
  0
LINE
  5
910
330
1E
100
AcDbEntity
  8
0
100
AcDbLine
 10
493.634
 20
215.54385
 30
0.0
 11
495.746
 21
217.53085
 31
0.0
  0
LINE
  5
911
330
1E
100
AcDbEntity
  8
0
100
AcDbLine
 10
534.687
 20
215.54485
 30
0.0
 11
536.586
 21
213.35285
 31
0.0
  0
LINE
  5
913
330
1E
100
AcDbEntity
  8
0
100
AcDbLine
 10
498.05
 20
219.29285
 30
0.0
 11
500.521
 21
220.81185
 31
0.0
  0
LINE
  5
914
330
1E
100
AcDbEntity
  8
0
100
AcDbLine
 10
495.746
 20
217.53085
 30
0.0
 11
498.05
 21
219.29285
 31
0.0
  0
LINE
  5
915
330
1E
100
AcDbEntity
  8
0
100
AcDbLine
 10
504.037
 20
218.31685
 30
0.0
 11
505.858
 21
219.37285
 31
0.0
  0
LINE
  5
916
330
1E
100
AcDbEntity
  8
0
100
AcDbLine
 10
502.866
 20
217.49785
 30
0.0
 11
504.037
 21
218.31685
 31
0.0
  0
LINE
  5
917
330
1E
100
AcDbEntity
  8
0
100
AcDbLine
 10
501.753
 20
216.60085
 30
0.0
 11
502.866
 21
217.49785
 31
0.0
  0
LINE
  5
918
330
1E
100
AcDbEntity
  8
0
100
AcDbLine
 10
500.521
 20
220.81185
 30
0.0
 11
503.082
 21
222.04885
 31
0.0
  0
LINE
  5
919
330
1E
100
AcDbEntity
  8
0
100
AcDbLine
 10
505.858
 20
219.37285
 30
0.0
 11
507.857
 21
220.24685
 31
0.0
  0
LINE
  5
91A
330
1E
100
AcDbEntity
  8
0
100
AcDbLine
 10
519.408
 20
220.60385
 30
0.0
 11
520.657
 21
220.17385
 31
0.0
  0
LINE
  5
91B
330
1E
100
AcDbEntity
  8
0
100
AcDbLine
 10
510.264
 20
220.96085
 30
0.0
 11
511.566
 21
221.20185
 31
0.0
  0
LINE
  5
91C
330
1E
100
AcDbEntity
  8
0
100
AcDbLine
 10
512.881
 20
221.34585
 30
0.0
 11
514.203
 21
221.39185
 31
0.0
  0
LINE
  5
91D
330
1E
100
AcDbEntity
  8
0
100
AcDbLine
 10
511.566
 20
221.20185
 30
0.0
 11
512.881
 21
221.34585
 31
0.0
  0
LINE
  5
91E
330
1E
100
AcDbEntity
  8
0
100
AcDbLine
 10
518.132
 20
220.94385
 30
0.0
 11
519.408
 21
220.60385
 31
0.0
  0
LINE
  5
91F
330
1E
100
AcDbEntity
  8
0
100
AcDbLine
 10
516.876317971249
 20
221.158629524006
 30
0.0
 11
518.132
 21
220.94385
 31
0.0
  0
LINE
  5
920
330
1E
100
AcDbEntity
  8
0
100
AcDbLine
 10
509.214
 20
220.69385
 30
0.0
 11
510.264
 21
220.96085
 31
0.0
  0
LINE
  5
921
330
1E
100
AcDbEntity
  8
0
100
AcDbLine
 10
507.857
 20
220.24685
 30
0.0
 11
509.214
 21
220.69385
 31
0.0
  0
LINE
  5
922
330
1E
100
AcDbEntity
  8
0
100
AcDbLine
 10
520.657
 20
220.17385
 30
0.0
 11
521.874
 21
219.65685
 31
0.0
  0
LINE
  5
923
330
1E
100
AcDbEntity
  8
0
100
AcDbLine
 10
521.874
 20
219.65685
 30
0.0
 11
522.9342062358
 21
219.098586121021
 31
0.0
  0
LINE
  5
924
330
1E
100
AcDbEntity
  8
0
100
AcDbLine
 10
522.9342062358
 20
219.098586121021
 30
0.0
 11
525.281
 21
217.62785
 31
0.0
  0
LINE
  5
925
330
1E
100
AcDbEntity
  8
0
100
AcDbLine
 10
527.222
 20
216.01385
 30
0.0
 11
528.209
 21
215.03385
 31
0.0
  0
LINE
  5
926
330
1E
100
AcDbEntity
  8
0
100
AcDbLine
 10
525.281
 20
217.62785
 30
0.0
 11
527.222
 21
216.01385
 31
0.0
  0
LINE
  5
927
330
1E
100
AcDbEntity
  8
0
100
AcDbLine
 10
514.203
 20
221.39185
 30
0.0
 11
516.876317971249
 21
221.158629524006
 31
0.0
  0
LINE
  5
928
330
1E
100
AcDbEntity
  8
0
100
AcDbLine
 10
503.082
 20
222.04885
 30
0.0
 11
505.753
 21
223.02285
 31
0.0
  0
LINE
  5
92A
330
1E
100
AcDbEntity
  8
0
100
AcDbLine
 10
505.753
 20
223.02285
 30
0.0
 11
508.508
 21
223.72785
 31
0.0
  0
LINE
  5
92B
330
1E
100
AcDbEntity
  8
0
100
AcDbLine
 10
511.321
 20
224.15285
 30
0.0
 11
514.16
 21
224.29385
 31
0.0
  0
LINE
  5
92C
330
1E
100
AcDbEntity
  8
0
100
AcDbLine
 10
508.508
 20
223.72785
 30
0.0
 11
511.321
 21
224.15285
 31
0.0
  0
LINE
  5
92D
330
1E
100
AcDbEntity
  8
0
100
AcDbLine
 10
522.568
 20
223.02285
 30
0.0
 11
525.239
 21
222.04885
 31
0.0
  0
LINE
  5
92E
330
1E
100
AcDbEntity
  8
0
100
AcDbLine
 10
519.813
 20
223.72785
 30
0.0
 11
522.568
 21
223.02285
 31
0.0
  0
LINE
  5
92F
330
1E
100
AcDbEntity
  8
0
100
AcDbLine
 10
514.16
 20
224.29385
 30
0.0
 11
517.0
 21
224.15285
 31
0.0
  0
LINE
  5
931
330
1E
100
AcDbEntity
  8
0
100
AcDbLine
 10
517.0
 20
224.15285
 30
0.0
 11
519.813
 21
223.72785
 31
0.0
  0
LINE
  5
932
330
1E
100
AcDbEntity
  8
0
100
AcDbLine
 10
525.239
 20
222.04885
 30
0.0
 11
527.8
 21
220.81185
 31
0.0
  0
LINE
  5
933
330
1E
100
AcDbEntity
  8
0
100
AcDbLine
 10
532.575
 20
217.53185
 30
0.0
 11
534.687
 21
215.54485
 31
0.0
  0
LINE
  5
935
330
1E
100
AcDbEntity
  8
0
100
AcDbLine
 10
530.271
 20
219.29285
 30
0.0
 11
532.575
 21
217.53185
 31
0.0
  0
LINE
  5
938
330
1E
100
AcDbEntity
  8
0
100
AcDbLine
 10
527.8
 20
220.81185
 30
0.0
 11
530.271
 21
219.29285
 31
0.0
  0
LINE
  5
941
330
1E
100
AcDbEntity
  8
0
100
AcDbLine
 10
533.405
 20
206.82685
 30
0.0
 11
534.24
 21
204.48685
 31
0.0
  0
LINE
  5
942
330
1E
100
AcDbEntity
  8
0
100
AcDbLine
 10
534.88
 20
202.09085
 30
0.0
 11
535.267520079663
 21
199.948889997313
 31
0.0
  0
LINE
  5
943
330
1E
100
AcDbEntity
  8
0
100
AcDbLine
 10
535.54
 20
197.81285
 30
0.0
 11
535.647
 21
195.96285
 31
0.0
  0
LINE
  5
944
330
1E
100
AcDbEntity
  8
0
100
AcDbLine
 10
480.0
 20
224.62885
 30
0.0
 11
480.206
 21
226.17285
 31
0.0
  0
ENDSEC
  0
SECTION
  2
OBJECTS
  0
DICTIONARY
  5
C
330
0
100
AcDbDictionary
281
     1
  3
ACAD_GROUP
350
D
  3
ACAD_LAYOUT
350
19
  3
ACAD_MLEADERSTYLE
350
947
  3
ACAD_MLINESTYLE
350
16
  3
ACAD_PLOTSETTINGS
350
18
  3
ACAD_PLOTSTYLENAME
350
E
  3
ACAD_SCALELIST
350
5C5
  3
AcDbVariableDictionary
350
5C1
  3
DWGPROPS
350
94D
  0
DICTIONARY
  5
D
102
{ACAD_REACTORS
330
C
102
}
330
C
100
AcDbDictionary
281
     1
  0
DICTIONARY
  5
19
102
{ACAD_REACTORS
330
C
102
}
330
C
100
AcDbDictionary
281
     1
  3
Layout1
350
1D
  3
Model
350
21
  0
DICTIONARY
  5
947
102
{ACAD_REACTORS
330
C
102
}
330
C
100
AcDbDictionary
281
     1
  0
DICTIONARY
  5
16
102
{ACAD_REACTORS
330
C
102
}
330
C
100
AcDbDictionary
281
     1
  3
Standard
350
17
  0
DICTIONARY
  5
18
102
{ACAD_REACTORS
330
C
102
}
330
C
100
AcDbDictionary
281
     1
  0
ACDBDICTIONARYWDFLT
  5
E
102
{ACAD_REACTORS
330
C
102
}
330
C
100
AcDbDictionary
281
     1
  3
Normal
350
F
100
AcDbDictionaryWithDefault
340
F
  0
DICTIONARY
  5
5C5
102
{ACAD_REACTORS
330
C
102
}
330
C
100
AcDbDictionary
281
     1
  3
A0
350
5C6
  3
A1
350
5C7
  3
A2
350
5C8
  3
A3
350
5C9
  3
A4
350
5CA
  3
A5
350
5CB
  3
A6
350
5CC
  3
A7
350
5CD
  3
A8
350
5CE
  3
A9
350
5CF
  3
B0
350
5D0
  3
B1
350
5D1
  3
B2
350
5D2
  3
B3
350
5D3
  3
B4
350
5D4
  3
B5
350
5D5
  3
B6
350
5D6
  3
B7
350
5D7
  3
B8
350
5D8
  3
B9
350
5D9
  3
C0
350
5DA
  3
C1
350
5DB
  3
C2
350
5DC
  3
C3
350
5DD
  3
C4
350
5DE
  3
C5
350
5DF
  3
C6
350
5E0
  3
C7
350
5E1
  3
C8
350
5E2
  3
C9
350
5E3
  3
D0
350
5E4
  3
D1
350
5E5
  3
D2
350
5E6
  0
DICTIONARY
  5
5C1
102
{ACAD_REACTORS
330
C
102
}
330
C
100
AcDbDictionary
281
     1
  3
CANNOSCALE
350
948
  3
DIMASSOC
350
5C2
  0
XRECORD
  5
94D
102
{ACAD_REACTORS
330
C
102
}
330
C
100
AcDbXrecord
280
     1
  1
DWGPROPS COOKIE
  2

  3

  4

  6

  7

  8
MARTIN
  9

300
=
301
=
302
=
303
=
304
=
305
=
306
=
307
=
308
=
309
=
 40
0.0
 41
2454638.608959051
 42
2456209.729421655
  1

 90
        0
  0
LAYOUT
  5
1D
102
{ACAD_REACTORS
330
19
102
}
330
19
100
AcDbPlotSettings
  1

  2
hp deskjet 980c series
  4

  6

 40
0.0
 41
0.0
 42
0.0
 43
0.0
 44
0.0
 45
0.0
 46
0.0
 47
0.0
 48
0.0
 49
0.0
140
0.0
141
0.0
142
1.0
143
1.0
 70
   688
 72
     0
 73
     0
 74
     5
  7

 75
    16
147
1.0
148
0.0
149
0.0
100
AcDbLayout
  1
Layout1
 70
     1
 71
     1
 10
0.0
 20
0.0
 11
12.0
 21
9.0
 12
0.0
 22
0.0
 32
0.0
 14
1.000000000000E+20
 24
1.000000000000E+20
 34
1.000000000000E+20
 15
-1.000000000000E+20
 25
-1.000000000000E+20
 35
-1.000000000000E+20
146
0.0
 13
0.0
 23
0.0
 33
0.0
 16
1.0
 26
0.0
 36
0.0
 17
0.0
 27
1.0
 37
0.0
 76
     0
330
1A
  0
LAYOUT
  5
21
102
{ACAD_REACTORS
330
19
102
}
330
19
100
AcDbPlotSettings
  1

  2
hp deskjet 980c series
  4

  6

 40
0.0
 41
0.0
 42
0.0
 43
0.0
 44
0.0
 45
0.0
 46
0.0
 47
0.0
 48
0.0
 49
0.0
140
0.0
141
0.0
142
1.0
143
1.0
 70
  1712
 72
     0
 73
     0
 74
     0
  7

 75
     0
147
1.0
148
0.0
149
0.0
100
AcDbLayout
  1
Model
 70
     1
 71
     0
 10
0.0
 20
0.0
 11
12.0
 21
9.0
 12
0.0
 22
0.0
 32
0.0
 14
121.0
 24
-18.76545
 34
0.0
 15
564.187
 25
230.80485
 35
0.0
146
0.0
 13
0.0
 23
0.0
 33
0.0
 16
1.0
 26
0.0
 36
0.0
 17
0.0
 27
1.0
 37
0.0
 76
     0
330
1E
331
5C4
  0
MLINESTYLE
  5
17
102
{ACAD_REACTORS
330
16
102
}
330
16
100
AcDbMlineStyle
  2
STANDARD
 70
     0
  3

 62
   256
 51
90.0
 52
90.0
 71
     2
 49
0.5
 62
   256
  6
BYLAYER
 49
-0.5
 62
   256
  6
BYLAYER
  0
ACDBPLACEHOLDER
  5
F
102
{ACAD_REACTORS
330
E
102
}
330
E
  0
SCALE
  5
5C6
102
{ACAD_REACTORS
330
5C5
102
}
330
5C5
100
AcDbScale
 70
     0
300
1:1
140
1.0
141
1.0
290
     1
  0
SCALE
  5
5C7
102
{ACAD_REACTORS
330
5C5
102
}
330
5C5
100
AcDbScale
 70
     0
300
1:2
140
1.0
141
2.0
290
     0
  0
SCALE
  5
5C8
102
{ACAD_REACTORS
330
5C5
102
}
330
5C5
100
AcDbScale
 70
     0
300
1:4
140
1.0
141
4.0
290
     0
  0
SCALE
  5
5C9
102
{ACAD_REACTORS
330
5C5
102
}
330
5C5
100
AcDbScale
 70
     0
300
1:5
140
1.0
141
5.0
290
     0
  0
SCALE
  5
5CA
102
{ACAD_REACTORS
330
5C5
102
}
330
5C5
100
AcDbScale
 70
     0
300
1:8
140
1.0
141
8.0
290
     0
  0
SCALE
  5
5CB
102
{ACAD_REACTORS
330
5C5
102
}
330
5C5
100
AcDbScale
 70
     0
300
1:10
140
1.0
141
10.0
290
     0
  0
SCALE
  5
5CC
102
{ACAD_REACTORS
330
5C5
102
}
330
5C5
100
AcDbScale
 70
     0
300
1:16
140
1.0
141
16.0
290
     0
  0
SCALE
  5
5CD
102
{ACAD_REACTORS
330
5C5
102
}
330
5C5
100
AcDbScale
 70
     0
300
1:20
140
1.0
141
20.0
290
     0
  0
SCALE
  5
5CE
102
{ACAD_REACTORS
330
5C5
102
}
330
5C5
100
AcDbScale
 70
     0
300
1:30
140
1.0
141
30.0
290
     0
  0
SCALE
  5
5CF
102
{ACAD_REACTORS
330
5C5
102
}
330
5C5
100
AcDbScale
 70
     0
300
1:40
140
1.0
141
40.0
290
     0
  0
SCALE
  5
5D0
102
{ACAD_REACTORS
330
5C5
102
}
330
5C5
100
AcDbScale
 70
     0
300
1:50
140
1.0
141
50.0
290
     0
  0
SCALE
  5
5D1
102
{ACAD_REACTORS
330
5C5
102
}
330
5C5
100
AcDbScale
 70
     0
300
1:100
140
1.0
141
100.0
290
     0
  0
SCALE
  5
5D2
102
{ACAD_REACTORS
330
5C5
102
}
330
5C5
100
AcDbScale
 70
     0
300
2:1
140
2.0
141
1.0
290
     0
  0
SCALE
  5
5D3
102
{ACAD_REACTORS
330
5C5
102
}
330
5C5
100
AcDbScale
 70
     0
300
4:1
140
4.0
141
1.0
290
     0
  0
SCALE
  5
5D4
102
{ACAD_REACTORS
330
5C5
102
}
330
5C5
100
AcDbScale
 70
     0
300
8:1
140
8.0
141
1.0
290
     0
  0
SCALE
  5
5D5
102
{ACAD_REACTORS
330
5C5
102
}
330
5C5
100
AcDbScale
 70
     0
300
10:1
140
10.0
141
1.0
290
     0
  0
SCALE
  5
5D6
102
{ACAD_REACTORS
330
5C5
102
}
330
5C5
100
AcDbScale
 70
     0
300
100:1
140
100.0
141
1.0
290
     0
  0
SCALE
  5
5D7
102
{ACAD_REACTORS
330
5C5
102
}
330
5C5
100
AcDbScale
 70
     0
300
1/128" = 1'-0"
140
0.0078125
141
12.0
290
     0
  0
SCALE
  5
5D8
102
{ACAD_REACTORS
330
5C5
102
}
330
5C5
100
AcDbScale
 70
     0
300
1/64" = 1'-0"
140
0.015625
141
12.0
290
     0
  0
SCALE
  5
5D9
102
{ACAD_REACTORS
330
5C5
102
}
330
5C5
100
AcDbScale
 70
     0
300
1/32" = 1'-0"
140
0.03125
141
12.0
290
     0
  0
SCALE
  5
5DA
102
{ACAD_REACTORS
330
5C5
102
}
330
5C5
100
AcDbScale
 70
     0
300
1/16" = 1'-0"
140
0.0625
141
12.0
290
     0
  0
SCALE
  5
5DB
102
{ACAD_REACTORS
330
5C5
102
}
330
5C5
100
AcDbScale
 70
     0
300
3/32" = 1'-0"
140
0.09375
141
12.0
290
     0
  0
SCALE
  5
5DC
102
{ACAD_REACTORS
330
5C5
102
}
330
5C5
100
AcDbScale
 70
     0
300
1/8" = 1'-0"
140
0.125
141
12.0
290
     0
  0
SCALE
  5
5DD
102
{ACAD_REACTORS
330
5C5
102
}
330
5C5
100
AcDbScale
 70
     0
300
3/16" = 1'-0"
140
0.1875
141
12.0
290
     0
  0
SCALE
  5
5DE
102
{ACAD_REACTORS
330
5C5
102
}
330
5C5
100
AcDbScale
 70
     0
300
1/4" = 1'-0"
140
0.25
141
12.0
290
     0
  0
SCALE
  5
5DF
102
{ACAD_REACTORS
330
5C5
102
}
330
5C5
100
AcDbScale
 70
     0
300
3/8" = 1'-0"
140
0.375
141
12.0
290
     0
  0
SCALE
  5
5E0
102
{ACAD_REACTORS
330
5C5
102
}
330
5C5
100
AcDbScale
 70
     0
300
1/2" = 1'-0"
140
0.5
141
12.0
290
     0
  0
SCALE
  5
5E1
102
{ACAD_REACTORS
330
5C5
102
}
330
5C5
100
AcDbScale
 70
     0
300
3/4" = 1'-0"
140
0.75
141
12.0
290
     0
  0
SCALE
  5
5E2
102
{ACAD_REACTORS
330
5C5
102
}
330
5C5
100
AcDbScale
 70
     0
300
1" = 1'-0"
140
1.0
141
12.0
290
     0
  0
SCALE
  5
5E3
102
{ACAD_REACTORS
330
5C5
102
}
330
5C5
100
AcDbScale
 70
     0
300
1-1/2" = 1'-0"
140
1.5
141
12.0
290
     0
  0
SCALE
  5
5E4
102
{ACAD_REACTORS
330
5C5
102
}
330
5C5
100
AcDbScale
 70
     0
300
3" = 1'-0"
140
3.0
141
12.0
290
     0
  0
SCALE
  5
5E5
102
{ACAD_REACTORS
330
5C5
102
}
330
5C5
100
AcDbScale
 70
     0
300
6" = 1'-0"
140
6.0
141
12.0
290
     0
  0
SCALE
  5
5E6
102
{ACAD_REACTORS
330
5C5
102
}
330
5C5
100
AcDbScale
 70
     0
300
1'-0" = 1'-0"
140
12.0
141
12.0
290
     0
  0
DICTIONARYVAR
  5
948
102
{ACAD_REACTORS
330
5C1
102
}
330
5C1
100
DictionaryVariables
280
     0
  1
1:1
  0
DICTIONARYVAR
  5
5C2
102
{ACAD_REACTORS
330
5C1
102
}
330
5C1
100
DictionaryVariables
280
     0
  1
1
  0
ENDSEC
  0
SECTION
  2
THUMBNAILIMAGE
 90
    16364
310
28000000B40000005500000001000800000000000000000000000000000000000000000000000000FFFFFF000000FF0000FFFF0000FF0000FFFF0000FF000000FF00FF000000000080808000C0C0C0000000FF007F7FFF000000A5005252A50000007F003F3F7F0000004C0026264C000000260013132600003FFF007F9FFF
310
000029A5005267A500001F7F003F4F7F0000134C00262F4C000009260013172600007FFF007FBFFF000052A500527CA500003F7F003F5F7F0000264C0026394C0000132600131C260000BFFF007FDFFF00007CA5005291A500005F7F003F6F7F0000394C0026424C00001C26001321260000FFFF007FFFFF0000A5A50052A5
310
A500007F7F003F7F7F00004C4C00264C4C00002626001326260000FFBF007FFFDF0000A57C0052A59100007F5F003F7F6F00004C3900264C420000261C001326210000FF7F007FFFBF0000A5520052A57C00007F3F003F7F5F00004C2600264C39000026130013261C0000FF3F007FFF9F0000A5290052A56700007F1F003F
310
7F4F00004C1300264C2F00002609001326170000FF00007FFF7F0000A5000052A55200007F00003F7F3F00004C0000264C260000260000132613003FFF00009FFF7F0029A5000067A552001F7F00004F7F3F00134C00002F4C260009260000172613007FFF0000BFFF7F0052A500007CA552003F7F00005F7F3F00264C0000
310
394C2600132600001C261300BFFF0000DFFF7F007CA5000091A552005F7F00006F7F3F00394C0000424C26001C26000021261300FFFF0000FFFF7F00A5A50000A5A552007F7F00007F7F3F004C4C00004C4C26002626000026261300FFBF0000FFDF7F00A57C0000A59152007F5F00007F6F3F004C3900004C422600261C00
310
0026211300FF7F0000FFBF7F00A5520000A57C52007F3F00007F5F3F004C2600004C39260026130000261C1300FF3F0000FF9F7F00A5290000A56752007F1F00007F4F3F004C1300004C2F26002609000026171300FF000000FF7F7F00A5000000A55252007F0000007F3F3F004C0000004C2626002600000026131300FF00
310
3F00FF7F9F00A5002900A55267007F001F007F3F4F004C0013004C262F002600090026131700FF007F00FF7FBF00A5005200A5527C007F003F007F3F5F004C0026004C2639002600130026131C00FF00BF00FF7FDF00A5007C00A55291007F005F007F3F6F004C0039004C26420026001C0026132100FF00FF00FF7FFF00A5
310
00A500A552A5007F007F007F3F7F004C004C004C264C002600260026132600BF00FF00DF7FFF007C00A5009152A5005F007F006F3F7F0039004C0042264C001C002600211326007F00FF00BF7FFF005200A5007C52A5003F007F005F3F7F0026004C0039264C00130026001C1326003F00FF009F7FFF002900A5006752A500
310
1F007F004F3F7F0013004C002F264C000900260017132600000000002D2D2D005B5B5B0089898900B7B7B700B3B3B30000000000000000000000000000000000000000000000000000000000000000000000000000000000000000000000000000000000000000000000000000000000000000000000000000000000000000
310
00000000000000000000000000000000000000000000000000000000000000000000000000000000000000000000000000000000000000000000000000000000000000000000000000000000000000000000000000000000000000000000000000000000000000000000000000000000000000000000000000000000000000
310
00000000000000000000000000000000000000000000000000000000000000000000000000000000000000000000000000000000000000000000000000000000000000000000000000000000000000000000000000000000000000000000000000000000000000000000000000000000000000000000000000000000000000
310
00000000000000000000000000000000000000000000000000000000000000000000000000000000000000000000000000000000000000000000000000000000000000000000000000000000000000000000000000000000000000000000000000000000000000000000000000000000000000000000000000000000000000
310
00000000000000000000000000000000000000000000000000000000000000000000000000000000000000000000000000000000000000000000000000000000000000000000000000000000000000000000000000000000000000000000000000000000000000000000000000000000000000000000000000000000000000
310
00000000000000000000000000000000000000000000000000000000000000000000000000000000000000000000000000000000000000000000000000000000000000000000000000000000000000000000000000000000000000000000000000000000000000000000000000000007070707070707070700000000000000
310
00000000000000000000000000000000000000000000000000000000000000000000000000000000000000000000000000000000000000000000000000000000000000000000000000000000000000000000000000000000000000000000000000000000000000000000000000000000000000000000000000000000000000
310
00000000000000000000000000000000000000000000000000000000000000000000000707000000000000000000070700000000000000000000000000000000000000000000000000000000000000000000000000000000000000000000000000000000000000000000000000000000000000000000000000000000000000
310
00000000000000000000000000000000000000000000000000000000000000000000000000000000000000000000000000000000000000000000000000000000000000000000000000000000000000000000000000000707000000000000070000000000000707000000000000000000000000000000000000000000000000
310
00000000000000000000000000000000000000000000000000000000000000000000000000000000000000000000000000000000000000000000000000000000000000000000000000000000000000000000000000000000000000000000000000000000000000000000000000000000000000000000000000000000000000
310
00000000000000000000000700000000070707070707070707000000000707000000000000000000000000000000000000000000000000000000000000000000000000000000000000000000000000000000000000000000000000000000000000000000000000000000000000000000000000000000000000000000000000
310
00000000000000000000000000000000000000000000000000000000000000000000000000000000000000000000000000000000000000000000000000000707000707070700000000000000000007070707000007000000000000000000000000000000000000000000000000000000000000000000000000000000000000
310
00000000000000000000000000000000000000000000000000000000000000000000000000000000000000000000000000000000000000000000000000000000000000000000000000000000000000000000000000000000000000000000000000000000000000000000000000000000000007000007000700000000000000
310
00000000000007070707000707000000000000000000000000000000000000000000000000000000000000000000000000000000000000000000000000000000000000000000000000000000000000000000000000000000000000000000000000000000000000000000000000000000000000000000000000000000000000
310
00000000000000000000000000000000000000000000000000000000000000000000000000000007000007070700000000000000000000000000000000070700000700000000000000000000000000000000000000000000000000000000000000000000000000000000000000000000000000000000000000000000000000
310
00000000000000000000000000000000000000000000000000000000000000000000000000000000000000000000000000000000000000000000000000000000000000000000000000000000000000000000000000000000000000000700070700000000000000000000000000000000000000000700000700000000000000
310
00000000000000000000000000000000000000000000000000000000000000000000000000000000000000000000000000000000000000000000000000000000000000000000000000000000000000000000000000000000000000000000000000000000000000000000000000000000000000000000000000000000000000
310
00000000000000000000000000000000000700070000000000000000000000000000000000000000000000070700070000000000000000000000000000000000000000000000000000000000000000000000000000000000000000000000000000000000000000000000000000000000000000000000000000000000000000
310
00000000000000000000000000000000000000000000000000000000000000000000000000000000000000000000000000000000000000000000000000000000000000000007000700000000000000000000000000000000000000000000000000070007000000000000000000000000000000000000000000000000000000
310
00000000000000000000000000000000000000000000000000000000000000000000000000000000000000000000000000000000000000000000000000000000000000000000000000000000000000000000000000000000000000000000000000000000000000000000000000000000000000000000000000000700070000
310
00000000000000000000000000000000000000000000000007070000000000000000000000000000000000000000000000000000000000000000000000000000000000000000000000000000000000000000000000000000000000000000000000000000000000000000000000000000000000000000000000000000000000
310
00000000000000000000000000000000000000000000000000000000000000000000000000000000000000000000000007070000000000000000000000000000000000000000000000000000000707000000000000000000000000000000000000000000000000000000000000000000000000000000000000000000000000
310
00000000000000000000000000000000000000000000000000000000000000000000000000000000000000000000000000000000000000000000000000000000000000000000000000000000000000000000000000000000000000000000000000000000000700000000000000000000000000000000000000000000000000
310
00000007070700000000000000000000000000000000000000000000000000000000000000000000000000000000000000000000000000000000000000000000000000000000000000000000000000000000000000000000000000000000000000000000000000000000000000000000000000000000000000000000000000
310
00000000000000000000000000000000000000000000000000000007000000000000000000000000000000000000000000000000000000000007070000000000000000000000000000000000000000000000000000000000000000000000000000000000000000000000000000000000000000000000000000000000000000
310
00000000000000000000000000000000000000000000000000000000000000000000000000000000000000000000000000000000000000000000000000000000000000000000000000000000000000000700000000000000000000000000000000000000000000000000000000000707000000000000000000000000000000
310
00000000000000000000000000000000000000000000000000000000000000000000000000000000000000000000000000000000000000000000000000000000000000000000000000000000000000000000000000000000000000000000000000000000000000000000000000000000000000000000000000000000000000
310
00000000000007000000000000000000000000000000000000000000000000000000000007070000000000000000000000000000000000000000000000000000000000000000000000000000000000000000000000000000000000000000000000000000000000000000000000000000000000000000000000000000000000
310
00000000000000000000000000000000000000000000000000000000000000000000000000000000000000000000000000000000000000000000000700000000000000000000000000000000000000000000000000000000000707000000000000000000000000000000000000000000000000000000000000000000000000
310
00000000000000000000000000000000000000000000000000000000000000000000000000000000000000000000000000000000000000000000000000000000000000000000000000000000000000000000000000000000000000000000000000000000000000000000000000000000070000000000000000000000000000
310
00000000000000000000000000000000070000000000000000000000000000000000000000000000000000000000000000000000000000000000000000000000000000000000000000000000000000000000000000000000000000000000000000000000000000000000000000000000000000000000000000000000000000
310
00000000000000000000000000000000000000000000000000000000000000000000000000000700000000000000000000000000000000000000000000000000000000000707000000000000000000000000000000000000000000000000000000000000000000000000000000000000000000000000000000000000000000
310
00000000000000000000000000000000000000000000000000000000000000000000000000000000000000000000000000000000000000000000000000000000000000000000000000000000000000000000000000000000000000070000000000000000000000000000000000000000000000000000000000070000000000
310
00000000000000000000000000000000000000000000000000000000000000000000000000000000000000000000000000000000000000000000000000000000000000000000000000000000000000000000000000000000000000070000000000000000000000000000000000000000000000000000000000000000000000
310
00000000000000000000000000000000000700000000000000000000000000000000000000000000000000000000000700000000000000000000000000000000000000000000000000000000000000000000000000000000000000000000000000000000000000000000000000000000000000000000000000000000000000
310
00000000000000000000000000000007070007070000000000000000000000000000000000000000000000000000000000000000000000000000000000000000000000000000070000000000000000000000000000000000000000000000000000000007070000000000000000000000000000000000000000000000000000
310
00000000000000000000000000000000000000000000000000000000000000000000000000000000000000000000000000000000000000000000000000000000000007070000000000070700000000000000000000000000000000000000000000000000000000000000000000000000000000000000000000000000070000
310
00000000000000000000000000000000000000000000000000070700000000000000000000000000000000000000000000000000000000000000000000000000000000000000000000000000000000000000000000000000000000000000000000000000000000000000000000000000000000000000000700000000000000
310
07000000000000000000000000000000000000000000000000000000000000000000000000000000000000000000000000000700000000000000000000000000000000000000000000000000000007000000000000000000000000000000000000000000000000000000000000000000000000000000000000000000000000
310
00000000000000000000000000000000000000000000000000000000000000000000000000000000000000000007000000000000000700000000000000000000000000000000000000000000000000000000000000000000000000000000000000000000000000000700000000000000000000000000000000000000000000
310
00000000070000000000000000000000000000000000000000000000000000000000000000000000000000000000000000000000000000000000000000000000000000000000000000000000000000000000000000000000000000000000000000000700000000000000070000000000000000000000000000000000000000
310
00000000000000000000000000000000000000000000000000000000000000070000000000000000000000000000000000000000000000070700000000000000000000000000000000000000000000000000000000000000000000000000000000000000000000000000000000000000000000000000000000000000000000
310
00000000000000000000000000000000000000000000000007000000000000000700000000000000000000000000000000000000000000000000000000000000000000000000000000000000000000000000000000070000000000000000000000000000000000000000000707000000000000000000000000000000000000
310
00000000000000000000000000000000000000000000000000000000000000000000000000000000000000000000000000000000000000000000000000000000000000000000000000000000000700000000000000070000000000000000000000000000000000000000000000000000000000000000000000000000000000
310
00000000000000000000000007000000000000000000000000000000000000000700000000000000000000000000000000000000000000000000000000000000000000000000000000000000000000000000000000000000000000000000000000000000000000000000000000000000000000000000000000000000000000
310
00000007000000000000000700000000000000000000000000000000000000000000000000000000000000000000000000000000000000000000000000000000000007000000000000000000000000000000000000070000000000000000000000000000000000000000000000000000000000000000000000000000000000
310
00000000000000000000000000000000000000000000000000000000000000000000000000000000000000000000000000000000000000000700000000000000070000000000000000000000000000000000000000000000000000000000000000000000000000000000000000000000000000000000000007070700000000
310
00000000000000070707070000000000000000000000000000000000000000000000000000000000000000000000000000000000000000000000000000000000000000000000000000000000000000000000000000000000000000000000000000000000000000000000000000070000000000000007000000000000000000
310
00000000000000000000000000000000000000000000000000000000000000000000000000000000000000000000000707070707070000000707070707070000000000000000000000000000000000000000000000000000000000000000000000000000000000000000000000000000000000000000000000000000000000
310
00000000000000000000000000000000000000000000000000000000000000000000000700000000000000070000000000000000000000000000000000000000000000000000000000000000000000000000000000000000000000000000000000000000000000000007070707000700000000000000000000000000000000
310
00000000000000000000000000000000000000000000000000000000000000000000000000000000000000000000000000000000000000000000000000000000000000000000000000000000000000000000000000000000070000000000000007000000000000000000000000000000000000000000000000000000000000
310
00000000000000000000000000000000000000000000000000000000000007070000000007000000000000000000000000000000000000000000000000000000000000000000000000000000000000000000000000000000000000000000000000000000000000000000000000000000000000000000000000000000000000
310
00000000000000000000000000000700000000000000070000000000000000000000000000000000000000000000000000000000000000000000000000000000000000000000000000000000000000000000000707000000000707000000000000000000000000000000000000000000000000000000000000000000000000
310
00000000000000000000000000000000000000000000000000000000000000000000000000000000000000000000000000000000000000000000000000000000000000070000000000000007000000000000000000000000000000000000000000000000000000000000000000000000000000000000000000000000000000
310
00000000000000000007070707070707070000000000000000000000000000000000000000000000000000000000000000000000000000000000000000000000000000000000000000000000000000000000000000000000000000000000000000000000000000000000000000000000000000000000000007000000000000
310
00070000000000000000000000000000000000000000000000000000000000000000000000000000000000000000000000000000000000000000000000000707070707070707000000000000000000000000000000000000000000000000000000000000000000000000000000000000000000000000000000000000000000
310
00000000000000000000000000000000000000000000000000000000000000000000000000000000000000000000070000000000000007000000000000000000000000000000000000000000000000000000000000000000000000000000000000000000000000000000000000000000000000070000000000000700000000
310
00000000000000000000000000000000000000000000000000000000000000000000000000000000000000000000000000000000000000000000000000000000000000000000000000000000000000000000000000000000000000000000000000000007000000000000000700000000000000000000000000000000000000
310
00000000000000000000000000000000000000000000000000000000000000000000000000000000000700000000000007000000000000000000000000000000000000000000000000000000000000000000000000000000000000000000000000000000000000000000000000000000000000000000000000000000000000
310
00000000000000000000000000000000000000000000000000070000000000000007000000000000000000000000000000000000000000000000000000000000000000000000000000000000000000000000000000000000000000000000070000000000000700000000000000000000000000000000000000000000000000
310
00000000000000000000000000000000000000000000000000000000000000000000000000000000000000000000000000000000000000000000000000000000000000000000000000000000000007000000000000000700000000000000000000000000000000000000000000000000000000000000000000000000000000
310
00000000000000000000000000000000000000000700000000000007000000000000000000000000000000000000000000000000000000000000000000000000000000000000000000000000000000000000000000000000000000000000000000000000000000000000000000000000000000000000000000000000000000
310
00000000070000000000000007000000000000000000000000000000000000000000000000000000000000000000000000000000000000000000000000000000000000000000000000070000000000000700000000000000000000000000000000000000000000000000000000000000000000000000000000000000000000
310
00000000000000000000000000000000000000000000000000000000000000000000000000000000000000000000000000000000000000000007000000000000000700000000000000000000000000000000000000000000000000000000000000000000000000000000000000000000000000000000000000000000000007
310
00000000000007000000000000000000000000000000000000000000000000000000000000000000000000000000000000000000000000000000000000000000000000000000000000000000000000000000000000000000000000000000000000000000000000000000000000000700000000000000070000000000000000
310
00000000000000000000000000000000000000000000000000000000000000000000000000000000000000000000000000000000070000000000000700000000000000000000000000000000000000000000000000000000000000000000000000000000000000000000000000000000000000000000000000000000000000
310
00000000000000000000000000000000000000000000000000000000000000000000000007000000000000000700000000000000000000000000000000000000000000000000000000000000000000000000000000000000000000000000000000000000000000000007000000000000070000000000000000000000000000
310
00000000000000000000000000000000000000000000000000000000000000000000000000000000000000000000000000000000000000000000000000000000000000000000000000000000000000000000000000000000000700000000000000070000000000000000000000000000000000000000000000000000000000
310
00000000000000000000000000000000000000000000000000000000000000070000000000000700000000000000000000000000000000000000000000000000000000000000000000000000000000000000000000000000000000000000000000000000000000000000000000000000000000000000000000000000000000
310
00000000000000000000000000000007000000000000000700000000000000000000000000000000000000000000000000000000000000000000000000000000000000000000000000000000000000000000000007000000000000070000000000000000000000000000000000000000000000000000000000000000000000
310
00000000000000000000000000000000000000000000000000000000000000000000000000000000000000000000000000000000000000000000000000000000000000000700000000000000070000000000000000000000000000000000000000000000000000000000000000000000000000000000000000000000000000
310
00000000000000000000070000000000000700000000000000000000000000000000000000000000000000000000000000000000000000000000000000000000000000000000000000000000000000000000000000000000000000000000000000000000000000000000000000000000000000000000000000070000000000
310
00000700000000000000000000000000000000000000000000000000000000000000000000000000000000000000000000000000000000000000000000000007000000000000070000000000000000000000000000000000000000000000000000000000000000000000000000000000000000000000000000000000000000
310
00000000000000000000000000000000000000000000000000000000000000000000000000000000000000000000000700000000000000070000000000000000000000000000000000000000000000000000000000000000000000000000000000000000000000000000000000000000000000000700000000000007000000
310
00000000000000000000000000000000000000000000000000000000000000000000000000000000000000000000000000000000000000000000000000000000000000000000000000000000000000000000000000000000000000000000000000000000070000000000000007000000000000000000000000000000000000
310
00000000000000000000000000000000000000000000000000000000000000000000000000000000000007000000000000070000000000000000000000000000000000000000000000000000000000000000000000000000000000000000000000000000000000000000000000000000000000000000000000000000000000
310
00000000000000000000000000000000000000000000000000000700000000000000070000000000000000000000000000000000000000000000000000000000000000000000000000000000000000000000000000000000000000000000070700000000000007000000000000000000000000000000000000000000000000
310
00000000000000000000000000000000000000000000000000000000000000000000000000000000000000000000000000000000000000000000000000000000000000000000000000000000000000070000000000000007000000000000000000000000000000000000000000000000000000000000000000000000000000
310
00000000000000000000000000000000000000000707000000000000070700000000000000000000000000000000000000000000000000000000000000000000000000000000000000000000000000000000000000000000000000000000000000000000000000000000000000000000000000000000000000000000000000
310
00000000000700000000000000070000000000000000000000000000000000000000000000000000000000000000000000000000000000000000000000000000000000000000000007070700000000000007070000000000000000000000000000000000000000000000000000000000000000000000000000000000000000
310
00000000000000000000000000000000000000000000000000000000000000000000000000000000000000000000000000000000000000000000070000000000000007000000000000000000000000000000000000000000000000000000000000000000000000000000000000000000000000000000000000000000000700
310
07000000000000070000000000000000000000000000000000000000000000000000000000000000000000000000000000000000000000000000000000000000000000000000000000000000000000000000000000000000000000000000000000000000000000000000000000000007000000000000000700000000000000
310
00000000000000000000000000000000000000000000000000000000000000000000000000000000000000000000000000000007000707000000000700070000000000000000000000000000000000000000000000000000000000000000000000000000000000000000000000000000000000000000000000000000000000
310
00000000000000000000000000000000000000000000000000000000000000000000000000070000000000000007000000000000000000000000000000000000000000000000000000000000000000000000000000000000000000000000000000000000000000000707000707070707000707000000000000000000000000
310
00000000000000000000000000000000000000000000000000000000000000000000000000000000000000000000000000070707070707070707070707070707070707070707070000000000000000000000000007070707070707000000000000000707070707070700000000000000000000000000070707070707070707
310
07070707070707070707070707000000000000000000000000070707070707000700000000000707070707070707070000000000000000000000000000000000000000000000000000000000000000000000000000000000000000000000000000000000000007000000000000000707070707070700000000000007070000
310
00000000000000000007000000000000070000000000000007000000000000070000000000000000000000070700000000000000070707070707000000000000000700000000000000000000000007000000000700000707070707000007000000000007000000000000000000000000000000000000000000000000000000
310
00000000000000000000000000000000000000000000000000000000070000000000070707070000070707070700000000000700000000000000000000000700000000000707000000000000000707000000000007000000000000000000000007000000000000070707070000070707070000000000070000000000000000
310
00000000070000000007070000000000000000070000000000070000000000000000000000000000000000000000000000000000000000000000000000000000000000000000000000000000000000000007000000000707070000000000000707070000000000070000000000000000000000070000000007070700000000
310
00000007070700000000070000000000000000000000070000000000070707000000000000070707000000000700000000000000000000000007000000000707000000000000000707000000000007000000000000000000000000000000000000000000000000000000000000000000000000000000000000000000000000
310
00000000000000070000000707000000000000000000000707000000000700000000000000000000000700000007070007000000000000000700070700000007000000000000000000000007000000000707000000000000000000000707000000070000000000000000000000000700000007070007070700070707000707
310
07000000070000000000000000000000000000000000000000000000000000000000000000000000000000000000000000000000000000000000000007000007000000000000000000000000000007000000070000000000000000000000070000070700000700000000000000070000070000000700000000000000000000
310
00070000000700000000000000000000000000070000000700000000000000000000000007000007000700000007070700000007000700000007000000000000000000000000000000000000000000000000000000000000000000000000000000000000000000000000000707070707070707070707070707070707070700
310
00000000000700000700000000000000000000000700000700000707000000000000000707000007000007000000000000000000000007000007000000000000070707070707070707070707070707070707070000000000000700000700070000000000000000000707000700000700000000000000000000000000000000
310
00000000000000000000000000000000000000000000000000000000000000070700000000000000000000000000000000000000070700000000070000070000000000000000000000070007000007000700000000000000070007000700000700000000000000000000000700070000000000070700000000000000000000
310
00000000000000000007070000000007000700070700000000000000000007070007070007000000000000000000000000000000000000000000000000000000000000000000000000000000000000000000000700000000000000000000000000000000000000000000000700000000070007000000000000000000000007
310
00070007070007000000000000000700070000070007000000000000000000000007000700000000070000000000000000000000000000000000000000000000070000000700070007070000000000000000000700070007000700000000000000000000000000000000000000000000000000000000000000000000000000
310
00000000000000000007000000000000000000000000000000000000000000000007000000000700070000000000000000000000070007000707000700000000000000070007070007000700000000000000000000000700070000000007000000000000000000000000000000000000000000000007000000070700000707
310
00000000000000000000000700070007000000000000000000000000000000000000000000000000000000000000000000000000000000000000000000000700000000000000000000000000000000000000000000000000000000000007000000000000000000000007000700070000070000000000000007000000000000
310
07000000000000000000000007000700000000070000000000000000000000000000000000000000000000000000000707000007070000000000000000000700070007000700000000000000000000000000000000000000000000000000000000000000000000000000000000000000000000070000000000000000000000
310
00000000000000000000000007000000000700070000000000000000000000070007000700000700000000000000070007070007070700000000000000000000000700070000000007000000000000000000000000000000000000000000000007000000070700000707000000000000000000070007000000070000000000
310
00000000000000000000000000000000000000000000000000000000000000000000000000000000000700000000000000000000000000000000000000000000000700000000070007000000000000000000000007000700070700070000000000000007000707000700070000000000000000000000070007000000000700
310
00000000000000000000000000000000000000000000070000000707000007000700000000000000000700070007000700000000000000000000000000000000000000000000000000000000000000000000000000000000000000000000070000000000000000000000000000000000000000000000070000000007000700
310
00000000000000000000070007000707000700000000000000070007000007000700000000000000000000000700070000000007000000000000000000000000000000000000000000000007000000070007000700070700000000000007000700000700070000000000000000000000000000000000000000000000000000
310
00000000000000000000000000000000000000000007070000000000000000000000000000000000000007070000000007000007000000000000000000000007000700000700000707000000070700000700070000070000000000000000000000070007000000000007070000000000000000000000000000000000000007
310
07000000000700070007000007000000000007070007000707000700000000000000000000000000000000000000000000000000000000000000000000000000000000000000000000000000070707070707070707070707070707070707070000000000000700000700000000000000000000000700000700000700000007
310
07070000000700000700000700000000000000000000000700000700000000000007070707070707070707070707070707070707000000000000070000070007000007070707070000070700070000070000000000000000000000000000000000000000000000000000000000000000000000000000000000000000000000
310
00000000000000000700000700000000000000000000000000000700000007000000000000000000000007000007070000070700070007000707000007000000070000000000000000000000070000000700000000000000000000000000070000000700000000000000000000000007000007000707000000000000000007
310
00070000000700000000000000000000000000000000000000000000000000000000000000000000000000000000000000000000000000000000000000070000000700000000000000000000000007000000000700000000000000000000000700000007070000000707000707000000070700000007000000000000000000
310
00000700000000070000000000000000000000000700000007000000000000000000000000070000000707070700000000000007000707000000070000000000000000000000000000000000000000000000000000000000000000000000000000000000000000000000000000000000000007000000000707000000000000
310
00000707000000000007000000000000000000000007000000000707070000070007000007070700000000070000000000000000000000070000000000070700000000000000000707000000000700000000000000000000000007000000000707000707070707070707000000000007000000000000000000000000000000
310
00000000000000000000000000000000000000000000000000000000000000000000000000000000070000000000070707070000000707070700000000000700000000000000000000000700000000000707070707070707070707000000000007000000000000000000000007000000000000070707000000070707070000
310
00000007000000000000000000000000070000000000000707070707070707000000000000070000000000000000000000000000000000000000000000000000000000000000000000000000000000000000000000000000000000000007000000000000070707070707070700000000000007070000000000000000000000
310
07000000000000000707070707070700000000000000070000000000000000000000070700000000000007070707070707070000000000000700000000000000000000000007000000000000000000000000000000000000000007000000000000000000000000000000000000000000000000000000000000000000000000
310
00000000000000000000000000000000000000070707070707070707070707070707070707070707070000000000000000000000000007070707070707070707070707070707070707070700000000000000000000000000070707070707070707070707070707070707070707070000000000000000000000000707070707
310
07070707070707070707070707070707070000000000000000000000000000000000000000000000000000000000000000000000000000000000000000000000000000000000000000000000000000000000000000000000000000000000000000000000000000000000000000000000000000000000000000000000000000
310
00000000000000000000000000000000000000000000000000000000000000000000000000000000000000000000000000000000000000000000000000000000000000000000000000000000000000000000000000000000000000000000000000000000000000000000000000000000000000000000000000000000000000
310
00000000000000000000000000000000000000000000000000000000000000000000000000000000000000000000000000000000000000000000000000000000000000000000000000000000000000000000000000000000000000000000000000000000000000000000000000000000000000000000000000000000000000
310
00000000000000000000000000000000000000000000000000000000000000000000000000000000000000000000000000000000000000000000000000000000000000000000000000000000000000000000000000000000000000000000000000000000000000000000000000000000000000000000000000000000000000
310
00000000000000000000000000000000000000000000000000000000000000000000000000000000000000000000000000000000000000000000000000000000000000000000000000000000000000000000000000000000000000000000000000000000000000000000000000000000000000000000000000000000000000
310
000000000000000000000000000000000000000000000000000000000000000000000000000000000000000000000000000000000000000000000000000000000000000000000000000000000000000000000000000000000000000000000000000000000000000000000000
  0
ENDSEC
  0
EOF
