  0
SECTION
  2
HEADER
  9
$ACADVER
  1
AC1015
  9
$ACADMAINTVER
 70
     6
  9
$DWGCODEPAGE
  3
ANSI_1252
  9
$INSBASE
 10
0.0
 20
0.0
 30
0.0
  9
$EXTMIN
 10
0.25
 20
0.0385
 30
0.0
  9
$EXTMAX
 10
91.75
 20
702.9615
 30
0.0
  9
$LIMMIN
 10
0.0
 20
0.0
  9
$LIMMAX
 10
12.0
 20
9.0
  9
$ORTHOMODE
 70
     0
  9
$REGENMODE
 70
     1
  9
$FILLMODE
 70
     1
  9
$QTEXTMODE
 70
     0
  9
$MIRRTEXT
 70
     1
  9
$LTSCALE
 40
1.0
  9
$ATTMODE
 70
     1
  9
$TEXTSIZE
 40
0.2
  9
$TRACEWID
 40
0.05
  9
$TEXTSTYLE
  7
Standard
  9
$CLAYER
  8
0
  9
$CELTYPE
  6
ByBlock
  9
$CECOLOR
 62
   256
  9
$CELTSCALE
 40
1.0
  9
$DISPSILH
 70
     0
  9
$DIMSCALE
 40
1.0
  9
$DIMASZ
 40
0.18
  9
$DIMEXO
 40
0.0625
  9
$DIMDLI
 40
0.38
  9
$DIMRND
 40
0.0
  9
$DIMDLE
 40
0.0
  9
$DIMEXE
 40
0.18
  9
$DIMTP
 40
0.0
  9
$DIMTM
 40
0.0
  9
$DIMTXT
 40
0.18
  9
$DIMCEN
 40
0.09
  9
$DIMTSZ
 40
0.0
  9
$DIMTOL
 70
     0
  9
$DIMLIM
 70
     0
  9
$DIMTIH
 70
     1
  9
$DIMTOH
 70
     1
  9
$DIMSE1
 70
     0
  9
$DIMSE2
 70
     0
  9
$DIMTAD
 70
     0
  9
$DIMZIN
 70
     0
  9
$DIMBLK
  1

  9
$DIMASO
 70
     1
  9
$DIMSHO
 70
     1
  9
$DIMPOST
  1

  9
$DIMAPOST
  1

  9
$DIMALT
 70
     0
  9
$DIMALTD
 70
     2
  9
$DIMALTF
 40
25.4
  9
$DIMLFAC
 40
1.0
  9
$DIMTOFL
 70
     0
  9
$DIMTVP
 40
0.0
  9
$DIMTIX
 70
     0
  9
$DIMSOXD
 70
     0
  9
$DIMSAH
 70
     0
  9
$DIMBLK1
  1

  9
$DIMBLK2
  1

  9
$DIMSTYLE
  2
Standard
  9
$DIMCLRD
 70
     0
  9
$DIMCLRE
 70
     0
  9
$DIMCLRT
 70
     0
  9
$DIMTFAC
 40
1.0
  9
$DIMGAP
 40
0.09
  9
$DIMJUST
 70
     0
  9
$DIMSD1
 70
     0
  9
$DIMSD2
 70
     0
  9
$DIMTOLJ
 70
     1
  9
$DIMTZIN
 70
     0
  9
$DIMALTZ
 70
     0
  9
$DIMALTTZ
 70
     0
  9
$DIMUPT
 70
     0
  9
$DIMDEC
 70
     4
  9
$DIMTDEC
 70
     4
  9
$DIMALTU
 70
     2
  9
$DIMALTTD
 70
     2
  9
$DIMTXSTY
  7
Standard
  9
$DIMAUNIT
 70
     0
  9
$DIMADEC
 70
     0
  9
$DIMALTRND
 40
0.0
  9
$DIMAZIN
 70
     0
  9
$DIMDSEP
 70
    46
  9
$DIMATFIT
 70
     3
  9
$DIMFRAC
 70
     0
  9
$DIMLDRBLK
  1

  9
$DIMLUNIT
 70
     2
  9
$DIMLWD
 70
    -2
  9
$DIMLWE
 70
    -2
  9
$DIMTMOVE
 70
     2
  9
$LUNITS
 70
     2
  9
$LUPREC
 70
     4
  9
$SKETCHINC
 40
0.1
  9
$FILLETRAD
 40
0.5
  9
$AUNITS
 70
     0
  9
$AUPREC
 70
     0
  9
$MENU
  1
.
  9
$ELEVATION
 40
0.0
  9
$PELEVATION
 40
0.0
  9
$THICKNESS
 40
0.0
  9
$LIMCHECK
 70
     0
  9
$CHAMFERA
 40
0.5
  9
$CHAMFERB
 40
0.5
  9
$CHAMFERC
 40
1.0
  9
$CHAMFERD
 40
0.0
  9
$SKPOLY
 70
     0
  9
$TDCREATE
 40
2456184.618422928
  9
$TDUCREATE
 40
2456184.535089595
  9
$TDUPDATE
 40
2456184.620503542
  9
$TDUUPDATE
 40
2456184.537170209
  9
$TDINDWG
 40
0.0020804514
  9
$TDUSRTIMER
 40
0.0020804514
  9
$USRTIMER
 70
     1
  9
$ANGBASE
 50
0.0
  9
$ANGDIR
 70
     0
  9
$PDMODE
 70
     0
  9
$PDSIZE
 40
0.0
  9
$PLINEWID
 40
0.0
  9
$SPLFRAME
 70
     0
  9
$SPLINETYPE
 70
     6
  9
$SPLINESEGS
 70
     8
  9
$HANDSEED
  5
431
  9
$SURFTAB1
 70
     6
  9
$SURFTAB2
 70
     6
  9
$SURFTYPE
 70
     6
  9
$SURFU
 70
     6
  9
$SURFV
 70
     6
  9
$UCSBASE
  2

  9
$UCSNAME
  2

  9
$UCSORG
 10
0.0
 20
0.0
 30
0.0
  9
$UCSXDIR
 10
1.0
 20
0.0
 30
0.0
  9
$UCSYDIR
 10
0.0
 20
1.0
 30
0.0
  9
$UCSORTHOREF
  2

  9
$UCSORTHOVIEW
 70
     0
  9
$UCSORGTOP
 10
0.0
 20
0.0
 30
0.0
  9
$UCSORGBOTTOM
 10
0.0
 20
0.0
 30
0.0
  9
$UCSORGLEFT
 10
0.0
 20
0.0
 30
0.0
  9
$UCSORGRIGHT
 10
0.0
 20
0.0
 30
0.0
  9
$UCSORGFRONT
 10
0.0
 20
0.0
 30
0.0
  9
$UCSORGBACK
 10
0.0
 20
0.0
 30
0.0
  9
$PUCSBASE
  2

  9
$PUCSNAME
  2

  9
$PUCSORG
 10
0.0
 20
0.0
 30
0.0
  9
$PUCSXDIR
 10
1.0
 20
0.0
 30
0.0
  9
$PUCSYDIR
 10
0.0
 20
1.0
 30
0.0
  9
$PUCSORTHOREF
  2

  9
$PUCSORTHOVIEW
 70
     0
  9
$PUCSORGTOP
 10
0.0
 20
0.0
 30
0.0
  9
$PUCSORGBOTTOM
 10
0.0
 20
0.0
 30
0.0
  9
$PUCSORGLEFT
 10
0.0
 20
0.0
 30
0.0
  9
$PUCSORGRIGHT
 10
0.0
 20
0.0
 30
0.0
  9
$PUCSORGFRONT
 10
0.0
 20
0.0
 30
0.0
  9
$PUCSORGBACK
 10
0.0
 20
0.0
 30
0.0
  9
$USERI1
 70
     0
  9
$USERI2
 70
     0
  9
$USERI3
 70
     0
  9
$USERI4
 70
     0
  9
$USERI5
 70
     0
  9
$USERR1
 40
0.0
  9
$USERR2
 40
0.0
  9
$USERR3
 40
0.0
  9
$USERR4
 40
0.0
  9
$USERR5
 40
0.0
  9
$WORLDVIEW
 70
     1
  9
$SHADEDGE
 70
     3
  9
$SHADEDIF
 70
    70
  9
$TILEMODE
 70
     1
  9
$MAXACTVP
 70
    64
  9
$PINSBASE
 10
0.0
 20
0.0
 30
0.0
  9
$PLIMCHECK
 70
     0
  9
$PEXTMIN
 10
1.000000000000E+20
 20
1.000000000000E+20
 30
1.000000000000E+20
  9
$PEXTMAX
 10
-1.000000000000E+20
 20
-1.000000000000E+20
 30
-1.000000000000E+20
  9
$PLIMMIN
 10
0.0
 20
0.0
  9
$PLIMMAX
 10
12.0
 20
9.0
  9
$UNITMODE
 70
     0
  9
$VISRETAIN
 70
     1
  9
$PLINEGEN
 70
     0
  9
$PSLTSCALE
 70
     1
  9
$TREEDEPTH
 70
  3020
  9
$CMLSTYLE
  2
Standard
  9
$CMLJUST
 70
     0
  9
$CMLSCALE
 40
1.0
  9
$PROXYGRAPHICS
 70
     1
  9
$MEASUREMENT
 70
     0
  9
$CELWEIGHT
370
    -1
  9
$ENDCAPS
280
     0
  9
$JOINSTYLE
280
     0
  9
$LWDISPLAY
290
     0
  9
$INSUNITS
 70
     0
  9
$HYPERLINKBASE
  1

  9
$STYLESHEET
  1

  9
$XEDIT
290
     1
  9
$CEPSNTYPE
380
     0
  9
$PSTYLEMODE
290
     1
  9
$FINGERPRINTGUID
  2
{1DD3C5BC-DB63-48AE-8A35-1C2F09B61CB6}
  9
$VERSIONGUID
  2
{FAEB1C32-E019-11D5-929B-00C0DF256EC4}
  9
$EXTNAMES
290
     1
  9
$PSVPSCALE
 40
0.0
  9
$OLESTARTUP
290
     0
  0
ENDSEC
  0
SECTION
  2
CLASSES
  0
CLASS
  1
ACDBDICTIONARYWDFLT
  2
AcDbDictionaryWithDefault
  3
ObjectDBX Classes
 90
        0
280
     0
281
     0
  0
CLASS
  1
SCALE
  2
AcDbScale
  3
ObjectDBX Classes
 90
     1153
280
     0
281
     0
  0
CLASS
  1
DICTIONARYVAR
  2
AcDbDictionaryVar
  3
ObjectDBX Classes
 90
        0
280
     0
281
     0
  0
CLASS
  1
ACDBPLACEHOLDER
  2
AcDbPlaceHolder
  3
ObjectDBX Classes
 90
        0
280
     0
281
     0
  0
CLASS
  1
LAYOUT
  2
AcDbLayout
  3
ObjectDBX Classes
 90
        0
280
     0
281
     0
  0
ENDSEC
  0
SECTION
  2
TABLES
  0
TABLE
  2
VPORT
  5
8
330
0
100
AcDbSymbolTable
 70
     1
  0
VPORT
  5
404
330
8
100
AcDbSymbolTableRecord
100
AcDbViewportTableRecord
  2
*Active
 70
     0
 10
0.0
 20
0.0
 11
1.0
 21
1.0
 12
45.875
 22
351.48075
 13
0.0
 23
0.0
 14
0.5
 24
0.5
 15
0.5
 25
0.5
 16
0.0
 26
0.0
 36
1.0
 17
0.0
 27
0.0
 37
0.0
 40
717.02073
 41
1.863448275862
 42
50.0
 43
0.0
 44
0.0
 50
0.0
 51
0.0
 71
    16
 72
   100
 73
     1
 74
     3
 75
     0
 76
     0
 77
     0
 78
     0
281
     0
 65
     1
110
0.0
120
0.0
130
0.0
111
1.0
121
0.0
131
0.0
112
0.0
122
1.0
132
0.0
 79
     0
146
0.0
  0
ENDTAB
  0
TABLE
  2
LTYPE
  5
5
330
0
100
AcDbSymbolTable
 70
     1
  0
LTYPE
  5
14
330
5
100
AcDbSymbolTableRecord
100
AcDbLinetypeTableRecord
  2
ByBlock
 70
     0
  3

 72
    65
 73
     0
 40
0.0
  0
LTYPE
  5
15
330
5
100
AcDbSymbolTableRecord
100
AcDbLinetypeTableRecord
  2
ByLayer
 70
     0
  3

 72
    65
 73
     0
 40
0.0
  0
LTYPE
  5
16
330
5
100
AcDbSymbolTableRecord
100
AcDbLinetypeTableRecord
  2
Continuous
 70
     0
  3
Solid line
 72
    65
 73
     0
 40
0.0
  0
ENDTAB
  0
TABLE
  2
LAYER
  5
2
330
0
100
AcDbSymbolTable
 70
     1
  0
LAYER
  5
10
330
2
100
AcDbSymbolTableRecord
100
AcDbLayerTableRecord
  2
0
 70
     0
 62
     7
  6
Continuous
370
    -3
390
F
  0
ENDTAB
  0
TABLE
  2
STYLE
  5
3
330
0
100
AcDbSymbolTable
 70
     1
  0
STYLE
  5
11
330
3
100
AcDbSymbolTableRecord
100
AcDbTextStyleTableRecord
  2
Standard
 70
     0
 40
0.0
 41
1.0
 50
0.0
 71
     0
 42
0.2
  3
txt
  4

  0
ENDTAB
  0
TABLE
  2
VIEW
  5
6
330
0
100
AcDbSymbolTable
 70
     0
  0
ENDTAB
  0
TABLE
  2
UCS
  5
7
330
0
100
AcDbSymbolTable
 70
     0
  0
ENDTAB
  0
TABLE
  2
APPID
  5
9
330
0
100
AcDbSymbolTable
 70
     1
  0
APPID
  5
12
330
9
100
AcDbSymbolTableRecord
100
AcDbRegAppTableRecord
  2
ACAD
 70
     0
  0
ENDTAB
  0
TABLE
  2
DIMSTYLE
  5
A
330
0
100
AcDbSymbolTable
 70
     1
100
AcDbDimStyleTable
  0
DIMSTYLE
105
20
330
A
100
AcDbSymbolTableRecord
100
AcDbDimStyleTableRecord
  2
Standard
 70
     0
340
11
  0
ENDTAB
  0
TABLE
  2
BLOCK_RECORD
  5
1
330
0
100
AcDbSymbolTable
 70
     0
  0
BLOCK_RECORD
  5
1D
330
1
100
AcDbSymbolTableRecord
100
AcDbBlockTableRecord
  2
*Model_Space
340
1E
  0
BLOCK_RECORD
  5
1B
330
1
100
AcDbSymbolTableRecord
100
AcDbBlockTableRecord
  2
*Paper_Space
340
1C
  0
ENDTAB
  0
ENDSEC
  0
SECTION
  2
BLOCKS
  0
BLOCK
  5
407
330
1D
100
AcDbEntity
  8
0
100
AcDbBlockBegin
  2
*Model_Space
 70
     0
 10
0.0
 20
0.0
 30
0.0
  3
*Model_Space
  1
*Model_Space
  0
ENDBLK
  5
408
330
1D
100
AcDbEntity
  8
0
100
AcDbBlockEnd
  0
BLOCK
  5
405
330
1B
100
AcDbEntity
 67
     1
  8
0
100
AcDbBlockBegin
  2
*Paper_Space
 70
     0
 10
0.0
 20
0.0
 30
0.0
  3
*Paper_Space
  1
*Paper_Space
  0
ENDBLK
  5
406
330
1B
100
AcDbEntity
 67
     1
  8
0
100
AcDbBlockEnd
  0
ENDSEC
  0
SECTION
  2
ENTITIES
  0
LINE
  5
21
330
1D
100
AcDbEntity
  8
0
100
AcDbLine
 10
6.669189332217
 20
491.9615
 30
0.0
 11
7.23171
 21
464.7635
 31
0.0
  0
LINE
  5
22
330
1D
100
AcDbEntity
  8
0
100
AcDbLine
 10
7.23171
 20
464.7635
 30
0.0
 11
7.70847
 21
442.0571
 31
0.0
  0
LINE
  5
23
330
1D
100
AcDbEntity
  8
0
100
AcDbLine
 10
7.70847
 20
442.0571
 30
0.0
 11
8.2255
 21
417.6682
 31
0.0
  0
LINE
  5
24
330
1D
100
AcDbEntity
  8
0
100
AcDbLine
 10
8.2255
 20
417.6682
 30
0.0
 11
8.75183
 21
393.0865
 31
0.0
  0
LINE
  5
25
330
1D
100
AcDbEntity
  8
0
100
AcDbLine
 10
8.75183
 20
393.0865
 30
0.0
 11
9.24128
 21
370.6265
 31
0.0
  0
LINE
  5
26
330
1D
100
AcDbEntity
  8
0
100
AcDbLine
 10
9.24128
 20
370.6265
 30
0.0
 11
9.66995
 21
351.3275
 31
0.0
  0
LINE
  5
27
330
1D
100
AcDbEntity
  8
0
100
AcDbLine
 10
9.66995
 20
351.3275
 30
0.0
 11
18.52716
 21
257.6195
 31
0.0
  0
LINE
  5
28
330
1D
100
AcDbEntity
  8
0
100
AcDbLine
 10
9.726
 20
491.9615
 30
0.0
 11
12.75
 21
491.9615
 31
0.0
  0
LINE
  5
29
330
1D
100
AcDbEntity
  8
0
100
AcDbLine
 10
6.942
 20
491.9615
 30
0.0
 11
9.726
 21
491.9615
 31
0.0
  0
LINE
  5
2A
330
1D
100
AcDbEntity
  8
0
100
AcDbLine
 10
4.494
 20
491.9615
 30
0.0
 11
6.942
 21
491.9615
 31
0.0
  0
LINE
  5
2B
330
1D
100
AcDbEntity
  8
0
100
AcDbLine
 10
4.494
 20
491.9615
 30
0.0
 11
6.669189332217
 21
491.9615
 31
0.0
  0
LINE
  5
2C
330
1D
100
AcDbEntity
  8
0
100
AcDbLine
 10
2.622
 20
491.9615
 30
0.0
 11
4.494
 21
491.9615
 31
0.0
  0
LINE
  5
2D
330
1D
100
AcDbEntity
  8
0
100
AcDbLine
 10
1.47
 20
491.9615
 30
0.0
 11
2.622
 21
491.9615
 31
0.0
  0
LINE
  5
2E
330
1D
100
AcDbEntity
  8
0
100
AcDbLine
 10
1.038
 20
491.9615
 30
0.0
 11
1.47
 21
491.9615
 31
0.0
  0
LINE
  5
2F
330
1D
100
AcDbEntity
  8
0
100
AcDbLine
 10
12.75
 20
491.9615
 30
0.0
 11
15.774
 21
491.9615
 31
0.0
  0
LINE
  5
30
330
1D
100
AcDbEntity
  8
0
100
AcDbLine
 10
19.94495
 20
191.9075
 30
0.0
 11
20.34752
 21
172.4455
 31
0.0
  0
LINE
  5
31
330
1D
100
AcDbEntity
  8
0
100
AcDbLine
 10
19.47935
 20
213.9805
 30
0.0
 11
19.94495
 21
191.9075
 31
0.0
  0
LINE
  5
32
330
1D
100
AcDbEntity
  8
0
100
AcDbLine
 10
19.00886
 20
235.8895
 30
0.0
 11
19.47935
 21
213.9805
 31
0.0
  0
LINE
  5
33
330
1D
100
AcDbEntity
  8
0
100
AcDbLine
 10
18.52716
 20
257.6195
 30
0.0
 11
19.00886
 21
235.8895
 31
0.0
  0
LINE
  5
34
330
1D
100
AcDbEntity
  8
0
100
AcDbLine
 10
20.34752
 20
172.4455
 30
0.0
 11
20.74476
 21
152.8125
 31
0.0
  0
LINE
  5
35
330
1D
100
AcDbEntity
  8
0
100
AcDbLine
 10
20.74476
 20
152.8125
 30
0.0
 11
21.1934
 21
130.2055
 31
0.0
  0
LINE
  5
36
330
1D
100
AcDbEntity
  8
0
100
AcDbLine
 10
15.774
 20
491.9615
 30
0.0
 11
18.558
 21
491.9615
 31
0.0
  0
LINE
  5
37
330
1D
100
AcDbEntity
  8
0
100
AcDbLine
 10
18.558
 20
491.9615
 30
0.0
 11
21.006
 21
491.9615
 31
0.0
  0
LINE
  5
39
330
1D
100
AcDbEntity
  8
0
100
AcDbLine
 10
21.1934
 20
130.2055
 30
0.0
 11
21.63676
 21
107.4365
 31
0.0
  0
LINE
  5
3A
330
1D
100
AcDbEntity
  8
0
100
AcDbLine
 10
21.63676
 20
107.4365
 30
0.0
 11
22.0734
 21
84.2855
 31
0.0
  0
LINE
  5
3B
330
1D
100
AcDbEntity
  8
0
100
AcDbLine
 10
22.0734
 20
84.2855
 30
0.0
 11
22.4565
 21
63.5505
 31
0.0
  0
LINE
  5
3C
330
1D
100
AcDbEntity
  8
0
100
AcDbLine
 10
22.4565
 20
63.5505
 30
0.0
 11
22.7497
 21
46.5445
 31
0.0
  0
LINE
  5
3D
330
1D
100
AcDbEntity
  8
0
100
AcDbLine
 10
23.2113
 20
47.3565
 30
0.0
 11
23.369
 21
64.3425
 31
0.0
  0
LINE
  5
3E
330
1D
100
AcDbEntity
  8
0
100
AcDbLine
 10
23.1028
 20
29.6905
 30
0.0
 11
23.227219330059
 21
14.94400615024
 31
0.0
  0
LINE
  5
3F
330
1D
100
AcDbEntity
  8
0
100
AcDbLine
 10
23.1028
 20
29.6905
 30
0.0
 11
23.2113
 21
47.3565
 31
0.0
  0
LINE
  5
40
330
1D
100
AcDbEntity
  8
0
100
AcDbLine
 10
22.7497
 20
46.5445
 30
0.0
 11
23.042
 21
28.8515
 31
0.0
  0
LINE
  5
41
330
1D
100
AcDbEntity
  8
0
100
AcDbLine
 10
23.042
 20
28.8515
 30
0.0
 11
23.135387004468
 21
22.225995955169
 31
0.0
  0
LINE
  5
42
330
1D
100
AcDbEntity
  8
0
100
AcDbLine
 10
23.228
 20
465.0861
 30
0.0
 11
23.7048
 21
442.3806
 31
0.0
  0
LINE
  5
43
330
1D
100
AcDbEntity
  8
0
100
AcDbLine
 10
23.227219330059
 20
14.94400615024
 30
0.0
 11
23.279
 21
10.0715
 31
0.0
  0
LINE
  5
44
330
1D
100
AcDbEntity
  8
0
100
AcDbLine
 10
23.227219330059
 20
14.94400615024
 30
0.0
 11
23.279
 21
10.0715
 31
0.0
  0
LINE
  5
45
330
1D
100
AcDbEntity
  8
0
100
AcDbLine
 10
23.6719
 20
85.0625
 30
0.0
 11
24.0483
 21
108.2015
 31
0.0
  0
LINE
  5
46
330
1D
100
AcDbEntity
  8
0
100
AcDbLine
 10
23.369
 20
64.3425
 30
0.0
 11
23.6719
 21
85.0625
 31
0.0
  0
LINE
  5
48
330
1D
100
AcDbEntity
  8
0
100
AcDbLine
 10
23.7048
 20
442.3806
 30
0.0
 11
24.2221
 21
417.9919
 31
0.0
  0
LINE
  5
49
330
1D
100
AcDbEntity
  8
0
100
AcDbLine
 10
23.279
 20
10.0715
 30
0.0
 11
23.4878
 21
8.1945
 31
0.0
  0
LINE
  5
4A
330
1D
100
AcDbEntity
  8
0
100
AcDbLine
 10
23.4878
 20
8.1945
 30
0.0
 11
24.0158
 21
5.0885
 31
0.0
  0
LINE
  5
4B
330
1D
100
AcDbEntity
  8
0
100
AcDbLine
 10
24.0158
 20
5.0885
 30
0.0
 11
25.7574
 21
2.5555
 31
0.0
  0
LINE
  5
4C
330
1D
100
AcDbEntity
  8
0
100
AcDbLine
 10
22.672916261418
 20
491.9615
 30
0.0
 11
22.878
 21
491.9615
 31
0.0
  0
LINE
  5
4D
330
1D
100
AcDbEntity
  8
0
100
AcDbLine
 10
22.672916261418
 20
491.9615
 30
0.0
 11
23.228
 21
465.0861
 31
0.0
  0
LINE
  5
4E
330
1D
100
AcDbEntity
  8
0
100
AcDbLine
 10
21.006
 20
491.9615
 30
0.0
 11
22.878
 21
491.9615
 31
0.0
  0
LINE
  5
4F
330
1D
100
AcDbEntity
  8
0
100
AcDbLine
 10
22.878
 20
491.9615
 30
0.0
 11
24.03
 21
491.9615
 31
0.0
  0
LINE
  5
50
330
1D
100
AcDbEntity
  8
0
100
AcDbLine
 10
24.4796
 20
130.9625
 30
0.0
 11
24.9435
 21
153.5655
 31
0.0
  0
LINE
  5
51
330
1D
100
AcDbEntity
  8
0
100
AcDbLine
 10
24.0483
 20
108.2015
 30
0.0
 11
24.4796
 21
130.9625
 31
0.0
  0
LINE
  5
52
330
1D
100
AcDbEntity
  8
0
100
AcDbLine
 10
24.2221
 20
417.9919
 30
0.0
 11
24.7484
 21
393.4095
 31
0.0
  0
LINE
  5
53
330
1D
100
AcDbEntity
  8
0
100
AcDbLine
 10
24.7484
 20
393.4095
 30
0.0
 11
25.2378
 21
370.9485
 31
0.0
  0
LINE
  5
54
330
1D
100
AcDbEntity
  8
0
100
AcDbLine
 10
24.03
 20
491.9615
 30
0.0
 11
24.462
 21
491.9615
 31
0.0
  0
LINE
  5
55
330
1D
100
AcDbEntity
  8
0
100
AcDbLine
 10
0.75
 20
492.5769
 30
0.0
 11
0.75
 21
527.3461
 31
0.0
  0
LINE
  5
56
330
1D
100
AcDbEntity
  8
0
100
AcDbLine
 10
0.75
 20
492.5769
 30
0.0
 11
1.038
 21
491.9615
 31
0.0
  0
LINE
  5
57
330
1D
100
AcDbEntity
  8
0
100
AcDbLine
 10
24.462
 20
491.9615
 30
0.0
 11
24.75
 21
492.5769
 31
0.0
  0
LINE
  5
58
330
1D
100
AcDbEntity
  8
0
100
AcDbLine
 10
34.4125
 20
0.5685
 30
0.0
 11
36.9531
 21
2.3085
 31
0.0
  0
LINE
  5
59
330
1D
100
AcDbEntity
  8
0
100
AcDbLine
 10
31.2998
 20
0.0385
 30
0.0
 11
34.4125
 21
0.5685
 31
0.0
  0
LINE
  5
5A
330
1D
100
AcDbEntity
  8
0
100
AcDbLine
 10
25.3797
 20
173.1975
 30
0.0
 11
25.8505
 21
192.6625
 31
0.0
  0
LINE
  5
5B
330
1D
100
AcDbEntity
  8
0
100
AcDbLine
 10
24.9435
 20
153.5655
 30
0.0
 11
25.3797
 21
173.1975
 31
0.0
  0
LINE
  5
5C
330
1D
100
AcDbEntity
  8
0
100
AcDbLine
 10
25.2378
 20
370.9485
 30
0.0
 11
25.6673
 21
351.6505
 31
0.0
  0
LINE
  5
5D
330
1D
100
AcDbEntity
  8
0
100
AcDbLine
 10
25.6673
 20
351.6505
 30
0.0
 11
29.343315104374
 21
312.754820105708
 31
0.0
  0
LINE
  5
5E
330
1D
100
AcDbEntity
  8
0
100
AcDbLine
 10
25.6673
 20
351.6505
 30
0.0
 11
29.343315104374
 21
312.754820105708
 31
0.0
  0
LINE
  5
5F
330
1D
100
AcDbEntity
  8
0
100
AcDbLine
 10
25.8505
 20
192.6625
 30
0.0
 11
26.4227
 21
214.7425
 31
0.0
  0
LINE
  5
60
330
1D
100
AcDbEntity
  8
0
100
AcDbLine
 10
26.4227
 20
214.7425
 30
0.0
 11
27.0281
 21
236.6615
 31
0.0
  0
LINE
  5
61
330
1D
100
AcDbEntity
  8
0
100
AcDbLine
 10
27.0281
 20
236.6615
 30
0.0
 11
27.6925
 21
258.4065
 31
0.0
  0
LINE
  5
62
330
1D
100
AcDbEntity
  8
0
100
AcDbLine
 10
27.6925
 20
258.4065
 30
0.0
 11
28.2509
 21
278.5775
 31
0.0
  0
LINE
  5
66
330
1D
100
AcDbEntity
  8
0
100
AcDbLine
 10
28.2509
 20
278.5775
 30
0.0
 11
28.9432
 21
299.7435
 31
0.0
  0
LINE
  5
6E
330
1D
100
AcDbEntity
  8
0
100
AcDbLine
 10
32.8735
 20
446.0134
 30
0.0
 11
35.385003910919
 21
518.9615
 31
0.0
  0
LINE
  5
6F
330
1D
100
AcDbEntity
  8
0
100
AcDbLine
 10
32.0827
 20
413.2305
 30
0.0
 11
32.8735
 21
446.0134
 31
0.0
  0
LINE
  5
70
330
1D
100
AcDbEntity
  8
0
100
AcDbLine
 10
31.5039
 20
390.5195
 30
0.0
 11
32.0827
 21
413.2305
 31
0.0
  0
LINE
  5
71
330
1D
100
AcDbEntity
  8
0
100
AcDbLine
 10
30.8604
 20
366.1215
 30
0.0
 11
31.5039
 21
390.5195
 31
0.0
  0
LINE
  5
72
330
1D
100
AcDbEntity
  8
0
100
AcDbLine
 10
30.1885
 20
341.5295
 30
0.0
 11
30.8604
 21
366.1215
 31
0.0
  0
LINE
  5
73
330
1D
100
AcDbEntity
  8
0
100
AcDbLine
 10
29.5371
 20
319.0565
 30
0.0
 11
30.1885
 21
341.5295
 31
0.0
  0
LINE
  5
74
330
1D
100
AcDbEntity
  8
0
100
AcDbLine
 10
28.9432
 20
299.7435
 30
0.0
 11
29.5371
 21
319.0565
 31
0.0
  0
LINE
  5
76
330
1D
100
AcDbEntity
  8
0
100
AcDbLine
 10
39.2988
 20
10.6125
 30
0.0
 11
39.4819
 21
7.8405
 31
0.0
  0
LINE
  5
77
330
1D
100
AcDbEntity
  8
0
100
AcDbLine
 10
39.0969
 20
29.3355
 30
0.0
 11
39.1439
 21
18.5715
 31
0.0
  0
LINE
  5
78
330
1D
100
AcDbEntity
  8
0
100
AcDbLine
 10
39.0969
 20
29.3355
 30
0.0
 11
39.2053
 21
47.0035
 31
0.0
  0
LINE
  5
79
330
1D
100
AcDbEntity
  8
0
100
AcDbLine
 10
40.9376
 20
153.2125
 30
0.0
 11
41.374
 21
172.8435
 31
0.0
  0
LINE
  5
7A
330
1D
100
AcDbEntity
  8
0
100
AcDbLine
 10
40.4736
 20
130.6095
 30
0.0
 11
40.9376
 21
153.2125
 31
0.0
  0
LINE
  5
7B
330
1D
100
AcDbEntity
  8
0
100
AcDbLine
 10
40.0426
 20
107.8475
 30
0.0
 11
40.4736
 21
130.6095
 31
0.0
  0
LINE
  5
7C
330
1D
100
AcDbEntity
  8
0
100
AcDbLine
 10
39.6659
 20
84.7095
 30
0.0
 11
40.0426
 21
107.8475
 31
0.0
  0
LINE
  5
7D
330
1D
100
AcDbEntity
  8
0
100
AcDbLine
 10
39.3631
 20
63.9895
 30
0.0
 11
39.6659
 21
84.7095
 31
0.0
  0
LINE
  5
7E
330
1D
100
AcDbEntity
  8
0
100
AcDbLine
 10
39.2053
 20
47.0035
 30
0.0
 11
39.3631
 21
63.9895
 31
0.0
  0
LINE
  5
7F
330
1D
100
AcDbEntity
  8
0
100
AcDbLine
 10
39.1439
 20
18.5715
 30
0.0
 11
39.2988
 21
10.6125
 31
0.0
  0
LINE
  5
80
330
1D
100
AcDbEntity
  8
0
100
AcDbLine
 10
41.374
 20
172.8435
 30
0.0
 11
41.8445
 21
192.3085
 31
0.0
  0
LINE
  5
82
330
1D
100
AcDbEntity
  8
0
100
AcDbLine
 10
41.8445
 20
192.3085
 30
0.0
 11
42.4169
 21
214.3885
 31
0.0
  0
LINE
  5
83
330
1D
100
AcDbEntity
  8
0
100
AcDbLine
 10
42.4169
 20
214.3885
 30
0.0
 11
43.0218
 21
236.3085
 31
0.0
  0
LINE
  5
84
330
1D
100
AcDbEntity
  8
0
100
AcDbLine
 10
43.0218
 20
236.3085
 30
0.0
 11
43.6864
 21
258.0525
 31
0.0
  0
LINE
  5
87
330
1D
100
AcDbEntity
  8
0
100
AcDbLine
 10
44.309
 20
277.2275
 30
0.0
 11
44.9368
 21
299.3895
 31
0.0
  0
LINE
  5
89
330
1D
100
AcDbEntity
  8
0
100
AcDbLine
 10
43.6864
 20
258.0525
 30
0.0
 11
44.309
 21
277.2275
 31
0.0
  0
LINE
  5
8B
330
1D
100
AcDbEntity
  8
0
100
AcDbLine
 10
48.8673
 20
445.6593
 30
0.0
 11
51.281849928563
 21
518.9615
 31
0.0
  0
LINE
  5
8C
330
1D
100
AcDbEntity
  8
0
100
AcDbLine
 10
48.0774
 20
412.8775
 30
0.0
 11
48.8673
 21
445.6593
 31
0.0
  0
LINE
  5
8D
330
1D
100
AcDbEntity
  8
0
100
AcDbLine
 10
47.4981
 20
390.1655
 30
0.0
 11
48.0774
 21
412.8775
 31
0.0
  0
LINE
  5
8E
330
1D
100
AcDbEntity
  8
0
100
AcDbLine
 10
46.8549
 20
365.7685
 30
0.0
 11
47.4981
 21
390.1655
 31
0.0
  0
LINE
  5
8F
330
1D
100
AcDbEntity
  8
0
100
AcDbLine
 10
46.1822
 20
341.1755
 30
0.0
 11
46.8549
 21
365.7685
 31
0.0
  0
LINE
  5
90
330
1D
100
AcDbEntity
  8
0
100
AcDbLine
 10
45.5315
 20
318.7025
 30
0.0
 11
46.1822
 21
341.1755
 31
0.0
  0
LINE
  5
91
330
1D
100
AcDbEntity
  8
0
100
AcDbLine
 10
44.9368
 20
299.3895
 30
0.0
 11
45.5315
 21
318.7025
 31
0.0
  0
LINE
  5
97
330
1D
100
AcDbEntity
  8
0
100
AcDbLine
 10
38.8105
 20
4.7615
 30
0.0
 11
39.4819
 21
7.8405
 31
0.0
  0
LINE
  5
98
330
1D
100
AcDbEntity
  8
0
100
AcDbLine
 10
36.9531
 20
2.3085
 30
0.0
 11
38.8105
 21
4.7615
 31
0.0
  0
LINE
  5
99
330
1D
100
AcDbEntity
  8
0
100
AcDbLine
 10
25.7574
 20
2.5555
 30
0.0
 11
28.2148
 21
0.7055
 31
0.0
  0
LINE
  5
9A
330
1D
100
AcDbEntity
  8
0
100
AcDbLine
 10
28.2148
 20
0.7055
 30
0.0
 11
31.2998
 21
0.0385
 31
0.0
  0
LINE
  5
9B
330
1D
100
AcDbEntity
  8
0
100
AcDbLine
 10
24.75
 20
492.5769
 30
0.0
 11
24.75
 21
527.3461
 31
0.0
  0
LINE
  5
9C
330
1D
100
AcDbEntity
  8
0
100
AcDbLine
 10
70.8797
 20
517.99314
 30
0.0
 11
71.235
 21
517.628394
 31
0.0
  0
LINE
  5
9D
330
1D
100
AcDbEntity
  8
0
100
AcDbLine
 10
70.8797
 20
517.99312
 30
0.0
 11
71.235
 21
517.628394
 31
0.0
  0
LINE
  5
9E
330
1D
100
AcDbEntity
  8
0
100
AcDbLine
 10
71.235
 20
517.628394
 30
0.0
 11
71.7238
 21
517.485902
 31
0.0
  0
LINE
  5
A5
330
1D
100
AcDbEntity
  8
0
100
AcDbLine
 10
70.75
 20
518.63868
 30
0.0
 11
70.75
 21
518.48557
 31
0.0
  0
LINE
  5
A6
330
1D
100
AcDbEntity
  8
0
100
AcDbLine
 10
70.75
 20
518.65489
 30
0.0
 11
70.75
 21
518.95392
 31
0.0
  0
LINE
  5
A7
330
1D
100
AcDbEntity
  8
0
100
AcDbLine
 10
70.75
 20
518.9305
 30
0.0
 11
70.75
 21
518.63868
 31
0.0
  0
LINE
  5
A8
330
1D
100
AcDbEntity
  8
0
100
AcDbLine
 10
70.75
 20
518.92968
 30
0.0
 11
70.75
 21
519.48522
 31
0.0
  0
LINE
  5
A9
330
1D
100
AcDbEntity
  8
0
100
AcDbLine
 10
70.75
 20
518.6386
 30
0.0
 11
70.75
 21
518.92968
 31
0.0
  0
LINE
  5
AA
330
1D
100
AcDbEntity
  8
0
100
AcDbLine
 10
70.75
 20
518.48558
 30
0.0
 11
70.75
 21
518.6386
 31
0.0
  0
LINE
  5
AB
330
1D
100
AcDbEntity
  8
0
100
AcDbLine
 10
70.75
 20
518.48557
 30
0.0
 11
70.8797
 21
517.99314
 31
0.0
  0
LINE
  5
AC
330
1D
100
AcDbEntity
  8
0
100
AcDbLine
 10
70.75
 20
518.48557
 30
0.0
 11
70.75
 21
518.65489
 31
0.0
  0
LINE
  5
AD
330
1D
100
AcDbEntity
  8
0
100
AcDbLine
 10
70.75
 20
518.48554
 30
0.0
 11
70.8797
 21
517.99312
 31
0.0
  0
LINE
  5
AE
330
1D
100
AcDbEntity
  8
0
100
AcDbLine
 10
70.75
 20
518.65407
 30
0.0
 11
70.75
 21
518.48554
 31
0.0
  0
LINE
  5
AF
330
1D
100
AcDbEntity
  8
0
100
AcDbLine
 10
40.726
 20
518.9615
 30
0.0
 11
43.75
 21
518.9615
 31
0.0
  0
LINE
  5
B0
330
1D
100
AcDbEntity
  8
0
100
AcDbLine
 10
37.942
 20
518.9615
 30
0.0
 11
40.726
 21
518.9615
 31
0.0
  0
LINE
  5
B1
330
1D
100
AcDbEntity
  8
0
100
AcDbLine
 10
35.494
 20
518.9615
 30
0.0
 11
37.942
 21
518.9615
 31
0.0
  0
LINE
  5
B2
330
1D
100
AcDbEntity
  8
0
100
AcDbLine
 10
33.622
 20
518.9615
 30
0.0
 11
35.494
 21
518.9615
 31
0.0
  0
LINE
  5
B3
330
1D
100
AcDbEntity
  8
0
100
AcDbLine
 10
33.622
 20
518.9615
 30
0.0
 11
35.385003910919
 21
518.9615
 31
0.0
  0
LINE
  5
B4
330
1D
100
AcDbEntity
  8
0
100
AcDbLine
 10
32.47
 20
518.9615
 30
0.0
 11
33.622
 21
518.9615
 31
0.0
  0
LINE
  5
B5
330
1D
100
AcDbEntity
  8
0
100
AcDbLine
 10
32.038
 20
518.9615
 30
0.0
 11
32.47
 21
518.9615
 31
0.0
  0
LINE
  5
B6
330
1D
100
AcDbEntity
  8
0
100
AcDbLine
 10
43.75
 20
518.9615
 30
0.0
 11
46.774
 21
518.9615
 31
0.0
  0
LINE
  5
B7
330
1D
100
AcDbEntity
  8
0
100
AcDbLine
 10
46.774
 20
518.9615
 30
0.0
 11
49.558
 21
518.9615
 31
0.0
  0
LINE
  5
B8
330
1D
100
AcDbEntity
  8
0
100
AcDbLine
 10
51.281849928563
 20
518.9615
 30
0.0
 11
52.006
 21
518.9615
 31
0.0
  0
LINE
  5
B9
330
1D
100
AcDbEntity
  8
0
100
AcDbLine
 10
49.558
 20
518.9615
 30
0.0
 11
52.006
 21
518.9615
 31
0.0
  0
LINE
  5
BA
330
1D
100
AcDbEntity
  8
0
100
AcDbLine
 10
52.006
 20
518.9615
 30
0.0
 11
53.878
 21
518.9615
 31
0.0
  0
LINE
  5
BB
330
1D
100
AcDbEntity
  8
0
100
AcDbLine
 10
53.878
 20
518.9615
 30
0.0
 11
55.03
 21
518.9615
 31
0.0
  0
LINE
  5
BC
330
1D
100
AcDbEntity
  8
0
100
AcDbLine
 10
55.03
 20
518.9615
 30
0.0
 11
55.462
 21
518.9615
 31
0.0
  0
LINE
  5
BD
330
1D
100
AcDbEntity
  8
0
100
AcDbLine
 10
55.462
 20
518.9615
 30
0.0
 11
55.75
 21
519.57689
 31
0.0
  0
LINE
  5
BE
330
1D
100
AcDbEntity
  8
0
100
AcDbLine
 10
1.038
 20
527.9615
 30
0.0
 11
1.47
 21
527.9615
 31
0.0
  0
LINE
  5
BF
330
1D
100
AcDbEntity
  8
0
100
AcDbLine
 10
0.75
 20
527.3461
 30
0.0
 11
1.038
 21
527.9615
 31
0.0
  0
LINE
  5
C0
330
1D
100
AcDbEntity
  8
0
100
AcDbLine
 10
2.622
 20
527.9615
 30
0.0
 11
4.494
 21
527.9615
 31
0.0
  0
LINE
  5
C1
330
1D
100
AcDbEntity
  8
0
100
AcDbLine
 10
1.47
 20
527.9615
 30
0.0
 11
2.622
 21
527.9615
 31
0.0
  0
LINE
  5
C2
330
1D
100
AcDbEntity
  8
0
100
AcDbLine
 10
6.942
 20
527.9615
 30
0.0
 11
9.726
 21
527.9615
 31
0.0
  0
LINE
  5
C3
330
1D
100
AcDbEntity
  8
0
100
AcDbLine
 10
4.494
 20
527.9615
 30
0.0
 11
6.942
 21
527.9615
 31
0.0
  0
LINE
  5
C4
330
1D
100
AcDbEntity
  8
0
100
AcDbLine
 10
4.75
 20
528.9615
 30
0.0
 11
7.25
 21
528.9615
 31
0.0
  0
LINE
  5
C5
330
1D
100
AcDbEntity
  8
0
100
AcDbLine
 10
9.726
 20
527.9615
 30
0.0
 11
12.75
 21
527.9615
 31
0.0
  0
LINE
  5
C6
330
1D
100
AcDbEntity
  8
0
100
AcDbLine
 10
7.25
 20
528.9615
 30
0.0
 11
10.15
 21
528.9615
 31
0.0
  0
LINE
  5
C7
330
1D
100
AcDbEntity
  8
0
100
AcDbLine
 10
10.15
 20
528.9615
 30
0.0
 11
13.25
 21
528.9615
 31
0.0
  0
LINE
  5
C8
330
1D
100
AcDbEntity
  8
0
100
AcDbLine
 10
2.85
 20
528.9615
 30
0.0
 11
4.75
 21
528.9615
 31
0.0
  0
LINE
  5
C9
330
1D
100
AcDbEntity
  8
0
100
AcDbLine
 10
1.65
 20
528.9615
 30
0.0
 11
2.85
 21
528.9615
 31
0.0
  0
LINE
  5
CA
330
1D
100
AcDbEntity
  8
0
100
AcDbLine
 10
1.25
 20
528.9615
 30
0.0
 11
2.25
 21
527.9615
 31
0.0
  0
LINE
  5
CB
330
1D
100
AcDbEntity
  8
0
100
AcDbLine
 10
1.25
 20
528.9615
 30
0.0
 11
1.25
 21
599.9615
 31
0.0
  0
LINE
  5
CC
330
1D
100
AcDbEntity
  8
0
100
AcDbLine
 10
1.25
 20
528.9615
 30
0.0
 11
1.65
 21
528.9615
 31
0.0
  0
LINE
  5
CD
330
1D
100
AcDbEntity
  8
0
100
AcDbLine
 10
11.749979
 20
554.1114
 30
0.0
 11
13.75
 21
554.1114
 31
0.0
  0
LINE
  5
CE
330
1D
100
AcDbEntity
  8
0
100
AcDbLine
 10
11.749994
 20
554.1114
 30
0.0
 11
70.75
 21
554.1114
 31
0.0
  0
LINE
  5
CF
330
1D
100
AcDbEntity
  8
0
100
AcDbLine
 10
11.749994
 20
554.1114
 30
0.0
 11
13.75043
 21
554.1114
 31
0.0
  0
LINE
  5
D0
330
1D
100
AcDbEntity
  8
0
100
AcDbLine
 10
11.749994
 20
554.1114
 30
0.0
 11
70.75
 21
554.1114
 31
0.0
  0
LINE
  5
D1
330
1D
100
AcDbEntity
  8
0
100
AcDbLine
 10
11.840176
 20
554.1114
 30
0.0
 11
13.25468
 21
554.1114
 31
0.0
  0
LINE
  5
D2
330
1D
100
AcDbEntity
  8
0
100
AcDbLine
 10
12.75
 20
527.9615
 30
0.0
 11
15.774
 21
527.9615
 31
0.0
  0
LINE
  5
D3
330
1D
100
AcDbEntity
  8
0
100
AcDbLine
 10
13.25
 20
528.9615
 30
0.0
 11
16.35
 21
528.9615
 31
0.0
  0
LINE
  5
D4
330
1D
100
AcDbEntity
  8
0
100
AcDbLine
 10
11.84028
 20
554.1114
 30
0.0
 11
13.25465
 21
554.1114
 31
0.0
  0
LINE
  5
D5
330
1D
100
AcDbEntity
  8
0
100
AcDbLine
 10
11.836779
 20
554.1114
 30
0.0
 11
13.43691
 21
554.1114
 31
0.0
  0
LINE
  5
D6
330
1D
100
AcDbEntity
  8
0
100
AcDbLine
 10
11.836779
 20
554.1114
 30
0.0
 11
13.43697
 21
554.1114
 31
0.0
  0
LINE
  5
D7
330
1D
100
AcDbEntity
  8
0
100
AcDbLine
 10
13.75
 20
554.1114
 30
0.0
 11
15.60782
 21
554.1114
 31
0.0
  0
LINE
  5
D8
330
1D
100
AcDbEntity
  8
0
100
AcDbLine
 10
13.75043
 20
554.1114
 30
0.0
 11
15.60771
 21
554.1114
 31
0.0
  0
LINE
  5
D9
330
1D
100
AcDbEntity
  8
0
100
AcDbLine
 10
13.25468
 20
554.1114
 30
0.0
 11
14.67243
 21
554.1114
 31
0.0
  0
LINE
  5
DA
330
1D
100
AcDbEntity
  8
0
100
AcDbLine
 10
14.67243
 20
554.1114
 30
0.0
 11
16.07808
 21
554.1114
 31
0.0
  0
LINE
  5
DB
330
1D
100
AcDbEntity
  8
0
100
AcDbLine
 10
13.43697
 20
554.1114
 30
0.0
 11
15.03855
 21
554.1114
 31
0.0
  0
LINE
  5
DC
330
1D
100
AcDbEntity
  8
0
100
AcDbLine
 10
13.25465
 20
554.1114
 30
0.0
 11
14.67253
 21
554.1114
 31
0.0
  0
LINE
  5
DD
330
1D
100
AcDbEntity
  8
0
100
AcDbLine
 10
13.43691
 20
554.1114
 30
0.0
 11
15.03868
 21
554.1114
 31
0.0
  0
LINE
  5
DE
330
1D
100
AcDbEntity
  8
0
100
AcDbLine
 10
15.774
 20
527.9615
 30
0.0
 11
18.558
 21
527.9615
 31
0.0
  0
LINE
  5
DF
330
1D
100
AcDbEntity
  8
0
100
AcDbLine
 10
15.60782
 20
554.1114
 30
0.0
 11
17.43023
 21
554.1114
 31
0.0
  0
LINE
  5
E0
330
1D
100
AcDbEntity
  8
0
100
AcDbLine
 10
15.60771
 20
554.1114
 30
0.0
 11
17.42988
 21
554.1114
 31
0.0
  0
LINE
  5
E1
330
1D
100
AcDbEntity
  8
0
100
AcDbLine
 10
16.35
 20
528.9615
 30
0.0
 11
19.25
 21
528.9615
 31
0.0
  0
LINE
  5
E2
330
1D
100
AcDbEntity
  8
0
100
AcDbLine
 10
16.07808
 20
554.1114
 30
0.0
 11
17.45614
 21
554.1114
 31
0.0
  0
LINE
  5
E3
330
1D
100
AcDbEntity
  8
0
100
AcDbLine
 10
16.61847
 20
554.1114
 30
0.0
 11
18.15308
 21
554.1114
 31
0.0
  0
LINE
  5
E4
330
1D
100
AcDbEntity
  8
0
100
AcDbLine
 10
15.03855
 20
554.1114
 30
0.0
 11
16.61847
 21
554.1114
 31
0.0
  0
LINE
  5
E5
330
1D
100
AcDbEntity
  8
0
100
AcDbLine
 10
16.07802
 20
554.1114
 30
0.0
 11
17.45617
 21
554.1114
 31
0.0
  0
LINE
  5
E6
330
1D
100
AcDbEntity
  8
0
100
AcDbLine
 10
14.67253
 20
554.1114
 30
0.0
 11
16.07802
 21
554.1114
 31
0.0
  0
LINE
  5
E8
330
1D
100
AcDbEntity
  8
0
100
AcDbLine
 10
10.13195
 20
554.9358
 30
0.0
 11
10.57441
 21
554.4934
 31
0.0
  0
LINE
  5
EB
330
1D
100
AcDbEntity
  8
0
100
AcDbLine
 10
9.84789
 20
555.4934
 30
0.0
 11
10.13195
 21
554.9358
 31
0.0
  0
LINE
  5
ED
330
1D
100
AcDbEntity
  8
0
100
AcDbLine
 10
9.65824
 20
591.9856
 30
0.0
 11
9.74999
 21
591.697
 31
0.0
  0
LINE
  5
EE
330
1D
100
AcDbEntity
  8
0
100
AcDbLine
 10
9.06825
 20
592.3795
 30
0.0
 11
9.33771707512
 21
592.216458497602
 31
0.0
  0
LINE
  5
EF
330
1D
100
AcDbEntity
  8
0
100
AcDbLine
 10
9.33771707512
 20
592.216458497602
 30
0.0
 11
9.65824
 21
591.9856
 31
0.0
  0
LINE
  5
F1
330
1D
100
AcDbEntity
  8
0
100
AcDbLine
 10
9.65824
 20
591.9859
 30
0.0
 11
9.75001
 21
591.6972
 31
0.0
  0
LINE
  5
F2
330
1D
100
AcDbEntity
  8
0
100
AcDbLine
 10
9.74999
 20
556.1114
 30
0.0
 11
9.84789
 21
555.4934
 31
0.0
  0
LINE
  5
F4
330
1D
100
AcDbEntity
  8
0
100
AcDbLine
 10
9.74999
 20
556.1114
 30
0.0
 11
9.74999
 21
591.697
 31
0.0
  0
LINE
  5
F5
330
1D
100
AcDbEntity
  8
0
100
AcDbLine
 10
8.833
 20
592.7125
 30
0.0
 11
9.06825
 21
592.3795
 31
0.0
  0
LINE
  5
F8
330
1D
100
AcDbEntity
  8
0
100
AcDbLine
 10
8.75
 20
593.1114
 30
0.0
 11
8.833
 21
592.7125
 31
0.0
  0
LINE
  5
F9
330
1D
100
AcDbEntity
  8
0
100
AcDbLine
 10
8.75
 20
593.1114
 30
0.0
 11
8.75
 21
602.1114
 31
0.0
  0
LINE
  5
FA
330
1D
100
AcDbEntity
  8
0
100
AcDbLine
 10
8.75
 20
593.1114
 30
0.0
 11
8.75
 21
598.6114
 31
0.0
  0
LINE
  5
FF
330
1D
100
AcDbEntity
  8
0
100
AcDbLine
 10
9.75001
 20
556.1114
 30
0.0
 11
9.75001
 21
591.6972
 31
0.0
  0
LINE
  5
10B
330
1D
100
AcDbEntity
  8
0
100
AcDbLine
 10
10.13197
 20
554.9358
 30
0.0
 11
10.57444
 21
554.4934
 31
0.0
  0
LINE
  5
110
330
1D
100
AcDbEntity
  8
0
100
AcDbLine
 10
1.03
 20
599.9615
 30
0.0
 11
2.278
 21
599.9615
 31
0.0
  0
LINE
  5
111
330
1D
100
AcDbEntity
  8
0
100
AcDbLine
 10
0.562
 20
599.9615
 30
0.0
 11
1.03
 21
599.9615
 31
0.0
  0
LINE
  5
112
330
1D
100
AcDbEntity
  8
0
100
AcDbLine
 10
4.306
 20
599.9615
 30
0.0
 11
6.958
 21
599.9615
 31
0.0
  0
LINE
  5
113
330
1D
100
AcDbEntity
  8
0
100
AcDbLine
 10
2.278
 20
599.9615
 30
0.0
 11
4.306
 21
599.9615
 31
0.0
  0
LINE
  5
114
330
1D
100
AcDbEntity
  8
0
100
AcDbLine
 10
6.958
 20
599.9615
 30
0.0
 11
8.75
 21
599.9615
 31
0.0
  0
LINE
  5
11A
330
1D
100
AcDbEntity
  8
0
100
AcDbLine
 10
0.25
 20
600.0299
 30
0.0
 11
0.562
 21
599.9615
 31
0.0
  0
LINE
  5
11B
330
1D
100
AcDbEntity
  8
0
100
AcDbLine
 10
0.25
 20
600.0299
 30
0.0
 11
0.25
 21
603.8931
 31
0.0
  0
LINE
  5
11C
330
1D
100
AcDbEntity
  8
0
100
AcDbLine
 10
8.75
 20
598.6114
 30
0.0
 11
8.75
 21
593.1114
 31
0.0
  0
LINE
  5
11D
330
1D
100
AcDbEntity
  8
0
100
AcDbLine
 10
8.75
 20
598.6114
 30
0.0
 11
8.75
 21
602.1114
 31
0.0
  0
LINE
  5
11F
330
1D
100
AcDbEntity
  8
0
100
AcDbLine
 10
8.75
 20
602.1114
 30
0.0
 11
8.77209
 21
602.4079
 31
0.0
  0
LINE
  5
120
330
1D
100
AcDbEntity
  8
0
100
AcDbLine
 10
8.75
 20
602.1114
 30
0.0
 11
8.75
 21
593.1114
 31
0.0
  0
LINE
  5
121
330
1D
100
AcDbEntity
  8
0
100
AcDbLine
 10
8.75
 20
602.1114
 30
0.0
 11
8.75
 21
598.6114
 31
0.0
  0
LINE
  5
122
330
1D
100
AcDbEntity
  8
0
100
AcDbLine
 10
8.75
 20
602.1114
 30
0.0
 11
8.77225
 21
602.4079
 31
0.0
  0
LINE
  5
124
330
1D
100
AcDbEntity
  8
0
100
AcDbLine
 10
1.03
 20
603.9615
 30
0.0
 11
2.278
 21
603.9615
 31
0.0
  0
LINE
  5
125
330
1D
100
AcDbEntity
  8
0
100
AcDbLine
 10
0.562
 20
603.9615
 30
0.0
 11
1.03
 21
603.9615
 31
0.0
  0
LINE
  5
126
330
1D
100
AcDbEntity
  8
0
100
AcDbLine
 10
0.25
 20
603.8931
 30
0.0
 11
0.25
 21
600.0299
 31
0.0
  0
LINE
  5
128
330
1D
100
AcDbEntity
  8
0
100
AcDbLine
 10
0.25
 20
603.8931
 30
0.0
 11
0.562
 21
603.9615
 31
0.0
  0
LINE
  5
12B
330
1D
100
AcDbEntity
  8
0
100
AcDbLine
 10
6.958
 20
603.9615
 30
0.0
 11
9.974
 21
603.9615
 31
0.0
  0
LINE
  5
12C
330
1D
100
AcDbEntity
  8
0
100
AcDbLine
 10
4.306
 20
603.9615
 30
0.0
 11
6.958
 21
603.9615
 31
0.0
  0
LINE
  5
12D
330
1D
100
AcDbEntity
  8
0
100
AcDbLine
 10
2.278
 20
603.9615
 30
0.0
 11
4.306
 21
603.9615
 31
0.0
  0
LINE
  5
12F
330
1D
100
AcDbEntity
  8
0
100
AcDbLine
 10
1.25
 20
603.9615
 30
0.0
 11
1.25
 21
610.9618
 31
0.0
  0
LINE
  5
131
330
1D
100
AcDbEntity
  8
0
100
AcDbLine
 10
8.77209
 20
602.4079
 30
0.0
 11
8.8479
 21
602.7294
 31
0.0
  0
LINE
  5
132
330
1D
100
AcDbEntity
  8
0
100
AcDbLine
 10
8.89831
 20
602.8669
 30
0.0
 11
9.12696
 21
603.2801
 31
0.0
  0
LINE
  5
135
330
1D
100
AcDbEntity
  8
0
100
AcDbLine
 10
8.8479
 20
602.7294
 30
0.0
 11
8.8982
 21
602.8669
 31
0.0
  0
LINE
  5
139
330
1D
100
AcDbEntity
  8
0
100
AcDbLine
 10
9.12696
 20
603.2801
 30
0.0
 11
9.44769
 21
603.6294
 31
0.0
  0
LINE
  5
144
330
1D
100
AcDbEntity
  8
0
100
AcDbLine
 10
9.44785
 20
603.6294
 30
0.0
 11
9.57441
 21
603.7294
 31
0.0
  0
LINE
  5
149
330
1D
100
AcDbEntity
  8
0
100
AcDbLine
 10
9.57441
 20
603.7294
 30
0.0
 11
9.83983
 21
603.8923
 31
0.0
  0
LINE
  5
14C
330
1D
100
AcDbEntity
  8
0
100
AcDbLine
 10
9.974
 20
603.9615
 30
0.0
 11
10.026665410037
 21
603.9615
 31
0.0
  0
LINE
  5
14D
330
1D
100
AcDbEntity
  8
0
100
AcDbLine
 10
9.974
 20
603.9615
 30
0.0
 11
10.026665410037
 21
603.9615
 31
0.0
  0
LINE
  5
152
330
1D
100
AcDbEntity
  8
0
100
AcDbLine
 10
9.83983
 20
603.8923
 30
0.0
 11
10.13198
 21
604.0135
 31
0.0
  0
LINE
  5
155
330
1D
100
AcDbEntity
  8
0
100
AcDbLine
 10
10.13198
 20
604.0135
 30
0.0
 11
10.28102
 21
604.0556
 31
0.0
  0
LINE
  5
15A
330
1D
100
AcDbEntity
  8
0
100
AcDbLine
 10
4.4515
 20
610.9617
 30
0.0
 11
4.74207
 21
611.4617
 31
0.0
  0
LINE
  5
15B
330
1D
100
AcDbEntity
  8
0
100
AcDbLine
 10
4.4515
 20
610.9617
 30
0.0
 11
4.75
 21
610.9617
 31
0.0
  0
LINE
  5
15C
330
1D
100
AcDbEntity
  8
0
100
AcDbLine
 10
3.87017
 20
610.9617
 30
0.0
 11
4.4515
 21
610.9617
 31
0.0
  0
LINE
  5
15D
330
1D
100
AcDbEntity
  8
0
100
AcDbLine
 10
3.87017
 20
610.9617
 30
0.0
 11
4.4831
 21
610.9617
 31
0.0
  0
LINE
  5
15E
330
1D
100
AcDbEntity
  8
0
100
AcDbLine
 10
1.86
 20
610.9618
 30
0.0
 11
2.01293
 21
611.4617
 31
0.0
  0
LINE
  5
15F
330
1D
100
AcDbEntity
  8
0
100
AcDbLine
 10
1.86
 20
610.9618
 30
0.0
 11
2.6474
 21
610.9617
 31
0.0
  0
LINE
  5
160
330
1D
100
AcDbEntity
  8
0
100
AcDbLine
 10
1.5541
 20
610.9617
 30
0.0
 11
1.86
 21
610.9618
 31
0.0
  0
LINE
  5
161
330
1D
100
AcDbEntity
  8
0
100
AcDbLine
 10
1.5541
 20
610.9617
 30
0.0
 11
2.208956091205
 21
610.9617
 31
0.0
  0
LINE
  5
162
330
1D
100
AcDbEntity
  8
0
100
AcDbLine
 10
0.7502
 20
617.7615
 30
0.0
 11
1.25
 21
617.7615
 31
0.0
  0
LINE
  5
163
330
1D
100
AcDbEntity
  8
0
100
AcDbLine
 10
0.7502
 20
617.7615
 30
0.0
 11
1.25
 21
617.7615
 31
0.0
  0
LINE
  5
164
330
1D
100
AcDbEntity
  8
0
100
AcDbLine
 10
0.7502
 20
617.7615
 30
0.0
 11
0.7502
 21
618.2615
 31
0.0
  0
LINE
  5
165
330
1D
100
AcDbEntity
  8
0
100
AcDbLine
 10
0.7502
 20
618.2615
 30
0.0
 11
0.7502
 21
617.7615
 31
0.0
  0
LINE
  5
166
330
1D
100
AcDbEntity
  8
0
100
AcDbLine
 10
0.7502
 20
618.2615
 30
0.0
 11
1.4012
 21
618.2615
 31
0.0
  0
LINE
  5
167
330
1D
100
AcDbEntity
  8
0
100
AcDbLine
 10
0.7502
 20
618.2615
 30
0.0
 11
0.7502
 21
619.2615
 31
0.0
  0
LINE
  5
168
330
1D
100
AcDbEntity
  8
0
100
AcDbLine
 10
0.7502
 20
624.5615
 30
0.0
 11
1.25
 21
624.5615
 31
0.0
  0
LINE
  5
169
330
1D
100
AcDbEntity
  8
0
100
AcDbLine
 10
0.7502
 20
624.5615
 30
0.0
 11
1.25
 21
624.5615
 31
0.0
  0
LINE
  5
16A
330
1D
100
AcDbEntity
  8
0
100
AcDbLine
 10
0.7502
 20
624.5615
 30
0.0
 11
0.7502
 21
625.0615
 31
0.0
  0
LINE
  5
16B
330
1D
100
AcDbEntity
  8
0
100
AcDbLine
 10
0.7502
 20
625.0615
 30
0.0
 11
0.7502
 21
624.5615
 31
0.0
  0
LINE
  5
16C
330
1D
100
AcDbEntity
  8
0
100
AcDbLine
 10
0.7502
 20
625.0615
 30
0.0
 11
1.25
 21
625.0615
 31
0.0
  0
LINE
  5
16D
330
1D
100
AcDbEntity
  8
0
100
AcDbLine
 10
0.7502
 20
625.0615
 30
0.0
 11
0.7502
 21
626.0615
 31
0.0
  0
LINE
  5
16E
330
1D
100
AcDbEntity
  8
0
100
AcDbLine
 10
0.7502
 20
625.0615
 30
0.0
 11
1.25
 21
625.0615
 31
0.0
  0
LINE
  5
16F
330
1D
100
AcDbEntity
  8
0
100
AcDbLine
 10
0.7502
 20
631.3615
 30
0.0
 11
0.7502
 21
631.8615
 31
0.0
  0
LINE
  5
170
330
1D
100
AcDbEntity
  8
0
100
AcDbLine
 10
0.7502
 20
631.3615
 30
0.0
 11
1.25
 21
631.3615
 31
0.0
  0
LINE
  5
171
330
1D
100
AcDbEntity
  8
0
100
AcDbLine
 10
0.7502
 20
631.3615
 30
0.0
 11
1.25
 21
631.3615
 31
0.0
  0
LINE
  5
172
330
1D
100
AcDbEntity
  8
0
100
AcDbLine
 10
0.7502
 20
626.5615
 30
0.0
 11
1.25
 21
626.5615
 31
0.0
  0
LINE
  5
173
330
1D
100
AcDbEntity
  8
0
100
AcDbLine
 10
0.7502
 20
626.5615
 30
0.0
 11
0.7502
 21
626.0615
 31
0.0
  0
LINE
  5
174
330
1D
100
AcDbEntity
  8
0
100
AcDbLine
 10
0.7502
 20
626.0615
 30
0.0
 11
0.7502
 21
626.5615
 31
0.0
  0
LINE
  5
175
330
1D
100
AcDbEntity
  8
0
100
AcDbLine
 10
0.7502
 20
626.0615
 30
0.0
 11
1.25
 21
626.0615
 31
0.0
  0
LINE
  5
176
330
1D
100
AcDbEntity
  8
0
100
AcDbLine
 10
0.7502
 20
626.0615
 30
0.0
 11
0.7502
 21
625.0615
 31
0.0
  0
LINE
  5
177
330
1D
100
AcDbEntity
  8
0
100
AcDbLine
 10
0.7502
 20
619.7615
 30
0.0
 11
1.25
 21
619.7615
 31
0.0
  0
LINE
  5
178
330
1D
100
AcDbEntity
  8
0
100
AcDbLine
 10
0.7502
 20
619.7615
 30
0.0
 11
0.7502
 21
619.2615
 31
0.0
  0
LINE
  5
179
330
1D
100
AcDbEntity
  8
0
100
AcDbLine
 10
0.7502
 20
619.2615
 30
0.0
 11
0.7502
 21
619.7615
 31
0.0
  0
LINE
  5
17A
330
1D
100
AcDbEntity
  8
0
100
AcDbLine
 10
0.7502
 20
619.2615
 30
0.0
 11
1.4012
 21
619.2615
 31
0.0
  0
LINE
  5
17B
330
1D
100
AcDbEntity
  8
0
100
AcDbLine
 10
0.7502
 20
619.2615
 30
0.0
 11
0.7502
 21
618.2615
 31
0.0
  0
LINE
  5
17C
330
1D
100
AcDbEntity
  8
0
100
AcDbLine
 10
0.7502
 20
612.9617
 30
0.0
 11
0.7502
 21
612.4618
 31
0.0
  0
LINE
  5
17D
330
1D
100
AcDbEntity
  8
0
100
AcDbLine
 10
0.7502
 20
612.9617
 30
0.0
 11
1.25
 21
612.961759168936
 31
0.0
  0
LINE
  5
17E
330
1D
100
AcDbEntity
  8
0
100
AcDbLine
 10
0.7502
 20
612.9617
 30
0.0
 11
1.25
 21
612.961759168936
 31
0.0
  0
LINE
  5
17F
330
1D
100
AcDbEntity
  8
0
100
AcDbLine
 10
0.7502
 20
612.4618
 30
0.0
 11
0.7502
 21
611.4618
 31
0.0
  0
LINE
  5
180
330
1D
100
AcDbEntity
  8
0
100
AcDbLine
 10
0.7502
 20
612.4618
 30
0.0
 11
0.7502
 21
612.9617
 31
0.0
  0
LINE
  5
181
330
1D
100
AcDbEntity
  8
0
100
AcDbLine
 10
0.7502
 20
612.4618
 30
0.0
 11
1.401230573885
 21
612.4618
 31
0.0
  0
LINE
  5
182
330
1D
100
AcDbEntity
  8
0
100
AcDbLine
 10
4.74207
 20
611.4617
 30
0.0
 11
4.7421
 21
612.4618
 31
0.0
  0
LINE
  5
183
330
1D
100
AcDbEntity
  8
0
100
AcDbLine
 10
4.74207
 20
611.4617
 30
0.0
 11
5.35501
 21
611.4617
 31
0.0
  0
LINE
  5
184
330
1D
100
AcDbEntity
  8
0
100
AcDbLine
 10
3.57959
 20
611.4617
 30
0.0
 11
3.87017
 21
610.9617
 31
0.0
  0
LINE
  5
185
330
1D
100
AcDbEntity
  8
0
100
AcDbLine
 10
3.57959
 20
611.4617
 30
0.0
 11
3.57962
 21
612.4618
 31
0.0
  0
LINE
  5
186
330
1D
100
AcDbEntity
  8
0
100
AcDbLine
 10
2.01293
 20
611.4617
 30
0.0
 11
2.80036
 21
611.4617
 31
0.0
  0
LINE
  5
187
330
1D
100
AcDbEntity
  8
0
100
AcDbLine
 10
1.4012
 20
612.4617
 30
0.0
 11
1.5541
 21
612.9618
 31
0.0
  0
LINE
  5
188
330
1D
100
AcDbEntity
  8
0
100
AcDbLine
 10
1.4012
 20
612.4617
 30
0.0
 11
1.4012
 21
611.4618
 31
0.0
  0
LINE
  5
189
330
1D
100
AcDbEntity
  8
0
100
AcDbLine
 10
1.25
 20
612.961759168936
 30
0.0
 11
1.25
 21
617.7615
 31
0.0
  0
LINE
  5
18A
330
1D
100
AcDbEntity
  8
0
100
AcDbLine
 10
1.4012
 20
618.2615
 30
0.0
 11
1.5541
 21
617.7615
 31
0.0
  0
LINE
  5
18B
330
1D
100
AcDbEntity
  8
0
100
AcDbLine
 10
1.4012
 20
618.2615
 30
0.0
 11
1.4012
 21
619.2615
 31
0.0
  0
LINE
  5
18C
330
1D
100
AcDbEntity
  8
0
100
AcDbLine
 10
1.25
 20
619.7615
 30
0.0
 11
1.25
 21
624.5615
 31
0.0
  0
LINE
  5
18D
330
1D
100
AcDbEntity
  8
0
100
AcDbLine
 10
1.4012
 20
619.2615
 30
0.0
 11
1.5541
 21
619.7615
 31
0.0
  0
LINE
  5
18E
330
1D
100
AcDbEntity
  8
0
100
AcDbLine
 10
1.4012
 20
619.2615
 30
0.0
 11
1.4012
 21
618.2615
 31
0.0
  0
LINE
  5
18F
330
1D
100
AcDbEntity
  8
0
100
AcDbLine
 10
1.5541
 20
617.7615
 30
0.0
 11
1.86
 21
617.7615
 31
0.0
  0
LINE
  5
190
330
1D
100
AcDbEntity
  8
0
100
AcDbLine
 10
1.5541
 20
617.7615
 30
0.0
 11
2.155798045603
 21
617.7615
 31
0.0
  0
LINE
  5
191
330
1D
100
AcDbEntity
  8
0
100
AcDbLine
 10
1.5541
 20
617.7615
 30
0.0
 11
2.155798045603
 21
617.7615
 31
0.0
  0
LINE
  5
192
330
1D
100
AcDbEntity
  8
0
100
AcDbLine
 10
0.7502
 20
633.3615
 30
0.0
 11
0.7502
 21
632.8615
 31
0.0
  0
LINE
  5
193
330
1D
100
AcDbEntity
  8
0
100
AcDbLine
 10
0.7502
 20
633.3615
 30
0.0
 11
1.25
 21
633.3615
 31
0.0
  0
LINE
  5
194
330
1D
100
AcDbEntity
  8
0
100
AcDbLine
 10
0.7502
 20
632.8615
 30
0.0
 11
0.7502
 21
633.3615
 31
0.0
  0
LINE
  5
195
330
1D
100
AcDbEntity
  8
0
100
AcDbLine
 10
0.7502
 20
632.8615
 30
0.0
 11
0.7502
 21
631.8615
 31
0.0
  0
LINE
  5
196
330
1D
100
AcDbEntity
  8
0
100
AcDbLine
 10
0.7502
 20
632.8615
 30
0.0
 11
1.25
 21
632.8615
 31
0.0
  0
LINE
  5
197
330
1D
100
AcDbEntity
  8
0
100
AcDbLine
 10
1.4012
 20
625.0615
 30
0.0
 11
1.5541
 21
624.5615
 31
0.0
  0
LINE
  5
198
330
1D
100
AcDbEntity
  8
0
100
AcDbLine
 10
1.4012
 20
625.0615
 30
0.0
 11
1.4012
 21
626.0615
 31
0.0
  0
LINE
  5
199
330
1D
100
AcDbEntity
  8
0
100
AcDbLine
 10
1.25
 20
626.5615
 30
0.0
 11
1.25
 21
631.3615
 31
0.0
  0
LINE
  5
19A
330
1D
100
AcDbEntity
  8
0
100
AcDbLine
 10
1.4012
 20
626.0615
 30
0.0
 11
1.5541
 21
626.5615
 31
0.0
  0
LINE
  5
19B
330
1D
100
AcDbEntity
  8
0
100
AcDbLine
 10
1.4012
 20
626.0615
 30
0.0
 11
1.4012
 21
625.0615
 31
0.0
  0
LINE
  5
19C
330
1D
100
AcDbEntity
  8
0
100
AcDbLine
 10
1.5541
 20
624.5615
 30
0.0
 11
1.86
 21
624.5615
 31
0.0
  0
LINE
  5
19D
330
1D
100
AcDbEntity
  8
0
100
AcDbLine
 10
1.5541
 20
624.5615
 30
0.0
 11
2.102638436482
 21
624.5615
 31
0.0
  0
LINE
  5
19E
330
1D
100
AcDbEntity
  8
0
100
AcDbLine
 10
1.4012
 20
631.8615
 30
0.0
 11
1.4012
 21
632.8615
 31
0.0
  0
LINE
  5
19F
330
1D
100
AcDbEntity
  8
0
100
AcDbLine
 10
1.4012
 20
631.8615
 30
0.0
 11
1.5541
 21
631.3615
 31
0.0
  0
LINE
  5
1A0
330
1D
100
AcDbEntity
  8
0
100
AcDbLine
 10
1.25
 20
633.3615
 30
0.0
 11
1.25
 21
638.1615
 31
0.0
  0
LINE
  5
1A1
330
1D
100
AcDbEntity
  8
0
100
AcDbLine
 10
1.4012
 20
632.8615
 30
0.0
 11
1.5541
 21
633.3615
 31
0.0
  0
LINE
  5
1A2
330
1D
100
AcDbEntity
  8
0
100
AcDbLine
 10
1.4012
 20
632.8615
 30
0.0
 11
1.4012
 21
631.8615
 31
0.0
  0
LINE
  5
1A3
330
1D
100
AcDbEntity
  8
0
100
AcDbLine
 10
1.5541
 20
631.3615
 30
0.0
 11
1.86
 21
631.3615
 31
0.0
  0
LINE
  5
1A4
330
1D
100
AcDbEntity
  8
0
100
AcDbLine
 10
1.5541
 20
631.3615
 30
0.0
 11
2.049478827362
 21
631.3615
 31
0.0
  0
LINE
  5
1A5
330
1D
100
AcDbEntity
  8
0
100
AcDbLine
 10
1.5541
 20
631.3615
 30
0.0
 11
2.049478827362
 21
631.3615
 31
0.0
  0
LINE
  5
1A6
330
1D
100
AcDbEntity
  8
0
100
AcDbLine
 10
1.5541
 20
626.5615
 30
0.0
 11
1.85998
 21
626.5615
 31
0.0
  0
LINE
  5
1A7
330
1D
100
AcDbEntity
  8
0
100
AcDbLine
 10
0.7502
 20
631.8615
 30
0.0
 11
0.7502
 21
632.8615
 31
0.0
  0
LINE
  5
1A8
330
1D
100
AcDbEntity
  8
0
100
AcDbLine
 10
0.7502
 20
631.8615
 30
0.0
 11
1.25
 21
631.8615
 31
0.0
  0
LINE
  5
1A9
330
1D
100
AcDbEntity
  8
0
100
AcDbLine
 10
1.5541
 20
619.7615
 30
0.0
 11
1.85998
 21
619.7615
 31
0.0
  0
LINE
  5
1AA
330
1D
100
AcDbEntity
  8
0
100
AcDbLine
 10
1.86
 20
617.7615
 30
0.0
 11
2.01293
 21
618.2615
 31
0.0
  0
LINE
  5
1AB
330
1D
100
AcDbEntity
  8
0
100
AcDbLine
 10
1.86
 20
617.7615
 30
0.0
 11
2.6474
 21
617.7615
 31
0.0
  0
LINE
  5
1AC
330
1D
100
AcDbEntity
  8
0
100
AcDbLine
 10
2.01292
 20
619.2615
 30
0.0
 11
2.80035
 21
619.2615
 31
0.0
  0
LINE
  5
1AD
330
1D
100
AcDbEntity
  8
0
100
AcDbLine
 10
2.01292
 20
619.2615
 30
0.0
 11
2.01293
 21
618.2615
 31
0.0
  0
LINE
  5
1AE
330
1D
100
AcDbEntity
  8
0
100
AcDbLine
 10
1.5541
 20
633.3615
 30
0.0
 11
1.85998
 21
633.3615
 31
0.0
  0
LINE
  5
1AF
330
1D
100
AcDbEntity
  8
0
100
AcDbLine
 10
1.86
 20
624.5615
 30
0.0
 11
2.01293
 21
625.0615
 31
0.0
  0
LINE
  5
1B0
330
1D
100
AcDbEntity
  8
0
100
AcDbLine
 10
1.86
 20
624.5615
 30
0.0
 11
2.6474
 21
624.5615
 31
0.0
  0
LINE
  5
1B1
330
1D
100
AcDbEntity
  8
0
100
AcDbLine
 10
1.86
 20
631.3615
 30
0.0
 11
2.01293
 21
631.8615
 31
0.0
  0
LINE
  5
1B2
330
1D
100
AcDbEntity
  8
0
100
AcDbLine
 10
1.86
 20
631.3615
 30
0.0
 11
2.6474
 21
631.3615
 31
0.0
  0
LINE
  5
1B3
330
1D
100
AcDbEntity
  8
0
100
AcDbLine
 10
1.85998
 20
633.3615
 30
0.0
 11
2.01292
 21
632.8615
 31
0.0
  0
LINE
  5
1B4
330
1D
100
AcDbEntity
  8
0
100
AcDbLine
 10
1.85998
 20
633.3615
 30
0.0
 11
2.64742
 21
633.3615
 31
0.0
  0
LINE
  5
1B5
330
1D
100
AcDbEntity
  8
0
100
AcDbLine
 10
2.01292
 20
626.0615
 30
0.0
 11
2.80035
 21
626.0615
 31
0.0
  0
LINE
  5
1B6
330
1D
100
AcDbEntity
  8
0
100
AcDbLine
 10
2.01292
 20
626.0615
 30
0.0
 11
2.01293
 21
625.0615
 31
0.0
  0
LINE
  5
1B7
330
1D
100
AcDbEntity
  8
0
100
AcDbLine
 10
1.85998
 20
626.5615
 30
0.0
 11
2.64742
 21
626.5615
 31
0.0
  0
LINE
  5
1B8
330
1D
100
AcDbEntity
  8
0
100
AcDbLine
 10
1.85998
 20
626.5615
 30
0.0
 11
2.01292
 21
626.0615
 31
0.0
  0
LINE
  5
1B9
330
1D
100
AcDbEntity
  8
0
100
AcDbLine
 10
1.85998
 20
619.7615
 30
0.0
 11
2.64742
 21
619.7615
 31
0.0
  0
LINE
  5
1BA
330
1D
100
AcDbEntity
  8
0
100
AcDbLine
 10
1.85998
 20
619.7615
 30
0.0
 11
2.01292
 21
619.2615
 31
0.0
  0
LINE
  5
1BB
330
1D
100
AcDbEntity
  8
0
100
AcDbLine
 10
1.5541
 20
612.9618
 30
0.0
 11
1.85998
 21
612.9617
 31
0.0
  0
LINE
  5
1BC
330
1D
100
AcDbEntity
  8
0
100
AcDbLine
 10
1.5541
 20
612.9618
 30
0.0
 11
2.193320764918
 21
612.961718820862
 31
0.0
  0
LINE
  5
1BD
330
1D
100
AcDbEntity
  8
0
100
AcDbLine
 10
1.85998
 20
612.9617
 30
0.0
 11
2.01292
 21
612.4617
 31
0.0
  0
LINE
  5
1BE
330
1D
100
AcDbEntity
  8
0
100
AcDbLine
 10
1.85998
 20
612.9617
 30
0.0
 11
2.64742
 21
612.9617
 31
0.0
  0
LINE
  5
1BF
330
1D
100
AcDbEntity
  8
0
100
AcDbLine
 10
4.7421
 20
612.4618
 30
0.0
 11
5.35504
 21
612.4618
 31
0.0
  0
LINE
  5
1C0
330
1D
100
AcDbEntity
  8
0
100
AcDbLine
 10
3.57962
 20
612.4618
 30
0.0
 11
3.87019
 21
612.9618
 31
0.0
  0
LINE
  5
1C1
330
1D
100
AcDbEntity
  8
0
100
AcDbLine
 10
2.01293
 20
618.2615
 30
0.0
 11
2.80036
 21
618.2615
 31
0.0
  0
LINE
  5
1C2
330
1D
100
AcDbEntity
  8
0
100
AcDbLine
 10
3.57959
 20
618.2615
 30
0.0
 11
3.87017
 21
617.7615
 31
0.0
  0
LINE
  5
1C3
330
1D
100
AcDbEntity
  8
0
100
AcDbLine
 10
3.57959
 20
618.2615
 30
0.0
 11
3.57962
 21
619.2615
 31
0.0
  0
LINE
  5
1C4
330
1D
100
AcDbEntity
  8
0
100
AcDbLine
 10
3.87017
 20
617.7615
 30
0.0
 11
4.4515
 21
617.7615
 31
0.0
  0
LINE
  5
1C5
330
1D
100
AcDbEntity
  8
0
100
AcDbLine
 10
3.87017
 20
617.7615
 30
0.0
 11
4.4831
 21
617.7615
 31
0.0
  0
LINE
  5
1C6
330
1D
100
AcDbEntity
  8
0
100
AcDbLine
 10
2.01293
 20
625.0615
 30
0.0
 11
2.80036
 21
625.0615
 31
0.0
  0
LINE
  5
1C7
330
1D
100
AcDbEntity
  8
0
100
AcDbLine
 10
3.57959
 20
625.0615
 30
0.0
 11
3.87017
 21
624.5615
 31
0.0
  0
LINE
  5
1C8
330
1D
100
AcDbEntity
  8
0
100
AcDbLine
 10
3.57959
 20
625.0615
 30
0.0
 11
3.57962
 21
626.0615
 31
0.0
  0
LINE
  5
1C9
330
1D
100
AcDbEntity
  8
0
100
AcDbLine
 10
3.87017
 20
624.5615
 30
0.0
 11
4.4515
 21
624.5615
 31
0.0
  0
LINE
  5
1CA
330
1D
100
AcDbEntity
  8
0
100
AcDbLine
 10
3.87017
 20
624.5615
 30
0.0
 11
4.4831
 21
624.5615
 31
0.0
  0
LINE
  5
1CB
330
1D
100
AcDbEntity
  8
0
100
AcDbLine
 10
2.01293
 20
631.8615
 30
0.0
 11
2.80036
 21
631.8615
 31
0.0
  0
LINE
  5
1CC
330
1D
100
AcDbEntity
  8
0
100
AcDbLine
 10
2.01292
 20
632.8615
 30
0.0
 11
2.01293
 21
631.8615
 31
0.0
  0
LINE
  5
1CD
330
1D
100
AcDbEntity
  8
0
100
AcDbLine
 10
2.01292
 20
632.8615
 30
0.0
 11
2.80035
 21
632.8615
 31
0.0
  0
LINE
  5
1CE
330
1D
100
AcDbEntity
  8
0
100
AcDbLine
 10
3.57962
 20
632.8615
 30
0.0
 11
3.87019
 21
633.3615
 31
0.0
  0
LINE
  5
1CF
330
1D
100
AcDbEntity
  8
0
100
AcDbLine
 10
3.57959
 20
631.8615
 30
0.0
 11
3.87017
 21
631.3615
 31
0.0
  0
LINE
  5
1D0
330
1D
100
AcDbEntity
  8
0
100
AcDbLine
 10
3.57959
 20
631.8615
 30
0.0
 11
3.57962
 21
632.8615
 31
0.0
  0
LINE
  5
1D1
330
1D
100
AcDbEntity
  8
0
100
AcDbLine
 10
3.87017
 20
631.3615
 30
0.0
 11
4.4515
 21
631.3615
 31
0.0
  0
LINE
  5
1D2
330
1D
100
AcDbEntity
  8
0
100
AcDbLine
 10
3.87017
 20
631.3615
 30
0.0
 11
4.4831
 21
631.3615
 31
0.0
  0
LINE
  5
1D3
330
1D
100
AcDbEntity
  8
0
100
AcDbLine
 10
3.87019
 20
626.5615
 30
0.0
 11
4.45148
 21
626.5615
 31
0.0
  0
LINE
  5
1D4
330
1D
100
AcDbEntity
  8
0
100
AcDbLine
 10
3.57962
 20
626.0615
 30
0.0
 11
3.87019
 21
626.5615
 31
0.0
  0
LINE
  5
1D5
330
1D
100
AcDbEntity
  8
0
100
AcDbLine
 10
3.87019
 20
619.7615
 30
0.0
 11
4.45148
 21
619.7615
 31
0.0
  0
LINE
  5
1D6
330
1D
100
AcDbEntity
  8
0
100
AcDbLine
 10
3.57962
 20
619.2615
 30
0.0
 11
3.87019
 21
619.7615
 31
0.0
  0
LINE
  5
1D7
330
1D
100
AcDbEntity
  8
0
100
AcDbLine
 10
4.7421
 20
619.2615
 30
0.0
 11
5.35504
 21
619.2615
 31
0.0
  0
LINE
  5
1D8
330
1D
100
AcDbEntity
  8
0
100
AcDbLine
 10
4.74207
 20
618.2615
 30
0.0
 11
4.7421
 21
619.2615
 31
0.0
  0
LINE
  5
1D9
330
1D
100
AcDbEntity
  8
0
100
AcDbLine
 10
4.74207
 20
618.2615
 30
0.0
 11
5.35501
 21
618.2615
 31
0.0
  0
LINE
  5
1DA
330
1D
100
AcDbEntity
  8
0
100
AcDbLine
 10
4.4515
 20
617.7615
 30
0.0
 11
4.75
 21
617.7615
 31
0.0
  0
LINE
  5
1DB
330
1D
100
AcDbEntity
  8
0
100
AcDbLine
 10
4.4515
 20
617.7615
 30
0.0
 11
4.74207
 21
618.2615
 31
0.0
  0
LINE
  5
1DC
330
1D
100
AcDbEntity
  8
0
100
AcDbLine
 10
3.87019
 20
633.3615
 30
0.0
 11
4.45148
 21
633.3615
 31
0.0
  0
LINE
  5
1DD
330
1D
100
AcDbEntity
  8
0
100
AcDbLine
 10
4.45148
 20
633.3615
 30
0.0
 11
4.7421
 21
632.8615
 31
0.0
  0
LINE
  5
1DE
330
1D
100
AcDbEntity
  8
0
100
AcDbLine
 10
4.45148
 20
633.3615
 30
0.0
 11
4.75
 21
633.3615
 31
0.0
  0
LINE
  5
1DF
330
1D
100
AcDbEntity
  8
0
100
AcDbLine
 10
4.4515
 20
631.3615
 30
0.0
 11
4.74207
 21
631.8615
 31
0.0
  0
LINE
  5
1E0
330
1D
100
AcDbEntity
  8
0
100
AcDbLine
 10
4.4515
 20
631.3615
 30
0.0
 11
4.75
 21
631.3615
 31
0.0
  0
LINE
  5
1E1
330
1D
100
AcDbEntity
  8
0
100
AcDbLine
 10
4.7421
 20
632.8615
 30
0.0
 11
5.35504
 21
632.8615
 31
0.0
  0
LINE
  5
1E2
330
1D
100
AcDbEntity
  8
0
100
AcDbLine
 10
4.74207
 20
631.8615
 30
0.0
 11
4.7421
 21
632.8615
 31
0.0
  0
LINE
  5
1E3
330
1D
100
AcDbEntity
  8
0
100
AcDbLine
 10
4.74207
 20
631.8615
 30
0.0
 11
5.35501
 21
631.8615
 31
0.0
  0
LINE
  5
1E4
330
1D
100
AcDbEntity
  8
0
100
AcDbLine
 10
4.7421
 20
626.0615
 30
0.0
 11
5.35504
 21
626.0615
 31
0.0
  0
LINE
  5
1E5
330
1D
100
AcDbEntity
  8
0
100
AcDbLine
 10
4.74207
 20
625.0615
 30
0.0
 11
4.7421
 21
626.0615
 31
0.0
  0
LINE
  5
1E6
330
1D
100
AcDbEntity
  8
0
100
AcDbLine
 10
4.74207
 20
625.0615
 30
0.0
 11
5.35501
 21
625.0615
 31
0.0
  0
LINE
  5
1E7
330
1D
100
AcDbEntity
  8
0
100
AcDbLine
 10
4.4515
 20
624.5615
 30
0.0
 11
4.75
 21
624.5615
 31
0.0
  0
LINE
  5
1E8
330
1D
100
AcDbEntity
  8
0
100
AcDbLine
 10
4.4515
 20
624.5615
 30
0.0
 11
4.74207
 21
625.0615
 31
0.0
  0
LINE
  5
1E9
330
1D
100
AcDbEntity
  8
0
100
AcDbLine
 10
4.45148
 20
626.5615
 30
0.0
 11
4.75
 21
626.5615
 31
0.0
  0
LINE
  5
1EA
330
1D
100
AcDbEntity
  8
0
100
AcDbLine
 10
4.45148
 20
626.5615
 30
0.0
 11
4.7421
 21
626.0615
 31
0.0
  0
LINE
  5
1EB
330
1D
100
AcDbEntity
  8
0
100
AcDbLine
 10
4.45148
 20
619.7615
 30
0.0
 11
4.75
 21
619.7615
 31
0.0
  0
LINE
  5
1EC
330
1D
100
AcDbEntity
  8
0
100
AcDbLine
 10
4.45148
 20
619.7615
 30
0.0
 11
4.7421
 21
619.2615
 31
0.0
  0
LINE
  5
1ED
330
1D
100
AcDbEntity
  8
0
100
AcDbLine
 10
3.87019
 20
612.9618
 30
0.0
 11
4.45148
 21
612.9617
 31
0.0
  0
LINE
  5
1EE
330
1D
100
AcDbEntity
  8
0
100
AcDbLine
 10
3.87019
 20
612.9618
 30
0.0
 11
4.48312
 21
612.9618
 31
0.0
  0
LINE
  5
1EF
330
1D
100
AcDbEntity
  8
0
100
AcDbLine
 10
4.45148
 20
612.9617
 30
0.0
 11
4.7421
 21
612.4618
 31
0.0
  0
LINE
  5
1F0
330
1D
100
AcDbEntity
  8
0
100
AcDbLine
 10
4.45148
 20
612.9617
 30
0.0
 11
4.75
 21
612.961748699795
 31
0.0
  0
LINE
  5
1F1
330
1D
100
AcDbEntity
  8
0
100
AcDbLine
 10
2.01292
 20
612.4617
 30
0.0
 11
2.01293
 21
611.4617
 31
0.0
  0
LINE
  5
1F2
330
1D
100
AcDbEntity
  8
0
100
AcDbLine
 10
2.01292
 20
612.4617
 30
0.0
 11
2.80035
 21
612.4617
 31
0.0
  0
LINE
  5
1F3
330
1D
100
AcDbEntity
  8
0
100
AcDbLine
 10
1.4012
 20
611.4618
 30
0.0
 11
1.5541
 21
610.9617
 31
0.0
  0
LINE
  5
1F4
330
1D
100
AcDbEntity
  8
0
100
AcDbLine
 10
1.4012
 20
611.4618
 30
0.0
 11
1.4012
 21
612.4617
 31
0.0
  0
LINE
  5
1F5
330
1D
100
AcDbEntity
  8
0
100
AcDbLine
 10
0.7502
 20
611.4618
 30
0.0
 11
0.7502
 21
610.9618
 31
0.0
  0
LINE
  5
1F6
330
1D
100
AcDbEntity
  8
0
100
AcDbLine
 10
0.7502
 20
611.4618
 30
0.0
 11
0.7502
 21
612.4618
 31
0.0
  0
LINE
  5
1F7
330
1D
100
AcDbEntity
  8
0
100
AcDbLine
 10
0.7502
 20
611.4618
 30
0.0
 11
1.4012
 21
611.4618
 31
0.0
  0
LINE
  5
1F8
330
1D
100
AcDbEntity
  8
0
100
AcDbLine
 10
0.7502
 20
610.9618
 30
0.0
 11
0.7502
 21
611.4618
 31
0.0
  0
LINE
  5
1F9
330
1D
100
AcDbEntity
  8
0
100
AcDbLine
 10
0.7502
 20
610.9618
 30
0.0
 11
1.25
 21
610.9618
 31
0.0
  0
LINE
  5
1FD
330
1D
100
AcDbEntity
  8
0
100
AcDbLine
 10
10.50195
 20
604.0885
 30
0.0
 11
10.74999
 21
604.1114
 31
0.0
  0
LINE
  5
1FE
330
1D
100
AcDbEntity
  8
0
100
AcDbLine
 10
10.28102
 20
604.0556
 30
0.0
 11
10.50195
 21
604.0885
 31
0.0
  0
LINE
  5
201
330
1D
100
AcDbEntity
  8
0
100
AcDbLine
 10
10.57441
 20
554.4934
 30
0.0
 11
11.131969
 21
554.2093
 31
0.0
  0
LINE
  5
209
330
1D
100
AcDbEntity
  8
0
100
AcDbLine
 10
10.57444
 20
554.4934
 30
0.0
 11
11.131984
 21
554.2093
 31
0.0
  0
LINE
  5
20F
330
1D
100
AcDbEntity
  8
0
100
AcDbLine
 10
11.131969
 20
554.2093
 30
0.0
 11
11.749994
 21
554.1114
 31
0.0
  0
LINE
  5
215
330
1D
100
AcDbEntity
  8
0
100
AcDbLine
 10
11.131984
 20
554.2093
 30
0.0
 11
11.749994
 21
554.1114
 31
0.0
  0
LINE
  5
21C
330
1D
100
AcDbEntity
  8
0
100
AcDbLine
 10
10.74999
 20
604.1114
 30
0.0
 11
70.75
 21
604.1114
 31
0.0
  0
LINE
  5
21F
330
1D
100
AcDbEntity
  8
0
100
AcDbLine
 10
10.74999
 20
604.1114
 30
0.0
 11
70.75
 21
604.1114
 31
0.0
  0
LINE
  5
222
330
1D
100
AcDbEntity
  8
0
100
AcDbLine
 10
15.03868
 20
554.1114
 30
0.0
 11
16.61849
 21
554.1114
 31
0.0
  0
LINE
  5
223
330
1D
100
AcDbEntity
  8
0
100
AcDbLine
 10
17.43023
 20
554.1114
 30
0.0
 11
19.18265
 21
554.1114
 31
0.0
  0
LINE
  5
224
330
1D
100
AcDbEntity
  8
0
100
AcDbLine
 10
17.42988
 20
554.1114
 30
0.0
 11
19.18272
 21
554.1114
 31
0.0
  0
LINE
  5
225
330
1D
100
AcDbEntity
  8
0
100
AcDbLine
 10
17.45614
 20
554.1114
 30
0.0
 11
18.79158
 21
554.1114
 31
0.0
  0
LINE
  5
226
330
1D
100
AcDbEntity
  8
0
100
AcDbLine
 10
17.45617
 20
554.1114
 30
0.0
 11
18.79157
 21
554.1114
 31
0.0
  0
LINE
  5
227
330
1D
100
AcDbEntity
  8
0
100
AcDbLine
 10
18.558
 20
527.9615
 30
0.0
 11
21.006
 21
527.9615
 31
0.0
  0
LINE
  5
228
330
1D
100
AcDbEntity
  8
0
100
AcDbLine
 10
19.25
 20
528.9615
 30
0.0
 11
21.75
 21
528.9615
 31
0.0
  0
LINE
  5
229
330
1D
100
AcDbEntity
  8
0
100
AcDbLine
 10
19.18265
 20
554.1114
 30
0.0
 11
20.83176
 21
554.1114
 31
0.0
  0
LINE
  5
22A
330
1D
100
AcDbEntity
  8
0
100
AcDbLine
 10
19.18272
 20
554.1114
 30
0.0
 11
20.83204
 21
554.1114
 31
0.0
  0
LINE
  5
22B
330
1D
100
AcDbEntity
  8
0
100
AcDbLine
 10
18.79158
 20
554.1114
 30
0.0
 11
20.07018
 21
554.1114
 31
0.0
  0
LINE
  5
22C
330
1D
100
AcDbEntity
  8
0
100
AcDbLine
 10
18.15308
 20
554.1114
 30
0.0
 11
19.61985
 21
554.1114
 31
0.0
  0
LINE
  5
22D
330
1D
100
AcDbEntity
  8
0
100
AcDbLine
 10
18.15296
 20
554.1114
 30
0.0
 11
19.61969
 21
554.1114
 31
0.0
  0
LINE
  5
22E
330
1D
100
AcDbEntity
  8
0
100
AcDbLine
 10
18.79157
 20
554.1114
 30
0.0
 11
20.07019
 21
554.1114
 31
0.0
  0
LINE
  5
22F
330
1D
100
AcDbEntity
  8
0
100
AcDbLine
 10
20.83176
 20
554.1114
 30
0.0
 11
22.346
 21
554.1114
 31
0.0
  0
LINE
  5
230
330
1D
100
AcDbEntity
  8
0
100
AcDbLine
 10
20.83204
 20
554.1114
 30
0.0
 11
22.3463
 21
554.1114
 31
0.0
  0
LINE
  5
231
330
1D
100
AcDbEntity
  8
0
100
AcDbLine
 10
20.07018
 20
554.1114
 30
0.0
 11
21.44077
 21
554.1114
 31
0.0
  0
LINE
  5
232
330
1D
100
AcDbEntity
  8
0
100
AcDbLine
 10
19.61985
 20
554.1114
 30
0.0
 11
20.9971
 21
554.1114
 31
0.0
  0
LINE
  5
233
330
1D
100
AcDbEntity
  8
0
100
AcDbLine
 10
20.9971
 20
554.1114
 30
0.0
 11
22.2646
 21
554.1114
 31
0.0
  0
LINE
  5
234
330
1D
100
AcDbEntity
  8
0
100
AcDbLine
 10
19.61969
 20
554.1114
 30
0.0
 11
20.99713
 21
554.1114
 31
0.0
  0
LINE
  5
235
330
1D
100
AcDbEntity
  8
0
100
AcDbLine
 10
20.07019
 20
554.1114
 30
0.0
 11
21.44086
 21
554.1114
 31
0.0
  0
LINE
  5
236
330
1D
100
AcDbEntity
  8
0
100
AcDbLine
 10
21.006
 20
527.9615
 30
0.0
 11
22.878
 21
527.9615
 31
0.0
  0
LINE
  5
237
330
1D
100
AcDbEntity
  8
0
100
AcDbLine
 10
21.75
 20
528.9615
 30
0.0
 11
23.65
 21
528.9615
 31
0.0
  0
LINE
  5
238
330
1D
100
AcDbEntity
  8
0
100
AcDbLine
 10
21.44077
 20
554.1114
 30
0.0
 11
22.6998
 21
554.1114
 31
0.0
  0
LINE
  5
239
330
1D
100
AcDbEntity
  8
0
100
AcDbLine
 10
20.99713
 20
554.1114
 30
0.0
 11
22.2645
 21
554.1114
 31
0.0
  0
LINE
  5
23A
330
1D
100
AcDbEntity
  8
0
100
AcDbLine
 10
21.44086
 20
554.1114
 30
0.0
 11
22.6998
 21
554.1114
 31
0.0
  0
LINE
  5
23B
330
1D
100
AcDbEntity
  8
0
100
AcDbLine
 10
22.346
 20
554.1114
 30
0.0
 11
23.6967
 21
554.1114
 31
0.0
  0
LINE
  5
23C
330
1D
100
AcDbEntity
  8
0
100
AcDbLine
 10
22.878
 20
527.9615
 30
0.0
 11
24.03
 21
527.9615
 31
0.0
  0
LINE
  5
23D
330
1D
100
AcDbEntity
  8
0
100
AcDbLine
 10
23.65
 20
528.9615
 30
0.0
 11
24.85
 21
528.9615
 31
0.0
  0
LINE
  5
23E
330
1D
100
AcDbEntity
  8
0
100
AcDbLine
 10
22.3463
 20
554.1114
 30
0.0
 11
23.6967
 21
554.1114
 31
0.0
  0
LINE
  5
23F
330
1D
100
AcDbEntity
  8
0
100
AcDbLine
 10
23.6967
 20
554.1114
 30
0.0
 11
24.8581
 21
554.1114
 31
0.0
  0
LINE
  5
240
330
1D
100
AcDbEntity
  8
0
100
AcDbLine
 10
23.6967
 20
554.1114
 30
0.0
 11
24.8582
 21
554.1114
 31
0.0
  0
LINE
  5
241
330
1D
100
AcDbEntity
  8
0
100
AcDbLine
 10
23.8293
 20
554.1114
 30
0.0
 11
24.8137
 21
554.1114
 31
0.0
  0
LINE
  5
242
330
1D
100
AcDbEntity
  8
0
100
AcDbLine
 10
22.2646
 20
554.1114
 30
0.0
 11
23.4034
 21
554.1114
 31
0.0
  0
LINE
  5
243
330
1D
100
AcDbEntity
  8
0
100
AcDbLine
 10
22.2645
 20
554.1114
 30
0.0
 11
23.4034
 21
554.1114
 31
0.0
  0
LINE
  5
244
330
1D
100
AcDbEntity
  8
0
100
AcDbLine
 10
22.6998
 20
554.1114
 30
0.0
 11
23.8294
 21
554.1114
 31
0.0
  0
LINE
  5
245
330
1D
100
AcDbEntity
  8
0
100
AcDbLine
 10
22.6998
 20
554.1114
 30
0.0
 11
23.8293
 21
554.1114
 31
0.0
  0
LINE
  5
246
330
1D
100
AcDbEntity
  8
0
100
AcDbLine
 10
24.75
 20
527.3461
 30
0.0
 11
24.75
 21
492.5769
 31
0.0
  0
LINE
  5
247
330
1D
100
AcDbEntity
  8
0
100
AcDbLine
 10
24.462
 20
527.9615
 30
0.0
 11
24.75
 21
527.3461
 31
0.0
  0
LINE
  5
248
330
1D
100
AcDbEntity
  8
0
100
AcDbLine
 10
24.03
 20
527.9615
 30
0.0
 11
24.462
 21
527.9615
 31
0.0
  0
LINE
  5
249
330
1D
100
AcDbEntity
  8
0
100
AcDbLine
 10
24.25
 20
527.9615
 30
0.0
 11
25.25
 21
528.9615
 31
0.0
  0
LINE
  5
24A
330
1D
100
AcDbEntity
  8
0
100
AcDbLine
 10
23.8294
 20
554.1114
 30
0.0
 11
24.8136
 21
554.1114
 31
0.0
  0
LINE
  5
24B
330
1D
100
AcDbEntity
  8
0
100
AcDbLine
 10
24.3972
 20
554.1114
 30
0.0
 11
25.2311
 21
554.1114
 31
0.0
  0
LINE
  5
24C
330
1D
100
AcDbEntity
  8
0
100
AcDbLine
 10
25.25
 20
528.9615
 30
0.0
 11
25.25
 21
554.1114
 31
0.0
  0
LINE
  5
24D
330
1D
100
AcDbEntity
  8
0
100
AcDbLine
 10
24.85
 20
528.9615
 30
0.0
 11
25.25
 21
528.9615
 31
0.0
  0
LINE
  5
24E
330
1D
100
AcDbEntity
  8
0
100
AcDbLine
 10
24.8582
 20
554.1114
 30
0.0
 11
25.8083
 21
554.1114
 31
0.0
  0
LINE
  5
24F
330
1D
100
AcDbEntity
  8
0
100
AcDbLine
 10
25.5973
 20
554.1114
 30
0.0
 11
26.3753
 21
554.1114
 31
0.0
  0
LINE
  5
250
330
1D
100
AcDbEntity
  8
0
100
AcDbLine
 10
24.8581
 20
554.1114
 30
0.0
 11
25.8079
 21
554.1114
 31
0.0
  0
LINE
  5
251
330
1D
100
AcDbEntity
  8
0
100
AcDbLine
 10
25.8083
 20
554.1114
 30
0.0
 11
26.5289
 21
554.1114
 31
0.0
  0
LINE
  5
252
330
1D
100
AcDbEntity
  8
0
100
AcDbLine
 10
25.8079
 20
554.1114
 30
0.0
 11
26.529
 21
554.1114
 31
0.0
  0
LINE
  5
253
330
1D
100
AcDbEntity
  8
0
100
AcDbLine
 10
25.5972
 20
554.1114
 30
0.0
 11
26.3751
 21
554.1114
 31
0.0
  0
LINE
  5
254
330
1D
100
AcDbEntity
  8
0
100
AcDbLine
 10
24.8137
 20
554.1114
 30
0.0
 11
25.6388
 21
554.1114
 31
0.0
  0
LINE
  5
255
330
1D
100
AcDbEntity
  8
0
100
AcDbLine
 10
25.6388
 20
554.1114
 30
0.0
 11
26.2929
 21
554.1114
 31
0.0
  0
LINE
  5
256
330
1D
100
AcDbEntity
  8
0
100
AcDbLine
 10
25.8927
 20
554.1114
 30
0.0
 11
26.3725
 21
554.1114
 31
0.0
  0
LINE
  5
257
330
1D
100
AcDbEntity
  8
0
100
AcDbLine
 10
25.25
 20
554.1114
 30
0.0
 11
25.6387
 21
554.1114
 31
0.0
  0
LINE
  5
258
330
1D
100
AcDbEntity
  8
0
100
AcDbLine
 10
25.25
 20
554.1114
 30
0.0
 11
25.8929
 21
554.1114
 31
0.0
  0
LINE
  5
259
330
1D
100
AcDbEntity
  8
0
100
AcDbLine
 10
25.25
 20
554.1114
 30
0.0
 11
25.8927
 21
554.1114
 31
0.0
  0
LINE
  5
25A
330
1D
100
AcDbEntity
  8
0
100
AcDbLine
 10
25.25
 20
554.1114
 30
0.0
 11
25.6388
 21
554.1114
 31
0.0
  0
LINE
  5
25B
330
1D
100
AcDbEntity
  8
0
100
AcDbLine
 10
25.25
 20
554.1114
 30
0.0
 11
25.5972
 21
554.1114
 31
0.0
  0
LINE
  5
25C
330
1D
100
AcDbEntity
  8
0
100
AcDbLine
 10
25.25
 20
554.1114
 30
0.0
 11
25.5974
 21
554.1114
 31
0.0
  0
LINE
  5
25D
330
1D
100
AcDbEntity
  8
0
100
AcDbLine
 10
25.25
 20
554.1114
 30
0.0
 11
25.25
 21
528.9615
 31
0.0
  0
LINE
  5
25E
330
1D
100
AcDbEntity
  8
0
100
AcDbLine
 10
24.8136
 20
554.1114
 30
0.0
 11
25.6387
 21
554.1114
 31
0.0
  0
LINE
  5
25F
330
1D
100
AcDbEntity
  8
0
100
AcDbLine
 10
25.2311
 20
554.1114
 30
0.0
 11
25.8929
 21
554.1114
 31
0.0
  0
LINE
  5
260
330
1D
100
AcDbEntity
  8
0
100
AcDbLine
 10
25.2311
 20
554.1114
 30
0.0
 11
25.8927
 21
554.1114
 31
0.0
  0
LINE
  5
261
330
1D
100
AcDbEntity
  8
0
100
AcDbLine
 10
25.8929
 20
554.1114
 30
0.0
 11
26.3724
 21
554.1114
 31
0.0
  0
LINE
  5
262
330
1D
100
AcDbEntity
  8
0
100
AcDbLine
 10
25.6387
 20
554.1114
 30
0.0
 11
26.2929
 21
554.1114
 31
0.0
  0
LINE
  5
263
330
1D
100
AcDbEntity
  8
0
100
AcDbLine
 10
26.5289
 20
554.1114
 30
0.0
 11
27.0064
 21
554.1114
 31
0.0
  0
LINE
  5
264
330
1D
100
AcDbEntity
  8
0
100
AcDbLine
 10
26.3753
 20
554.1114
 30
0.0
 11
26.913
 21
554.1114
 31
0.0
  0
LINE
  5
265
330
1D
100
AcDbEntity
  8
0
100
AcDbLine
 10
26.529
 20
554.1114
 30
0.0
 11
27.0062
 21
554.1114
 31
0.0
  0
LINE
  5
266
330
1D
100
AcDbEntity
  8
0
100
AcDbLine
 10
26.3751
 20
554.1114
 30
0.0
 11
26.9135
 21
554.1114
 31
0.0
  0
LINE
  5
267
330
1D
100
AcDbEntity
  8
0
100
AcDbLine
 10
26.3725
 20
554.1114
 30
0.0
 11
26.663
 21
554.1114
 31
0.0
  0
LINE
  5
268
330
1D
100
AcDbEntity
  8
0
100
AcDbLine
 10
26.663
 20
554.1114
 30
0.0
 11
26.7605
 21
554.1114
 31
0.0
  0
LINE
  5
269
330
1D
100
AcDbEntity
  8
0
100
AcDbLine
 10
26.2929
 20
554.1114
 30
0.0
 11
26.7668
 21
554.1114
 31
0.0
  0
LINE
  5
26A
330
1D
100
AcDbEntity
  8
0
100
AcDbLine
 10
26.3724
 20
554.1114
 30
0.0
 11
26.663
 21
554.1114
 31
0.0
  0
LINE
  5
26B
330
1D
100
AcDbEntity
  8
0
100
AcDbLine
 10
26.913
 20
554.1114
 30
0.0
 11
27.2003
 21
554.1114
 31
0.0
  0
LINE
  5
26C
330
1D
100
AcDbEntity
  8
0
100
AcDbLine
 10
31.75
 20
519.57689
 30
0.0
 11
31.75
 21
554.1114
 31
0.0
  0
LINE
  5
26D
330
1D
100
AcDbEntity
  8
0
100
AcDbLine
 10
31.75
 20
519.57689
 30
0.0
 11
32.038
 21
518.9615
 31
0.0
  0
LINE
  5
26E
330
1D
100
AcDbEntity
  8
0
100
AcDbLine
 10
55.75
 20
554.1114
 30
0.0
 11
55.75
 21
519.57689
 31
0.0
  0
LINE
  5
26F
330
1D
100
AcDbEntity
  8
0
100
AcDbLine
 10
55.75
 20
519.57689
 30
0.0
 11
55.75
 21
554.1114
 31
0.0
  0
LINE
  5
270
330
1D
100
AcDbEntity
  8
0
100
AcDbLine
 10
27.0064
 20
554.1114
 30
0.0
 11
27.2316
 21
554.1114
 31
0.0
  0
LINE
  5
271
330
1D
100
AcDbEntity
  8
0
100
AcDbLine
 10
70.75
 20
554.1114
 30
0.0
 11
70.75
 21
554.2454
 31
0.0
  0
LINE
  5
272
330
1D
100
AcDbEntity
  8
0
100
AcDbLine
 10
27.0062
 20
554.1114
 30
0.0
 11
27.2312
 21
554.1114
 31
0.0
  0
LINE
  5
273
330
1D
100
AcDbEntity
  8
0
100
AcDbLine
 10
26.9135
 20
554.1114
 30
0.0
 11
27.2006
 21
554.1114
 31
0.0
  0
LINE
  5
274
330
1D
100
AcDbEntity
  8
0
100
AcDbLine
 10
27.0538
 20
554.1114
 30
0.0
 11
27.15
 21
554.1114
 31
0.0
  0
LINE
  5
275
330
1D
100
AcDbEntity
  8
0
100
AcDbLine
 10
26.7668
 20
554.1114
 30
0.0
 11
27.054
 21
554.1114
 31
0.0
  0
LINE
  5
276
330
1D
100
AcDbEntity
  8
0
100
AcDbLine
 10
26.7668
 20
554.1114
 30
0.0
 11
27.0538
 21
554.1114
 31
0.0
  0
LINE
  5
277
330
1D
100
AcDbEntity
  8
0
100
AcDbLine
 10
70.75
 20
554.2454
 30
0.0
 11
70.75
 21
554.6114
 31
0.0
  0
LINE
  5
278
330
1D
100
AcDbEntity
  8
0
100
AcDbLine
 10
25.25
 20
604.1114
 30
0.0
 11
25.25
 21
682.4615
 31
0.0
  0
LINE
  5
279
330
1D
100
AcDbEntity
  8
0
100
AcDbLine
 10
70.75
 20
554.6114
 30
0.0
 11
70.75
 21
555.1114
 31
0.0
  0
LINE
  5
27A
330
1D
100
AcDbEntity
  8
0
100
AcDbLine
 10
70.75
 20
555.1114
 30
0.0
 11
70.75
 21
603.1114
 31
0.0
  0
LINE
  5
27B
330
1D
100
AcDbEntity
  8
0
100
AcDbLine
 10
27.054
 20
554.1114
 30
0.0
 11
27.15
 21
554.1114
 31
0.0
  0
LINE
  5
27C
330
1D
100
AcDbEntity
  8
0
100
AcDbLine
 10
16.61849
 20
554.1114
 30
0.0
 11
18.15296
 21
554.1114
 31
0.0
  0
LINE
  5
27D
330
1D
100
AcDbEntity
  8
0
100
AcDbLine
 10
70.75
 20
519.48532
 30
0.0
 11
70.75
 21
636.5375
 31
0.0
  0
LINE
  5
27E
330
1D
100
AcDbEntity
  8
0
100
AcDbLine
 10
70.75
 20
519.48532
 30
0.0
 11
70.75
 21
518.9305
 31
0.0
  0
LINE
  5
27F
330
1D
100
AcDbEntity
  8
0
100
AcDbLine
 10
70.75
 20
518.95392
 30
0.0
 11
70.75
 21
519.48532
 31
0.0
  0
LINE
  5
280
330
1D
100
AcDbEntity
  8
0
100
AcDbLine
 10
70.75
 20
518.95356
 30
0.0
 11
70.75
 21
518.65407
 31
0.0
  0
LINE
  5
281
330
1D
100
AcDbEntity
  8
0
100
AcDbLine
 10
70.75
 20
603.9774
 30
0.0
 11
70.75
 21
604.1114
 31
0.0
  0
LINE
  5
282
330
1D
100
AcDbEntity
  8
0
100
AcDbLine
 10
70.75
 20
603.6114
 30
0.0
 11
70.75
 21
603.9774
 31
0.0
  0
LINE
  5
283
330
1D
100
AcDbEntity
  8
0
100
AcDbLine
 10
70.75
 20
603.1114
 30
0.0
 11
70.75
 21
603.6114
 31
0.0
  0
LINE
  5
284
330
1D
100
AcDbEntity
  8
0
100
AcDbLine
 10
70.8797
 20
637.0295
 30
0.0
 11
71.235
 21
637.3945
 31
0.0
  0
LINE
  5
285
330
1D
100
AcDbEntity
  8
0
100
AcDbLine
 10
70.75
 20
636.5375
 30
0.0
 11
70.75
 21
604.1114
 31
0.0
  0
LINE
  5
286
330
1D
100
AcDbEntity
  8
0
100
AcDbLine
 10
70.75
 20
636.5375
 30
0.0
 11
70.8797
 21
637.0295
 31
0.0
  0
LINE
  5
287
330
1D
100
AcDbEntity
  8
0
100
AcDbLine
 10
70.75
 20
519.48522
 30
0.0
 11
70.75
 21
518.95356
 31
0.0
  0
LINE
  5
288
330
1D
100
AcDbEntity
  8
0
100
AcDbLine
 10
70.75
 20
519.48522
 30
0.0
 11
70.75
 21
636.5375
 31
0.0
  0
LINE
  5
28D
330
1D
100
AcDbEntity
  8
0
100
AcDbLine
 10
71.235
 20
637.3945
 30
0.0
 11
71.7238
 21
637.5365
 31
0.0
  0
LINE
  5
291
330
1D
100
AcDbEntity
  8
0
100
AcDbLine
 10
0.7502
 20
638.1615
 30
0.0
 11
1.25
 21
638.1615
 31
0.0
  0
LINE
  5
292
330
1D
100
AcDbEntity
  8
0
100
AcDbLine
 10
0.7502
 20
638.1615
 30
0.0
 11
0.7502
 21
638.6615
 31
0.0
  0
LINE
  5
293
330
1D
100
AcDbEntity
  8
0
100
AcDbLine
 10
1.4012
 20
638.6615
 30
0.0
 11
1.5541
 21
638.1615
 31
0.0
  0
LINE
  5
294
330
1D
100
AcDbEntity
  8
0
100
AcDbLine
 10
1.4012
 20
638.6615
 30
0.0
 11
1.4012
 21
639.6615
 31
0.0
  0
LINE
  5
295
330
1D
100
AcDbEntity
  8
0
100
AcDbLine
 10
1.5541
 20
638.1615
 30
0.0
 11
1.86
 21
638.1615
 31
0.0
  0
LINE
  5
296
330
1D
100
AcDbEntity
  8
0
100
AcDbLine
 10
1.5541
 20
638.1615
 30
0.0
 11
1.996319218241
 21
638.1615
 31
0.0
  0
LINE
  5
297
330
1D
100
AcDbEntity
  8
0
100
AcDbLine
 10
1.5541
 20
638.1615
 30
0.0
 11
1.996319218241
 21
638.1615
 31
0.0
  0
LINE
  5
298
330
1D
100
AcDbEntity
  8
0
100
AcDbLine
 10
2.01293
 20
638.6615
 30
0.0
 11
2.80036
 21
638.6615
 31
0.0
  0
LINE
  5
299
330
1D
100
AcDbEntity
  8
0
100
AcDbLine
 10
1.86
 20
638.1615
 30
0.0
 11
2.01293
 21
638.6615
 31
0.0
  0
LINE
  5
29A
330
1D
100
AcDbEntity
  8
0
100
AcDbLine
 10
1.86
 20
638.1615
 30
0.0
 11
2.6474
 21
638.1615
 31
0.0
  0
LINE
  5
29B
330
1D
100
AcDbEntity
  8
0
100
AcDbLine
 10
1.4012
 20
639.6615
 30
0.0
 11
1.5541
 21
640.1615
 31
0.0
  0
LINE
  5
29C
330
1D
100
AcDbEntity
  8
0
100
AcDbLine
 10
1.4012
 20
639.6615
 30
0.0
 11
1.4012
 21
638.6615
 31
0.0
  0
LINE
  5
29D
330
1D
100
AcDbEntity
  8
0
100
AcDbLine
 10
2.01292
 20
639.6615
 30
0.0
 11
2.80035
 21
639.6615
 31
0.0
  0
LINE
  5
29E
330
1D
100
AcDbEntity
  8
0
100
AcDbLine
 10
2.01292
 20
639.6615
 30
0.0
 11
2.01293
 21
638.6615
 31
0.0
  0
LINE
  5
29F
330
1D
100
AcDbEntity
  8
0
100
AcDbLine
 10
3.57959
 20
638.6615
 30
0.0
 11
3.87017
 21
638.1615
 31
0.0
  0
LINE
  5
2A0
330
1D
100
AcDbEntity
  8
0
100
AcDbLine
 10
3.57959
 20
638.6615
 30
0.0
 11
3.57962
 21
639.6615
 31
0.0
  0
LINE
  5
2A1
330
1D
100
AcDbEntity
  8
0
100
AcDbLine
 10
4.7421
 20
639.6615
 30
0.0
 11
5.35504
 21
639.6615
 31
0.0
  0
LINE
  5
2A2
330
1D
100
AcDbEntity
  8
0
100
AcDbLine
 10
4.74207
 20
638.6615
 30
0.0
 11
4.7421
 21
639.6615
 31
0.0
  0
LINE
  5
2A3
330
1D
100
AcDbEntity
  8
0
100
AcDbLine
 10
4.74207
 20
638.6615
 30
0.0
 11
5.35501
 21
638.6615
 31
0.0
  0
LINE
  5
2A4
330
1D
100
AcDbEntity
  8
0
100
AcDbLine
 10
4.4515
 20
638.1615
 30
0.0
 11
4.75
 21
638.1615
 31
0.0
  0
LINE
  5
2A5
330
1D
100
AcDbEntity
  8
0
100
AcDbLine
 10
4.4515
 20
638.1615
 30
0.0
 11
4.74207
 21
638.6615
 31
0.0
  0
LINE
  5
2A6
330
1D
100
AcDbEntity
  8
0
100
AcDbLine
 10
3.87017
 20
638.1615
 30
0.0
 11
4.4515
 21
638.1615
 31
0.0
  0
LINE
  5
2A7
330
1D
100
AcDbEntity
  8
0
100
AcDbLine
 10
3.87017
 20
638.1615
 30
0.0
 11
4.4831
 21
638.1615
 31
0.0
  0
LINE
  5
2A8
330
1D
100
AcDbEntity
  8
0
100
AcDbLine
 10
3.57962
 20
639.6615
 30
0.0
 11
3.87019
 21
640.1615
 31
0.0
  0
LINE
  5
2A9
330
1D
100
AcDbEntity
  8
0
100
AcDbLine
 10
0.7502
 20
638.6615
 30
0.0
 11
0.7502
 21
638.1615
 31
0.0
  0
LINE
  5
2AA
330
1D
100
AcDbEntity
  8
0
100
AcDbLine
 10
0.7502
 20
638.6615
 30
0.0
 11
1.25
 21
638.6615
 31
0.0
  0
LINE
  5
2AB
330
1D
100
AcDbEntity
  8
0
100
AcDbLine
 10
0.7502
 20
638.6615
 30
0.0
 11
0.7502
 21
639.6615
 31
0.0
  0
LINE
  5
2AC
330
1D
100
AcDbEntity
  8
0
100
AcDbLine
 10
0.7502
 20
644.9615
 30
0.0
 11
0.7502
 21
645.4615
 31
0.0
  0
LINE
  5
2AD
330
1D
100
AcDbEntity
  8
0
100
AcDbLine
 10
0.7502
 20
644.9615
 30
0.0
 11
1.25
 21
644.9615
 31
0.0
  0
LINE
  5
2AE
330
1D
100
AcDbEntity
  8
0
100
AcDbLine
 10
0.7502
 20
651.7615
 30
0.0
 11
0.7502
 21
652.2615
 31
0.0
  0
LINE
  5
2AF
330
1D
100
AcDbEntity
  8
0
100
AcDbLine
 10
0.7502
 20
651.7615
 30
0.0
 11
1.25
 21
651.7615
 31
0.0
  0
LINE
  5
2B0
330
1D
100
AcDbEntity
  8
0
100
AcDbLine
 10
0.7502
 20
651.7615
 30
0.0
 11
1.25
 21
651.7615
 31
0.0
  0
LINE
  5
2B1
330
1D
100
AcDbEntity
  8
0
100
AcDbLine
 10
0.7502
 20
652.2615
 30
0.0
 11
0.7502
 21
653.2615
 31
0.0
  0
LINE
  5
2B2
330
1D
100
AcDbEntity
  8
0
100
AcDbLine
 10
0.7502
 20
652.2615
 30
0.0
 11
1.25
 21
652.2615
 31
0.0
  0
LINE
  5
2B3
330
1D
100
AcDbEntity
  8
0
100
AcDbLine
 10
0.7502
 20
652.2615
 30
0.0
 11
0.7502
 21
651.7615
 31
0.0
  0
LINE
  5
2B4
330
1D
100
AcDbEntity
  8
0
100
AcDbLine
 10
0.7502
 20
646.9615
 30
0.0
 11
0.7502
 21
646.4615
 31
0.0
  0
LINE
  5
2B5
330
1D
100
AcDbEntity
  8
0
100
AcDbLine
 10
0.7502
 20
646.9615
 30
0.0
 11
1.25
 21
646.9615
 31
0.0
  0
LINE
  5
2B6
330
1D
100
AcDbEntity
  8
0
100
AcDbLine
 10
0.7502
 20
646.9615
 30
0.0
 11
1.25
 21
646.9615
 31
0.0
  0
LINE
  5
2B7
330
1D
100
AcDbEntity
  8
0
100
AcDbLine
 10
0.7502
 20
646.4615
 30
0.0
 11
0.7502
 21
646.9615
 31
0.0
  0
LINE
  5
2B8
330
1D
100
AcDbEntity
  8
0
100
AcDbLine
 10
0.7502
 20
646.4615
 30
0.0
 11
0.7502
 21
645.4615
 31
0.0
  0
LINE
  5
2B9
330
1D
100
AcDbEntity
  8
0
100
AcDbLine
 10
0.7502
 20
646.4615
 30
0.0
 11
1.25
 21
646.4615
 31
0.0
  0
LINE
  5
2BA
330
1D
100
AcDbEntity
  8
0
100
AcDbLine
 10
0.7502
 20
646.4615
 30
0.0
 11
1.25
 21
646.4615
 31
0.0
  0
LINE
  5
2BB
330
1D
100
AcDbEntity
  8
0
100
AcDbLine
 10
0.7502
 20
645.4615
 30
0.0
 11
0.7502
 21
646.4615
 31
0.0
  0
LINE
  5
2BC
330
1D
100
AcDbEntity
  8
0
100
AcDbLine
 10
0.7502
 20
645.4615
 30
0.0
 11
1.25
 21
645.4615
 31
0.0
  0
LINE
  5
2BD
330
1D
100
AcDbEntity
  8
0
100
AcDbLine
 10
0.7502
 20
645.4615
 30
0.0
 11
0.7502
 21
644.9615
 31
0.0
  0
LINE
  5
2BE
330
1D
100
AcDbEntity
  8
0
100
AcDbLine
 10
0.7502
 20
645.4615
 30
0.0
 11
1.25
 21
645.4615
 31
0.0
  0
LINE
  5
2BF
330
1D
100
AcDbEntity
  8
0
100
AcDbLine
 10
1.25
 20
640.1615
 30
0.0
 11
1.25
 21
644.9615
 31
0.0
  0
LINE
  5
2C0
330
1D
100
AcDbEntity
  8
0
100
AcDbLine
 10
1.5541
 20
640.1615
 30
0.0
 11
1.85998
 21
640.1615
 31
0.0
  0
LINE
  5
2C1
330
1D
100
AcDbEntity
  8
0
100
AcDbLine
 10
1.85998
 20
640.1615
 30
0.0
 11
2.64742
 21
640.1615
 31
0.0
  0
LINE
  5
2C2
330
1D
100
AcDbEntity
  8
0
100
AcDbLine
 10
1.85998
 20
640.1615
 30
0.0
 11
2.01292
 21
639.6615
 31
0.0
  0
LINE
  5
2C3
330
1D
100
AcDbEntity
  8
0
100
AcDbLine
 10
1.4012
 20
645.4615
 30
0.0
 11
1.4012
 21
646.4615
 31
0.0
  0
LINE
  5
2C4
330
1D
100
AcDbEntity
  8
0
100
AcDbLine
 10
1.4012
 20
645.4615
 30
0.0
 11
1.5541
 21
644.9615
 31
0.0
  0
LINE
  5
2C5
330
1D
100
AcDbEntity
  8
0
100
AcDbLine
 10
2.01293
 20
645.4615
 30
0.0
 11
2.80036
 21
645.4615
 31
0.0
  0
LINE
  5
2C6
330
1D
100
AcDbEntity
  8
0
100
AcDbLine
 10
1.86
 20
644.9615
 30
0.0
 11
2.01293
 21
645.4615
 31
0.0
  0
LINE
  5
2C7
330
1D
100
AcDbEntity
  8
0
100
AcDbLine
 10
1.86
 20
644.9615
 30
0.0
 11
2.6474
 21
644.9615
 31
0.0
  0
LINE
  5
2C8
330
1D
100
AcDbEntity
  8
0
100
AcDbLine
 10
1.5541
 20
644.9615
 30
0.0
 11
1.86
 21
644.9615
 31
0.0
  0
LINE
  5
2C9
330
1D
100
AcDbEntity
  8
0
100
AcDbLine
 10
1.5541
 20
644.9615
 30
0.0
 11
1.943159609121
 21
644.9615
 31
0.0
  0
LINE
  5
2CA
330
1D
100
AcDbEntity
  8
0
100
AcDbLine
 10
1.4012
 20
646.4615
 30
0.0
 11
1.5541
 21
646.9615
 31
0.0
  0
LINE
  5
2CB
330
1D
100
AcDbEntity
  8
0
100
AcDbLine
 10
1.4012
 20
646.4615
 30
0.0
 11
1.4012
 21
645.4615
 31
0.0
  0
LINE
  5
2CC
330
1D
100
AcDbEntity
  8
0
100
AcDbLine
 10
1.25
 20
646.9615
 30
0.0
 11
1.25
 21
651.7615
 31
0.0
  0
LINE
  5
2CD
330
1D
100
AcDbEntity
  8
0
100
AcDbLine
 10
1.4012
 20
652.2615
 30
0.0
 11
1.4012
 21
653.2615
 31
0.0
  0
LINE
  5
2CE
330
1D
100
AcDbEntity
  8
0
100
AcDbLine
 10
1.4012
 20
652.2615
 30
0.0
 11
1.5541
 21
651.7615
 31
0.0
  0
LINE
  5
2CF
330
1D
100
AcDbEntity
  8
0
100
AcDbLine
 10
1.4012
 20
653.2615
 30
0.0
 11
1.5541
 21
653.7615
 31
0.0
  0
LINE
  5
2D0
330
1D
100
AcDbEntity
  8
0
100
AcDbLine
 10
1.5541
 20
651.7615
 30
0.0
 11
1.86
 21
651.7615
 31
0.0
  0
LINE
  5
2D1
330
1D
100
AcDbEntity
  8
0
100
AcDbLine
 10
1.5541
 20
651.7615
 30
0.0
 11
2.34154
 21
651.7615
 31
0.0
  0
LINE
  5
2D2
330
1D
100
AcDbEntity
  8
0
100
AcDbLine
 10
1.5541
 20
646.9615
 30
0.0
 11
1.85998
 21
646.9615
 31
0.0
  0
LINE
  5
2D3
330
1D
100
AcDbEntity
  8
0
100
AcDbLine
 10
2.01293
 20
652.2615
 30
0.0
 11
2.80036
 21
652.2615
 31
0.0
  0
LINE
  5
2D4
330
1D
100
AcDbEntity
  8
0
100
AcDbLine
 10
1.86
 20
651.7615
 30
0.0
 11
2.01293
 21
652.2615
 31
0.0
  0
LINE
  5
2D5
330
1D
100
AcDbEntity
  8
0
100
AcDbLine
 10
1.86
 20
651.7615
 30
0.0
 11
2.6474
 21
651.7615
 31
0.0
  0
LINE
  5
2D6
330
1D
100
AcDbEntity
  8
0
100
AcDbLine
 10
2.01292
 20
653.2615
 30
0.0
 11
2.01293
 21
652.2615
 31
0.0
  0
LINE
  5
2D7
330
1D
100
AcDbEntity
  8
0
100
AcDbLine
 10
2.01292
 20
653.2615
 30
0.0
 11
2.80035
 21
653.2615
 31
0.0
  0
LINE
  5
2D8
330
1D
100
AcDbEntity
  8
0
100
AcDbLine
 10
3.57959
 20
652.2615
 30
0.0
 11
3.87017
 21
651.7615
 31
0.0
  0
LINE
  5
2D9
330
1D
100
AcDbEntity
  8
0
100
AcDbLine
 10
3.57959
 20
652.2615
 30
0.0
 11
3.57962
 21
653.2615
 31
0.0
  0
LINE
  5
2DA
330
1D
100
AcDbEntity
  8
0
100
AcDbLine
 10
1.85998
 20
646.9615
 30
0.0
 11
2.01292
 21
646.4615
 31
0.0
  0
LINE
  5
2DB
330
1D
100
AcDbEntity
  8
0
100
AcDbLine
 10
1.85998
 20
646.9615
 30
0.0
 11
2.64742
 21
646.9615
 31
0.0
  0
LINE
  5
2DC
330
1D
100
AcDbEntity
  8
0
100
AcDbLine
 10
2.01292
 20
646.4615
 30
0.0
 11
2.01293
 21
645.4615
 31
0.0
  0
LINE
  5
2DD
330
1D
100
AcDbEntity
  8
0
100
AcDbLine
 10
2.01292
 20
646.4615
 30
0.0
 11
2.80035
 21
646.4615
 31
0.0
  0
LINE
  5
2DE
330
1D
100
AcDbEntity
  8
0
100
AcDbLine
 10
3.57962
 20
653.2615
 30
0.0
 11
3.87019
 21
653.7615
 31
0.0
  0
LINE
  5
2DF
330
1D
100
AcDbEntity
  8
0
100
AcDbLine
 10
3.87017
 20
651.7615
 30
0.0
 11
4.4515
 21
651.7615
 31
0.0
  0
LINE
  5
2E0
330
1D
100
AcDbEntity
  8
0
100
AcDbLine
 10
3.87017
 20
651.7615
 30
0.0
 11
4.4831
 21
651.7615
 31
0.0
  0
LINE
  5
2E1
330
1D
100
AcDbEntity
  8
0
100
AcDbLine
 10
3.57962
 20
646.4615
 30
0.0
 11
3.87019
 21
646.9615
 31
0.0
  0
LINE
  5
2E2
330
1D
100
AcDbEntity
  8
0
100
AcDbLine
 10
3.57959
 20
645.4615
 30
0.0
 11
3.87017
 21
644.9615
 31
0.0
  0
LINE
  5
2E3
330
1D
100
AcDbEntity
  8
0
100
AcDbLine
 10
3.57959
 20
645.4615
 30
0.0
 11
3.57962
 21
646.4615
 31
0.0
  0
LINE
  5
2E4
330
1D
100
AcDbEntity
  8
0
100
AcDbLine
 10
3.87019
 20
646.9615
 30
0.0
 11
4.45148
 21
646.9615
 31
0.0
  0
LINE
  5
2E5
330
1D
100
AcDbEntity
  8
0
100
AcDbLine
 10
4.45148
 20
646.9615
 30
0.0
 11
4.7421
 21
646.4615
 31
0.0
  0
LINE
  5
2E6
330
1D
100
AcDbEntity
  8
0
100
AcDbLine
 10
4.45148
 20
646.9615
 30
0.0
 11
4.75
 21
646.9615
 31
0.0
  0
LINE
  5
2E7
330
1D
100
AcDbEntity
  8
0
100
AcDbLine
 10
3.87017
 20
644.9615
 30
0.0
 11
4.4515
 21
644.9615
 31
0.0
  0
LINE
  5
2E8
330
1D
100
AcDbEntity
  8
0
100
AcDbLine
 10
3.87017
 20
644.9615
 30
0.0
 11
4.4831
 21
644.9615
 31
0.0
  0
LINE
  5
2E9
330
1D
100
AcDbEntity
  8
0
100
AcDbLine
 10
3.87019
 20
640.1615
 30
0.0
 11
4.45148
 21
640.1615
 31
0.0
  0
LINE
  5
2EA
330
1D
100
AcDbEntity
  8
0
100
AcDbLine
 10
4.74207
 20
652.2615
 30
0.0
 11
4.7421
 21
653.2615
 31
0.0
  0
LINE
  5
2EB
330
1D
100
AcDbEntity
  8
0
100
AcDbLine
 10
4.74207
 20
652.2615
 30
0.0
 11
5.241856677524
 21
652.2615
 31
0.0
  0
LINE
  5
2EC
330
1D
100
AcDbEntity
  8
0
100
AcDbLine
 10
4.4515
 20
651.7615
 30
0.0
 11
4.74207
 21
652.2615
 31
0.0
  0
LINE
  5
2ED
330
1D
100
AcDbEntity
  8
0
100
AcDbLine
 10
4.4515
 20
651.7615
 30
0.0
 11
4.75
 21
651.7615
 31
0.0
  0
LINE
  5
2EE
330
1D
100
AcDbEntity
  8
0
100
AcDbLine
 10
4.7421
 20
653.2615
 30
0.0
 11
5.225570032573
 21
653.2615
 31
0.0
  0
LINE
  5
2EF
330
1D
100
AcDbEntity
  8
0
100
AcDbLine
 10
4.7421
 20
646.4615
 30
0.0
 11
5.336319218241
 21
646.4615
 31
0.0
  0
LINE
  5
2F0
330
1D
100
AcDbEntity
  8
0
100
AcDbLine
 10
4.74207
 20
645.4615
 30
0.0
 11
4.7421
 21
646.4615
 31
0.0
  0
LINE
  5
2F1
330
1D
100
AcDbEntity
  8
0
100
AcDbLine
 10
4.74207
 20
645.4615
 30
0.0
 11
5.352605863192
 21
645.4615
 31
0.0
  0
LINE
  5
2F2
330
1D
100
AcDbEntity
  8
0
100
AcDbLine
 10
4.4515
 20
644.9615
 30
0.0
 11
4.74207
 21
645.4615
 31
0.0
  0
LINE
  5
2F3
330
1D
100
AcDbEntity
  8
0
100
AcDbLine
 10
4.4515
 20
644.9615
 30
0.0
 11
4.75
 21
644.9615
 31
0.0
  0
LINE
  5
2F4
330
1D
100
AcDbEntity
  8
0
100
AcDbLine
 10
4.45148
 20
640.1615
 30
0.0
 11
4.75
 21
640.1615
 31
0.0
  0
LINE
  5
2F5
330
1D
100
AcDbEntity
  8
0
100
AcDbLine
 10
4.45148
 20
640.1615
 30
0.0
 11
4.7421
 21
639.6615
 31
0.0
  0
LINE
  5
2F6
330
1D
100
AcDbEntity
  8
0
100
AcDbLine
 10
0.7502
 20
658.5615
 30
0.0
 11
1.25
 21
658.5615
 31
0.0
  0
LINE
  5
2F7
330
1D
100
AcDbEntity
  8
0
100
AcDbLine
 10
0.7502
 20
658.5615
 30
0.0
 11
1.25
 21
658.5615
 31
0.0
  0
LINE
  5
2F8
330
1D
100
AcDbEntity
  8
0
100
AcDbLine
 10
0.7502
 20
658.5615
 30
0.0
 11
0.7502
 21
659.0615
 31
0.0
  0
LINE
  5
2F9
330
1D
100
AcDbEntity
  8
0
100
AcDbLine
 10
0.7502
 20
659.0615
 30
0.0
 11
0.7502
 21
658.5615
 31
0.0
  0
LINE
  5
2FA
330
1D
100
AcDbEntity
  8
0
100
AcDbLine
 10
0.7502
 20
659.0615
 30
0.0
 11
1.25
 21
659.0615
 31
0.0
  0
LINE
  5
2FB
330
1D
100
AcDbEntity
  8
0
100
AcDbLine
 10
0.7502
 20
659.0615
 30
0.0
 11
0.7502
 21
660.0615
 31
0.0
  0
LINE
  5
2FC
330
1D
100
AcDbEntity
  8
0
100
AcDbLine
 10
0.7502
 20
659.0615
 30
0.0
 11
1.25
 21
659.0615
 31
0.0
  0
LINE
  5
2FD
330
1D
100
AcDbEntity
  8
0
100
AcDbLine
 10
0.7502
 20
667.3615
 30
0.0
 11
0.7502
 21
666.8615
 31
0.0
  0
LINE
  5
2FE
330
1D
100
AcDbEntity
  8
0
100
AcDbLine
 10
0.7502
 20
667.3615
 30
0.0
 11
1.25
 21
667.3615
 31
0.0
  0
LINE
  5
2FF
330
1D
100
AcDbEntity
  8
0
100
AcDbLine
 10
0.7502
 20
667.3615
 30
0.0
 11
1.25
 21
667.3615
 31
0.0
  0
LINE
  5
300
330
1D
100
AcDbEntity
  8
0
100
AcDbLine
 10
0.7502
 20
666.8615
 30
0.0
 11
0.7502
 21
665.8615
 31
0.0
  0
LINE
  5
301
330
1D
100
AcDbEntity
  8
0
100
AcDbLine
 10
0.7502
 20
666.8615
 30
0.0
 11
0.7502
 21
667.3615
 31
0.0
  0
LINE
  5
302
330
1D
100
AcDbEntity
  8
0
100
AcDbLine
 10
0.7502
 20
666.8615
 30
0.0
 11
1.25
 21
666.8615
 31
0.0
  0
LINE
  5
303
330
1D
100
AcDbEntity
  8
0
100
AcDbLine
 10
0.7502
 20
672.6615
 30
0.0
 11
0.7502
 21
672.1615
 31
0.0
  0
LINE
  5
304
330
1D
100
AcDbEntity
  8
0
100
AcDbLine
 10
0.7502
 20
672.6615
 30
0.0
 11
0.7502
 21
673.6615
 31
0.0
  0
LINE
  5
305
330
1D
100
AcDbEntity
  8
0
100
AcDbLine
 10
0.7502
 20
672.6615
 30
0.0
 11
1.25
 21
672.6615
 31
0.0
  0
LINE
  5
306
330
1D
100
AcDbEntity
  8
0
100
AcDbLine
 10
0.7502
 20
672.1615
 30
0.0
 11
0.7502
 21
672.6615
 31
0.0
  0
LINE
  5
307
330
1D
100
AcDbEntity
  8
0
100
AcDbLine
 10
0.7502
 20
672.1615
 30
0.0
 11
1.25
 21
672.1615
 31
0.0
  0
LINE
  5
308
330
1D
100
AcDbEntity
  8
0
100
AcDbLine
 10
0.7502
 20
665.8615
 30
0.0
 11
0.7502
 21
665.3615
 31
0.0
  0
LINE
  5
309
330
1D
100
AcDbEntity
  8
0
100
AcDbLine
 10
0.7502
 20
665.8615
 30
0.0
 11
1.25
 21
665.8615
 31
0.0
  0
LINE
  5
30A
330
1D
100
AcDbEntity
  8
0
100
AcDbLine
 10
0.7502
 20
665.8615
 30
0.0
 11
0.7502
 21
666.8615
 31
0.0
  0
LINE
  5
30B
330
1D
100
AcDbEntity
  8
0
100
AcDbLine
 10
0.7502
 20
665.3615
 30
0.0
 11
0.7502
 21
665.8615
 31
0.0
  0
LINE
  5
30C
330
1D
100
AcDbEntity
  8
0
100
AcDbLine
 10
0.7502
 20
665.3615
 30
0.0
 11
1.25
 21
665.3615
 31
0.0
  0
LINE
  5
30D
330
1D
100
AcDbEntity
  8
0
100
AcDbLine
 10
0.7502
 20
660.5615
 30
0.0
 11
1.25
 21
660.5615
 31
0.0
  0
LINE
  5
30E
330
1D
100
AcDbEntity
  8
0
100
AcDbLine
 10
0.7502
 20
660.5615
 30
0.0
 11
0.7502
 21
660.0615
 31
0.0
  0
LINE
  5
30F
330
1D
100
AcDbEntity
  8
0
100
AcDbLine
 10
0.7502
 20
660.0615
 30
0.0
 11
0.7502
 21
660.5615
 31
0.0
  0
LINE
  5
310
330
1D
100
AcDbEntity
  8
0
100
AcDbLine
 10
0.7502
 20
660.0615
 30
0.0
 11
1.25
 21
660.0615
 31
0.0
  0
LINE
  5
311
330
1D
100
AcDbEntity
  8
0
100
AcDbLine
 10
0.7502
 20
660.0615
 30
0.0
 11
0.7502
 21
659.0615
 31
0.0
  0
LINE
  5
312
330
1D
100
AcDbEntity
  8
0
100
AcDbLine
 10
1.25
 20
653.7615
 30
0.0
 11
1.25
 21
658.5615
 31
0.0
  0
LINE
  5
313
330
1D
100
AcDbEntity
  8
0
100
AcDbLine
 10
1.5541
 20
653.7615
 30
0.0
 11
1.85998
 21
653.7615
 31
0.0
  0
LINE
  5
314
330
1D
100
AcDbEntity
  8
0
100
AcDbLine
 10
1.85998
 20
653.7615
 30
0.0
 11
2.01292
 21
653.2615
 31
0.0
  0
LINE
  5
315
330
1D
100
AcDbEntity
  8
0
100
AcDbLine
 10
1.85998
 20
653.7615
 30
0.0
 11
2.64742
 21
653.7615
 31
0.0
  0
LINE
  5
316
330
1D
100
AcDbEntity
  8
0
100
AcDbLine
 10
3.87019
 20
653.7615
 30
0.0
 11
4.45148
 21
653.7615
 31
0.0
  0
LINE
  5
317
330
1D
100
AcDbEntity
  8
0
100
AcDbLine
 10
1.4012
 20
659.0615
 30
0.0
 11
1.5541
 21
658.5615
 31
0.0
  0
LINE
  5
318
330
1D
100
AcDbEntity
  8
0
100
AcDbLine
 10
1.4012
 20
659.0615
 30
0.0
 11
1.4012
 21
660.0615
 31
0.0
  0
LINE
  5
319
330
1D
100
AcDbEntity
  8
0
100
AcDbLine
 10
1.5541
 20
658.5615
 30
0.0
 11
1.86
 21
658.5615
 31
0.0
  0
LINE
  5
31A
330
1D
100
AcDbEntity
  8
0
100
AcDbLine
 10
1.5541
 20
658.5615
 30
0.0
 11
2.34154
 21
658.5615
 31
0.0
  0
LINE
  5
31B
330
1D
100
AcDbEntity
  8
0
100
AcDbLine
 10
2.01293
 20
659.0615
 30
0.0
 11
2.80036
 21
659.0615
 31
0.0
  0
LINE
  5
31C
330
1D
100
AcDbEntity
  8
0
100
AcDbLine
 10
1.86
 20
658.5615
 30
0.0
 11
2.01293
 21
659.0615
 31
0.0
  0
LINE
  5
31D
330
1D
100
AcDbEntity
  8
0
100
AcDbLine
 10
1.86
 20
658.5615
 30
0.0
 11
2.6474
 21
658.5615
 31
0.0
  0
LINE
  5
31E
330
1D
100
AcDbEntity
  8
0
100
AcDbLine
 10
1.25
 20
660.5615
 30
0.0
 11
1.25
 21
665.3615
 31
0.0
  0
LINE
  5
31F
330
1D
100
AcDbEntity
  8
0
100
AcDbLine
 10
1.4012
 20
660.0615
 30
0.0
 11
1.5541
 21
660.5615
 31
0.0
  0
LINE
  5
320
330
1D
100
AcDbEntity
  8
0
100
AcDbLine
 10
1.4012
 20
660.0615
 30
0.0
 11
1.4012
 21
659.0615
 31
0.0
  0
LINE
  5
321
330
1D
100
AcDbEntity
  8
0
100
AcDbLine
 10
0.7502
 20
678.9615
 30
0.0
 11
0.7502
 21
679.4615
 31
0.0
  0
LINE
  5
322
330
1D
100
AcDbEntity
  8
0
100
AcDbLine
 10
0.7502
 20
678.9615
 30
0.0
 11
1.25
 21
678.9615
 31
0.0
  0
LINE
  5
323
330
1D
100
AcDbEntity
  8
0
100
AcDbLine
 10
0.7502
 20
678.9615
 30
0.0
 11
1.25
 21
678.9615
 31
0.0
  0
LINE
  5
324
330
1D
100
AcDbEntity
  8
0
100
AcDbLine
 10
0.7502
 20
680.9615
 30
0.0
 11
0.7502
 21
680.4615
 31
0.0
  0
LINE
  5
325
330
1D
100
AcDbEntity
  8
0
100
AcDbLine
 10
0.7502
 20
680.9615
 30
0.0
 11
1.25
 21
680.9615
 31
0.0
  0
LINE
  5
326
330
1D
100
AcDbEntity
  8
0
100
AcDbLine
 10
0.7502
 20
680.9615
 30
0.0
 11
1.25
 21
680.9615
 31
0.0
  0
LINE
  5
327
330
1D
100
AcDbEntity
  8
0
100
AcDbLine
 10
0.7502
 20
680.4615
 30
0.0
 11
0.7502
 21
680.9615
 31
0.0
  0
LINE
  5
328
330
1D
100
AcDbEntity
  8
0
100
AcDbLine
 10
0.7502
 20
680.4615
 30
0.0
 11
0.7502
 21
679.4615
 31
0.0
  0
LINE
  5
329
330
1D
100
AcDbEntity
  8
0
100
AcDbLine
 10
0.7502
 20
680.4615
 30
0.0
 11
1.25
 21
680.4615
 31
0.0
  0
LINE
  5
32A
330
1D
100
AcDbEntity
  8
0
100
AcDbLine
 10
0.7502
 20
679.4615
 30
0.0
 11
0.7502
 21
680.4615
 31
0.0
  0
LINE
  5
32B
330
1D
100
AcDbEntity
  8
0
100
AcDbLine
 10
0.7502
 20
679.4615
 30
0.0
 11
1.25
 21
679.4615
 31
0.0
  0
LINE
  5
32C
330
1D
100
AcDbEntity
  8
0
100
AcDbLine
 10
0.7502
 20
679.4615
 30
0.0
 11
0.7502
 21
678.9615
 31
0.0
  0
LINE
  5
32D
330
1D
100
AcDbEntity
  8
0
100
AcDbLine
 10
0.7502
 20
679.4615
 30
0.0
 11
1.25
 21
679.4615
 31
0.0
  0
LINE
  5
32E
330
1D
100
AcDbEntity
  8
0
100
AcDbLine
 10
0.7502
 20
674.1615
 30
0.0
 11
1.25
 21
674.1615
 31
0.0
  0
LINE
  5
32F
330
1D
100
AcDbEntity
  8
0
100
AcDbLine
 10
0.7502
 20
674.1615
 30
0.0
 11
0.7502
 21
673.6615
 31
0.0
  0
LINE
  5
330
330
1D
100
AcDbEntity
  8
0
100
AcDbLine
 10
1.5541
 20
665.3615
 30
0.0
 11
2.34154
 21
665.3615
 31
0.0
  0
LINE
  5
331
330
1D
100
AcDbEntity
  8
0
100
AcDbLine
 10
1.5541
 20
665.3615
 30
0.0
 11
1.86
 21
665.3615
 31
0.0
  0
LINE
  5
332
330
1D
100
AcDbEntity
  8
0
100
AcDbLine
 10
1.25
 20
667.3615
 30
0.0
 11
1.25
 21
672.1615
 31
0.0
  0
LINE
  5
333
330
1D
100
AcDbEntity
  8
0
100
AcDbLine
 10
1.25
 20
683.4615
 30
0.0
 11
2.25
 21
682.9615
 31
0.0
  0
LINE
  5
334
330
1D
100
AcDbEntity
  8
0
100
AcDbLine
 10
1.25
 20
683.4615
 30
0.0
 11
1.25
 21
702.4615
 31
0.0
  0
LINE
  5
335
330
1D
100
AcDbEntity
  8
0
100
AcDbLine
 10
1.25
 20
683.4615
 30
0.0
 11
1.65
 21
683.4615
 31
0.0
  0
LINE
  5
336
330
1D
100
AcDbEntity
  8
0
100
AcDbLine
 10
1.25
 20
702.4615
 30
0.0
 11
1.75
 21
702.9615
 31
0.0
  0
LINE
  5
337
330
1D
100
AcDbEntity
  8
0
100
AcDbLine
 10
1.25
 20
702.4615
 30
0.0
 11
1.65
 21
702.4615
 31
0.0
  0
LINE
  5
338
330
1D
100
AcDbEntity
  8
0
100
AcDbLine
 10
1.25
 20
682.4615
 30
0.0
 11
2.25
 21
682.9615
 31
0.0
  0
LINE
  5
339
330
1D
100
AcDbEntity
  8
0
100
AcDbLine
 10
1.25
 20
682.4615
 30
0.0
 11
1.65
 21
682.4615
 31
0.0
  0
LINE
  5
33A
330
1D
100
AcDbEntity
  8
0
100
AcDbLine
 10
1.25
 20
680.9615
 30
0.0
 11
1.25
 21
682.4615
 31
0.0
  0
LINE
  5
33B
330
1D
100
AcDbEntity
  8
0
100
AcDbLine
 10
1.25
 20
674.1615
 30
0.0
 11
1.25
 21
678.9615
 31
0.0
  0
LINE
  5
33C
330
1D
100
AcDbEntity
  8
0
100
AcDbLine
 10
1.4012
 20
666.8615
 30
0.0
 11
1.5541
 21
667.3615
 31
0.0
  0
LINE
  5
33D
330
1D
100
AcDbEntity
  8
0
100
AcDbLine
 10
1.4012
 20
666.8615
 30
0.0
 11
1.4012
 21
665.8615
 31
0.0
  0
LINE
  5
33E
330
1D
100
AcDbEntity
  8
0
100
AcDbLine
 10
1.5541
 20
667.3615
 30
0.0
 11
1.85998
 21
667.3615
 31
0.0
  0
LINE
  5
33F
330
1D
100
AcDbEntity
  8
0
100
AcDbLine
 10
1.85998
 20
667.3615
 30
0.0
 11
2.01292
 21
666.8615
 31
0.0
  0
LINE
  5
340
330
1D
100
AcDbEntity
  8
0
100
AcDbLine
 10
1.85998
 20
667.3615
 30
0.0
 11
2.64742
 21
667.3615
 31
0.0
  0
LINE
  5
341
330
1D
100
AcDbEntity
  8
0
100
AcDbLine
 10
1.4012
 20
679.4615
 30
0.0
 11
1.4012
 21
680.4615
 31
0.0
  0
LINE
  5
342
330
1D
100
AcDbEntity
  8
0
100
AcDbLine
 10
1.4012
 20
679.4615
 30
0.0
 11
1.5541
 21
678.9615
 31
0.0
  0
LINE
  5
343
330
1D
100
AcDbEntity
  8
0
100
AcDbLine
 10
1.5541
 20
678.9615
 30
0.0
 11
1.86
 21
678.9615
 31
0.0
  0
LINE
  5
344
330
1D
100
AcDbEntity
  8
0
100
AcDbLine
 10
1.5541
 20
678.9615
 30
0.0
 11
2.34154
 21
678.9615
 31
0.0
  0
LINE
  5
345
330
1D
100
AcDbEntity
  8
0
100
AcDbLine
 10
1.5541
 20
680.9615
 30
0.0
 11
1.85998
 21
680.9615
 31
0.0
  0
LINE
  5
346
330
1D
100
AcDbEntity
  8
0
100
AcDbLine
 10
1.4012
 20
680.4615
 30
0.0
 11
1.5541
 21
680.9615
 31
0.0
  0
LINE
  5
347
330
1D
100
AcDbEntity
  8
0
100
AcDbLine
 10
1.4012
 20
680.4615
 30
0.0
 11
1.4012
 21
679.4615
 31
0.0
  0
LINE
  5
348
330
1D
100
AcDbEntity
  8
0
100
AcDbLine
 10
1.4012
 20
673.6615
 30
0.0
 11
1.5541
 21
674.1615
 31
0.0
  0
LINE
  5
349
330
1D
100
AcDbEntity
  8
0
100
AcDbLine
 10
1.75
 20
702.9615
 30
0.0
 11
2.15
 21
702.9615
 31
0.0
  0
LINE
  5
34A
330
1D
100
AcDbEntity
  8
0
100
AcDbLine
 10
1.65
 20
702.4615
 30
0.0
 11
2.85
 21
702.4615
 31
0.0
  0
LINE
  5
34B
330
1D
100
AcDbEntity
  8
0
100
AcDbLine
 10
1.65
 20
683.4615
 30
0.0
 11
2.85
 21
683.4615
 31
0.0
  0
LINE
  5
34C
330
1D
100
AcDbEntity
  8
0
100
AcDbLine
 10
1.65
 20
682.4615
 30
0.0
 11
2.85
 21
682.4615
 31
0.0
  0
LINE
  5
34D
330
1D
100
AcDbEntity
  8
0
100
AcDbLine
 10
1.5541
 20
674.1615
 30
0.0
 11
1.85998
 21
674.1615
 31
0.0
  0
LINE
  5
34E
330
1D
100
AcDbEntity
  8
0
100
AcDbLine
 10
1.5541
 20
672.1615
 30
0.0
 11
1.86
 21
672.1615
 31
0.0
  0
LINE
  5
34F
330
1D
100
AcDbEntity
  8
0
100
AcDbLine
 10
1.5541
 20
672.1615
 30
0.0
 11
2.34154
 21
672.1615
 31
0.0
  0
LINE
  5
350
330
1D
100
AcDbEntity
  8
0
100
AcDbLine
 10
1.4012
 20
672.6615
 30
0.0
 11
1.5541
 21
672.1615
 31
0.0
  0
LINE
  5
351
330
1D
100
AcDbEntity
  8
0
100
AcDbLine
 10
1.4012
 20
672.6615
 30
0.0
 11
1.4012
 21
673.6615
 31
0.0
  0
LINE
  5
352
330
1D
100
AcDbEntity
  8
0
100
AcDbLine
 10
1.4012
 20
665.8615
 30
0.0
 11
1.5541
 21
665.3615
 31
0.0
  0
LINE
  5
353
330
1D
100
AcDbEntity
  8
0
100
AcDbLine
 10
1.4012
 20
665.8615
 30
0.0
 11
1.4012
 21
666.8615
 31
0.0
  0
LINE
  5
354
330
1D
100
AcDbEntity
  8
0
100
AcDbLine
 10
0.7502
 20
673.6615
 30
0.0
 11
1.25
 21
673.6615
 31
0.0
  0
LINE
  5
355
330
1D
100
AcDbEntity
  8
0
100
AcDbLine
 10
0.7502
 20
673.6615
 30
0.0
 11
0.7502
 21
674.1615
 31
0.0
  0
LINE
  5
356
330
1D
100
AcDbEntity
  8
0
100
AcDbLine
 10
0.7502
 20
673.6615
 30
0.0
 11
1.25
 21
673.6615
 31
0.0
  0
LINE
  5
357
330
1D
100
AcDbEntity
  8
0
100
AcDbLine
 10
1.5541
 20
660.5615
 30
0.0
 11
1.85998
 21
660.5615
 31
0.0
  0
LINE
  5
358
330
1D
100
AcDbEntity
  8
0
100
AcDbLine
 10
2.01292
 20
666.8615
 30
0.0
 11
2.01293
 21
665.8615
 31
0.0
  0
LINE
  5
359
330
1D
100
AcDbEntity
  8
0
100
AcDbLine
 10
2.01292
 20
666.8615
 30
0.0
 11
2.80035
 21
666.8615
 31
0.0
  0
LINE
  5
35A
330
1D
100
AcDbEntity
  8
0
100
AcDbLine
 10
1.86
 20
672.1615
 30
0.0
 11
2.01293
 21
672.6615
 31
0.0
  0
LINE
  5
35B
330
1D
100
AcDbEntity
  8
0
100
AcDbLine
 10
1.86
 20
672.1615
 30
0.0
 11
2.6474
 21
672.1615
 31
0.0
  0
LINE
  5
35C
330
1D
100
AcDbEntity
  8
0
100
AcDbLine
 10
2.01293
 20
672.6615
 30
0.0
 11
2.80036
 21
672.6615
 31
0.0
  0
LINE
  5
35D
330
1D
100
AcDbEntity
  8
0
100
AcDbLine
 10
1.85998
 20
680.9615
 30
0.0
 11
2.01292
 21
680.4615
 31
0.0
  0
LINE
  5
35E
330
1D
100
AcDbEntity
  8
0
100
AcDbLine
 10
1.85998
 20
680.9615
 30
0.0
 11
2.64742
 21
680.9615
 31
0.0
  0
LINE
  5
35F
330
1D
100
AcDbEntity
  8
0
100
AcDbLine
 10
1.86
 20
678.9615
 30
0.0
 11
2.01293
 21
679.4615
 31
0.0
  0
LINE
  5
360
330
1D
100
AcDbEntity
  8
0
100
AcDbLine
 10
1.86
 20
678.9615
 30
0.0
 11
2.6474
 21
678.9615
 31
0.0
  0
LINE
  5
361
330
1D
100
AcDbEntity
  8
0
100
AcDbLine
 10
2.01292
 20
680.4615
 30
0.0
 11
2.01293
 21
679.4615
 31
0.0
  0
LINE
  5
362
330
1D
100
AcDbEntity
  8
0
100
AcDbLine
 10
2.01292
 20
680.4615
 30
0.0
 11
2.80035
 21
680.4615
 31
0.0
  0
LINE
  5
363
330
1D
100
AcDbEntity
  8
0
100
AcDbLine
 10
1.85998
 20
674.1615
 30
0.0
 11
2.64742
 21
674.1615
 31
0.0
  0
LINE
  5
364
330
1D
100
AcDbEntity
  8
0
100
AcDbLine
 10
1.85998
 20
674.1615
 30
0.0
 11
2.01292
 21
673.6615
 31
0.0
  0
LINE
  5
365
330
1D
100
AcDbEntity
  8
0
100
AcDbLine
 10
2.01292
 20
673.6615
 30
0.0
 11
2.01293
 21
672.6615
 31
0.0
  0
LINE
  5
366
330
1D
100
AcDbEntity
  8
0
100
AcDbLine
 10
2.01292
 20
673.6615
 30
0.0
 11
2.80035
 21
673.6615
 31
0.0
  0
LINE
  5
367
330
1D
100
AcDbEntity
  8
0
100
AcDbLine
 10
2.15
 20
702.9615
 30
0.0
 11
3.25
 21
702.9615
 31
0.0
  0
LINE
  5
368
330
1D
100
AcDbEntity
  8
0
100
AcDbLine
 10
3.25
 20
702.9615
 30
0.0
 11
5.15
 21
702.9615
 31
0.0
  0
LINE
  5
369
330
1D
100
AcDbEntity
  8
0
100
AcDbLine
 10
2.85
 20
702.4615
 30
0.0
 11
4.75
 21
702.4615
 31
0.0
  0
LINE
  5
36A
330
1D
100
AcDbEntity
  8
0
100
AcDbLine
 10
2.85
 20
683.4615
 30
0.0
 11
4.75
 21
683.4615
 31
0.0
  0
LINE
  5
36B
330
1D
100
AcDbEntity
  8
0
100
AcDbLine
 10
2.65
 20
682.9615
 30
0.0
 11
3.75
 21
682.9615
 31
0.0
  0
LINE
  5
36C
330
1D
100
AcDbEntity
  8
0
100
AcDbLine
 10
2.25
 20
682.9615
 30
0.0
 11
2.65
 21
682.9615
 31
0.0
  0
LINE
  5
36D
330
1D
100
AcDbEntity
  8
0
100
AcDbLine
 10
2.85
 20
682.4615
 30
0.0
 11
4.75
 21
682.4615
 31
0.0
  0
LINE
  5
36E
330
1D
100
AcDbEntity
  8
0
100
AcDbLine
 10
2.01293
 20
679.4615
 30
0.0
 11
2.80036
 21
679.4615
 31
0.0
  0
LINE
  5
36F
330
1D
100
AcDbEntity
  8
0
100
AcDbLine
 10
3.57959
 20
672.6615
 30
0.0
 11
3.87017
 21
672.1615
 31
0.0
  0
LINE
  5
370
330
1D
100
AcDbEntity
  8
0
100
AcDbLine
 10
3.57959
 20
672.6615
 30
0.0
 11
3.57962
 21
673.6615
 31
0.0
  0
LINE
  5
371
330
1D
100
AcDbEntity
  8
0
100
AcDbLine
 10
2.01293
 20
665.8615
 30
0.0
 11
2.80036
 21
665.8615
 31
0.0
  0
LINE
  5
372
330
1D
100
AcDbEntity
  8
0
100
AcDbLine
 10
1.86
 20
665.3615
 30
0.0
 11
2.01293
 21
665.8615
 31
0.0
  0
LINE
  5
373
330
1D
100
AcDbEntity
  8
0
100
AcDbLine
 10
1.86
 20
665.3615
 30
0.0
 11
2.6474
 21
665.3615
 31
0.0
  0
LINE
  5
374
330
1D
100
AcDbEntity
  8
0
100
AcDbLine
 10
3.57959
 20
679.4615
 30
0.0
 11
3.57962
 21
680.4615
 31
0.0
  0
LINE
  5
375
330
1D
100
AcDbEntity
  8
0
100
AcDbLine
 10
3.57959
 20
679.4615
 30
0.0
 11
3.87017
 21
678.9615
 31
0.0
  0
LINE
  5
376
330
1D
100
AcDbEntity
  8
0
100
AcDbLine
 10
3.57962
 20
666.8615
 30
0.0
 11
3.87019
 21
667.3615
 31
0.0
  0
LINE
  5
377
330
1D
100
AcDbEntity
  8
0
100
AcDbLine
 10
3.57959
 20
665.8615
 30
0.0
 11
3.87017
 21
665.3615
 31
0.0
  0
LINE
  5
378
330
1D
100
AcDbEntity
  8
0
100
AcDbLine
 10
3.57959
 20
665.8615
 30
0.0
 11
3.57962
 21
666.8615
 31
0.0
  0
LINE
  5
379
330
1D
100
AcDbEntity
  8
0
100
AcDbLine
 10
2.01292
 20
660.0615
 30
0.0
 11
2.80035
 21
660.0615
 31
0.0
  0
LINE
  5
37A
330
1D
100
AcDbEntity
  8
0
100
AcDbLine
 10
2.01292
 20
660.0615
 30
0.0
 11
2.01293
 21
659.0615
 31
0.0
  0
LINE
  5
37B
330
1D
100
AcDbEntity
  8
0
100
AcDbLine
 10
1.85998
 20
660.5615
 30
0.0
 11
2.64742
 21
660.5615
 31
0.0
  0
LINE
  5
37C
330
1D
100
AcDbEntity
  8
0
100
AcDbLine
 10
1.85998
 20
660.5615
 30
0.0
 11
2.01292
 21
660.0615
 31
0.0
  0
LINE
  5
37D
330
1D
100
AcDbEntity
  8
0
100
AcDbLine
 10
3.57959
 20
659.0615
 30
0.0
 11
3.87017
 21
658.5615
 31
0.0
  0
LINE
  5
37E
330
1D
100
AcDbEntity
  8
0
100
AcDbLine
 10
3.57959
 20
659.0615
 30
0.0
 11
3.57962
 21
660.0615
 31
0.0
  0
LINE
  5
37F
330
1D
100
AcDbEntity
  8
0
100
AcDbLine
 10
3.87017
 20
658.5615
 30
0.0
 11
4.4515
 21
658.5615
 31
0.0
  0
LINE
  5
380
330
1D
100
AcDbEntity
  8
0
100
AcDbLine
 10
3.87017
 20
658.5615
 30
0.0
 11
4.4831
 21
658.5615
 31
0.0
  0
LINE
  5
381
330
1D
100
AcDbEntity
  8
0
100
AcDbLine
 10
4.7421
 20
660.0615
 30
0.0
 11
5.114820846906
 21
660.0615
 31
0.0
  0
LINE
  5
382
330
1D
100
AcDbEntity
  8
0
100
AcDbLine
 10
4.74207
 20
659.0615
 30
0.0
 11
4.7421
 21
660.0615
 31
0.0
  0
LINE
  5
383
330
1D
100
AcDbEntity
  8
0
100
AcDbLine
 10
4.74207
 20
659.0615
 30
0.0
 11
5.131107491857
 21
659.0615
 31
0.0
  0
LINE
  5
384
330
1D
100
AcDbEntity
  8
0
100
AcDbLine
 10
4.4515
 20
658.5615
 30
0.0
 11
4.75
 21
658.5615
 31
0.0
  0
LINE
  5
385
330
1D
100
AcDbEntity
  8
0
100
AcDbLine
 10
4.4515
 20
658.5615
 30
0.0
 11
4.74207
 21
659.0615
 31
0.0
  0
LINE
  5
386
330
1D
100
AcDbEntity
  8
0
100
AcDbLine
 10
3.87019
 20
660.5615
 30
0.0
 11
4.45148
 21
660.5615
 31
0.0
  0
LINE
  5
387
330
1D
100
AcDbEntity
  8
0
100
AcDbLine
 10
3.87019
 20
667.3615
 30
0.0
 11
4.45148
 21
667.3615
 31
0.0
  0
LINE
  5
388
330
1D
100
AcDbEntity
  8
0
100
AcDbLine
 10
4.45148
 20
667.3615
 30
0.0
 11
4.7421
 21
666.8615
 31
0.0
  0
LINE
  5
389
330
1D
100
AcDbEntity
  8
0
100
AcDbLine
 10
4.45148
 20
667.3615
 30
0.0
 11
4.75
 21
667.3615
 31
0.0
  0
LINE
  5
38A
330
1D
100
AcDbEntity
  8
0
100
AcDbLine
 10
3.57962
 20
680.4615
 30
0.0
 11
3.87019
 21
680.9615
 31
0.0
  0
LINE
  5
38B
330
1D
100
AcDbEntity
  8
0
100
AcDbLine
 10
3.87019
 20
674.1615
 30
0.0
 11
4.45148
 21
674.1615
 31
0.0
  0
LINE
  5
38C
330
1D
100
AcDbEntity
  8
0
100
AcDbLine
 10
3.87017
 20
678.9615
 30
0.0
 11
4.4515
 21
678.9615
 31
0.0
  0
LINE
  5
38D
330
1D
100
AcDbEntity
  8
0
100
AcDbLine
 10
3.87017
 20
678.9615
 30
0.0
 11
4.4831
 21
678.9615
 31
0.0
  0
LINE
  5
38E
330
1D
100
AcDbEntity
  8
0
100
AcDbLine
 10
3.75
 20
682.9615
 30
0.0
 11
5.45
 21
682.9615
 31
0.0
  0
LINE
  5
38F
330
1D
100
AcDbEntity
  8
0
100
AcDbLine
 10
3.87019
 20
680.9615
 30
0.0
 11
4.45148
 21
680.9615
 31
0.0
  0
LINE
  5
390
330
1D
100
AcDbEntity
  8
0
100
AcDbLine
 10
4.45148
 20
680.9615
 30
0.0
 11
4.7421
 21
680.4615
 31
0.0
  0
LINE
  5
391
330
1D
100
AcDbEntity
  8
0
100
AcDbLine
 10
4.45148
 20
680.9615
 30
0.0
 11
4.774429967427
 21
680.9615
 31
0.0
  0
LINE
  5
392
330
1D
100
AcDbEntity
  8
0
100
AcDbLine
 10
4.45148
 20
674.1615
 30
0.0
 11
4.75
 21
674.1615
 31
0.0
  0
LINE
  5
393
330
1D
100
AcDbEntity
  8
0
100
AcDbLine
 10
4.45148
 20
674.1615
 30
0.0
 11
4.7421
 21
673.6615
 31
0.0
  0
LINE
  5
394
330
1D
100
AcDbEntity
  8
0
100
AcDbLine
 10
3.57962
 20
673.6615
 30
0.0
 11
3.87019
 21
674.1615
 31
0.0
  0
LINE
  5
395
330
1D
100
AcDbEntity
  8
0
100
AcDbLine
 10
3.87017
 20
672.1615
 30
0.0
 11
4.4515
 21
672.1615
 31
0.0
  0
LINE
  5
396
330
1D
100
AcDbEntity
  8
0
100
AcDbLine
 10
3.87017
 20
672.1615
 30
0.0
 11
4.4831
 21
672.1615
 31
0.0
  0
LINE
  5
397
330
1D
100
AcDbEntity
  8
0
100
AcDbLine
 10
4.4515
 20
672.1615
 30
0.0
 11
4.74207
 21
672.6615
 31
0.0
  0
LINE
  5
398
330
1D
100
AcDbEntity
  8
0
100
AcDbLine
 10
4.4515
 20
672.1615
 30
0.0
 11
4.75
 21
672.1615
 31
0.0
  0
LINE
  5
399
330
1D
100
AcDbEntity
  8
0
100
AcDbLine
 10
3.87017
 20
665.3615
 30
0.0
 11
4.4515
 21
665.3615
 31
0.0
  0
LINE
  5
39A
330
1D
100
AcDbEntity
  8
0
100
AcDbLine
 10
3.87017
 20
665.3615
 30
0.0
 11
4.4831
 21
665.3615
 31
0.0
  0
LINE
  5
39B
330
1D
100
AcDbEntity
  8
0
100
AcDbLine
 10
4.4515
 20
678.9615
 30
0.0
 11
4.74207
 21
679.4615
 31
0.0
  0
LINE
  5
39C
330
1D
100
AcDbEntity
  8
0
100
AcDbLine
 10
4.4515
 20
678.9615
 30
0.0
 11
4.807003257329
 21
678.9615
 31
0.0
  0
LINE
  5
39D
330
1D
100
AcDbEntity
  8
0
100
AcDbLine
 10
4.7421
 20
666.8615
 30
0.0
 11
5.004071661238
 21
666.8615
 31
0.0
  0
LINE
  5
39E
330
1D
100
AcDbEntity
  8
0
100
AcDbLine
 10
4.75
 20
682.4615
 30
0.0
 11
7.25
 21
682.4615
 31
0.0
  0
LINE
  5
39F
330
1D
100
AcDbEntity
  8
0
100
AcDbLine
 10
5.15
 20
702.9615
 30
0.0
 11
7.55
 21
702.9615
 31
0.0
  0
LINE
  5
3A0
330
1D
100
AcDbEntity
  8
0
100
AcDbLine
 10
4.75
 20
702.4615
 30
0.0
 11
7.25
 21
702.4615
 31
0.0
  0
LINE
  5
3A1
330
1D
100
AcDbEntity
  8
0
100
AcDbLine
 10
4.75
 20
683.4615
 30
0.0
 11
7.25
 21
683.4615
 31
0.0
  0
LINE
  5
3A2
330
1D
100
AcDbEntity
  8
0
100
AcDbLine
 10
7.55
 20
702.9615
 30
0.0
 11
10.25
 21
702.9615
 31
0.0
  0
LINE
  5
3A3
330
1D
100
AcDbEntity
  8
0
100
AcDbLine
 10
7.25
 20
702.4615
 30
0.0
 11
10.15
 21
702.4615
 31
0.0
  0
LINE
  5
3A4
330
1D
100
AcDbEntity
  8
0
100
AcDbLine
 10
7.25
 20
683.4615
 30
0.0
 11
10.15
 21
683.4615
 31
0.0
  0
LINE
  5
3A5
330
1D
100
AcDbEntity
  8
0
100
AcDbLine
 10
5.45
 20
682.9615
 30
0.0
 11
7.75
 21
682.9615
 31
0.0
  0
LINE
  5
3A6
330
1D
100
AcDbEntity
  8
0
100
AcDbLine
 10
10.15
 20
683.4615
 30
0.0
 11
13.25
 21
683.4615
 31
0.0
  0
LINE
  5
3A7
330
1D
100
AcDbEntity
  8
0
100
AcDbLine
 10
7.75
 20
682.9615
 30
0.0
 11
10.45
 21
682.9615
 31
0.0
  0
LINE
  5
3A8
330
1D
100
AcDbEntity
  8
0
100
AcDbLine
 10
7.25
 20
682.4615
 30
0.0
 11
10.15
 21
682.4615
 31
0.0
  0
LINE
  5
3A9
330
1D
100
AcDbEntity
  8
0
100
AcDbLine
 10
13.25
 20
682.9615
 30
0.0
 11
16.05
 21
682.9615
 31
0.0
  0
LINE
  5
3AA
330
1D
100
AcDbEntity
  8
0
100
AcDbLine
 10
21.75
 20
682.4615
 30
0.0
 11
23.65
 21
682.4615
 31
0.0
  0
LINE
  5
3AB
330
1D
100
AcDbEntity
  8
0
100
AcDbLine
 10
23.65
 20
682.4615
 30
0.0
 11
24.85
 21
682.4615
 31
0.0
  0
LINE
  5
3AC
330
1D
100
AcDbEntity
  8
0
100
AcDbLine
 10
24.85
 20
682.4615
 30
0.0
 11
25.25
 21
682.4615
 31
0.0
  0
LINE
  5
3AD
330
1D
100
AcDbEntity
  8
0
100
AcDbLine
 10
19.25
 20
682.4615
 30
0.0
 11
21.75
 21
682.4615
 31
0.0
  0
LINE
  5
3AE
330
1D
100
AcDbEntity
  8
0
100
AcDbLine
 10
21.05
 20
682.9615
 30
0.0
 11
22.75
 21
682.9615
 31
0.0
  0
LINE
  5
3AF
330
1D
100
AcDbEntity
  8
0
100
AcDbLine
 10
22.75
 20
682.9615
 30
0.0
 11
23.85
 21
682.9615
 31
0.0
  0
LINE
  5
3B0
330
1D
100
AcDbEntity
  8
0
100
AcDbLine
 10
24.25
 20
682.9615
 30
0.0
 11
25.25
 21
682.4615
 31
0.0
  0
LINE
  5
3B1
330
1D
100
AcDbEntity
  8
0
100
AcDbLine
 10
24.25
 20
682.9615
 30
0.0
 11
25.25
 21
683.4615
 31
0.0
  0
LINE
  5
3B2
330
1D
100
AcDbEntity
  8
0
100
AcDbLine
 10
23.85
 20
682.9615
 30
0.0
 11
24.25
 21
682.9615
 31
0.0
  0
LINE
  5
3B3
330
1D
100
AcDbEntity
  8
0
100
AcDbLine
 10
18.75
 20
682.9615
 30
0.0
 11
21.05
 21
682.9615
 31
0.0
  0
LINE
  5
3B4
330
1D
100
AcDbEntity
  8
0
100
AcDbLine
 10
16.05
 20
682.9615
 30
0.0
 11
18.75
 21
682.9615
 31
0.0
  0
LINE
  5
3B5
330
1D
100
AcDbEntity
  8
0
100
AcDbLine
 10
16.35
 20
682.4615
 30
0.0
 11
19.25
 21
682.4615
 31
0.0
  0
LINE
  5
3B6
330
1D
100
AcDbEntity
  8
0
100
AcDbLine
 10
13.25
 20
682.4615
 30
0.0
 11
16.35
 21
682.4615
 31
0.0
  0
LINE
  5
3B7
330
1D
100
AcDbEntity
  8
0
100
AcDbLine
 10
21.75
 20
683.4615
 30
0.0
 11
23.65
 21
683.4615
 31
0.0
  0
LINE
  5
3B8
330
1D
100
AcDbEntity
  8
0
100
AcDbLine
 10
25.25
 20
683.4615
 30
0.0
 11
25.25
 21
702.4615
 31
0.0
  0
LINE
  5
3B9
330
1D
100
AcDbEntity
  8
0
100
AcDbLine
 10
23.65
 20
683.4615
 30
0.0
 11
24.85
 21
683.4615
 31
0.0
  0
LINE
  5
3BA
330
1D
100
AcDbEntity
  8
0
100
AcDbLine
 10
24.85
 20
683.4615
 30
0.0
 11
25.25
 21
683.4615
 31
0.0
  0
LINE
  5
3BB
330
1D
100
AcDbEntity
  8
0
100
AcDbLine
 10
19.25
 20
683.4615
 30
0.0
 11
21.75
 21
683.4615
 31
0.0
  0
LINE
  5
3BC
330
1D
100
AcDbEntity
  8
0
100
AcDbLine
 10
13.25
 20
702.9615
 30
0.0
 11
16.25
 21
702.9615
 31
0.0
  0
LINE
  5
3BD
330
1D
100
AcDbEntity
  8
0
100
AcDbLine
 10
21.75
 20
702.4615
 30
0.0
 11
23.65
 21
702.4615
 31
0.0
  0
LINE
  5
3BE
330
1D
100
AcDbEntity
  8
0
100
AcDbLine
 10
25.25
 20
702.4615
 30
0.0
 11
25.25
 21
683.4615
 31
0.0
  0
LINE
  5
3BF
330
1D
100
AcDbEntity
  8
0
100
AcDbLine
 10
23.65
 20
702.4615
 30
0.0
 11
24.85
 21
702.4615
 31
0.0
  0
LINE
  5
3C0
330
1D
100
AcDbEntity
  8
0
100
AcDbLine
 10
24.85
 20
702.4615
 30
0.0
 11
25.25
 21
702.4615
 31
0.0
  0
LINE
  5
3C1
330
1D
100
AcDbEntity
  8
0
100
AcDbLine
 10
19.25
 20
702.4615
 30
0.0
 11
21.75
 21
702.4615
 31
0.0
  0
LINE
  5
3C2
330
1D
100
AcDbEntity
  8
0
100
AcDbLine
 10
21.35
 20
702.9615
 30
0.0
 11
23.25
 21
702.9615
 31
0.0
  0
LINE
  5
3C3
330
1D
100
AcDbEntity
  8
0
100
AcDbLine
 10
23.25
 20
702.9615
 30
0.0
 11
24.35
 21
702.9615
 31
0.0
  0
LINE
  5
3C4
330
1D
100
AcDbEntity
  8
0
100
AcDbLine
 10
24.75
 20
702.9615
 30
0.0
 11
25.25
 21
702.4615
 31
0.0
  0
LINE
  5
3C5
330
1D
100
AcDbEntity
  8
0
100
AcDbLine
 10
24.35
 20
702.9615
 30
0.0
 11
24.75
 21
702.9615
 31
0.0
  0
LINE
  5
3C6
330
1D
100
AcDbEntity
  8
0
100
AcDbLine
 10
18.95
 20
702.9615
 30
0.0
 11
21.35
 21
702.9615
 31
0.0
  0
LINE
  5
3C7
330
1D
100
AcDbEntity
  8
0
100
AcDbLine
 10
16.25
 20
702.9615
 30
0.0
 11
18.95
 21
702.9615
 31
0.0
  0
LINE
  5
3C8
330
1D
100
AcDbEntity
  8
0
100
AcDbLine
 10
16.35
 20
702.4615
 30
0.0
 11
19.25
 21
702.4615
 31
0.0
  0
LINE
  5
3C9
330
1D
100
AcDbEntity
  8
0
100
AcDbLine
 10
13.25
 20
702.4615
 30
0.0
 11
16.35
 21
702.4615
 31
0.0
  0
LINE
  5
3CA
330
1D
100
AcDbEntity
  8
0
100
AcDbLine
 10
16.35
 20
683.4615
 30
0.0
 11
19.25
 21
683.4615
 31
0.0
  0
LINE
  5
3CB
330
1D
100
AcDbEntity
  8
0
100
AcDbLine
 10
13.25
 20
683.4615
 30
0.0
 11
16.35
 21
683.4615
 31
0.0
  0
LINE
  5
3CC
330
1D
100
AcDbEntity
  8
0
100
AcDbLine
 10
10.25
 20
702.9615
 30
0.0
 11
13.25
 21
702.9615
 31
0.0
  0
LINE
  5
3CD
330
1D
100
AcDbEntity
  8
0
100
AcDbLine
 10
10.15
 20
702.4615
 30
0.0
 11
13.25
 21
702.4615
 31
0.0
  0
LINE
  5
3CE
330
1D
100
AcDbEntity
  8
0
100
AcDbLine
 10
10.45
 20
682.9615
 30
0.0
 11
13.25
 21
682.9615
 31
0.0
  0
LINE
  5
3CF
330
1D
100
AcDbEntity
  8
0
100
AcDbLine
 10
10.15
 20
682.4615
 30
0.0
 11
13.25
 21
682.4615
 31
0.0
  0
LINE
  5
3D0
330
1D
100
AcDbEntity
  8
0
100
AcDbLine
 10
4.7421
 20
680.4615
 30
0.0
 11
5.35504
 21
680.4615
 31
0.0
  0
LINE
  5
3D1
330
1D
100
AcDbEntity
  8
0
100
AcDbLine
 10
4.74207
 20
679.4615
 30
0.0
 11
5.35501
 21
679.4615
 31
0.0
  0
LINE
  5
3D2
330
1D
100
AcDbEntity
  8
0
100
AcDbLine
 10
4.74207
 20
679.4615
 30
0.0
 11
4.7421
 21
680.4615
 31
0.0
  0
LINE
  5
3D3
330
1D
100
AcDbEntity
  8
0
100
AcDbLine
 10
4.7421
 20
673.6615
 30
0.0
 11
5.35504
 21
673.6615
 31
0.0
  0
LINE
  5
3D4
330
1D
100
AcDbEntity
  8
0
100
AcDbLine
 10
4.74207
 20
672.6615
 30
0.0
 11
5.35501
 21
672.6615
 31
0.0
  0
LINE
  5
3D5
330
1D
100
AcDbEntity
  8
0
100
AcDbLine
 10
4.74207
 20
672.6615
 30
0.0
 11
4.7421
 21
673.6615
 31
0.0
  0
LINE
  5
3D6
330
1D
100
AcDbEntity
  8
0
100
AcDbLine
 10
4.74207
 20
665.8615
 30
0.0
 11
5.020358306189
 21
665.8615
 31
0.0
  0
LINE
  5
3D7
330
1D
100
AcDbEntity
  8
0
100
AcDbLine
 10
4.74207
 20
665.8615
 30
0.0
 11
4.7421
 21
666.8615
 31
0.0
  0
LINE
  5
3D8
330
1D
100
AcDbEntity
  8
0
100
AcDbLine
 10
4.4515
 20
665.3615
 30
0.0
 11
4.74207
 21
665.8615
 31
0.0
  0
LINE
  5
3D9
330
1D
100
AcDbEntity
  8
0
100
AcDbLine
 10
4.4515
 20
665.3615
 30
0.0
 11
4.75
 21
665.3615
 31
0.0
  0
LINE
  5
3DA
330
1D
100
AcDbEntity
  8
0
100
AcDbLine
 10
4.45148
 20
660.5615
 30
0.0
 11
4.75
 21
660.5615
 31
0.0
  0
LINE
  5
3DB
330
1D
100
AcDbEntity
  8
0
100
AcDbLine
 10
4.45148
 20
660.5615
 30
0.0
 11
4.7421
 21
660.0615
 31
0.0
  0
LINE
  5
3DC
330
1D
100
AcDbEntity
  8
0
100
AcDbLine
 10
3.57962
 20
660.0615
 30
0.0
 11
3.87019
 21
660.5615
 31
0.0
  0
LINE
  5
3DD
330
1D
100
AcDbEntity
  8
0
100
AcDbLine
 10
4.45148
 20
653.7615
 30
0.0
 11
4.7421
 21
653.2615
 31
0.0
  0
LINE
  5
3DE
330
1D
100
AcDbEntity
  8
0
100
AcDbLine
 10
4.45148
 20
653.7615
 30
0.0
 11
4.75
 21
653.7615
 31
0.0
  0
LINE
  5
3DF
330
1D
100
AcDbEntity
  8
0
100
AcDbLine
 10
0.7502
 20
653.7615
 30
0.0
 11
0.7502
 21
653.2615
 31
0.0
  0
LINE
  5
3E0
330
1D
100
AcDbEntity
  8
0
100
AcDbLine
 10
0.7502
 20
653.7615
 30
0.0
 11
1.25
 21
653.7615
 31
0.0
  0
LINE
  5
3E1
330
1D
100
AcDbEntity
  8
0
100
AcDbLine
 10
0.7502
 20
653.2615
 30
0.0
 11
0.7502
 21
653.7615
 31
0.0
  0
LINE
  5
3E2
330
1D
100
AcDbEntity
  8
0
100
AcDbLine
 10
0.7502
 20
653.2615
 30
0.0
 11
1.25
 21
653.2615
 31
0.0
  0
LINE
  5
3E3
330
1D
100
AcDbEntity
  8
0
100
AcDbLine
 10
0.7502
 20
653.2615
 30
0.0
 11
1.25
 21
653.2615
 31
0.0
  0
LINE
  5
3E4
330
1D
100
AcDbEntity
  8
0
100
AcDbLine
 10
0.7502
 20
640.1615
 30
0.0
 11
1.25
 21
640.1615
 31
0.0
  0
LINE
  5
3E5
330
1D
100
AcDbEntity
  8
0
100
AcDbLine
 10
0.7502
 20
640.1615
 30
0.0
 11
0.7502
 21
639.6615
 31
0.0
  0
LINE
  5
3E6
330
1D
100
AcDbEntity
  8
0
100
AcDbLine
 10
0.7502
 20
640.1615
 30
0.0
 11
1.25
 21
640.1615
 31
0.0
  0
LINE
  5
3E7
330
1D
100
AcDbEntity
  8
0
100
AcDbLine
 10
0.7502
 20
639.6615
 30
0.0
 11
0.7502
 21
640.1615
 31
0.0
  0
LINE
  5
3E8
330
1D
100
AcDbEntity
  8
0
100
AcDbLine
 10
0.7502
 20
639.6615
 30
0.0
 11
1.25
 21
639.6615
 31
0.0
  0
LINE
  5
3E9
330
1D
100
AcDbEntity
  8
0
100
AcDbLine
 10
0.7502
 20
639.6615
 30
0.0
 11
0.7502
 21
638.6615
 31
0.0
  0
LINE
  5
3EC
330
1D
100
AcDbEntity
  8
0
100
AcDbLine
 10
91.6968
 20
516.962893
 30
0.0
 11
91.75
 21
516.9615
 31
0.0
  0
LINE
  5
3ED
330
1D
100
AcDbEntity
  8
0
100
AcDbLine
 10
91.75
 20
517.181199
 30
0.0
 11
91.75
 21
517.792769
 31
0.0
  0
LINE
  5
3EE
330
1D
100
AcDbEntity
  8
0
100
AcDbLine
 10
71.7238
 20
517.485905
 30
0.0
 11
91.75
 21
516.9615
 31
0.0
  0
LINE
  5
3EF
330
1D
100
AcDbEntity
  8
0
100
AcDbLine
 10
71.7238
 20
517.485924
 30
0.0
 11
91.75
 21
516.9615
 31
0.0
  0
LINE
  5
3F0
330
1D
100
AcDbEntity
  8
0
100
AcDbLine
 10
91.75
 20
517.792769
 30
0.0
 11
91.75
 21
518.66158
 31
0.0
  0
LINE
  5
3F1
330
1D
100
AcDbEntity
  8
0
100
AcDbLine
 10
91.75
 20
518.66158
 30
0.0
 11
91.75
 21
518.9608
 31
0.0
  0
LINE
  5
3F2
330
1D
100
AcDbEntity
  8
0
100
AcDbLine
 10
91.75
 20
517.793037
 30
0.0
 11
91.75
 21
517.181396
 31
0.0
  0
LINE
  5
3F3
330
1D
100
AcDbEntity
  8
0
100
AcDbLine
 10
91.75
 20
517.181396
 30
0.0
 11
91.75
 21
516.9615
 31
0.0
  0
LINE
  5
3F4
330
1D
100
AcDbEntity
  8
0
100
AcDbLine
 10
91.75
 20
518.66154
 30
0.0
 11
91.75
 21
517.793037
 31
0.0
  0
LINE
  5
3F8
330
1D
100
AcDbEntity
  8
0
100
AcDbLine
 10
91.75
 20
518.96089
 30
0.0
 11
91.75
 21
637.0615
 31
0.0
  0
LINE
  5
3F9
330
1D
100
AcDbEntity
  8
0
100
AcDbLine
 10
91.75
 20
518.96089
 30
0.0
 11
91.75
 21
518.66154
 31
0.0
  0
LINE
  5
3FA
330
1D
100
AcDbEntity
  8
0
100
AcDbLine
 10
91.75
 20
518.96082
 30
0.0
 11
91.75
 21
637.0615
 31
0.0
  0
LINE
  5
3FB
330
1D
100
AcDbEntity
  8
0
100
AcDbLine
 10
91.75
 20
516.9615
 30
0.0
 11
91.75
 21
517.181199
 31
0.0
  0
LINE
  5
3FC
330
1D
100
AcDbEntity
  8
0
100
AcDbLine
 10
71.7238
 20
637.5365
 30
0.0
 11
91.75
 21
638.0615
 31
0.0
  0
LINE
  5
3FD
330
1D
100
AcDbEntity
  8
0
100
AcDbLine
 10
91.75
 20
637.0615
 30
0.0
 11
91.75
 21
637.6455
 31
0.0
  0
LINE
  5
3FE
330
1D
100
AcDbEntity
  8
0
100
AcDbLine
 10
91.75
 20
637.6455
 30
0.0
 11
91.75
 21
637.9515
 31
0.0
  0
LINE
  5
3FF
330
1D
100
AcDbEntity
  8
0
100
AcDbLine
 10
91.75
 20
637.6455
 30
0.0
 11
91.75
 21
637.0615
 31
0.0
  0
LINE
  5
400
330
1D
100
AcDbEntity
  8
0
100
AcDbLine
 10
91.75
 20
638.0615
 30
0.0
 11
91.75
 21
637.9525
 31
0.0
  0
LINE
  5
401
330
1D
100
AcDbEntity
  8
0
100
AcDbLine
 10
91.75
 20
637.9525
 30
0.0
 11
91.75
 21
637.6455
 31
0.0
  0
LINE
  5
402
330
1D
100
AcDbEntity
  8
0
100
AcDbLine
 10
91.75
 20
637.9515
 30
0.0
 11
91.75
 21
638.0615
 31
0.0
  0
LINE
  5
403
330
1D
100
AcDbEntity
  8
0
100
AcDbLine
 10
71.7237
 20
637.5365
 30
0.0
 11
91.75
 21
638.0615
 31
0.0
  0
ENDSEC
  0
SECTION
  2
OBJECTS
  0
DICTIONARY
  5
C
330
0
100
AcDbDictionary
281
     1
  3
ACAD_GROUP
350
D
  3
ACAD_LAYOUT
350
1A
  3
ACAD_MLEADERSTYLE
350
42D
  3
ACAD_MLINESTYLE
350
17
  3
ACAD_PLOTSETTINGS
350
19
  3
ACAD_PLOTSTYLENAME
350
E
  3
ACAD_SCALELIST
350
409
  3
AcDbVariableDictionary
350
42B
  3
DWGPROPS
350
430
  0
DICTIONARY
  5
D
102
{ACAD_REACTORS
330
C
102
}
330
C
100
AcDbDictionary
281
     1
  0
DICTIONARY
  5
1A
102
{ACAD_REACTORS
330
C
102
}
330
C
100
AcDbDictionary
281
     1
  3
Layout1
350
1C
  3
Model
350
1E
  0
DICTIONARY
  5
42D
102
{ACAD_REACTORS
330
C
102
}
330
C
100
AcDbDictionary
281
     1
  0
DICTIONARY
  5
17
102
{ACAD_REACTORS
330
C
102
}
330
C
100
AcDbDictionary
281
     1
  3
Standard
350
18
  0
DICTIONARY
  5
19
102
{ACAD_REACTORS
330
C
102
}
330
C
100
AcDbDictionary
281
     1
  0
ACDBDICTIONARYWDFLT
  5
E
102
{ACAD_REACTORS
330
C
102
}
330
C
100
AcDbDictionary
281
     1
  3
Normal
350
F
100
AcDbDictionaryWithDefault
340
F
  0
DICTIONARY
  5
409
102
{ACAD_REACTORS
330
C
102
}
330
C
100
AcDbDictionary
281
     1
  3
A0
350
40A
  3
A1
350
40B
  3
A2
350
40C
  3
A3
350
40D
  3
A4
350
40E
  3
A5
350
40F
  3
A6
350
410
  3
A7
350
411
  3
A8
350
412
  3
A9
350
413
  3
B0
350
414
  3
B1
350
415
  3
B2
350
416
  3
B3
350
417
  3
B4
350
418
  3
B5
350
419
  3
B6
350
41A
  3
B7
350
41B
  3
B8
350
41C
  3
B9
350
41D
  3
C0
350
41E
  3
C1
350
41F
  3
C2
350
420
  3
C3
350
421
  3
C4
350
422
  3
C5
350
423
  3
C6
350
424
  3
C7
350
425
  3
C8
350
426
  3
C9
350
427
  3
D0
350
428
  3
D1
350
429
  3
D2
350
42A
  0
DICTIONARY
  5
42B
102
{ACAD_REACTORS
330
C
102
}
330
C
100
AcDbDictionary
281
     1
  3
CANNOSCALE
350
42E
  0
XRECORD
  5
430
102
{ACAD_REACTORS
330
C
102
}
330
C
100
AcDbXrecord
280
     1
  1
DWGPROPS COOKIE
  2

  3

  4

  6

  7

  8
MARTIN
  9

300
=
301
=
302
=
303
=
304
=
305
=
306
=
307
=
308
=
309
=
 40
0.0
 41
2456184.535089595
 42
2456184.537170209
  1

 90
        0
  0
LAYOUT
  5
1C
102
{ACAD_REACTORS
330
1A
102
}
330
1A
100
AcDbPlotSettings
  1

  2
none_device
  4

  6

 40
0.0
 41
0.0
 42
0.0
 43
0.0
 44
0.0
 45
0.0
 46
0.0
 47
0.0
 48
0.0
 49
0.0
140
0.0
141
0.0
142
1.0
143
1.0
 70
   688
 72
     0
 73
     0
 74
     5
  7

 75
    16
147
1.0
148
0.0
149
0.0
100
AcDbLayout
  1
Layout1
 70
     1
 71
     1
 10
0.0
 20
0.0
 11
12.0
 21
9.0
 12
0.0
 22
0.0
 32
0.0
 14
1.000000000000E+20
 24
1.000000000000E+20
 34
1.000000000000E+20
 15
-1.000000000000E+20
 25
-1.000000000000E+20
 35
-1.000000000000E+20
146
0.0
 13
0.0
 23
0.0
 33
0.0
 16
1.0
 26
0.0
 36
0.0
 17
0.0
 27
1.0
 37
0.0
 76
     0
330
1B
  0
LAYOUT
  5
1E
102
{ACAD_REACTORS
330
1A
102
}
330
1A
100
AcDbPlotSettings
  1

  2
none_device
  4

  6

 40
0.0
 41
0.0
 42
0.0
 43
0.0
 44
0.0
 45
0.0
 46
0.0
 47
0.0
 48
0.0
 49
0.0
140
0.0
141
0.0
142
1.0
143
1.0
 70
  1712
 72
     0
 73
     0
 74
     0
  7

 75
     0
147
1.0
148
0.0
149
0.0
100
AcDbLayout
  1
Model
 70
     1
 71
     0
 10
0.0
 20
0.0
 11
12.0
 21
9.0
 12
0.0
 22
0.0
 32
0.0
 14
0.25
 24
0.0385
 34
0.0
 15
91.75
 25
702.9615
 35
0.0
146
0.0
 13
0.0
 23
0.0
 33
0.0
 16
1.0
 26
0.0
 36
0.0
 17
0.0
 27
1.0
 37
0.0
 76
     0
330
1D
331
404
  0
MLINESTYLE
  5
18
102
{ACAD_REACTORS
330
17
102
}
330
17
100
AcDbMlineStyle
  2
Standard
 70
     0
  3

 62
   256
 51
90.0
 52
90.0
 71
     2
 49
0.5
 62
   256
  6
BYLAYER
 49
-0.5
 62
   256
  6
BYLAYER
  0
ACDBPLACEHOLDER
  5
F
102
{ACAD_REACTORS
330
E
102
}
330
E
  0
SCALE
  5
40A
102
{ACAD_REACTORS
330
409
102
}
330
409
100
AcDbScale
 70
     0
300
1:1
140
1.0
141
1.0
290
     1
  0
SCALE
  5
40B
102
{ACAD_REACTORS
330
409
102
}
330
409
100
AcDbScale
 70
     0
300
1:2
140
1.0
141
2.0
290
     0
  0
SCALE
  5
40C
102
{ACAD_REACTORS
330
409
102
}
330
409
100
AcDbScale
 70
     0
300
1:4
140
1.0
141
4.0
290
     0
  0
SCALE
  5
40D
102
{ACAD_REACTORS
330
409
102
}
330
409
100
AcDbScale
 70
     0
300
1:5
140
1.0
141
5.0
290
     0
  0
SCALE
  5
40E
102
{ACAD_REACTORS
330
409
102
}
330
409
100
AcDbScale
 70
     0
300
1:8
140
1.0
141
8.0
290
     0
  0
SCALE
  5
40F
102
{ACAD_REACTORS
330
409
102
}
330
409
100
AcDbScale
 70
     0
300
1:10
140
1.0
141
10.0
290
     0
  0
SCALE
  5
410
102
{ACAD_REACTORS
330
409
102
}
330
409
100
AcDbScale
 70
     0
300
1:16
140
1.0
141
16.0
290
     0
  0
SCALE
  5
411
102
{ACAD_REACTORS
330
409
102
}
330
409
100
AcDbScale
 70
     0
300
1:20
140
1.0
141
20.0
290
     0
  0
SCALE
  5
412
102
{ACAD_REACTORS
330
409
102
}
330
409
100
AcDbScale
 70
     0
300
1:30
140
1.0
141
30.0
290
     0
  0
SCALE
  5
413
102
{ACAD_REACTORS
330
409
102
}
330
409
100
AcDbScale
 70
     0
300
1:40
140
1.0
141
40.0
290
     0
  0
SCALE
  5
414
102
{ACAD_REACTORS
330
409
102
}
330
409
100
AcDbScale
 70
     0
300
1:50
140
1.0
141
50.0
290
     0
  0
SCALE
  5
415
102
{ACAD_REACTORS
330
409
102
}
330
409
100
AcDbScale
 70
     0
300
1:100
140
1.0
141
100.0
290
     0
  0
SCALE
  5
416
102
{ACAD_REACTORS
330
409
102
}
330
409
100
AcDbScale
 70
     0
300
2:1
140
2.0
141
1.0
290
     0
  0
SCALE
  5
417
102
{ACAD_REACTORS
330
409
102
}
330
409
100
AcDbScale
 70
     0
300
4:1
140
4.0
141
1.0
290
     0
  0
SCALE
  5
418
102
{ACAD_REACTORS
330
409
102
}
330
409
100
AcDbScale
 70
     0
300
8:1
140
8.0
141
1.0
290
     0
  0
SCALE
  5
419
102
{ACAD_REACTORS
330
409
102
}
330
409
100
AcDbScale
 70
     0
300
10:1
140
10.0
141
1.0
290
     0
  0
SCALE
  5
41A
102
{ACAD_REACTORS
330
409
102
}
330
409
100
AcDbScale
 70
     0
300
100:1
140
100.0
141
1.0
290
     0
  0
SCALE
  5
41B
102
{ACAD_REACTORS
330
409
102
}
330
409
100
AcDbScale
 70
     0
300
1/128" = 1'-0"
140
0.0078125
141
12.0
290
     0
  0
SCALE
  5
41C
102
{ACAD_REACTORS
330
409
102
}
330
409
100
AcDbScale
 70
     0
300
1/64" = 1'-0"
140
0.015625
141
12.0
290
     0
  0
SCALE
  5
41D
102
{ACAD_REACTORS
330
409
102
}
330
409
100
AcDbScale
 70
     0
300
1/32" = 1'-0"
140
0.03125
141
12.0
290
     0
  0
SCALE
  5
41E
102
{ACAD_REACTORS
330
409
102
}
330
409
100
AcDbScale
 70
     0
300
1/16" = 1'-0"
140
0.0625
141
12.0
290
     0
  0
SCALE
  5
41F
102
{ACAD_REACTORS
330
409
102
}
330
409
100
AcDbScale
 70
     0
300
3/32" = 1'-0"
140
0.09375
141
12.0
290
     0
  0
SCALE
  5
420
102
{ACAD_REACTORS
330
409
102
}
330
409
100
AcDbScale
 70
     0
300
1/8" = 1'-0"
140
0.125
141
12.0
290
     0
  0
SCALE
  5
421
102
{ACAD_REACTORS
330
409
102
}
330
409
100
AcDbScale
 70
     0
300
3/16" = 1'-0"
140
0.1875
141
12.0
290
     0
  0
SCALE
  5
422
102
{ACAD_REACTORS
330
409
102
}
330
409
100
AcDbScale
 70
     0
300
1/4" = 1'-0"
140
0.25
141
12.0
290
     0
  0
SCALE
  5
423
102
{ACAD_REACTORS
330
409
102
}
330
409
100
AcDbScale
 70
     0
300
3/8" = 1'-0"
140
0.375
141
12.0
290
     0
  0
SCALE
  5
424
102
{ACAD_REACTORS
330
409
102
}
330
409
100
AcDbScale
 70
     0
300
1/2" = 1'-0"
140
0.5
141
12.0
290
     0
  0
SCALE
  5
425
102
{ACAD_REACTORS
330
409
102
}
330
409
100
AcDbScale
 70
     0
300
3/4" = 1'-0"
140
0.75
141
12.0
290
     0
  0
SCALE
  5
426
102
{ACAD_REACTORS
330
409
102
}
330
409
100
AcDbScale
 70
     0
300
1" = 1'-0"
140
1.0
141
12.0
290
     0
  0
SCALE
  5
427
102
{ACAD_REACTORS
330
409
102
}
330
409
100
AcDbScale
 70
     0
300
1-1/2" = 1'-0"
140
1.5
141
12.0
290
     0
  0
SCALE
  5
428
102
{ACAD_REACTORS
330
409
102
}
330
409
100
AcDbScale
 70
     0
300
3" = 1'-0"
140
3.0
141
12.0
290
     0
  0
SCALE
  5
429
102
{ACAD_REACTORS
330
409
102
}
330
409
100
AcDbScale
 70
     0
300
6" = 1'-0"
140
6.0
141
12.0
290
     0
  0
SCALE
  5
42A
102
{ACAD_REACTORS
330
409
102
}
330
409
100
AcDbScale
 70
     0
300
1'-0" = 1'-0"
140
12.0
141
12.0
290
     0
  0
DICTIONARYVAR
  5
42E
102
{ACAD_REACTORS
330
42B
102
}
330
42B
100
DictionaryVariables
280
     0
  1
1:1
  0
ENDSEC
  0
SECTION
  2
THUMBNAILIMAGE
 90
    16364
310
28000000B40000005500000001000800000000000000000000000000000000000000000000000000FFFFFF000000FF0000FFFF0000FF0000FFFF0000FF000000FF00FF000000000080808000C0C0C0000000FF007F7FFF000000A5005252A50000007F003F3F7F0000004C0026264C000000260013132600003FFF007F9FFF
310
000029A5005267A500001F7F003F4F7F0000134C00262F4C000009260013172600007FFF007FBFFF000052A500527CA500003F7F003F5F7F0000264C0026394C0000132600131C260000BFFF007FDFFF00007CA5005291A500005F7F003F6F7F0000394C0026424C00001C26001321260000FFFF007FFFFF0000A5A50052A5
310
A500007F7F003F7F7F00004C4C00264C4C00002626001326260000FFBF007FFFDF0000A57C0052A59100007F5F003F7F6F00004C3900264C420000261C001326210000FF7F007FFFBF0000A5520052A57C00007F3F003F7F5F00004C2600264C39000026130013261C0000FF3F007FFF9F0000A5290052A56700007F1F003F
310
7F4F00004C1300264C2F00002609001326170000FF00007FFF7F0000A5000052A55200007F00003F7F3F00004C0000264C260000260000132613003FFF00009FFF7F0029A5000067A552001F7F00004F7F3F00134C00002F4C260009260000172613007FFF0000BFFF7F0052A500007CA552003F7F00005F7F3F00264C0000
310
394C2600132600001C261300BFFF0000DFFF7F007CA5000091A552005F7F00006F7F3F00394C0000424C26001C26000021261300FFFF0000FFFF7F00A5A50000A5A552007F7F00007F7F3F004C4C00004C4C26002626000026261300FFBF0000FFDF7F00A57C0000A59152007F5F00007F6F3F004C3900004C422600261C00
310
0026211300FF7F0000FFBF7F00A5520000A57C52007F3F00007F5F3F004C2600004C39260026130000261C1300FF3F0000FF9F7F00A5290000A56752007F1F00007F4F3F004C1300004C2F26002609000026171300FF000000FF7F7F00A5000000A55252007F0000007F3F3F004C0000004C2626002600000026131300FF00
310
3F00FF7F9F00A5002900A55267007F001F007F3F4F004C0013004C262F002600090026131700FF007F00FF7FBF00A5005200A5527C007F003F007F3F5F004C0026004C2639002600130026131C00FF00BF00FF7FDF00A5007C00A55291007F005F007F3F6F004C0039004C26420026001C0026132100FF00FF00FF7FFF00A5
310
00A500A552A5007F007F007F3F7F004C004C004C264C002600260026132600BF00FF00DF7FFF007C00A5009152A5005F007F006F3F7F0039004C0042264C001C002600211326007F00FF00BF7FFF005200A5007C52A5003F007F005F3F7F0026004C0039264C00130026001C1326003F00FF009F7FFF002900A5006752A500
310
1F007F004F3F7F0013004C002F264C000900260017132600000000002D2D2D005B5B5B0089898900B7B7B700B3B3B30000000000000000000000000000000000000000000000000000000000000000000000000000000000000000000000000000000000000000000000000000000000000000000000000000000000000000
310
00000000000000000707070000000000000000000000000000000000000000000000000000000000000000000000000000000000000000000000000000000000000000000000000000000000000000000000000000000000000000000000000000000000000000000000000000000000000000000000000000000000000000
310
00000000000000000000000000000000000000000000000000000000000000000000000000000000000000000000000000000000000000000000000000070007000000000000000000000000000000000000000000000000000000000000000000000000000000000000000000000000000000000000000000000000000000
310
00000000000000000000000000000000000000000000000000000000000000000000000000000000000000000000000000000000000000000000000000000000000000000000000000000000000000000000000000000000000000000000000000000000000000000000000000000000000007000700000000000000000000
310
00000000000000000000000000000000000000000000000000000000000000000000000000000000000000000000000000000000000000000000000000000000000000000000000000000000000000000000000000000000000000000000000000000000000000000000000000000000000000000000000000000000000000
310
00000000000000000000000000000000000000000000000000000000000000000000000000000000070007000000000000000000000000000000000000000000000000000000000000000000000000000000000000000000000000000000000000000000000000000000000000000000000000000000000000000000000000
310
00000000000000000000000000000000000000000000000000000000000000000000000000000000000000000000000000000000000000000000000000000000000000000000000000000000000000000000000000000000000000000007000700000000000000000000000000000000000000000000000000000000000000
310
00000000000000000000000000000000000000000000000000000000000000000000000000000000000000000000000000000000000000000000000000000000000000000000000000000000000000000000000000000000000000000000000000000000000000000000000000000000000000000000000000000000000000
310
00000000000000000000000000000000000000070007000000000000000000000000000000000000000000000000000000000000000000000000000000000000000000000000000000000000000000000000000000000000000000000000000000000000000000000000000000000000000000000000000000000000000000
310
00000000000000000000000000000000000000000000000000000000000000000000000000000000000000000000000000000000000000000000000000000000000000000000000007000700000000000000000000000000000000000000000000000000000000000000000000000000000000000000000000000000000000
310
00000000000000000000000000000000000000000000000000000000000000000000000000000000000000000000000000000000000000000000000000000000000000000000000000000000000000000000000000000000000000000000000000000000000000000000000000000000000000000000000000000000000700
310
07000000000000000000000000000000000000000000000000000000000000000000000000000000000000000000000000000000000000000000000000000000000000000000000000000000000000000000000000000000000000000000000000000000000000000000000000000000000000000000000000000000000000
310
00000000000000000000000000000000000000000000000000000000000000000000000000000000000000000000000000000007000700000000000000000000000000000000000000000000000000000000000000000000000000000000000000000000000000000000000000000000000000000000000000000000000000
310
00000000000000000000000000000000000000000000000000000000000000000000000000000000000000000000000000000000000000000000000000000000000000000000000000000000000000000000000000000000000000000000000000000000000000000700070000000000000000000000000000000000000000
310
00000000000000000000000000000000000000000000000000000000000000000000000000000000000000000000000000000000000000000000000000000000000000000000000000000000000000000000000000000000000000000000000000000000000000000000000000000000000000000000000000000000000000
310
00000000000000000000000000000000000000000000000000000000000007000700000000000000000000000000000000000000000000000000000000000000000000000000000000000000000000000000000000000000000000000000000000000000000000000000000000000000000000000000000000000000000000
310
00000000000000000000000000000000000000000000000000000000000000000000000000000000000000000000000000000000000000000000000000000000000000000000000000000000000000000000000700070000000000000000000000000000000000000000000000000000000000000000000000000000000000
310
00000000000000000000000000000000000000000000000000000000000000000000000000000000000000000000000000000000000000000000000000000000000000000000000000000000000000000000000000000000000000000000000000000000000000000000000000000000000000000000000000000000000000
310
00000000000000000007000700000000000000000000000000000000000000000000000000000000000000000000000000000000000000000000000000000000000000000000000000000000000000000000000000000000000000000000000000000000000000000000000000000000000000000000000000000000000000
310
00000000000000000000000000000000000000000000000000000000000000000000000000000000000000000000000000000000000000000000000000000700070000000000000000000000000000000000000000000000000000000000000000000000000000000000000000000000000000000000000000000000000000
310
00000000000000000000000000000000000000000000000000000000000000000000000000000000000000000000000000000000000000000000000000000000000000000000000000000000000000000000000000000000000000000000000000000000000000000000000000000000000000070007000000000000000000
310
00000000000000000000000000000000000000000000000000000000000000000000000000000000000000000000000000000000000000000000000000000000000000000000000000000000000000000000000000000000000000000000000000000000000000000000000000000000000000000000000000000000000000
310
00000000000000000000000000000000000000000000000000000000000000000000000000000000000700070000000000000000000000000000000000000000000000000000000000000000000000000000000000000000000000000000000000000000000000000000000000000000000000000000000000000000000000
310
00000000000000000000000000000000000000000000000000000000000000000000000000000000000000000000000000000000000000000000000000000000000000000000000000000000000000000000000000000000000000000000070007000000000000000000000000000000000000000000000000000000000000
310
00000000000000000000000000000000000000000000000000000000000000000000000000000000000000000000000000000000000000000000000000000000000000000000000000000000000000000000000000000000000000000000000000000000000000000000000000000000000000000000000000000000000000
310
00000000000000000000000000000000000000000707070000000000000000000000000000000000000000000000000000000000000000000000000000000000000000000000000000000000000000000000000000000000000000000000000000000000000000000000000000000000000000000000000000000000000000
310
00000000000000000000000000000000000000000000000000000000000000000000000000000000000000000000000000000000000000000000000000000000000000000000000000070707000000000000000000000000000000000000000000000000000000000000000000000000000000000000000000000000000000
310
00000000000000000000000000000000000000000000000000000000000000000000000000000000000000000000000000000000000000000000000000000000000000000000000000000000000000000000000000000000000000000000000000000000000000000000000000000000000000000000000000000000000007
310
07070000000000000000000000000000000000000000000000000000000000000000000000000000000000000000000000000000000000000000000000000000000000000000000000000000000000000000000000000000000000000000000000000000000000000000000000000000000000000000000000000000000000
310
00000000000000000000000000000000000000000000000000000000000000000000000000000000000000000000000000000000070707000000000000000000000000000000000000000000000000000000000000000000000000000000000000000000000000000000000000000000000000000000000000000000000000
310
00000000000000000000000000000000000000000000000000000000000000000000000000000000000000000000000000000000000000000000000000000000000000000000000000000000000000000000000000000000000000000000000000000000000000000007070700000000000000000000000000000000000000
310
00000000000000000000000000000000000000000000000000000000000000000000000000000000000000000000000000000000000000000000000000000000000000000000000000000000000000000000000000000000000000000000000000000000000000000000000000000000000000000000000000000000000000
310
00000000000000000000000000000000000000000000000000000000000000070700070000000000000000000000000000000000000000000000000000000000000000000000000000000000000000000000000000000000000000000000000000000000000000000000000000000000000000000000000000000000000000
310
00000000000000000000000000000000000000000000000000000000000000000000000000000000000000000000000000000000000000000000000000000000000000000000000000000000000000000000000007070007000000000000000000000000000000000000000000000000000000000000000000000000000000
310
00000000000000000000000000000000000000000000000000000000000000000000000000000000000000000000000000000000000000000000000000000000000000000000000000000000000000000000000000000000000000000000000000000000000000000000000000000000000000000000000000000000000000
310
00000000000000000000070700070000000000000000000000000000000000000000000000000000000000000000000000000000000000000000000000000000000000000000000000000000000000000000000000000000000000000000000000000000000000000000000000000000000000000000000000000000000000
310
00000000000000000000000000000000000000000000000000000000000000000000000000000000000000000000000000000000000000000000000000000007070007000000000000000000000000000000000000000000000000000000000000000000000000000000000000000000000000000000000000000000000000
310
00000000000000000000000000000000000000000000000000000000000000000000000000000000000000000000000000000000000000000000000000000000000000000000000000000000000000000000000000000000000000000000000000000000000000000000000000000000000000000707000700000000000000
310
00000000000000000000000000000000000000000000000000000000000000000000000000000000000000000000000000000000000000000000000000000000000000000000000000000000000000000000000000000000000000000000000000000000000000000000000000000000000000000000000000000000000000
310
00000000000000000000000000000000000000000000000000000000000000000000000000000000000007070007000000000000000000000000000000000000000000000000000000000000000000000000000000000000000000000000000000000000000000000000000000000000000000000000000000000000000000
310
00000000000000000000000000000000000000000000000000000000000000000000000000000000000000000000000000000000000000000000000000000000000000000000000000000000000000000000000000000000000000000000000707000700000000000000000000000000000000000000000000000000000000
310
00000000000000000000000000000000000000000000000000000000000000000000000000000000000000000000000000000000000000000000000000000000000000000000000000000000000000000000000000000000000000000000000000000000000000000000000000000000000000000000000000000000000000
310
00000000000000000000000000000000000000000007070007000000000000000000000000000000000000000000000000000000000000000000000000000000000000000000000000000000000000000000000000000000000000000000000000000000000000000000000000000000000000000000000000000000000000
310
00000000000000000000000000000000000000000000000000000000000000000000000000000000000000000000000000000000000000000000000000000000000000000000000000000707000700000000000000000000000000000000000000000000000000000000000000000000000000000000000000000000000000
310
00000000000000000000000000000000000000000000000000000000000000000000000000000000000000000000000000000000000000000000000000000000000000000000000000000000000000000000000000000000000000000000000000000000000000000000000000000000000000000000000000000000000000
310
07070007000000000000000000000000000000000000000000000000000000000000000000000000000000000000000000000000000000000000000000000000000000000000000000000000000000000000000000000000000000000000000000000000000000000000000000000000000000000000000000000000000000
310
00000000000000000000000000000000000000000000000000000000000000000000000000000000000000000000000000000000000707000700000000000000000000000000000000000000000000000000000000000000000000000000000000000000000000000000000000000000000000000000000000000000000000
310
00000000000000000000000000000000000000000000000000000000000000000000000000000000000000000000000000000000000000000000000000000000000000000000000000000000000000000000000000000000000000000000000000000000000000000000070700070000000000000000000000000000000000
310
00000000000000000000000000000000000000000000000000000000000000000000000000000000000000000000000000000000000000000000000000000000000000000000000000000000000000000000000000000000000000000000000000000000000000000000000000000000000000000000000000000000000000
310
00000000000000000000000000000000000000000000000000000000000000000707000700000000000000000000000000000000000000000000000000000000000000000000000000000000000000000000000000000000000000000000000000000000000000000000000000000000000000000000000000000000000000
310
00000000000000000000000000000000000000000000000000000000000000000000000000000000000000000000000000000000000000000000000000000000000000000000000000000000000000000000000000070700070000000000000000000000000000000000000000000000000000000000000000000000000000
310
00000000000000000000000000000000000000000000000000000000000000000000000000000000000000000000000000000000000000000000000000000000000000000000000000000000000000000000000000000000000000000000000000000000000000000000000000000000000000000000000000000000000000
310
00000000000000000000070007000700000000000000000000000000000000000000000000000000000000000000000000000000000000000000000000000000000000000000000000000000000000000000000000000000000000000000000000000000000000000000000000000000000000000000000000000000000000
310
00000000000000000000000000000000000000000000000000000000000000000000000000000000000000000000000000000000000000000000000000000007000700070000000000000000000000000000000000000000000000000000000000000000000000000000000000000000000000000000000000000000000000
310
00000000000000000000000000000000000000000000000000000000000000000000000000000000000000000000000000000000000000000000000000000000000000000000000000000000000000000000000000000000000000000000000000000000000000000000000000000000000000000700070007000000000000
310
00000000000000000000000000000000000000000000000000000000000000000000000000000000000000000000000000000000000000000000000000000000000000000000000000000000000000000000000000000000000000000000000000000000000000000000000000000000000000000000000000000000000000
310
00000000000000000000000000000000000000000000000000000000000000000000000000000000000007000700070000000000000000000000000000000000000000000000000000000000000000000000000000000000000000000000000000000000000000000000000000000000000000000000000000000000000000
310
00000000000000000000000000000000000000000000000000000000000000000000000000000000000000000000000000000000000000000000000000000000000000000000000000000000000000000000000000000000000000000000000700070007000000000000000000000000000000000000000000000000000000
310
00000000000000000000000000000000000000000000000000000000000000000000000000000000000000000000000000000000000000000000000000000000000000000000000000000000000000000000000000000000000000000000000000000000000000000000000000000000000000000000000000000000000000
310
00000000000000000000000000000000000000000007000700070000000000000000000000000000000000000000000000000000000000000000000000000000000000000000000000000000000000000000000000000000000000000000000000000000000000000000000000000000000000000000000000000000000000
310
00000000000000000000000000000000000000000000000000000000000000000000000000000000000000000000000000000000000000000000000000000000000000000000000000000700070007000000000000000000000000000000000000000000000000000000000000000000000000000000000000000000000000
310
00000000000000000000000000000000000000000000000000000000000000000000000000000000000000000000000000000000000000000000000000000000000000000000000000000000000000000000000000000000000000000000000000000000000000000000000000000000000000000000000000000000000000
310
07000700070000000000000000000000000000000000000000000000000000000000000000000000000000000000000000000000000000000000000000000000000000000000000000000000000000000000000000000000000000000000000000000000000000000000000000000000000000000000000000000000000000
310
00000000000000000000000000000000000000000000000000000000000000000000000000000000000000000000000000000000000700070007000000000000000000000000000000000000000000000000000000000000000000000000000000000000000000000000000000000000000000000000000000000000000000
310
00000000000000000000000000000000000000000000000000000000000000000000000000000000000000000000000000000000000000000000000000000000000000000000000000000000000000000000000000000000000000000000000000000000000000000000070707000700000000000000000000000000000000
310
00000000000000000000000000000000000000000000000000000000000000000000000000000000000000000000000000000000000000000000000000000000000000000000000000000000000000000000000000000000000000000000000000000000000000000000000000000000000000000000000000000000000000
310
00000000000000000000000000000000000000000000000000000000000000000707070007000000000000000000000000000000000000000000000000000000000000000000000000000000000000000000000000000000000000000000000000000000000000000000000000000000000000000000000000000000000000
310
00000000000000000000000000000000000000000000000000000000000000000000000000000000000000000000000000000000000000000000000000000000000000000000000000000000000000000000000000070707000700000000000000000000000000000000000000000000000000000000000000000000000000
310
00000000000000000000000000000000000000000000000000000000000000000000000000000000000000000000000000000000000000000000000000000000000000000000000000000000000000000000000000000000000000000000000000000000000000000000000000000000000000000000000000000000000000
310
00000000000000000000000707070007000000000000000000000000000000000000000000000000000000000000000000000000000000000000000000000000000000000000000000000000000000000000000000000000000000000000000000000000000000000000000000000000000000000000000000000000000000
310
00000000000000000000000000000000000000000000000000000000000000000000000000000000000000000000000000000000000000000000000000000000070707000700000000000000000000000000000000000000000000000000000000000000000000000000000000000000000000000000000000000000000000
310
00000000000000000000000000000000000000000000000000000000000000000000000000000000000000000000000000000000000000000000000000000000000000000000000000000000000000000000000000000000000000000000000000000000000000000000000000000000000000000007070700070000000000
310
00000000000000000000000000000000000000000000000000000000000000000000000000000000000000000000000000000000000000000000000000000000000000000000000000000000000000000000000000000000000000000000000000000000000000000000000000000000000000000000000000000000000000
310
00000000000000000000000000000000000000000000000000000000000000000000000000000000000007000707000700000000000000000000000000000000000000000000000000000000000000000000000000000000000000000000000000000000000000000000000000000000000000000000000000000000000000
310
00000000000000000000000000000000000000000000000000000000000000000000000000000000000000000000000000000000000000000000000000000000000000000000000000000000000000000000000000000000000000000000000700070700070000000000000000000000000000000000000000000000000000
310
00000000000000000000000000000000000000000000000000000000000000000000000000000000000000000000000000000000000000000000000000000000000000000000000000000000000000000000000000000000000000000000000000000000000000000000000000000000000000000000000000000000000000
310
00000000000000000000000000000000000000000007000707000700000000000000000000000000000000000000000000000000000000000000000000000000000000000000000000000000000000000000000000000000000000000000000000000000000000000000000000000000000000000000000000000000000000
310
00000000000000000000000000000000000000000000000000000000000000000000000000000000000000000000000000000000000000000000000000000000000000000000000000000700070700070000000000000000000000000000000000000000000000000000000000000000000000000000000000000000000000
310
00000000000000000000000000000000000000000000000000000000000000000000000000000000000000000000000000000000000000000000000000000000000000000000000000000000000000000000000000000000000000000000000000000000000000000000000000000000000000000000000000000000000000
310
07000707000700000000000000000000000000000000000000000000000000000000000000000000000000000000000000000000000000000000000000000000000000000000000000000000000000000000000000000000000000000000000000000000000000000000000000000000000000000000000000000000000000
310
00000000000000000000000000000000000000000000000000000000000000000000000000000000000000000000000000000000000700070700070000000000000000000000000000000000000000000000000000000000000000000000000000000000000000000000000000000000000000000000000000000000000000
310
00000000000000000000000000000000000000000000000000000000000000000000000000000000000000000000000000000000000000000000000000000000000000000000000000000000000000000000000000000000000000000000000000000000000000000000070007070007000000000000000000000000000000
310
00000000000000000000000000000000000000000000000000000000000000000000000000000000000000000000000000000000000000000000000000000000000000000000000000000000000000000000000000000000000000000000000000000000000000000000000000000000000000000000000000000000000000
310
00000000000000000000000000000000000000000000000000000000000000000707070007000700000000000000000000000000000000000000000000000000000000000000000000000000000000000000000000000000000000000000000000000000000000000000000000000000000000000000000000000000000000
310
00000000000000000000000000000000000000000000000000000000000000000000000000000000000000000000000000000000000000000000000000000000000000000000000000000000000000000000000000070007000700070000000000000000000000000000000000000000000000000000000000000000000000
310
00000000000000000000000000000000000000000000000000000000000000000000000000000000000000000000000000000000000000000000000000000000000000000000000000000000000000000000000000000000000000000000000000000000000000000000000000000000000000000000000000000000000000
310
00000000000000000000000700070007000700000000000000000000000000000000000000000000000000000000000000000000000000000000000000000000000000000000000000000000000000000000000000000000000000000000000000000000000000000000000000000000000000000000000000000000000000
310
00000000000000000000000000000000000000000000000000000000000000000000000000000000000000000000000000000000000000000000000000000000070007070707070007070700000000000000000000000000000000000000000000000000000000000000000000000000000000000000000000000000000000
310
00000000000000000000000000000000000000000000000000000000000000000000000000000000000000000000000000000000000000000000000000000000000000000000000000000000000000000000000000000000000000000000000000000000000000000000000000000000000000000007070707000007000700
310
07000000000000000000000000000000000000000000000000000000000000000000000000000000000000000000000000000000000000000000000000000000000000000000000000000000000000000000000000000000000000000000000000000000000000000000000000000000000000000000000000000000000000
310
00000000000000000000000000000000000000000000000000000000000000000000000000000000000000070707070000070007000700000000000000000000000000000000000000000000000000000000000000000000000000000000000000000000000000000000000000000000000000000000000000000000000000
310
00000000000000000000000000000000000000000000000000000000000000000000000000000000000000000000000000000000000000000000000000000000000000000000000000000000000000000000000000000000000000000000000007000007000007000700070000000000000000000000000000000000000000
310
00000000000000000000000000000000000000000000000000000000000000000000000000000000000000000000000000000000000000000000000000000000000000000000000000000000000000000000000000000000000000000000000000000000000000000000000000000000000000000000000000000000000000
310
00000000000000000000000000000000000000000000070000070000070007000700000000000000000000000000000000000000000000000000000000000000000000000000000000000000000000000000000000000000000000000000000000000000000000000000000000000000000000000000000000000000000000
310
00000000000000000000000000000000000000000000000000000000000000000000000000000000000000000000000000000000000000000000000000000000000000000000000000000007070707070707070700070000000000000000000000000000000000000000000000000000000000000000000000000000000000
310
00000000000000000000000000000000000000000000000000000000000000000000000000000000000000000000000000000000000000000000000000000000000000000000000000000000000000000000000000000000000000000000000000000000000000000000000000000000000000000000000000000000000000
310
00070700000000000007000700000000000000000000000000000000000000000000000000000000000000000000000000000000000000000000000000000000000000000000000000000000000000000000000000000000000000000000000000000000000000000000000000000000000000000000000000000000000000
310
00000000000000000000000000000000000000000000000000000000000000000000000000000000000000000000000000000000000007070000000000000700070000000000000000000000000000000000000000000000000000000000000000000000000000000000000000000000000000000000000000000000000000
310
00000000000000000000000000000000000000000000000000000000000000000000000000000000000000000000000000000000000000000000000000000000000000000000000000000000000000000000000000000000000000000000000000000000000000000000000707000000000000070007000000000000000000
310
00000000000000000000000000000000000000000000000000000000000000000000000000000000000000000000000000000000000000000000000000000000000000000000000000000000000000000000000000000000000000000000000000000000000000000000000000000000000000000000000000000000000000
310
00000000000000000000000000000000000000000000000000000000000000000007070000000000000700070000000000000000000000000000000000000000000000000000000000000000000000000000000000000000000000000000000000000000000000000000000000000000000000000000000000000000000000
310
00000000000000000000000000000000000000000000000000000000000000000000000000000000000000000000000000000000000000000000000000000000000000000000000000000000000000000000000000000707070707070707070007000000000000000000000000000000000000000000000000000000000000
310
00000000000000000000000000000000000000000000000000000000000000000000000000000000000000000000000000000000000000000000000000000000000000000000000000000000000000000000000000000000000000000000000000000000000000000000000000000000000000000000000000000000000000
310
00000000000000000000000007000007000000000700070000000000000000000000000000000000000000000000000000000000000000000000000000000000000000000000000000000000000000000000000000000000000000000000000000000000000000000000000000000000000000000000000000000000000000
310
00000000000000000000000000000000000000000000000000000000000000000000000000000000000000000000000000000000000000000000000000000000000700000700000000070007000000000000000000000000000000000000000000000000000000000000000000000000000000000000000000000000000000
310
00000000000000000000000000000000000000000000000000000000000000000000000000000000000000000000000000000000000000000000000000000000000000000000000000000000000000000000000000000000000000000000000000000000000000000000000000000000000000000000070000070000000007
310
00070000000000000000000000000000000000000000000000000000000000000000000000000000000000000000000000000000000000000000000000000000000000000000000000000000000000000000000000000000000000000000000000000000000000000000000000000000000000000000000000000000000000
310
00000000000000000000000000000000000000000000000000000000000000000000000000000000000000000700000700000000070707000000000000000000000000000000000000000000000000000000000000000000000000000000000000000000000000000000000000000000000000000000000000000000000000
310
00000000000000000000000000000000000000000000000000000000000000000000000000000000000000000000000000000000000000000000000000000000000000000000000000000000000000000000000000000000000000000000000000070000070000000000000000000000000000000000000000000000000000
310
00000000000000000000000000000000000000000000000000000000000000000000000000000000000000000000000000000000000000000000000000000000000000000000000000000000000000000000000000000000000000000000000000000000000000000000000000000000000000000000000000000000000000
310
00000000000000000000000000000000000000000000000700000700000000000000000000000000000000000000000000000000000000000000000000000000000000000000000000000000000000000000000000000000000000000000000000000000000000000000000000000000000000000000000000000000000000
310
00000000000000000000000000000000000000000000000000000000000000000000000000000000000000000000000000000000000000000000000000000000000000000000000000000000070000070000000000000000000000000000000000000000000000000000000000000000000000000000000000000000000000
310
00000000000000000000000000000000000000000000000000000000000000000000000000000000000000000000000000000000000000000000000000000000000000000000000000000000000000000000000000000000000000000000000000000000000000000000000000000000000000000000000000000000000000
310
00000700000700000000000000000000000000000000000000000000000000000000000000000000000000000000000000000000000000000000000000000000000000000000000000000000000000000000000000000000000000000000000000000000000000000000000000000000000000000000000000000000000000
310
00000000000000000000000000000000000000000000000000000000000000000000000000000000000000000000000000000000000000070000070000000000000000000000000000000000000000000000000000000000000000000000000000000000000000000000000000000000000000000000000000000000000000
310
00000000000000000000000000000000000000000000000000000000000000000000000000000000000000000000000000000000000000000000000000000000000000000000000000000000000000000000000000000000000000000000000000000000000000000000000007070707000000000000000000000000000000
310
00000000000000000000000000000000000000000000000000000000000000000000000000000000000000000000000000000000000000000000000000000000000000000000000000000000000000000000000000000000000000000000000000000000000000000000000000000000000000000000000000000000000000
310
00000000000000000000000000000000000000000000000000000000000000000000070000070000000000000000000000000000000000000000000000000000000000000000000000000000000000000000000000000000000000000000000000000000000000000000000000000000000000000000000000000000000000
310
00000000000000000000000000000000000000000000000000000000000000000000000000000000000000000000000000000000000000000000000000000000000000000000000000000000000000000000000000000007070707000000000000000000000000000000000000000000000000000000000000000000000000
310
00000000000000000000000000000000000000000000000000000000000000000000000000000000000000000000000000000000000000000000000000000000000000000000000000000000000000000000000000000000000000000000000000000000000000000000000000000000000000000000000000000000000000
310
000000000000000000000000000000000000000000000000000000000000000000000000000000000000000000000000000000000000000000000000000000000000000000000000000000000000000000000000000000000000000000000000000000000000000000000000
  0
ENDSEC
  0
EOF
