  0
SECTION
  2
HEADER
  9
$ACADVER
  1
AC1015
  9
$ACADMAINTVER
 70
    13
  9
$DWGCODEPAGE
  3
ANSI_1252
  9
$INSBASE
 10
0.0
 20
0.0
 30
0.0
  9
$EXTMIN
 10
0.0
 20
-0.0000000000000307
 30
0.0
  9
$EXTMAX
 10
240.0
 20
2175.0
 30
0.0
  9
$LIMMIN
 10
0.0
 20
0.0
  9
$LIMMAX
 10
12.0
 20
9.0
  9
$ORTHOMODE
 70
     0
  9
$REGENMODE
 70
     1
  9
$FILLMODE
 70
     1
  9
$QTEXTMODE
 70
     0
  9
$MIRRTEXT
 70
     1
  9
$LTSCALE
 40
1.0
  9
$ATTMODE
 70
     1
  9
$TEXTSIZE
 40
0.2
  9
$TRACEWID
 40
0.05
  9
$TEXTSTYLE
  7
Standard
  9
$CLAYER
  8
0
  9
$CELTYPE
  6
Continuous
  9
$CECOLOR
 62
   256
  9
$CELTSCALE
 40
1.0
  9
$DISPSILH
 70
     0
  9
$DIMSCALE
 40
1.0
  9
$DIMASZ
 40
0.18
  9
$DIMEXO
 40
0.0625
  9
$DIMDLI
 40
0.38
  9
$DIMRND
 40
0.0
  9
$DIMDLE
 40
0.0
  9
$DIMEXE
 40
0.18
  9
$DIMTP
 40
0.0
  9
$DIMTM
 40
0.0
  9
$DIMTXT
 40
0.18
  9
$DIMCEN
 40
0.09
  9
$DIMTSZ
 40
0.0
  9
$DIMTOL
 70
     0
  9
$DIMLIM
 70
     0
  9
$DIMTIH
 70
     1
  9
$DIMTOH
 70
     1
  9
$DIMSE1
 70
     0
  9
$DIMSE2
 70
     0
  9
$DIMTAD
 70
     0
  9
$DIMZIN
 70
     0
  9
$DIMBLK
  1

  9
$DIMASO
 70
     1
  9
$DIMSHO
 70
     1
  9
$DIMPOST
  1

  9
$DIMAPOST
  1

  9
$DIMALT
 70
     0
  9
$DIMALTD
 70
     2
  9
$DIMALTF
 40
25.4
  9
$DIMLFAC
 40
1.0
  9
$DIMTOFL
 70
     0
  9
$DIMTVP
 40
0.0
  9
$DIMTIX
 70
     0
  9
$DIMSOXD
 70
     0
  9
$DIMSAH
 70
     0
  9
$DIMBLK1
  1

  9
$DIMBLK2
  1

  9
$DIMSTYLE
  2
Standard
  9
$DIMCLRD
 70
     0
  9
$DIMCLRE
 70
     0
  9
$DIMCLRT
 70
     0
  9
$DIMTFAC
 40
1.0
  9
$DIMGAP
 40
0.09
  9
$DIMJUST
 70
     0
  9
$DIMSD1
 70
     0
  9
$DIMSD2
 70
     0
  9
$DIMTOLJ
 70
     1
  9
$DIMTZIN
 70
     0
  9
$DIMALTZ
 70
     0
  9
$DIMALTTZ
 70
     0
  9
$DIMUPT
 70
     0
  9
$DIMDEC
 70
     4
  9
$DIMTDEC
 70
     4
  9
$DIMALTU
 70
     2
  9
$DIMALTTD
 70
     2
  9
$DIMTXSTY
  7
Standard
  9
$DIMAUNIT
 70
     0
  9
$DIMADEC
 70
     0
  9
$DIMALTRND
 40
0.0
  9
$DIMAZIN
 70
     0
  9
$DIMDSEP
 70
    46
  9
$DIMATFIT
 70
     3
  9
$DIMFRAC
 70
     0
  9
$DIMLDRBLK
  1

  9
$DIMLUNIT
 70
     2
  9
$DIMLWD
 70
    -2
  9
$DIMLWE
 70
    -2
  9
$DIMTMOVE
 70
     0
  9
$LUNITS
 70
     2
  9
$LUPREC
 70
     4
  9
$SKETCHINC
 40
0.1
  9
$FILLETRAD
 40
0.0
  9
$AUNITS
 70
     0
  9
$AUPREC
 70
     0
  9
$MENU
  1
.
  9
$ELEVATION
 40
0.0
  9
$PELEVATION
 40
0.0
  9
$THICKNESS
 40
0.0
  9
$LIMCHECK
 70
     0
  9
$CHAMFERA
 40
0.0
  9
$CHAMFERB
 40
0.0
  9
$CHAMFERC
 40
0.0
  9
$CHAMFERD
 40
0.0
  9
$SKPOLY
 70
     0
  9
$TDCREATE
 40
2454875.778753599
  9
$TDUCREATE
 40
2454875.737086932
  9
$TDUPDATE
 40
2454875.783565347
  9
$TDUUPDATE
 40
2454875.741898680
  9
$TDINDWG
 40
0.0048117477
  9
$TDUSRTIMER
 40
0.0048117477
  9
$USRTIMER
 70
     1
  9
$ANGBASE
 50
0.0
  9
$ANGDIR
 70
     0
  9
$PDMODE
 70
     0
  9
$PDSIZE
 40
0.0
  9
$PLINEWID
 40
0.0
  9
$SPLFRAME
 70
     0
  9
$SPLINETYPE
 70
     6
  9
$SPLINESEGS
 70
     8
  9
$HANDSEED
  5
A55
  9
$SURFTAB1
 70
     6
  9
$SURFTAB2
 70
     6
  9
$SURFTYPE
 70
     6
  9
$SURFU
 70
     6
  9
$SURFV
 70
     6
  9
$UCSBASE
  2

  9
$UCSNAME
  2

  9
$UCSORG
 10
0.0
 20
0.0
 30
0.0
  9
$UCSXDIR
 10
1.0
 20
0.0
 30
0.0
  9
$UCSYDIR
 10
0.0
 20
1.0
 30
0.0
  9
$UCSORTHOREF
  2

  9
$UCSORTHOVIEW
 70
     1
  9
$UCSORGTOP
 10
0.0
 20
0.0
 30
0.0
  9
$UCSORGBOTTOM
 10
0.0
 20
0.0
 30
0.0
  9
$UCSORGLEFT
 10
0.0
 20
0.0
 30
0.0
  9
$UCSORGRIGHT
 10
0.0
 20
0.0
 30
0.0
  9
$UCSORGFRONT
 10
0.0
 20
0.0
 30
0.0
  9
$UCSORGBACK
 10
0.0
 20
0.0
 30
0.0
  9
$PUCSBASE
  2

  9
$PUCSNAME
  2

  9
$PUCSORG
 10
0.0
 20
0.0
 30
0.0
  9
$PUCSXDIR
 10
1.0
 20
0.0
 30
0.0
  9
$PUCSYDIR
 10
0.0
 20
1.0
 30
0.0
  9
$PUCSORTHOREF
  2

  9
$PUCSORTHOVIEW
 70
     0
  9
$PUCSORGTOP
 10
0.0
 20
0.0
 30
0.0
  9
$PUCSORGBOTTOM
 10
0.0
 20
0.0
 30
0.0
  9
$PUCSORGLEFT
 10
0.0
 20
0.0
 30
0.0
  9
$PUCSORGRIGHT
 10
0.0
 20
0.0
 30
0.0
  9
$PUCSORGFRONT
 10
0.0
 20
0.0
 30
0.0
  9
$PUCSORGBACK
 10
0.0
 20
0.0
 30
0.0
  9
$USERI1
 70
     0
  9
$USERI2
 70
     0
  9
$USERI3
 70
     0
  9
$USERI4
 70
     0
  9
$USERI5
 70
     0
  9
$USERR1
 40
0.0
  9
$USERR2
 40
0.0
  9
$USERR3
 40
0.0
  9
$USERR4
 40
0.0
  9
$USERR5
 40
0.0
  9
$WORLDVIEW
 70
     1
  9
$SHADEDGE
 70
     3
  9
$SHADEDIF
 70
    70
  9
$TILEMODE
 70
     1
  9
$MAXACTVP
 70
    64
  9
$PINSBASE
 10
0.0
 20
0.0
 30
0.0
  9
$PLIMCHECK
 70
     0
  9
$PEXTMIN
 10
1.000000000000000E+20
 20
1.000000000000000E+20
 30
1.000000000000000E+20
  9
$PEXTMAX
 10
-1.000000000000000E+20
 20
-1.000000000000000E+20
 30
-1.000000000000000E+20
  9
$PLIMMIN
 10
0.0
 20
0.0
  9
$PLIMMAX
 10
12.0
 20
9.0
  9
$UNITMODE
 70
     0
  9
$VISRETAIN
 70
     1
  9
$PLINEGEN
 70
     0
  9
$PSLTSCALE
 70
     1
  9
$TREEDEPTH
 70
  3020
  9
$CMLSTYLE
  2
Standard
  9
$CMLJUST
 70
     0
  9
$CMLSCALE
 40
1.0
  9
$PROXYGRAPHICS
 70
     1
  9
$MEASUREMENT
 70
     0
  9
$CELWEIGHT
370
    -1
  9
$ENDCAPS
280
     0
  9
$JOINSTYLE
280
     0
  9
$LWDISPLAY
290
     0
  9
$INSUNITS
 70
     0
  9
$HYPERLINKBASE
  1

  9
$STYLESHEET
  1

  9
$XEDIT
290
     1
  9
$CEPSNTYPE
380
     0
  9
$PSTYLEMODE
290
     1
  9
$FINGERPRINTGUID
  2
{39B9105B-85BB-417E-8332-BEF5409DAD7E}
  9
$VERSIONGUID
  2
{CAC88FC2-0F3F-4DCC-81C7-DBE396AFFA0B}
  9
$EXTNAMES
290
     1
  9
$PSVPSCALE
 40
0.0
  9
$OLESTARTUP
290
     0
  0
ENDSEC
  0
SECTION
  2
CLASSES
  0
CLASS
  1
ACDBDICTIONARYWDFLT
  2
AcDbDictionaryWithDefault
  3
AutoCAD 2000
 90
        0
280
     0
281
     0
  0
CLASS
  1
ACDBPLACEHOLDER
  2
AcDbPlaceHolder
  3
AutoCAD 2000
 90
        0
280
     0
281
     0
  0
CLASS
  1
LAYOUT
  2
AcDbLayout
  3
AutoCAD 2000
 90
        0
280
     0
281
     0
  0
CLASS
  1
DICTIONARYVAR
  2
AcDbDictionaryVar
  3
AutoCAD 2000
 90
        0
280
     0
281
     0
  0
ENDSEC
  0
SECTION
  2
TABLES
  0
TABLE
  2
VPORT
  5
8
330
0
100
AcDbSymbolTable
 70
     2
  0
VPORT
  5
A54
330
8
100
AcDbSymbolTableRecord
100
AcDbViewportTableRecord
  2
*Active
 70
     0
 10
0.0
 20
0.0
 11
1.0
 21
1.0
 12
120.0
 22
1087.5
 13
0.0
 23
0.0
 14
1.0
 24
1.0
 15
0.0
 25
0.0
 16
0.0
 26
0.0
 36
1.0
 17
0.0
 27
0.0
 37
0.0
 40
2188.736842105263
 41
1.968387776606954
 42
50.0
 43
0.0
 44
0.0
 50
0.0
 51
0.0
 71
     0
 72
   100
 73
     1
 74
     3
 75
     0
 76
     0
 77
     0
 78
     0
281
     0
 65
     1
110
0.0
120
0.0
130
0.0
111
1.0
121
0.0
131
0.0
112
0.0
122
1.0
132
0.0
 79
     1
146
0.0
  0
ENDTAB
  0
TABLE
  2
LTYPE
  5
5
330
0
100
AcDbSymbolTable
 70
     1
  0
LTYPE
  5
13
330
5
100
AcDbSymbolTableRecord
100
AcDbLinetypeTableRecord
  2
ByBlock
 70
     0
  3

 72
    65
 73
     0
 40
0.0
  0
LTYPE
  5
14
330
5
100
AcDbSymbolTableRecord
100
AcDbLinetypeTableRecord
  2
ByLayer
 70
     0
  3

 72
    65
 73
     0
 40
0.0
  0
LTYPE
  5
15
330
5
100
AcDbSymbolTableRecord
100
AcDbLinetypeTableRecord
  2
Continuous
 70
     0
  3
Solid line
 72
    65
 73
     0
 40
0.0
  0
ENDTAB
  0
TABLE
  2
LAYER
  5
2
330
0
100
AcDbSymbolTable
 70
     1
  0
LAYER
  5
10
330
2
100
AcDbSymbolTableRecord
100
AcDbLayerTableRecord
  2
0
 70
     0
 62
     7
  6
Continuous
370
    -3
390
F
  0
ENDTAB
  0
TABLE
  2
STYLE
  5
3
330
0
100
AcDbSymbolTable
 70
     1
  0
STYLE
  5
11
330
3
100
AcDbSymbolTableRecord
100
AcDbTextStyleTableRecord
  2
Standard
 70
     0
 40
0.0
 41
1.0
 50
0.0
 71
     0
 42
0.2
  3
txt
  4

  0
ENDTAB
  0
TABLE
  2
VIEW
  5
6
330
0
100
AcDbSymbolTable
 70
     0
  0
ENDTAB
  0
TABLE
  2
UCS
  5
7
330
0
100
AcDbSymbolTable
 70
     0
  0
ENDTAB
  0
TABLE
  2
APPID
  5
9
330
0
100
AcDbSymbolTable
 70
     1
  0
APPID
  5
12
330
9
100
AcDbSymbolTableRecord
100
AcDbRegAppTableRecord
  2
ACAD
 70
     0
  0
ENDTAB
  0
TABLE
  2
DIMSTYLE
  5
A
330
0
100
AcDbSymbolTable
 70
     1
100
AcDbDimStyleTable
 71
     0
  0
DIMSTYLE
105
A4E
330
A
100
AcDbSymbolTableRecord
100
AcDbDimStyleTableRecord
  2
Standard
 70
     0
340
11
  0
ENDTAB
  0
TABLE
  2
BLOCK_RECORD
  5
1
330
0
100
AcDbSymbolTable
 70
     0
  0
BLOCK_RECORD
  5
1E
330
1
100
AcDbSymbolTableRecord
100
AcDbBlockTableRecord
  2
*Model_Space
340
21
  0
BLOCK_RECORD
  5
1A
330
1
100
AcDbSymbolTableRecord
100
AcDbBlockTableRecord
  2
*Paper_Space
340
1D
  0
ENDTAB
  0
ENDSEC
  0
SECTION
  2
BLOCKS
  0
BLOCK
  5
1F
330
1E
100
AcDbEntity
  8
0
100
AcDbBlockBegin
  2
*Model_Space
 70
     0
 10
0.0
 20
0.0
 30
0.0
  3
*Model_Space
  1

  0
ENDBLK
  5
20
330
1E
100
AcDbEntity
  8
0
100
AcDbBlockEnd
  0
BLOCK
  5
1B
330
1A
100
AcDbEntity
 67
     1
  8
0
100
AcDbBlockBegin
  2
*Paper_Space
 70
     0
 10
0.0
 20
0.0
 30
0.0
  3
*Paper_Space
  1

  0
ENDBLK
  5
1C
330
1A
100
AcDbEntity
 67
     1
  8
0
100
AcDbBlockEnd
  0
ENDSEC
  0
SECTION
  2
ENTITIES
  0
LINE
  5
22
330
1E
100
AcDbEntity
  8
0
100
AcDbLine
 10
100.384
 20
90.01899999999999
 30
0.0
 11
101.000000987789
 21
90.0206239041857
 31
0.0
  0
LINE
  5
23
330
1E
100
AcDbEntity
  8
0
100
AcDbLine
 10
100.384
 20
90.01899999999999
 30
0.0
 11
101.000000987789
 21
90.0206239041857
 31
0.0
  0
LINE
  5
24
330
1E
100
AcDbEntity
  8
0
100
AcDbLine
 10
100.384
 20
90.0129
 30
0.0
 11
101.522
 21
90.00989999999999
 31
0.0
  0
LINE
  5
25
330
1E
100
AcDbEntity
  8
0
100
AcDbLine
 10
100.0
 20
90.0159
 30
0.0
 11
100.384
 21
90.0129
 31
0.0
  0
LINE
  5
26
330
1E
100
AcDbEntity
  8
0
100
AcDbLine
 10
100.0
 20
90.0159
 30
0.0
 11
100.0
 21
0.0159479999999683
 31
0.0
  0
LINE
  5
27
330
1E
100
AcDbEntity
  8
0
100
AcDbLine
 10
100.0
 20
90.0159
 30
0.0
 11
100.384
 21
90.01899999999999
 31
0.0
  0
LINE
  5
28
330
1E
100
AcDbEntity
  8
0
100
AcDbLine
 10
100.0
 20
0.0159479999999681
 30
0.0
 11
100.384
 21
0.0129579999999683
 31
0.0
  0
LINE
  5
29
330
1E
100
AcDbEntity
  8
0
100
AcDbLine
 10
100.0
 20
0.0159479999999681
 30
0.0
 11
100.0
 21
90.0159
 31
0.0
  0
LINE
  5
2A
330
1E
100
AcDbEntity
  8
0
100
AcDbLine
 10
103.371
 20
90.00719999999999
 30
0.0
 11
105.8579999999999
 21
90.00480000000001
 31
0.0
  0
LINE
  5
2B
330
1E
100
AcDbEntity
  8
0
100
AcDbLine
 10
101.0
 20
90.0159
 30
0.0
 11
101.18674777962
 21
983.1000000000001
 31
0.0
  0
LINE
  5
2C
330
1E
100
AcDbEntity
  8
0
100
AcDbLine
 10
101.0
 20
90.0159
 30
0.0
 11
101.3649999999999
 21
90.0131
 31
0.0
  0
LINE
  5
2D
330
1E
100
AcDbEntity
  8
0
100
AcDbLine
 10
101.0
 20
90.0159
 30
0.0
 11
101.18674777962
 21
983.1000000000001
 31
0.0
  0
LINE
  5
2E
330
1E
100
AcDbEntity
  8
0
100
AcDbLine
 10
101.3649999999999
 20
90.0131
 30
0.0
 11
102.4459999999999
 21
90.0102
 31
0.0
  0
LINE
  5
2F
330
1E
100
AcDbEntity
  8
0
100
AcDbLine
 10
102.4459999999999
 20
90.0102
 30
0.0
 11
104.202
 21
90.00759999999999
 31
0.0
  0
LINE
  5
30
330
1E
100
AcDbEntity
  8
0
100
AcDbLine
 10
101.522
 20
90.00989999999999
 30
0.0
 11
103.371
 21
90.00719999999999
 31
0.0
  0
LINE
  5
31
330
1E
100
AcDbEntity
  8
0
100
AcDbLine
 10
100.384
 20
0.0129579999999683
 30
0.0
 11
101.522
 21
0.0099679999999685
 31
0.0
  0
LINE
  5
32
330
1E
100
AcDbEntity
  8
0
100
AcDbLine
 10
101.522
 20
0.0099679999999685
 30
0.0
 11
103.371
 21
0.0069769999999688
 31
0.0
  0
LINE
  5
33
330
1E
100
AcDbEntity
  8
0
100
AcDbLine
 10
104.202
 20
90.00759999999999
 30
0.0
 11
106.5649999999999
 21
90.0052999999999
 31
0.0
  0
LINE
  5
34
330
1E
100
AcDbEntity
  8
0
100
AcDbLine
 10
106.5649999999999
 20
90.0052999999999
 30
0.0
 11
109.444
 21
90.0035
 31
0.0
  0
LINE
  5
35
330
1E
100
AcDbEntity
  8
0
100
AcDbLine
 10
105.8579999999999
 20
90.00480000000001
 30
0.0
 11
108.8889999999999
 21
90.0028
 31
0.0
  0
LINE
  5
36
330
1E
100
AcDbEntity
  8
0
100
AcDbLine
 10
103.371
 20
0.0069769999999688
 30
0.0
 11
105.8579999999999
 21
0.0049849999999689
 31
0.0
  0
LINE
  5
37
330
1E
100
AcDbEntity
  8
0
100
AcDbLine
 10
105.8579999999999
 20
0.0049849999999689
 30
0.0
 11
108.8889999999999
 21
0.0029919999999691
 31
0.0
  0
LINE
  5
38
330
1E
100
AcDbEntity
  8
0
100
AcDbLine
 10
90.3016
 20
145.317
 30
0.0
 11
101.010067557125
 21
138.161988870781
 31
0.0
  0
LINE
  5
39
330
1E
100
AcDbEntity
  8
0
100
AcDbLine
 10
78.0
 20
175.0159999999999
 30
0.0
 11
81.19710000000001
 21
158.9429999999999
 31
0.0
  0
LINE
  5
3A
330
1E
100
AcDbEntity
  8
0
100
AcDbLine
 10
81.19710000000001
 20
191.0959999999999
 30
0.0
 11
90.3016
 21
204.722
 31
0.0
  0
LINE
  5
3B
330
1E
100
AcDbEntity
  8
0
100
AcDbLine
 10
78.0
 20
175.0239999999999
 30
0.0
 11
81.19710000000001
 21
158.9509999999999
 31
0.0
  0
LINE
  5
3C
330
1E
100
AcDbEntity
  8
0
100
AcDbLine
 10
78.0
 20
175.0239999999999
 30
0.0
 11
81.19710000000001
 21
191.0959999999999
 31
0.0
  0
LINE
  5
3D
330
1E
100
AcDbEntity
  8
0
100
AcDbLine
 10
81.19710000000001
 20
158.9429999999999
 30
0.0
 11
90.3016
 21
145.317
 31
0.0
  0
LINE
  5
3E
330
1E
100
AcDbEntity
  8
0
100
AcDbLine
 10
90.3016
 20
204.722
 30
0.0
 11
101.025484008215
 21
211.888098895797
 31
0.0
  0
LINE
  5
3F
330
1E
100
AcDbEntity
  8
0
100
AcDbLine
 10
81.19710000000001
 20
158.9509999999999
 30
0.0
 11
90.3016
 21
145.3249999999999
 31
0.0
  0
LINE
  5
40
330
1E
100
AcDbEntity
  8
0
100
AcDbLine
 10
90.3016
 20
145.3249999999999
 30
0.0
 11
101.010069229726
 21
138.169987753209
 31
0.0
  0
LINE
  5
41
330
1E
100
AcDbEntity
  8
0
100
AcDbLine
 10
108.8889999999999
 20
90.0028
 30
0.0
 11
112.346
 21
90.0013
 31
0.0
  0
LINE
  5
42
330
1E
100
AcDbEntity
  8
0
100
AcDbLine
 10
108.8889999999999
 20
0.0029919999999691
 30
0.0
 11
112.346
 21
0.0009969999999692
 31
0.0
  0
LINE
  5
43
330
1E
100
AcDbEntity
  8
0
100
AcDbLine
 10
108.8889999999999
 20
0.0029919999999691
 30
0.0
 11
112.346
 21
0.0009969999999692
 31
0.0
  0
LINE
  5
44
330
1E
100
AcDbEntity
  8
0
100
AcDbLine
 10
107.4999999999999
 20
730.0
 30
0.0
 11
113.022893124441
 21
730.0
 31
0.0
  0
LINE
  5
45
330
1E
100
AcDbEntity
  8
0
100
AcDbLine
 10
107.4999999999999
 20
730.0
 30
0.0
 11
107.4999999999999
 21
770.0
 31
0.0
  0
LINE
  5
46
330
1E
100
AcDbEntity
  8
0
100
AcDbLine
 10
102.4999999999999
 20
730.0
 30
0.0
 11
107.4999999999999
 21
730.0
 31
0.0
  0
LINE
  5
47
330
1E
100
AcDbEntity
  8
0
100
AcDbLine
 10
102.4999999999999
 20
730.0
 30
0.0
 11
102.4999999999999
 21
770.0
 31
0.0
  0
LINE
  5
48
330
1E
100
AcDbEntity
  8
0
100
AcDbLine
 10
109.444
 20
90.0035
 30
0.0
 11
112.729
 21
90.0021
 31
0.0
  0
LINE
  5
49
330
1E
100
AcDbEntity
  8
0
100
AcDbLine
 10
108.9
 20
768.998
 30
0.0
 11
110.0
 21
768.998
 31
0.0
  0
LINE
  5
4A
330
1E
100
AcDbEntity
  8
0
100
AcDbLine
 10
107.4999999999999
 20
770.0
 30
0.0
 11
107.4999999999999
 21
730.0
 31
0.0
  0
LINE
  5
4B
330
1E
100
AcDbEntity
  8
0
100
AcDbLine
 10
107.4999999999999
 20
770.0
 30
0.0
 11
110.0
 21
770.0
 31
0.0
  0
LINE
  5
4C
330
1E
100
AcDbEntity
  8
0
100
AcDbLine
 10
102.4999999999999
 20
770.0
 30
0.0
 11
102.4999999999999
 21
730.0
 31
0.0
  0
LINE
  5
4D
330
1E
100
AcDbEntity
  8
0
100
AcDbLine
 10
102.4999999999999
 20
770.0
 30
0.0
 11
107.4999999999999
 21
770.0
 31
0.0
  0
LINE
  5
4E
330
1E
100
AcDbEntity
  8
0
100
AcDbLine
 10
108.4
 20
771.0
 30
0.0
 11
109.5999999999999
 21
771.0
 31
0.0
  0
LINE
  5
4F
330
1E
100
AcDbEntity
  8
0
100
AcDbLine
 10
10.0
 20
2105.0
 30
0.0
 11
10.0
 21
2107.0
 31
0.0
  0
LINE
  5
50
330
1E
100
AcDbEntity
  8
0
100
AcDbLine
 10
10.0
 20
2105.0
 30
0.0
 11
12.0
 21
2105.0
 31
0.0
  0
LINE
  5
51
330
1E
100
AcDbEntity
  8
0
100
AcDbLine
 10
10.0
 20
2107.0
 30
0.0
 11
12.0
 21
2107.0
 31
0.0
  0
LINE
  5
52
330
1E
100
AcDbEntity
  8
0
100
AcDbLine
 10
10.0
 20
2107.0
 30
0.0
 11
10.0
 21
2105.0
 31
0.0
  0
LINE
  5
53
330
1E
100
AcDbEntity
  8
0
100
AcDbLine
 10
24.2372
 20
2105.0
 30
0.0
 11
24.2372
 21
2107.0
 31
0.0
  0
LINE
  5
54
330
1E
100
AcDbEntity
  8
0
100
AcDbLine
 10
24.2372
 20
2105.0
 30
0.0
 11
25.2372
 21
2105.0
 31
0.0
  0
LINE
  5
55
330
1E
100
AcDbEntity
  8
0
100
AcDbLine
 10
24.2372
 20
2105.0
 30
0.0
 11
25.9693
 21
2105.0
 31
0.0
  0
LINE
  5
56
330
1E
100
AcDbEntity
  8
0
100
AcDbLine
 10
25.2372
 20
2105.0
 30
0.0
 11
25.2372
 21
2107.0
 31
0.0
  0
LINE
  5
57
330
1E
100
AcDbEntity
  8
0
100
AcDbLine
 10
25.2372
 20
2105.0
 30
0.0
 11
26.9693
 21
2105.0
 31
0.0
  0
LINE
  5
58
330
1E
100
AcDbEntity
  8
0
100
AcDbLine
 10
15.9388
 20
2105.0
 30
0.0
 11
15.9388
 21
2107.0
 31
0.0
  0
LINE
  5
59
330
1E
100
AcDbEntity
  8
0
100
AcDbLine
 10
15.4212
 20
2105.0
 30
0.0
 11
15.9388
 21
2105.0
 31
0.0
  0
LINE
  5
5A
330
1E
100
AcDbEntity
  8
0
100
AcDbLine
 10
13.4893
 20
2105.0
 30
0.0
 11
13.4893
 21
2107.0
 31
0.0
  0
LINE
  5
5B
330
1E
100
AcDbEntity
  8
0
100
AcDbLine
 10
13.4893
 20
2105.0
 30
0.0
 11
14.007
 21
2105.0
 31
0.0
  0
LINE
  5
5C
330
1E
100
AcDbEntity
  8
0
100
AcDbLine
 10
13.4893
 20
2105.0
 30
0.0
 11
15.4212
 21
2105.0
 31
0.0
  0
LINE
  5
5D
330
1E
100
AcDbEntity
  8
0
100
AcDbLine
 10
14.007
 20
2105.0
 30
0.0
 11
14.007
 21
2107.0
 31
0.0
  0
LINE
  5
5E
330
1E
100
AcDbEntity
  8
0
100
AcDbLine
 10
14.007
 20
2105.0
 30
0.0
 11
15.9388
 21
2105.0
 31
0.0
  0
LINE
  5
5F
330
1E
100
AcDbEntity
  8
0
100
AcDbLine
 10
12.0
 20
2105.0
 30
0.0
 11
12.0
 21
2107.0
 31
0.0
  0
LINE
  5
60
330
1E
100
AcDbEntity
  8
0
100
AcDbLine
 10
13.4893
 20
2107.0
 30
0.0
 11
14.007
 21
2107.0
 31
0.0
  0
LINE
  5
61
330
1E
100
AcDbEntity
  8
0
100
AcDbLine
 10
13.4893
 20
2107.0
 30
0.0
 11
13.4893
 21
2105.0
 31
0.0
  0
LINE
  5
62
330
1E
100
AcDbEntity
  8
0
100
AcDbLine
 10
24.2372
 20
2107.0
 30
0.0
 11
25.2372
 21
2107.0
 31
0.0
  0
LINE
  5
63
330
1E
100
AcDbEntity
  8
0
100
AcDbLine
 10
24.2372
 20
2107.0
 30
0.0
 11
24.2372
 21
2105.0
 31
0.0
  0
LINE
  5
64
330
1E
100
AcDbEntity
  8
0
100
AcDbLine
 10
25.2372
 20
2107.0
 30
0.0
 11
26.9693
 21
2107.0
 31
0.0
  0
LINE
  5
65
330
1E
100
AcDbEntity
  8
0
100
AcDbLine
 10
25.2372
 20
2107.0
 30
0.0
 11
25.2372
 21
2105.0
 31
0.0
  0
LINE
  5
66
330
1E
100
AcDbEntity
  8
0
100
AcDbLine
 10
15.9388
 20
2107.0
 30
0.0
 11
15.9388
 21
2105.0
 31
0.0
  0
LINE
  5
67
330
1E
100
AcDbEntity
  8
0
100
AcDbLine
 10
15.9388
 20
2107.0
 30
0.0
 11
16.89999999999999
 21
2107.0
 31
0.0
  0
LINE
  5
68
330
1E
100
AcDbEntity
  8
0
100
AcDbLine
 10
14.007
 20
2107.0
 30
0.0
 11
15.9388
 21
2107.0
 31
0.0
  0
LINE
  5
69
330
1E
100
AcDbEntity
  8
0
100
AcDbLine
 10
14.007
 20
2107.0
 30
0.0
 11
14.007
 21
2105.0
 31
0.0
  0
LINE
  5
6A
330
1E
100
AcDbEntity
  8
0
100
AcDbLine
 10
12.0
 20
2107.0
 30
0.0
 11
12.0
 21
2105.0
 31
0.0
  0
LINE
  5
6B
330
1E
100
AcDbEntity
  8
0
100
AcDbLine
 10
12.0
 20
2107.0
 30
0.0
 11
13.4893
 21
2107.0
 31
0.0
  0
LINE
  5
6C
330
1E
100
AcDbEntity
  8
0
100
AcDbLine
 10
25.0
 20
2105.0
 30
0.0
 11
27.0
 21
2105.0
 31
0.0
  0
LINE
  5
6D
330
1E
100
AcDbEntity
  8
0
100
AcDbLine
 10
26.9693
 20
2105.0
 30
0.0
 11
26.9693
 21
2107.0
 31
0.0
  0
LINE
  5
6E
330
1E
100
AcDbEntity
  8
0
100
AcDbLine
 10
25.9693
 20
2105.0
 30
0.0
 11
26.9693
 21
2105.0
 31
0.0
  0
LINE
  5
6F
330
1E
100
AcDbEntity
  8
0
100
AcDbLine
 10
27.9782
 20
2107.0
 30
0.0
 11
28.4959
 21
2107.0
 31
0.0
  0
LINE
  5
70
330
1E
100
AcDbEntity
  8
0
100
AcDbLine
 10
27.9782
 20
2107.0
 30
0.0
 11
27.9782
 21
2105.0
 31
0.0
  0
LINE
  5
71
330
1E
100
AcDbEntity
  8
0
100
AcDbLine
 10
27.9782
 20
2105.0
 30
0.0
 11
27.9782
 21
2107.0
 31
0.0
  0
LINE
  5
72
330
1E
100
AcDbEntity
  8
0
100
AcDbLine
 10
27.9782
 20
2105.0
 30
0.0
 11
28.4959
 21
2105.0
 31
0.0
  0
LINE
  5
73
330
1E
100
AcDbEntity
  8
0
100
AcDbLine
 10
27.9782
 20
2105.0
 30
0.0
 11
29.9101
 21
2105.0
 31
0.0
  0
LINE
  5
74
330
1E
100
AcDbEntity
  8
0
100
AcDbLine
 10
37.2276
 20
2105.0
 30
0.0
 11
37.2276
 21
2107.0
 31
0.0
  0
LINE
  5
75
330
1E
100
AcDbEntity
  8
0
100
AcDbLine
 10
37.2276
 20
2105.0
 30
0.0
 11
38.2276
 21
2105.0
 31
0.0
  0
LINE
  5
76
330
1E
100
AcDbEntity
  8
0
100
AcDbLine
 10
37.2276
 20
2105.0
 30
0.0
 11
38.9596
 21
2105.0
 31
0.0
  0
LINE
  5
77
330
1E
100
AcDbEntity
  8
0
100
AcDbLine
 10
39.9596
 20
2105.0
 30
0.0
 11
39.9596
 21
2107.0
 31
0.0
  0
LINE
  5
78
330
1E
100
AcDbEntity
  8
0
100
AcDbLine
 10
38.9596
 20
2105.0
 30
0.0
 11
39.9596
 21
2105.0
 31
0.0
  0
LINE
  5
79
330
1E
100
AcDbEntity
  8
0
100
AcDbLine
 10
38.2276
 20
2105.0
 30
0.0
 11
38.2276
 21
2107.0
 31
0.0
  0
LINE
  5
7A
330
1E
100
AcDbEntity
  8
0
100
AcDbLine
 10
38.2276
 20
2105.0
 30
0.0
 11
39.9596
 21
2105.0
 31
0.0
  0
LINE
  5
7B
330
1E
100
AcDbEntity
  8
0
100
AcDbLine
 10
37.2276
 20
2107.0
 30
0.0
 11
38.2276
 21
2107.0
 31
0.0
  0
LINE
  5
7C
330
1E
100
AcDbEntity
  8
0
100
AcDbLine
 10
37.2276
 20
2107.0
 30
0.0
 11
37.2276
 21
2105.0
 31
0.0
  0
LINE
  5
7D
330
1E
100
AcDbEntity
  8
0
100
AcDbLine
 10
39.9596
 20
2107.0
 30
0.0
 11
39.9596
 21
2105.0
 31
0.0
  0
LINE
  5
7E
330
1E
100
AcDbEntity
  8
0
100
AcDbLine
 10
38.2276
 20
2107.0
 30
0.0
 11
39.9596
 21
2107.0
 31
0.0
  0
LINE
  5
7F
330
1E
100
AcDbEntity
  8
0
100
AcDbLine
 10
38.2276
 20
2107.0
 30
0.0
 11
38.2276
 21
2105.0
 31
0.0
  0
LINE
  5
80
330
1E
100
AcDbEntity
  8
0
100
AcDbLine
 10
30.4277
 20
2105.0
 30
0.0
 11
30.4277
 21
2107.0
 31
0.0
  0
LINE
  5
81
330
1E
100
AcDbEntity
  8
0
100
AcDbLine
 10
29.9101
 20
2105.0
 30
0.0
 11
30.4277
 21
2105.0
 31
0.0
  0
LINE
  5
82
330
1E
100
AcDbEntity
  8
0
100
AcDbLine
 10
30.4277
 20
2107.0
 30
0.0
 11
30.4277
 21
2105.0
 31
0.0
  0
LINE
  5
83
330
1E
100
AcDbEntity
  8
0
100
AcDbLine
 10
30.4277
 20
2107.0
 30
0.0
 11
36.0
 21
2107.0
 31
0.0
  0
LINE
  5
84
330
1E
100
AcDbEntity
  8
0
100
AcDbLine
 10
28.4959
 20
2105.0
 30
0.0
 11
28.4959
 21
2107.0
 31
0.0
  0
LINE
  5
85
330
1E
100
AcDbEntity
  8
0
100
AcDbLine
 10
28.4959
 20
2105.0
 30
0.0
 11
30.4277
 21
2105.0
 31
0.0
  0
LINE
  5
86
330
1E
100
AcDbEntity
  8
0
100
AcDbLine
 10
28.4959
 20
2107.0
 30
0.0
 11
30.4277
 21
2107.0
 31
0.0
  0
LINE
  5
87
330
1E
100
AcDbEntity
  8
0
100
AcDbLine
 10
28.4959
 20
2107.0
 30
0.0
 11
28.4959
 21
2105.0
 31
0.0
  0
LINE
  5
88
330
1E
100
AcDbEntity
  8
0
100
AcDbLine
 10
27.0
 20
2105.0
 30
0.0
 11
27.0
 21
2107.0
 31
0.0
  0
LINE
  5
89
330
1E
100
AcDbEntity
  8
0
100
AcDbLine
 10
27.0
 20
2107.0
 30
0.0
 11
27.0
 21
2105.0
 31
0.0
  0
LINE
  5
8A
330
1E
100
AcDbEntity
  8
0
100
AcDbLine
 10
27.0
 20
2107.0
 30
0.0
 11
27.9782
 21
2107.0
 31
0.0
  0
LINE
  5
8B
330
1E
100
AcDbEntity
  8
0
100
AcDbLine
 10
26.9693
 20
2107.0
 30
0.0
 11
26.9693
 21
2105.0
 31
0.0
  0
LINE
  5
8C
330
1E
100
AcDbEntity
  8
0
100
AcDbLine
 10
36.0
 20
2107.0
 30
0.0
 11
47.7
 21
2107.0
 31
0.0
  0
LINE
  5
8D
330
1E
100
AcDbEntity
  8
0
100
AcDbLine
 10
36.0
 20
2107.0
 30
0.0
 11
37.2276
 21
2107.0
 31
0.0
  0
LINE
  5
8E
330
1E
100
AcDbEntity
  8
0
100
AcDbLine
 10
25.8
 20
2107.0
 30
0.0
 11
36.0
 21
2107.0
 31
0.0
  0
LINE
  5
8F
330
1E
100
AcDbEntity
  8
0
100
AcDbLine
 10
16.89999999999999
 20
2107.0
 30
0.0
 11
25.8
 21
2107.0
 31
0.0
  0
LINE
  5
90
330
1E
100
AcDbEntity
  8
0
100
AcDbLine
 10
16.89999999999999
 20
2107.0
 30
0.0
 11
24.2372
 21
2107.0
 31
0.0
  0
LINE
  5
91
330
1E
100
AcDbEntity
  8
0
100
AcDbLine
 10
10.3
 20
2107.0
 30
0.0
 11
16.89999999999999
 21
2107.0
 31
0.0
  0
LINE
  5
92
330
1E
100
AcDbEntity
  8
0
100
AcDbLine
 10
5.299999999999999
 20
2107.0
 30
0.0
 11
10.3
 21
2107.0
 31
0.0
  0
LINE
  5
93
330
1E
100
AcDbEntity
  8
0
100
AcDbLine
 10
5.299999999999999
 20
2107.0
 30
0.0
 11
10.0
 21
2107.0
 31
0.0
  0
LINE
  5
94
330
1E
100
AcDbEntity
  8
0
100
AcDbLine
 10
2.2
 20
2107.0
 30
0.0
 11
5.299999999999999
 21
2107.0
 31
0.0
  0
LINE
  5
95
330
1E
100
AcDbEntity
  8
0
100
AcDbLine
 10
1.0
 20
2107.0
 30
0.0
 11
2.2
 21
2107.0
 31
0.0
  0
LINE
  5
96
330
1E
100
AcDbEntity
  8
0
100
AcDbLine
 10
41.5111
 20
2105.0
 30
0.0
 11
41.5111
 21
2107.0
 31
0.0
  0
LINE
  5
97
330
1E
100
AcDbEntity
  8
0
100
AcDbLine
 10
41.5111
 20
2105.0
 30
0.0
 11
42.9254
 21
2105.0
 31
0.0
  0
LINE
  5
98
330
1E
100
AcDbEntity
  8
0
100
AcDbLine
 10
43.014
 20
983.5
 30
0.0
 11
43.014
 21
984.1000000000001
 31
0.0
  0
LINE
  5
99
330
1E
100
AcDbEntity
  8
0
100
AcDbLine
 10
43.014
 20
983.5
 30
0.0
 11
44.01399999999999
 21
982.5000000000001
 31
0.0
  0
LINE
  5
9A
330
1E
100
AcDbEntity
  8
0
100
AcDbLine
 10
43.014
 20
984.1000000000001
 30
0.0
 11
43.014
 21
983.5
 31
0.0
  0
LINE
  5
9B
330
1E
100
AcDbEntity
  8
0
100
AcDbLine
 10
43.014
 20
984.1000000000001
 30
0.0
 11
43.014
 21
985.7000000000001
 31
0.0
  0
LINE
  5
9C
330
1E
100
AcDbEntity
  8
0
100
AcDbLine
 10
43.014
 20
985.7000000000001
 30
0.0
 11
43.014
 21
984.1000000000001
 31
0.0
  0
LINE
  5
9D
330
1E
100
AcDbEntity
  8
0
100
AcDbLine
 10
43.014
 20
985.7000000000001
 30
0.0
 11
43.014
 21
988.4
 31
0.0
  0
LINE
  5
9E
330
1E
100
AcDbEntity
  8
0
100
AcDbLine
 10
43.014
 20
988.4
 30
0.0
 11
43.014
 21
985.7000000000001
 31
0.0
  0
LINE
  5
9F
330
1E
100
AcDbEntity
  8
0
100
AcDbLine
 10
43.014
 20
988.4
 30
0.0
 11
43.014
 21
991.7999999999999
 31
0.0
  0
LINE
  5
A0
330
1E
100
AcDbEntity
  8
0
100
AcDbLine
 10
43.014
 20
991.7999999999999
 30
0.0
 11
43.014
 21
988.4
 31
0.0
  0
LINE
  5
A1
330
1E
100
AcDbEntity
  8
0
100
AcDbLine
 10
43.014
 20
991.7999999999999
 30
0.0
 11
43.014
 21
995.7
 31
0.0
  0
LINE
  5
A2
330
1E
100
AcDbEntity
  8
0
100
AcDbLine
 10
44.01399999999999
 20
982.5000000000001
 30
0.0
 11
44.01399999999999
 21
983.1000000000001
 31
0.0
  0
LINE
  5
A3
330
1E
100
AcDbEntity
  8
0
100
AcDbLine
 10
44.01399999999999
 20
982.5000000000001
 30
0.0
 11
84.014
 21
982.5000000000001
 31
0.0
  0
LINE
  5
A4
330
1E
100
AcDbEntity
  8
0
100
AcDbLine
 10
44.01399999999999
 20
983.1000000000001
 30
0.0
 11
44.01399999999999
 21
982.5000000000001
 31
0.0
  0
LINE
  5
A5
330
1E
100
AcDbEntity
  8
0
100
AcDbLine
 10
44.01399999999999
 20
983.1000000000001
 30
0.0
 11
44.01399999999999
 21
984.7999999999998
 31
0.0
  0
LINE
  5
A6
330
1E
100
AcDbEntity
  8
0
100
AcDbLine
 10
44.01399999999999
 20
984.7999999999998
 30
0.0
 11
44.01399999999999
 21
983.1000000000001
 31
0.0
  0
LINE
  5
A7
330
1E
100
AcDbEntity
  8
0
100
AcDbLine
 10
44.01399999999999
 20
984.7999999999998
 30
0.0
 11
44.01399999999999
 21
987.6000000000001
 31
0.0
  0
LINE
  5
A8
330
1E
100
AcDbEntity
  8
0
100
AcDbLine
 10
44.01399999999999
 20
987.6000000000001
 30
0.0
 11
44.01399999999999
 21
984.7999999999998
 31
0.0
  0
LINE
  5
A9
330
1E
100
AcDbEntity
  8
0
100
AcDbLine
 10
44.01399999999999
 20
987.6000000000001
 30
0.0
 11
44.01399999999999
 21
991.3
 31
0.0
  0
LINE
  5
AA
330
1E
100
AcDbEntity
  8
0
100
AcDbLine
 10
44.01399999999999
 20
991.3
 30
0.0
 11
44.01399999999999
 21
987.6000000000001
 31
0.0
  0
LINE
  5
AB
330
1E
100
AcDbEntity
  8
0
100
AcDbLine
 10
44.01399999999999
 20
991.3
 30
0.0
 11
44.01399999999999
 21
995.5
 31
0.0
  0
LINE
  5
AC
330
1E
100
AcDbEntity
  8
0
100
AcDbLine
 10
44.01399999999999
 20
995.5
 30
0.0
 11
44.01399999999999
 21
991.3
 31
0.0
  0
LINE
  5
AD
330
1E
100
AcDbEntity
  8
0
100
AcDbLine
 10
44.01399999999999
 20
995.5
 30
0.0
 11
44.01399999999999
 21
1000.0
 31
0.0
  0
LINE
  5
AE
330
1E
100
AcDbEntity
  8
0
100
AcDbLine
 10
44.01399999999999
 20
1000.0
 30
0.0
 11
44.01399999999999
 21
995.5
 31
0.0
  0
LINE
  5
AF
330
1E
100
AcDbEntity
  8
0
100
AcDbLine
 10
44.01399999999999
 20
1000.0
 30
0.0
 11
44.01399999999999
 21
1004.499999999999
 31
0.0
  0
LINE
  5
B0
330
1E
100
AcDbEntity
  8
0
100
AcDbLine
 10
43.014
 20
995.7
 30
0.0
 11
43.014
 21
991.7999999999999
 31
0.0
  0
LINE
  5
B1
330
1E
100
AcDbEntity
  8
0
100
AcDbLine
 10
43.014
 20
995.7
 30
0.0
 11
43.014
 21
1000.0
 31
0.0
  0
LINE
  5
B2
330
1E
100
AcDbEntity
  8
0
100
AcDbLine
 10
43.014
 20
1016.5
 30
0.0
 11
43.014
 21
1015.9
 31
0.0
  0
LINE
  5
B3
330
1E
100
AcDbEntity
  8
0
100
AcDbLine
 10
43.014
 20
1016.5
 30
0.0
 11
44.01399999999999
 21
1017.5
 31
0.0
  0
LINE
  5
B4
330
1E
100
AcDbEntity
  8
0
100
AcDbLine
 10
43.014
 20
1015.9
 30
0.0
 11
43.014
 21
1014.299999999999
 31
0.0
  0
LINE
  5
B5
330
1E
100
AcDbEntity
  8
0
100
AcDbLine
 10
43.014
 20
1015.9
 30
0.0
 11
43.014
 21
1016.5
 31
0.0
  0
LINE
  5
B6
330
1E
100
AcDbEntity
  8
0
100
AcDbLine
 10
43.014
 20
1014.299999999999
 30
0.0
 11
43.014
 21
1011.6
 31
0.0
  0
LINE
  5
B7
330
1E
100
AcDbEntity
  8
0
100
AcDbLine
 10
43.014
 20
1014.299999999999
 30
0.0
 11
43.014
 21
1015.9
 31
0.0
  0
LINE
  5
B8
330
1E
100
AcDbEntity
  8
0
100
AcDbLine
 10
43.014
 20
1011.6
 30
0.0
 11
43.014
 21
1008.2
 31
0.0
  0
LINE
  5
B9
330
1E
100
AcDbEntity
  8
0
100
AcDbLine
 10
43.014
 20
1011.6
 30
0.0
 11
43.014
 21
1014.299999999999
 31
0.0
  0
LINE
  5
BA
330
1E
100
AcDbEntity
  8
0
100
AcDbLine
 10
43.014
 20
1008.2
 30
0.0
 11
43.014
 21
1004.299999999999
 31
0.0
  0
LINE
  5
BB
330
1E
100
AcDbEntity
  8
0
100
AcDbLine
 10
43.014
 20
1008.2
 30
0.0
 11
43.014
 21
1011.6
 31
0.0
  0
LINE
  5
BC
330
1E
100
AcDbEntity
  8
0
100
AcDbLine
 10
44.01399999999999
 20
1017.5
 30
0.0
 11
44.01399999999999
 21
1016.9
 31
0.0
  0
LINE
  5
BD
330
1E
100
AcDbEntity
  8
0
100
AcDbLine
 10
44.01399999999999
 20
1017.5
 30
0.0
 11
84.014
 21
1017.5
 31
0.0
  0
LINE
  5
BE
330
1E
100
AcDbEntity
  8
0
100
AcDbLine
 10
44.01399999999999
 20
1016.9
 30
0.0
 11
44.01399999999999
 21
1015.2
 31
0.0
  0
LINE
  5
BF
330
1E
100
AcDbEntity
  8
0
100
AcDbLine
 10
44.01399999999999
 20
1016.9
 30
0.0
 11
44.01399999999999
 21
1017.5
 31
0.0
  0
LINE
  5
C0
330
1E
100
AcDbEntity
  8
0
100
AcDbLine
 10
44.01399999999999
 20
1015.2
 30
0.0
 11
44.01399999999999
 21
1012.4
 31
0.0
  0
LINE
  5
C1
330
1E
100
AcDbEntity
  8
0
100
AcDbLine
 10
44.01399999999999
 20
1015.2
 30
0.0
 11
44.01399999999999
 21
1016.9
 31
0.0
  0
LINE
  5
C2
330
1E
100
AcDbEntity
  8
0
100
AcDbLine
 10
44.01399999999999
 20
1012.4
 30
0.0
 11
44.01399999999999
 21
1008.7
 31
0.0
  0
LINE
  5
C3
330
1E
100
AcDbEntity
  8
0
100
AcDbLine
 10
44.01399999999999
 20
1012.4
 30
0.0
 11
44.01399999999999
 21
1015.2
 31
0.0
  0
LINE
  5
C4
330
1E
100
AcDbEntity
  8
0
100
AcDbLine
 10
44.01399999999999
 20
1008.7
 30
0.0
 11
44.01399999999999
 21
1004.499999999999
 31
0.0
  0
LINE
  5
C5
330
1E
100
AcDbEntity
  8
0
100
AcDbLine
 10
44.01399999999999
 20
1008.7
 30
0.0
 11
44.01399999999999
 21
1012.4
 31
0.0
  0
LINE
  5
C6
330
1E
100
AcDbEntity
  8
0
100
AcDbLine
 10
44.01399999999999
 20
1004.499999999999
 30
0.0
 11
44.01399999999999
 21
1000.0
 31
0.0
  0
LINE
  5
C7
330
1E
100
AcDbEntity
  8
0
100
AcDbLine
 10
44.01399999999999
 20
1004.499999999999
 30
0.0
 11
44.01399999999999
 21
1008.7
 31
0.0
  0
LINE
  5
C8
330
1E
100
AcDbEntity
  8
0
100
AcDbLine
 10
43.014
 20
1004.299999999999
 30
0.0
 11
43.014
 21
1000.0
 31
0.0
  0
LINE
  5
C9
330
1E
100
AcDbEntity
  8
0
100
AcDbLine
 10
43.014
 20
1004.299999999999
 30
0.0
 11
43.014
 21
1008.2
 31
0.0
  0
LINE
  5
CA
330
1E
100
AcDbEntity
  8
0
100
AcDbLine
 10
43.014
 20
1000.0
 30
0.0
 11
43.014
 21
995.7
 31
0.0
  0
LINE
  5
CB
330
1E
100
AcDbEntity
  8
0
100
AcDbLine
 10
43.014
 20
1000.0
 30
0.0
 11
43.014
 21
1004.299999999999
 31
0.0
  0
LINE
  5
CC
330
1E
100
AcDbEntity
  8
0
100
AcDbLine
 10
44.33959999999999
 20
2105.0
 30
0.0
 11
44.33959999999999
 21
2107.0
 31
0.0
  0
LINE
  5
CD
330
1E
100
AcDbEntity
  8
0
100
AcDbLine
 10
42.9254
 20
2105.0
 30
0.0
 11
42.9254
 21
2107.0
 31
0.0
  0
LINE
  5
CE
330
1E
100
AcDbEntity
  8
0
100
AcDbLine
 10
42.9254
 20
2105.0
 30
0.0
 11
44.33959999999999
 21
2105.0
 31
0.0
  0
LINE
  5
CF
330
1E
100
AcDbEntity
  8
0
100
AcDbLine
 10
52.1177
 20
2105.0
 30
0.0
 11
52.1177
 21
2107.0
 31
0.0
  0
LINE
  5
D0
330
1E
100
AcDbEntity
  8
0
100
AcDbLine
 10
52.1177
 20
2105.0
 30
0.0
 11
53.532
 21
2105.0
 31
0.0
  0
LINE
  5
D1
330
1E
100
AcDbEntity
  8
0
100
AcDbLine
 10
54.9462
 20
2105.0
 30
0.0
 11
54.9462
 21
2107.0
 31
0.0
  0
LINE
  5
D2
330
1E
100
AcDbEntity
  8
0
100
AcDbLine
 10
53.532
 20
2105.0
 30
0.0
 11
53.532
 21
2107.0
 31
0.0
  0
LINE
  5
D3
330
1E
100
AcDbEntity
  8
0
100
AcDbLine
 10
53.532
 20
2105.0
 30
0.0
 11
54.9462
 21
2105.0
 31
0.0
  0
LINE
  5
D4
330
1E
100
AcDbEntity
  8
0
100
AcDbLine
 10
51.95
 20
2105.0
 30
0.0
 11
52.95
 21
2105.0
 31
0.0
  0
LINE
  5
D5
330
1E
100
AcDbEntity
  8
0
100
AcDbLine
 10
50.218
 20
2105.0
 30
0.0
 11
50.218
 21
2107.0
 31
0.0
  0
LINE
  5
D6
330
1E
100
AcDbEntity
  8
0
100
AcDbLine
 10
50.218
 20
2105.0
 30
0.0
 11
51.218
 21
2105.0
 31
0.0
  0
LINE
  5
D7
330
1E
100
AcDbEntity
  8
0
100
AcDbLine
 10
50.218
 20
2105.0
 30
0.0
 11
51.95
 21
2105.0
 31
0.0
  0
LINE
  5
D8
330
1E
100
AcDbEntity
  8
0
100
AcDbLine
 10
51.218
 20
2105.0
 30
0.0
 11
51.218
 21
2107.0
 31
0.0
  0
LINE
  5
D9
330
1E
100
AcDbEntity
  8
0
100
AcDbLine
 10
51.218
 20
2105.0
 30
0.0
 11
52.95
 21
2105.0
 31
0.0
  0
LINE
  5
DA
330
1E
100
AcDbEntity
  8
0
100
AcDbLine
 10
44.9166
 20
2105.0
 30
0.0
 11
44.9166
 21
2107.0
 31
0.0
  0
LINE
  5
DB
330
1E
100
AcDbEntity
  8
0
100
AcDbLine
 10
44.39899999999999
 20
2105.0
 30
0.0
 11
44.9166
 21
2105.0
 31
0.0
  0
LINE
  5
DC
330
1E
100
AcDbEntity
  8
0
100
AcDbLine
 10
42.4671
 20
2105.0
 30
0.0
 11
42.9848
 21
2105.0
 31
0.0
  0
LINE
  5
DD
330
1E
100
AcDbEntity
  8
0
100
AcDbLine
 10
42.4671
 20
2105.0
 30
0.0
 11
44.39899999999999
 21
2105.0
 31
0.0
  0
LINE
  5
DE
330
1E
100
AcDbEntity
  8
0
100
AcDbLine
 10
42.9848
 20
2105.0
 30
0.0
 11
44.9166
 21
2105.0
 31
0.0
  0
LINE
  5
DF
330
1E
100
AcDbEntity
  8
0
100
AcDbLine
 10
62.72429999999999
 20
2105.0
 30
0.0
 11
62.72429999999999
 21
2107.0
 31
0.0
  0
LINE
  5
E0
330
1E
100
AcDbEntity
  8
0
100
AcDbLine
 10
62.72429999999999
 20
2105.0
 30
0.0
 11
64.13859999999999
 21
2105.0
 31
0.0
  0
LINE
  5
E1
330
1E
100
AcDbEntity
  8
0
100
AcDbLine
 10
64.13859999999999
 20
2105.0
 30
0.0
 11
65.5528
 21
2105.0
 31
0.0
  0
LINE
  5
E2
330
1E
100
AcDbEntity
  8
0
100
AcDbLine
 10
65.134
 20
2105.0
 30
0.0
 11
66.866
 21
2105.0
 31
0.0
  0
LINE
  5
E3
330
1E
100
AcDbEntity
  8
0
100
AcDbLine
 10
64.134
 20
2105.0
 30
0.0
 11
64.134
 21
2107.0
 31
0.0
  0
LINE
  5
E4
330
1E
100
AcDbEntity
  8
0
100
AcDbLine
 10
64.134
 20
2105.0
 30
0.0
 11
65.866
 21
2105.0
 31
0.0
  0
LINE
  5
E5
330
1E
100
AcDbEntity
  8
0
100
AcDbLine
 10
64.134
 20
2105.0
 30
0.0
 11
65.134
 21
2105.0
 31
0.0
  0
LINE
  5
E6
330
1E
100
AcDbEntity
  8
0
100
AcDbLine
 10
66.866
 20
2105.0
 30
0.0
 11
66.866
 21
2107.0
 31
0.0
  0
LINE
  5
E7
330
1E
100
AcDbEntity
  8
0
100
AcDbLine
 10
65.866
 20
2105.0
 30
0.0
 11
65.866
 21
2107.0
 31
0.0
  0
LINE
  5
E8
330
1E
100
AcDbEntity
  8
0
100
AcDbLine
 10
65.866
 20
2105.0
 30
0.0
 11
66.866
 21
2105.0
 31
0.0
  0
LINE
  5
E9
330
1E
100
AcDbEntity
  8
0
100
AcDbLine
 10
64.9404
 20
2105.0
 30
0.0
 11
65.94039999999999
 21
2105.0
 31
0.0
  0
LINE
  5
EA
330
1E
100
AcDbEntity
  8
0
100
AcDbLine
 10
63.2083
 20
2105.0
 30
0.0
 11
64.2084
 21
2105.0
 31
0.0
  0
LINE
  5
EB
330
1E
100
AcDbEntity
  8
0
100
AcDbLine
 10
63.2083
 20
2105.0
 30
0.0
 11
64.9404
 21
2105.0
 31
0.0
  0
LINE
  5
EC
330
1E
100
AcDbEntity
  8
0
100
AcDbLine
 10
64.2084
 20
2105.0
 30
0.0
 11
65.94039999999999
 21
2105.0
 31
0.0
  0
LINE
  5
ED
330
1E
100
AcDbEntity
  8
0
100
AcDbLine
 10
59.4055
 20
2105.0
 30
0.0
 11
59.4055
 21
2107.0
 31
0.0
  0
LINE
  5
EE
330
1E
100
AcDbEntity
  8
0
100
AcDbLine
 10
58.8879
 20
2105.0
 30
0.0
 11
59.4055
 21
2105.0
 31
0.0
  0
LINE
  5
EF
330
1E
100
AcDbEntity
  8
0
100
AcDbLine
 10
56.956
 20
2105.0
 30
0.0
 11
56.956
 21
2107.0
 31
0.0
  0
LINE
  5
F0
330
1E
100
AcDbEntity
  8
0
100
AcDbLine
 10
56.956
 20
2105.0
 30
0.0
 11
57.4736
 21
2105.0
 31
0.0
  0
LINE
  5
F1
330
1E
100
AcDbEntity
  8
0
100
AcDbLine
 10
56.956
 20
2105.0
 30
0.0
 11
58.8879
 21
2105.0
 31
0.0
  0
LINE
  5
F2
330
1E
100
AcDbEntity
  8
0
100
AcDbLine
 10
57.4736
 20
2105.0
 30
0.0
 11
57.4736
 21
2107.0
 31
0.0
  0
LINE
  5
F3
330
1E
100
AcDbEntity
  8
0
100
AcDbLine
 10
57.4736
 20
2105.0
 30
0.0
 11
59.4055
 21
2105.0
 31
0.0
  0
LINE
  5
F4
330
1E
100
AcDbEntity
  8
0
100
AcDbLine
 10
73.331
 20
2105.0
 30
0.0
 11
74.7452
 21
2105.0
 31
0.0
  0
LINE
  5
F5
330
1E
100
AcDbEntity
  8
0
100
AcDbLine
 10
72.634
 20
2105.0
 30
0.0
 11
74.366
 21
2105.0
 31
0.0
  0
LINE
  5
F6
330
1E
100
AcDbEntity
  8
0
100
AcDbLine
 10
71.634
 20
2105.0
 30
0.0
 11
71.634
 21
2107.0
 31
0.0
  0
LINE
  5
F7
330
1E
100
AcDbEntity
  8
0
100
AcDbLine
 10
71.634
 20
2105.0
 30
0.0
 11
73.366
 21
2105.0
 31
0.0
  0
LINE
  5
F8
330
1E
100
AcDbEntity
  8
0
100
AcDbLine
 10
71.634
 20
2105.0
 30
0.0
 11
72.634
 21
2105.0
 31
0.0
  0
LINE
  5
F9
330
1E
100
AcDbEntity
  8
0
100
AcDbLine
 10
76.15940000000001
 20
2105.0
 30
0.0
 11
76.15940000000001
 21
2107.0
 31
0.0
  0
LINE
  5
FA
330
1E
100
AcDbEntity
  8
0
100
AcDbLine
 10
74.7452
 20
2105.0
 30
0.0
 11
74.7452
 21
2107.0
 31
0.0
  0
LINE
  5
FB
330
1E
100
AcDbEntity
  8
0
100
AcDbLine
 10
74.7452
 20
2105.0
 30
0.0
 11
76.15940000000001
 21
2105.0
 31
0.0
  0
LINE
  5
FC
330
1E
100
AcDbEntity
  8
0
100
AcDbLine
 10
74.366
 20
2105.0
 30
0.0
 11
74.366
 21
2107.0
 31
0.0
  0
LINE
  5
FD
330
1E
100
AcDbEntity
  8
0
100
AcDbLine
 10
73.366
 20
2105.0
 30
0.0
 11
73.366
 21
2107.0
 31
0.0
  0
LINE
  5
FE
330
1E
100
AcDbEntity
  8
0
100
AcDbLine
 10
73.366
 20
2105.0
 30
0.0
 11
74.366
 21
2105.0
 31
0.0
  0
LINE
  5
FF
330
1E
100
AcDbEntity
  8
0
100
AcDbLine
 10
76.1987
 20
2105.0
 30
0.0
 11
76.1987
 21
2107.0
 31
0.0
  0
LINE
  5
100
330
1E
100
AcDbEntity
  8
0
100
AcDbLine
 10
76.1987
 20
2105.0
 30
0.0
 11
77.1987
 21
2105.0
 31
0.0
  0
LINE
  5
101
330
1E
100
AcDbEntity
  8
0
100
AcDbLine
 10
76.1987
 20
2105.0
 30
0.0
 11
77.9308
 21
2105.0
 31
0.0
  0
LINE
  5
102
330
1E
100
AcDbEntity
  8
0
100
AcDbLine
 10
78.0
 20
1054.02
 30
0.0
 11
81.19710000000001
 21
1037.95
 31
0.0
  0
LINE
  5
103
330
1E
100
AcDbEntity
  8
0
100
AcDbLine
 10
78.0
 20
1054.02
 30
0.0
 11
81.19710000000001
 21
1037.94
 31
0.0
  0
LINE
  5
104
330
1E
100
AcDbEntity
  8
0
100
AcDbLine
 10
78.0
 20
1054.02
 30
0.0
 11
81.19710000000001
 21
1070.099999999999
 31
0.0
  0
LINE
  5
105
330
1E
100
AcDbEntity
  8
0
100
AcDbLine
 10
81.19710000000001
 20
1037.94
 30
0.0
 11
90.3016
 21
1024.32
 31
0.0
  0
LINE
  5
106
330
1E
100
AcDbEntity
  8
0
100
AcDbLine
 10
81.19710000000001
 20
1070.099999999999
 30
0.0
 11
90.3016
 21
1083.72
 31
0.0
  0
LINE
  5
107
330
1E
100
AcDbEntity
  8
0
100
AcDbLine
 10
81.19710000000001
 20
1037.95
 30
0.0
 11
90.3016
 21
1024.329999999999
 31
0.0
  0
LINE
  5
108
330
1E
100
AcDbEntity
  8
0
100
AcDbLine
 10
84.014
 20
982.5000000000001
 30
0.0
 11
84.014
 21
983.1000000000001
 31
0.0
  0
LINE
  5
109
330
1E
100
AcDbEntity
  8
0
100
AcDbLine
 10
84.014
 20
982.5000000000001
 30
0.0
 11
84.51399999999999
 21
983.5
 31
0.0
  0
LINE
  5
10A
330
1E
100
AcDbEntity
  8
0
100
AcDbLine
 10
84.014
 20
983.1000000000001
 30
0.0
 11
84.014
 21
982.5000000000001
 31
0.0
  0
LINE
  5
10B
330
1E
100
AcDbEntity
  8
0
100
AcDbLine
 10
84.014
 20
983.1000000000001
 30
0.0
 11
84.014
 21
984.7999999999998
 31
0.0
  0
LINE
  5
10C
330
1E
100
AcDbEntity
  8
0
100
AcDbLine
 10
84.014
 20
984.7999999999998
 30
0.0
 11
84.014
 21
983.1000000000001
 31
0.0
  0
LINE
  5
10D
330
1E
100
AcDbEntity
  8
0
100
AcDbLine
 10
84.014
 20
984.7999999999998
 30
0.0
 11
84.014
 21
987.6000000000001
 31
0.0
  0
LINE
  5
10E
330
1E
100
AcDbEntity
  8
0
100
AcDbLine
 10
84.014
 20
987.6000000000001
 30
0.0
 11
84.014
 21
984.7999999999998
 31
0.0
  0
LINE
  5
10F
330
1E
100
AcDbEntity
  8
0
100
AcDbLine
 10
84.014
 20
987.6000000000001
 30
0.0
 11
84.014
 21
991.3
 31
0.0
  0
LINE
  5
110
330
1E
100
AcDbEntity
  8
0
100
AcDbLine
 10
84.014
 20
991.3
 30
0.0
 11
84.014
 21
987.6000000000001
 31
0.0
  0
LINE
  5
111
330
1E
100
AcDbEntity
  8
0
100
AcDbLine
 10
84.014
 20
991.3
 30
0.0
 11
84.014
 21
995.5
 31
0.0
  0
LINE
  5
112
330
1E
100
AcDbEntity
  8
0
100
AcDbLine
 10
84.014
 20
1017.5
 30
0.0
 11
84.014
 21
1016.9
 31
0.0
  0
LINE
  5
113
330
1E
100
AcDbEntity
  8
0
100
AcDbLine
 10
84.014
 20
1017.5
 30
0.0
 11
84.51399999999999
 21
1016.5
 31
0.0
  0
LINE
  5
114
330
1E
100
AcDbEntity
  8
0
100
AcDbLine
 10
84.014
 20
1016.9
 30
0.0
 11
84.014
 21
1015.2
 31
0.0
  0
LINE
  5
115
330
1E
100
AcDbEntity
  8
0
100
AcDbLine
 10
84.014
 20
1016.9
 30
0.0
 11
84.014
 21
1017.5
 31
0.0
  0
LINE
  5
116
330
1E
100
AcDbEntity
  8
0
100
AcDbLine
 10
84.014
 20
1015.2
 30
0.0
 11
84.014
 21
1012.4
 31
0.0
  0
LINE
  5
117
330
1E
100
AcDbEntity
  8
0
100
AcDbLine
 10
84.014
 20
1015.2
 30
0.0
 11
84.014
 21
1016.9
 31
0.0
  0
LINE
  5
118
330
1E
100
AcDbEntity
  8
0
100
AcDbLine
 10
84.014
 20
1012.4
 30
0.0
 11
84.014
 21
1008.7
 31
0.0
  0
LINE
  5
119
330
1E
100
AcDbEntity
  8
0
100
AcDbLine
 10
84.014
 20
1012.4
 30
0.0
 11
84.014
 21
1015.2
 31
0.0
  0
LINE
  5
11A
330
1E
100
AcDbEntity
  8
0
100
AcDbLine
 10
84.014
 20
1008.7
 30
0.0
 11
84.014
 21
1004.499999999999
 31
0.0
  0
LINE
  5
11B
330
1E
100
AcDbEntity
  8
0
100
AcDbLine
 10
84.014
 20
1008.7
 30
0.0
 11
84.014
 21
1012.4
 31
0.0
  0
LINE
  5
11C
330
1E
100
AcDbEntity
  8
0
100
AcDbLine
 10
84.014
 20
1004.499999999999
 30
0.0
 11
84.014
 21
1000.0
 31
0.0
  0
LINE
  5
11D
330
1E
100
AcDbEntity
  8
0
100
AcDbLine
 10
84.014
 20
1004.499999999999
 30
0.0
 11
84.014
 21
1008.7
 31
0.0
  0
LINE
  5
11E
330
1E
100
AcDbEntity
  8
0
100
AcDbLine
 10
84.014
 20
995.5
 30
0.0
 11
84.014
 21
991.3
 31
0.0
  0
LINE
  5
11F
330
1E
100
AcDbEntity
  8
0
100
AcDbLine
 10
84.014
 20
995.5
 30
0.0
 11
84.014
 21
1000.0
 31
0.0
  0
LINE
  5
120
330
1E
100
AcDbEntity
  8
0
100
AcDbLine
 10
84.51399999999999
 20
983.5
 30
0.0
 11
84.51399999999999
 21
984.1000000000001
 31
0.0
  0
LINE
  5
121
330
1E
100
AcDbEntity
  8
0
100
AcDbLine
 10
84.51399999999999
 20
983.5
 30
0.0
 11
85.014
 21
982.5000000000001
 31
0.0
  0
LINE
  5
122
330
1E
100
AcDbEntity
  8
0
100
AcDbLine
 10
84.51399999999999
 20
984.1000000000001
 30
0.0
 11
84.51399999999999
 21
983.5
 31
0.0
  0
LINE
  5
123
330
1E
100
AcDbEntity
  8
0
100
AcDbLine
 10
84.51399999999999
 20
984.1000000000001
 30
0.0
 11
84.51399999999999
 21
985.7000000000001
 31
0.0
  0
LINE
  5
124
330
1E
100
AcDbEntity
  8
0
100
AcDbLine
 10
84.51399999999999
 20
985.7000000000001
 30
0.0
 11
84.51399999999999
 21
984.1000000000001
 31
0.0
  0
LINE
  5
125
330
1E
100
AcDbEntity
  8
0
100
AcDbLine
 10
84.51399999999999
 20
985.7000000000001
 30
0.0
 11
84.51399999999999
 21
988.4
 31
0.0
  0
LINE
  5
126
330
1E
100
AcDbEntity
  8
0
100
AcDbLine
 10
84.51399999999999
 20
988.4
 30
0.0
 11
84.51399999999999
 21
985.7000000000001
 31
0.0
  0
LINE
  5
127
330
1E
100
AcDbEntity
  8
0
100
AcDbLine
 10
84.51399999999999
 20
988.4
 30
0.0
 11
84.51399999999999
 21
991.7999999999999
 31
0.0
  0
LINE
  5
128
330
1E
100
AcDbEntity
  8
0
100
AcDbLine
 10
84.51399999999999
 20
991.7999999999999
 30
0.0
 11
84.51399999999999
 21
988.4
 31
0.0
  0
LINE
  5
129
330
1E
100
AcDbEntity
  8
0
100
AcDbLine
 10
84.51399999999999
 20
991.7999999999999
 30
0.0
 11
84.51399999999999
 21
995.7
 31
0.0
  0
LINE
  5
12A
330
1E
100
AcDbEntity
  8
0
100
AcDbLine
 10
84.51399999999999
 20
995.7
 30
0.0
 11
84.51399999999999
 21
991.7999999999999
 31
0.0
  0
LINE
  5
12B
330
1E
100
AcDbEntity
  8
0
100
AcDbLine
 10
84.51399999999999
 20
995.7
 30
0.0
 11
84.51399999999999
 21
1000.0
 31
0.0
  0
LINE
  5
12C
330
1E
100
AcDbEntity
  8
0
100
AcDbLine
 10
84.51399999999999
 20
1016.5
 30
0.0
 11
84.51399999999999
 21
1015.9
 31
0.0
  0
LINE
  5
12D
330
1E
100
AcDbEntity
  8
0
100
AcDbLine
 10
84.51399999999999
 20
1016.5
 30
0.0
 11
85.014
 21
1017.5
 31
0.0
  0
LINE
  5
12E
330
1E
100
AcDbEntity
  8
0
100
AcDbLine
 10
84.51399999999999
 20
1015.9
 30
0.0
 11
84.51399999999999
 21
1014.299999999999
 31
0.0
  0
LINE
  5
12F
330
1E
100
AcDbEntity
  8
0
100
AcDbLine
 10
84.51399999999999
 20
1015.9
 30
0.0
 11
84.51399999999999
 21
1016.5
 31
0.0
  0
LINE
  5
130
330
1E
100
AcDbEntity
  8
0
100
AcDbLine
 10
84.51399999999999
 20
1014.299999999999
 30
0.0
 11
84.51399999999999
 21
1011.6
 31
0.0
  0
LINE
  5
131
330
1E
100
AcDbEntity
  8
0
100
AcDbLine
 10
84.51399999999999
 20
1014.299999999999
 30
0.0
 11
84.51399999999999
 21
1015.9
 31
0.0
  0
LINE
  5
132
330
1E
100
AcDbEntity
  8
0
100
AcDbLine
 10
84.51399999999999
 20
1011.6
 30
0.0
 11
84.51399999999999
 21
1008.2
 31
0.0
  0
LINE
  5
133
330
1E
100
AcDbEntity
  8
0
100
AcDbLine
 10
84.51399999999999
 20
1011.6
 30
0.0
 11
84.51399999999999
 21
1014.299999999999
 31
0.0
  0
LINE
  5
134
330
1E
100
AcDbEntity
  8
0
100
AcDbLine
 10
84.51399999999999
 20
1008.2
 30
0.0
 11
84.51399999999999
 21
1004.299999999999
 31
0.0
  0
LINE
  5
135
330
1E
100
AcDbEntity
  8
0
100
AcDbLine
 10
84.51399999999999
 20
1008.2
 30
0.0
 11
84.51399999999999
 21
1011.6
 31
0.0
  0
LINE
  5
136
330
1E
100
AcDbEntity
  8
0
100
AcDbLine
 10
84.51399999999999
 20
1004.299999999999
 30
0.0
 11
84.51399999999999
 21
1000.0
 31
0.0
  0
LINE
  5
137
330
1E
100
AcDbEntity
  8
0
100
AcDbLine
 10
84.51399999999999
 20
1004.299999999999
 30
0.0
 11
84.51399999999999
 21
1008.2
 31
0.0
  0
LINE
  5
138
330
1E
100
AcDbEntity
  8
0
100
AcDbLine
 10
84.51399999999999
 20
1000.0
 30
0.0
 11
84.51399999999999
 21
995.7
 31
0.0
  0
LINE
  5
139
330
1E
100
AcDbEntity
  8
0
100
AcDbLine
 10
84.51399999999999
 20
1000.0
 30
0.0
 11
84.51399999999999
 21
1004.299999999999
 31
0.0
  0
LINE
  5
13A
330
1E
100
AcDbEntity
  8
0
100
AcDbLine
 10
84.014
 20
1000.0
 30
0.0
 11
84.014
 21
995.5
 31
0.0
  0
LINE
  5
13B
330
1E
100
AcDbEntity
  8
0
100
AcDbLine
 10
84.014
 20
1000.0
 30
0.0
 11
84.014
 21
1004.499999999999
 31
0.0
  0
LINE
  5
13C
330
1E
100
AcDbEntity
  8
0
100
AcDbLine
 10
83.9376
 20
2105.0
 30
0.0
 11
83.9376
 21
2107.0
 31
0.0
  0
LINE
  5
13D
330
1E
100
AcDbEntity
  8
0
100
AcDbLine
 10
83.9376
 20
2105.0
 30
0.0
 11
85.3518
 21
2105.0
 31
0.0
  0
LINE
  5
13E
330
1E
100
AcDbEntity
  8
0
100
AcDbLine
 10
81.866
 20
2105.0
 30
0.0
 11
81.866
 21
2107.0
 31
0.0
  0
LINE
  5
13F
330
1E
100
AcDbEntity
  8
0
100
AcDbLine
 10
80.134
 20
2105.0
 30
0.0
 11
81.866
 21
2105.0
 31
0.0
  0
LINE
  5
140
330
1E
100
AcDbEntity
  8
0
100
AcDbLine
 10
79.134
 20
2105.0
 30
0.0
 11
79.134
 21
2107.0
 31
0.0
  0
LINE
  5
141
330
1E
100
AcDbEntity
  8
0
100
AcDbLine
 10
79.134
 20
2105.0
 30
0.0
 11
80.866
 21
2105.0
 31
0.0
  0
LINE
  5
142
330
1E
100
AcDbEntity
  8
0
100
AcDbLine
 10
79.134
 20
2105.0
 30
0.0
 11
80.134
 21
2105.0
 31
0.0
  0
LINE
  5
143
330
1E
100
AcDbEntity
  8
0
100
AcDbLine
 10
80.866
 20
2105.0
 30
0.0
 11
80.866
 21
2107.0
 31
0.0
  0
LINE
  5
144
330
1E
100
AcDbEntity
  8
0
100
AcDbLine
 10
80.866
 20
2105.0
 30
0.0
 11
81.866
 21
2105.0
 31
0.0
  0
LINE
  5
145
330
1E
100
AcDbEntity
  8
0
100
AcDbLine
 10
78.93080000000001
 20
2105.0
 30
0.0
 11
78.93080000000001
 21
2107.0
 31
0.0
  0
LINE
  5
146
330
1E
100
AcDbEntity
  8
0
100
AcDbLine
 10
77.9308
 20
2105.0
 30
0.0
 11
78.93080000000001
 21
2105.0
 31
0.0
  0
LINE
  5
147
330
1E
100
AcDbEntity
  8
0
100
AcDbLine
 10
77.1987
 20
2105.0
 30
0.0
 11
77.1987
 21
2107.0
 31
0.0
  0
LINE
  5
148
330
1E
100
AcDbEntity
  8
0
100
AcDbLine
 10
77.1987
 20
2105.0
 30
0.0
 11
78.93080000000001
 21
2105.0
 31
0.0
  0
LINE
  5
149
330
1E
100
AcDbEntity
  8
0
100
AcDbLine
 10
73.3767
 20
2105.0
 30
0.0
 11
73.8944
 21
2105.0
 31
0.0
  0
LINE
  5
14A
330
1E
100
AcDbEntity
  8
0
100
AcDbLine
 10
71.44490000000001
 20
2105.0
 30
0.0
 11
71.44490000000001
 21
2107.0
 31
0.0
  0
LINE
  5
14B
330
1E
100
AcDbEntity
  8
0
100
AcDbLine
 10
71.44490000000001
 20
2105.0
 30
0.0
 11
71.9625
 21
2105.0
 31
0.0
  0
LINE
  5
14C
330
1E
100
AcDbEntity
  8
0
100
AcDbLine
 10
71.44490000000001
 20
2105.0
 30
0.0
 11
73.3767
 21
2105.0
 31
0.0
  0
LINE
  5
14D
330
1E
100
AcDbEntity
  8
0
100
AcDbLine
 10
71.9625
 20
2105.0
 30
0.0
 11
73.8944
 21
2105.0
 31
0.0
  0
LINE
  5
14E
330
1E
100
AcDbEntity
  8
0
100
AcDbLine
 10
85.014
 20
982.5000000000001
 30
0.0
 11
85.014
 21
983.1000000000001
 31
0.0
  0
LINE
  5
14F
330
1E
100
AcDbEntity
  8
0
100
AcDbLine
 10
85.014
 20
982.5000000000001
 30
0.0
 11
101.0213389301199
 21
982.5000000000001
 31
0.0
  0
LINE
  5
150
330
1E
100
AcDbEntity
  8
0
100
AcDbLine
 10
85.014
 20
983.1000000000001
 30
0.0
 11
85.014
 21
982.5000000000001
 31
0.0
  0
LINE
  5
151
330
1E
100
AcDbEntity
  8
0
100
AcDbLine
 10
85.014
 20
983.1000000000001
 30
0.0
 11
85.014
 21
984.7999999999998
 31
0.0
  0
LINE
  5
152
330
1E
100
AcDbEntity
  8
0
100
AcDbLine
 10
85.014
 20
984.7999999999998
 30
0.0
 11
85.014
 21
983.1000000000001
 31
0.0
  0
LINE
  5
153
330
1E
100
AcDbEntity
  8
0
100
AcDbLine
 10
85.014
 20
984.7999999999998
 30
0.0
 11
85.014
 21
987.6000000000001
 31
0.0
  0
LINE
  5
154
330
1E
100
AcDbEntity
  8
0
100
AcDbLine
 10
85.014
 20
987.6000000000001
 30
0.0
 11
85.014
 21
984.7999999999998
 31
0.0
  0
LINE
  5
155
330
1E
100
AcDbEntity
  8
0
100
AcDbLine
 10
85.014
 20
987.6000000000001
 30
0.0
 11
85.014
 21
991.3
 31
0.0
  0
LINE
  5
156
330
1E
100
AcDbEntity
  8
0
100
AcDbLine
 10
85.014
 20
991.3
 30
0.0
 11
85.014
 21
987.6000000000001
 31
0.0
  0
LINE
  5
157
330
1E
100
AcDbEntity
  8
0
100
AcDbLine
 10
85.014
 20
991.3
 30
0.0
 11
85.014
 21
995.5
 31
0.0
  0
LINE
  5
158
330
1E
100
AcDbEntity
  8
0
100
AcDbLine
 10
85.014
 20
1017.5
 30
0.0
 11
85.014
 21
1016.9
 31
0.0
  0
LINE
  5
159
330
1E
100
AcDbEntity
  8
0
100
AcDbLine
 10
85.014
 20
1017.5
 30
0.0
 11
101.0111951826099
 21
1017.5
 31
0.0
  0
LINE
  5
15A
330
1E
100
AcDbEntity
  8
0
100
AcDbLine
 10
85.014
 20
1017.5
 30
0.0
 11
101.0111951826099
 21
1017.5
 31
0.0
  0
LINE
  5
15B
330
1E
100
AcDbEntity
  8
0
100
AcDbLine
 10
85.014
 20
1016.9
 30
0.0
 11
85.014
 21
1015.2
 31
0.0
  0
LINE
  5
15C
330
1E
100
AcDbEntity
  8
0
100
AcDbLine
 10
85.014
 20
1016.9
 30
0.0
 11
85.014
 21
1017.5
 31
0.0
  0
LINE
  5
15D
330
1E
100
AcDbEntity
  8
0
100
AcDbLine
 10
85.014
 20
1015.2
 30
0.0
 11
85.014
 21
1012.4
 31
0.0
  0
LINE
  5
15E
330
1E
100
AcDbEntity
  8
0
100
AcDbLine
 10
85.014
 20
1015.2
 30
0.0
 11
85.014
 21
1016.9
 31
0.0
  0
LINE
  5
15F
330
1E
100
AcDbEntity
  8
0
100
AcDbLine
 10
85.014
 20
1012.4
 30
0.0
 11
85.014
 21
1008.7
 31
0.0
  0
LINE
  5
160
330
1E
100
AcDbEntity
  8
0
100
AcDbLine
 10
85.014
 20
1012.4
 30
0.0
 11
85.014
 21
1015.2
 31
0.0
  0
LINE
  5
161
330
1E
100
AcDbEntity
  8
0
100
AcDbLine
 10
85.014
 20
1008.7
 30
0.0
 11
85.014
 21
1004.499999999999
 31
0.0
  0
LINE
  5
162
330
1E
100
AcDbEntity
  8
0
100
AcDbLine
 10
85.014
 20
1008.7
 30
0.0
 11
85.014
 21
1012.4
 31
0.0
  0
LINE
  5
163
330
1E
100
AcDbEntity
  8
0
100
AcDbLine
 10
85.014
 20
1004.499999999999
 30
0.0
 11
85.014
 21
1000.0
 31
0.0
  0
LINE
  5
164
330
1E
100
AcDbEntity
  8
0
100
AcDbLine
 10
85.014
 20
1004.499999999999
 30
0.0
 11
85.014
 21
1008.7
 31
0.0
  0
LINE
  5
165
330
1E
100
AcDbEntity
  8
0
100
AcDbLine
 10
85.014
 20
995.5
 30
0.0
 11
85.014
 21
991.3
 31
0.0
  0
LINE
  5
166
330
1E
100
AcDbEntity
  8
0
100
AcDbLine
 10
85.014
 20
995.5
 30
0.0
 11
85.014
 21
1000.0
 31
0.0
  0
LINE
  5
167
330
1E
100
AcDbEntity
  8
0
100
AcDbLine
 10
85.014
 20
1000.0
 30
0.0
 11
85.014
 21
995.5
 31
0.0
  0
LINE
  5
168
330
1E
100
AcDbEntity
  8
0
100
AcDbLine
 10
85.014
 20
1000.0
 30
0.0
 11
85.014
 21
1004.499999999999
 31
0.0
  0
LINE
  5
169
330
1E
100
AcDbEntity
  8
0
100
AcDbLine
 10
85.3518
 20
2105.0
 30
0.0
 11
85.3518
 21
2107.0
 31
0.0
  0
LINE
  5
16A
330
1E
100
AcDbEntity
  8
0
100
AcDbLine
 10
85.3518
 20
2105.0
 30
0.0
 11
86.766
 21
2105.0
 31
0.0
  0
LINE
  5
16B
330
1E
100
AcDbEntity
  8
0
100
AcDbLine
 10
87.634
 20
2105.0
 30
0.0
 11
89.366
 21
2105.0
 31
0.0
  0
LINE
  5
16C
330
1E
100
AcDbEntity
  8
0
100
AcDbLine
 10
86.63400000000001
 20
2105.0
 30
0.0
 11
86.63400000000001
 21
2107.0
 31
0.0
  0
LINE
  5
16D
330
1E
100
AcDbEntity
  8
0
100
AcDbLine
 10
86.63400000000001
 20
2105.0
 30
0.0
 11
88.366
 21
2105.0
 31
0.0
  0
LINE
  5
16E
330
1E
100
AcDbEntity
  8
0
100
AcDbLine
 10
86.63400000000001
 20
2105.0
 30
0.0
 11
87.634
 21
2105.0
 31
0.0
  0
LINE
  5
16F
330
1E
100
AcDbEntity
  8
0
100
AcDbLine
 10
89.366
 20
2105.0
 30
0.0
 11
89.366
 21
2107.0
 31
0.0
  0
LINE
  5
170
330
1E
100
AcDbEntity
  8
0
100
AcDbLine
 10
88.366
 20
2105.0
 30
0.0
 11
88.366
 21
2107.0
 31
0.0
  0
LINE
  5
171
330
1E
100
AcDbEntity
  8
0
100
AcDbLine
 10
88.366
 20
2105.0
 30
0.0
 11
89.366
 21
2105.0
 31
0.0
  0
LINE
  5
172
330
1E
100
AcDbEntity
  8
0
100
AcDbLine
 10
89.1891
 20
2105.0
 30
0.0
 11
90.18909999999999
 21
2105.0
 31
0.0
  0
LINE
  5
173
330
1E
100
AcDbEntity
  8
0
100
AcDbLine
 10
89.1891
 20
2105.0
 30
0.0
 11
90.92119999999999
 21
2105.0
 31
0.0
  0
LINE
  5
174
330
1E
100
AcDbEntity
  8
0
100
AcDbLine
 10
90.3016
 20
1024.32
 30
0.0
 11
100.501954335895
 21
1017.5
 31
0.0
  0
LINE
  5
175
330
1E
100
AcDbEntity
  8
0
100
AcDbLine
 10
90.3016
 20
1083.72
 30
0.0
 11
101.0129525842079
 21
1090.88165558752
 31
0.0
  0
LINE
  5
176
330
1E
100
AcDbEntity
  8
0
100
AcDbLine
 10
90.3016
 20
1024.329999999999
 30
0.0
 11
100.5169108671789
 21
1017.5
 31
0.0
  0
LINE
  5
177
330
1E
100
AcDbEntity
  8
0
100
AcDbLine
 10
91.08159999999999
 20
2105.0
 30
0.0
 11
93.01349999999999
 21
2105.0
 31
0.0
  0
LINE
  5
178
330
1E
100
AcDbEntity
  8
0
100
AcDbLine
 10
90.564
 20
2105.0
 30
0.0
 11
90.564
 21
2107.0
 31
0.0
  0
LINE
  5
179
330
1E
100
AcDbEntity
  8
0
100
AcDbLine
 10
90.564
 20
2105.0
 30
0.0
 11
92.49579999999999
 21
2105.0
 31
0.0
  0
LINE
  5
17A
330
1E
100
AcDbEntity
  8
0
100
AcDbLine
 10
90.564
 20
2105.0
 30
0.0
 11
91.08159999999999
 21
2105.0
 31
0.0
  0
LINE
  5
17B
330
1E
100
AcDbEntity
  8
0
100
AcDbLine
 10
94.5442
 20
2105.0
 30
0.0
 11
95.9584
 21
2105.0
 31
0.0
  0
LINE
  5
17C
330
1E
100
AcDbEntity
  8
0
100
AcDbLine
 10
94.13400000000001
 20
2105.0
 30
0.0
 11
94.13400000000001
 21
2107.0
 31
0.0
  0
LINE
  5
17D
330
1E
100
AcDbEntity
  8
0
100
AcDbLine
 10
94.13400000000001
 20
2105.0
 30
0.0
 11
95.866
 21
2105.0
 31
0.0
  0
LINE
  5
17E
330
1E
100
AcDbEntity
  8
0
100
AcDbLine
 10
94.13400000000001
 20
2105.0
 30
0.0
 11
95.134
 21
2105.0
 31
0.0
  0
LINE
  5
17F
330
1E
100
AcDbEntity
  8
0
100
AcDbLine
 10
95.9584
 20
2105.0
 30
0.0
 11
97.3726
 21
2105.0
 31
0.0
  0
LINE
  5
180
330
1E
100
AcDbEntity
  8
0
100
AcDbLine
 10
95.134
 20
2105.0
 30
0.0
 11
96.866
 21
2105.0
 31
0.0
  0
LINE
  5
181
330
1E
100
AcDbEntity
  8
0
100
AcDbLine
 10
95.866
 20
2105.0
 30
0.0
 11
96.866
 21
2105.0
 31
0.0
  0
LINE
  5
182
330
1E
100
AcDbEntity
  8
0
100
AcDbLine
 10
94.96389999999999
 20
2105.0
 30
0.0
 11
96.89579999999999
 21
2105.0
 31
0.0
  0
LINE
  5
183
330
1E
100
AcDbEntity
  8
0
100
AcDbLine
 10
94.4463
 20
2105.0
 30
0.0
 11
94.4463
 21
2107.0
 31
0.0
  0
LINE
  5
184
330
1E
100
AcDbEntity
  8
0
100
AcDbLine
 10
94.4463
 20
2105.0
 30
0.0
 11
96.37810000000001
 21
2105.0
 31
0.0
  0
LINE
  5
185
330
1E
100
AcDbEntity
  8
0
100
AcDbLine
 10
94.4463
 20
2105.0
 30
0.0
 11
94.96389999999999
 21
2105.0
 31
0.0
  0
LINE
  5
186
330
1E
100
AcDbEntity
  8
0
100
AcDbLine
 10
97.3726
 20
2105.0
 30
0.0
 11
97.3726
 21
2107.0
 31
0.0
  0
LINE
  5
187
330
1E
100
AcDbEntity
  8
0
100
AcDbLine
 10
98.84619999999999
 20
2105.0
 30
0.0
 11
100.7779999999999
 21
2105.0
 31
0.0
  0
LINE
  5
188
330
1E
100
AcDbEntity
  8
0
100
AcDbLine
 10
98.3286
 20
2105.0
 30
0.0
 11
98.3286
 21
2107.0
 31
0.0
  0
LINE
  5
189
330
1E
100
AcDbEntity
  8
0
100
AcDbLine
 10
98.3286
 20
2105.0
 30
0.0
 11
100.26
 21
2105.0
 31
0.0
  0
LINE
  5
18A
330
1E
100
AcDbEntity
  8
0
100
AcDbLine
 10
98.3286
 20
2105.0
 30
0.0
 11
98.84619999999999
 21
2105.0
 31
0.0
  0
LINE
  5
18B
330
1E
100
AcDbEntity
  8
0
100
AcDbLine
 10
96.89579999999999
 20
2105.0
 30
0.0
 11
96.89579999999999
 21
2107.0
 31
0.0
  0
LINE
  5
18C
330
1E
100
AcDbEntity
  8
0
100
AcDbLine
 10
96.37810000000001
 20
2105.0
 30
0.0
 11
96.37810000000001
 21
2107.0
 31
0.0
  0
LINE
  5
18D
330
1E
100
AcDbEntity
  8
0
100
AcDbLine
 10
96.37810000000001
 20
2105.0
 30
0.0
 11
96.89579999999999
 21
2105.0
 31
0.0
  0
LINE
  5
18E
330
1E
100
AcDbEntity
  8
0
100
AcDbLine
 10
93.01349999999999
 20
2105.0
 30
0.0
 11
93.01349999999999
 21
2107.0
 31
0.0
  0
LINE
  5
18F
330
1E
100
AcDbEntity
  8
0
100
AcDbLine
 10
92.49579999999999
 20
2105.0
 30
0.0
 11
92.49579999999999
 21
2107.0
 31
0.0
  0
LINE
  5
190
330
1E
100
AcDbEntity
  8
0
100
AcDbLine
 10
92.49579999999999
 20
2105.0
 30
0.0
 11
93.01349999999999
 21
2105.0
 31
0.0
  0
LINE
  5
191
330
1E
100
AcDbEntity
  8
0
100
AcDbLine
 10
90.92119999999999
 20
2105.0
 30
0.0
 11
91.9212
 21
2105.0
 31
0.0
  0
LINE
  5
192
330
1E
100
AcDbEntity
  8
0
100
AcDbLine
 10
90.18909999999999
 20
2105.0
 30
0.0
 11
90.18909999999999
 21
2107.0
 31
0.0
  0
LINE
  5
193
330
1E
100
AcDbEntity
  8
0
100
AcDbLine
 10
90.18909999999999
 20
2105.0
 30
0.0
 11
91.9212
 21
2105.0
 31
0.0
  0
LINE
  5
194
330
1E
100
AcDbEntity
  8
0
100
AcDbLine
 10
87.86559999999999
 20
2105.0
 30
0.0
 11
88.3833
 21
2105.0
 31
0.0
  0
LINE
  5
195
330
1E
100
AcDbEntity
  8
0
100
AcDbLine
 10
85.93380000000001
 20
2105.0
 30
0.0
 11
86.45140000000001
 21
2105.0
 31
0.0
  0
LINE
  5
196
330
1E
100
AcDbEntity
  8
0
100
AcDbLine
 10
85.93380000000001
 20
2105.0
 30
0.0
 11
87.86559999999999
 21
2105.0
 31
0.0
  0
LINE
  5
197
330
1E
100
AcDbEntity
  8
0
100
AcDbLine
 10
86.45140000000001
 20
2105.0
 30
0.0
 11
88.3833
 21
2105.0
 31
0.0
  0
LINE
  5
198
330
1E
100
AcDbEntity
  8
0
100
AcDbLine
 10
100.26
 20
2105.0
 30
0.0
 11
100.26
 21
2107.0
 31
0.0
  0
LINE
  5
199
330
1E
100
AcDbEntity
  8
0
100
AcDbLine
 10
100.26
 20
2105.0
 30
0.0
 11
100.7779999999999
 21
2105.0
 31
0.0
  0
LINE
  5
19A
330
1E
100
AcDbEntity
  8
0
100
AcDbLine
 10
100.7779999999999
 20
2105.0
 30
0.0
 11
100.7779999999999
 21
2107.0
 31
0.0
  0
LINE
  5
19B
330
1E
100
AcDbEntity
  8
0
100
AcDbLine
 10
100.4229999999999
 20
2105.0
 30
0.0
 11
100.94
 21
2105.0
 31
0.0
  0
LINE
  5
19C
330
1E
100
AcDbEntity
  8
0
100
AcDbLine
 10
100.4229999999999
 20
2105.0
 30
0.0
 11
102.3549999999999
 21
2105.0
 31
0.0
  0
LINE
  5
19D
330
1E
100
AcDbEntity
  8
0
100
AcDbLine
 10
100.94
 20
2105.0
 30
0.0
 11
100.94
 21
2107.0
 31
0.0
  0
LINE
  5
19E
330
1E
100
AcDbEntity
  8
0
100
AcDbLine
 10
100.94
 20
2105.0
 30
0.0
 11
102.872
 21
2105.0
 31
0.0
  0
LINE
  5
19F
330
1E
100
AcDbEntity
  8
0
100
AcDbLine
 10
100.0
 20
2105.0
 30
0.0
 11
102.0
 21
2105.0
 31
0.0
  0
LINE
  5
1A0
330
1E
100
AcDbEntity
  8
0
100
AcDbLine
 10
85.0
 20
2105.0
 30
0.0
 11
87.0
 21
2105.0
 31
0.0
  0
LINE
  5
1A1
330
1E
100
AcDbEntity
  8
0
100
AcDbLine
 10
70.0
 20
2105.0
 30
0.0
 11
70.0
 21
2107.0
 31
0.0
  0
LINE
  5
1A2
330
1E
100
AcDbEntity
  8
0
100
AcDbLine
 10
70.0
 20
2105.0
 30
0.0
 11
72.0
 21
2105.0
 31
0.0
  0
LINE
  5
1A3
330
1E
100
AcDbEntity
  8
0
100
AcDbLine
 10
55.0
 20
2105.0
 30
0.0
 11
55.0
 21
2107.0
 31
0.0
  0
LINE
  5
1A4
330
1E
100
AcDbEntity
  8
0
100
AcDbLine
 10
55.0
 20
2105.0
 30
0.0
 11
57.0
 21
2105.0
 31
0.0
  0
LINE
  5
1A5
330
1E
100
AcDbEntity
  8
0
100
AcDbLine
 10
41.5111
 20
2107.0
 30
0.0
 11
42.9254
 21
2107.0
 31
0.0
  0
LINE
  5
1A6
330
1E
100
AcDbEntity
  8
0
100
AcDbLine
 10
41.5111
 20
2107.0
 30
0.0
 11
41.5111
 21
2105.0
 31
0.0
  0
LINE
  5
1A7
330
1E
100
AcDbEntity
  8
0
100
AcDbLine
 10
42.9254
 20
2107.0
 30
0.0
 11
44.33959999999999
 21
2107.0
 31
0.0
  0
LINE
  5
1A8
330
1E
100
AcDbEntity
  8
0
100
AcDbLine
 10
42.9254
 20
2107.0
 30
0.0
 11
42.9254
 21
2105.0
 31
0.0
  0
LINE
  5
1A9
330
1E
100
AcDbEntity
  8
0
100
AcDbLine
 10
50.218
 20
2107.0
 30
0.0
 11
51.218
 21
2107.0
 31
0.0
  0
LINE
  5
1AA
330
1E
100
AcDbEntity
  8
0
100
AcDbLine
 10
50.218
 20
2107.0
 30
0.0
 11
50.218
 21
2105.0
 31
0.0
  0
LINE
  5
1AB
330
1E
100
AcDbEntity
  8
0
100
AcDbLine
 10
52.1177
 20
2107.0
 30
0.0
 11
53.532
 21
2107.0
 31
0.0
  0
LINE
  5
1AC
330
1E
100
AcDbEntity
  8
0
100
AcDbLine
 10
52.1177
 20
2107.0
 30
0.0
 11
52.1177
 21
2105.0
 31
0.0
  0
LINE
  5
1AD
330
1E
100
AcDbEntity
  8
0
100
AcDbLine
 10
54.9462
 20
2107.0
 30
0.0
 11
54.9462
 21
2105.0
 31
0.0
  0
LINE
  5
1AE
330
1E
100
AcDbEntity
  8
0
100
AcDbLine
 10
54.9462
 20
2107.0
 30
0.0
 11
55.0
 21
2107.0
 31
0.0
  0
LINE
  5
1AF
330
1E
100
AcDbEntity
  8
0
100
AcDbLine
 10
53.532
 20
2107.0
 30
0.0
 11
54.9462
 21
2107.0
 31
0.0
  0
LINE
  5
1B0
330
1E
100
AcDbEntity
  8
0
100
AcDbLine
 10
53.532
 20
2107.0
 30
0.0
 11
53.532
 21
2105.0
 31
0.0
  0
LINE
  5
1B1
330
1E
100
AcDbEntity
  8
0
100
AcDbLine
 10
51.218
 20
2107.0
 30
0.0
 11
52.1177
 21
2107.0
 31
0.0
  0
LINE
  5
1B2
330
1E
100
AcDbEntity
  8
0
100
AcDbLine
 10
51.218
 20
2107.0
 30
0.0
 11
51.218
 21
2105.0
 31
0.0
  0
LINE
  5
1B3
330
1E
100
AcDbEntity
  8
0
100
AcDbLine
 10
44.9166
 20
2107.0
 30
0.0
 11
44.9166
 21
2105.0
 31
0.0
  0
LINE
  5
1B4
330
1E
100
AcDbEntity
  8
0
100
AcDbLine
 10
44.9166
 20
2107.0
 30
0.0
 11
47.7
 21
2107.0
 31
0.0
  0
LINE
  5
1B5
330
1E
100
AcDbEntity
  8
0
100
AcDbLine
 10
44.33959999999999
 20
2107.0
 30
0.0
 11
44.9166
 21
2107.0
 31
0.0
  0
LINE
  5
1B6
330
1E
100
AcDbEntity
  8
0
100
AcDbLine
 10
44.33959999999999
 20
2107.0
 30
0.0
 11
44.33959999999999
 21
2105.0
 31
0.0
  0
LINE
  5
1B7
330
1E
100
AcDbEntity
  8
0
100
AcDbLine
 10
47.7
 20
2107.0
 30
0.0
 11
60.8
 21
2107.0
 31
0.0
  0
LINE
  5
1B8
330
1E
100
AcDbEntity
  8
0
100
AcDbLine
 10
47.7
 20
2107.0
 30
0.0
 11
50.218
 21
2107.0
 31
0.0
  0
LINE
  5
1B9
330
1E
100
AcDbEntity
  8
0
100
AcDbLine
 10
56.956
 20
2107.0
 30
0.0
 11
57.4736
 21
2107.0
 31
0.0
  0
LINE
  5
1BA
330
1E
100
AcDbEntity
  8
0
100
AcDbLine
 10
56.956
 20
2107.0
 30
0.0
 11
56.956
 21
2105.0
 31
0.0
  0
LINE
  5
1BB
330
1E
100
AcDbEntity
  8
0
100
AcDbLine
 10
59.4055
 20
2107.0
 30
0.0
 11
59.4055
 21
2105.0
 31
0.0
  0
LINE
  5
1BC
330
1E
100
AcDbEntity
  8
0
100
AcDbLine
 10
59.4055
 20
2107.0
 30
0.0
 11
60.8
 21
2107.0
 31
0.0
  0
LINE
  5
1BD
330
1E
100
AcDbEntity
  8
0
100
AcDbLine
 10
57.4736
 20
2107.0
 30
0.0
 11
59.4055
 21
2107.0
 31
0.0
  0
LINE
  5
1BE
330
1E
100
AcDbEntity
  8
0
100
AcDbLine
 10
57.4736
 20
2107.0
 30
0.0
 11
57.4736
 21
2105.0
 31
0.0
  0
LINE
  5
1BF
330
1E
100
AcDbEntity
  8
0
100
AcDbLine
 10
62.72429999999999
 20
2107.0
 30
0.0
 11
64.134
 21
2107.0
 31
0.0
  0
LINE
  5
1C0
330
1E
100
AcDbEntity
  8
0
100
AcDbLine
 10
62.72429999999999
 20
2107.0
 30
0.0
 11
62.72429999999999
 21
2105.0
 31
0.0
  0
LINE
  5
1C1
330
1E
100
AcDbEntity
  8
0
100
AcDbLine
 10
64.134
 20
2107.0
 30
0.0
 11
65.866
 21
2107.0
 31
0.0
  0
LINE
  5
1C2
330
1E
100
AcDbEntity
  8
0
100
AcDbLine
 10
64.134
 20
2107.0
 30
0.0
 11
64.134
 21
2105.0
 31
0.0
  0
LINE
  5
1C3
330
1E
100
AcDbEntity
  8
0
100
AcDbLine
 10
71.634
 20
2107.0
 30
0.0
 11
73.366
 21
2107.0
 31
0.0
  0
LINE
  5
1C4
330
1E
100
AcDbEntity
  8
0
100
AcDbLine
 10
71.634
 20
2107.0
 30
0.0
 11
71.634
 21
2105.0
 31
0.0
  0
LINE
  5
1C5
330
1E
100
AcDbEntity
  8
0
100
AcDbLine
 10
76.15940000000001
 20
2107.0
 30
0.0
 11
76.15940000000001
 21
2105.0
 31
0.0
  0
LINE
  5
1C6
330
1E
100
AcDbEntity
  8
0
100
AcDbLine
 10
74.7452
 20
2107.0
 30
0.0
 11
76.15940000000001
 21
2107.0
 31
0.0
  0
LINE
  5
1C7
330
1E
100
AcDbEntity
  8
0
100
AcDbLine
 10
74.7452
 20
2107.0
 30
0.0
 11
74.7452
 21
2105.0
 31
0.0
  0
LINE
  5
1C8
330
1E
100
AcDbEntity
  8
0
100
AcDbLine
 10
74.366
 20
2107.0
 30
0.0
 11
74.366
 21
2105.0
 31
0.0
  0
LINE
  5
1C9
330
1E
100
AcDbEntity
  8
0
100
AcDbLine
 10
74.366
 20
2107.0
 30
0.0
 11
74.7452
 21
2107.0
 31
0.0
  0
LINE
  5
1CA
330
1E
100
AcDbEntity
  8
0
100
AcDbLine
 10
73.366
 20
2107.0
 30
0.0
 11
74.366
 21
2107.0
 31
0.0
  0
LINE
  5
1CB
330
1E
100
AcDbEntity
  8
0
100
AcDbLine
 10
73.366
 20
2107.0
 30
0.0
 11
73.366
 21
2105.0
 31
0.0
  0
LINE
  5
1CC
330
1E
100
AcDbEntity
  8
0
100
AcDbLine
 10
66.866
 20
2107.0
 30
0.0
 11
66.866
 21
2105.0
 31
0.0
  0
LINE
  5
1CD
330
1E
100
AcDbEntity
  8
0
100
AcDbLine
 10
66.866
 20
2107.0
 30
0.0
 11
70.0
 21
2107.0
 31
0.0
  0
LINE
  5
1CE
330
1E
100
AcDbEntity
  8
0
100
AcDbLine
 10
65.866
 20
2107.0
 30
0.0
 11
66.866
 21
2107.0
 31
0.0
  0
LINE
  5
1CF
330
1E
100
AcDbEntity
  8
0
100
AcDbLine
 10
65.866
 20
2107.0
 30
0.0
 11
65.866
 21
2105.0
 31
0.0
  0
LINE
  5
1D0
330
1E
100
AcDbEntity
  8
0
100
AcDbLine
 10
76.1987
 20
2107.0
 30
0.0
 11
77.1987
 21
2107.0
 31
0.0
  0
LINE
  5
1D1
330
1E
100
AcDbEntity
  8
0
100
AcDbLine
 10
76.1987
 20
2107.0
 30
0.0
 11
76.1987
 21
2105.0
 31
0.0
  0
LINE
  5
1D2
330
1E
100
AcDbEntity
  8
0
100
AcDbLine
 10
79.134
 20
2107.0
 30
0.0
 11
80.866
 21
2107.0
 31
0.0
  0
LINE
  5
1D3
330
1E
100
AcDbEntity
  8
0
100
AcDbLine
 10
79.134
 20
2107.0
 30
0.0
 11
79.134
 21
2105.0
 31
0.0
  0
LINE
  5
1D4
330
1E
100
AcDbEntity
  8
0
100
AcDbLine
 10
83.9376
 20
2107.0
 30
0.0
 11
85.3518
 21
2107.0
 31
0.0
  0
LINE
  5
1D5
330
1E
100
AcDbEntity
  8
0
100
AcDbLine
 10
83.9376
 20
2107.0
 30
0.0
 11
83.9376
 21
2105.0
 31
0.0
  0
LINE
  5
1D6
330
1E
100
AcDbEntity
  8
0
100
AcDbLine
 10
85.3518
 20
2107.0
 30
0.0
 11
86.63400000000001
 21
2107.0
 31
0.0
  0
LINE
  5
1D7
330
1E
100
AcDbEntity
  8
0
100
AcDbLine
 10
85.3518
 20
2107.0
 30
0.0
 11
85.3518
 21
2105.0
 31
0.0
  0
LINE
  5
1D8
330
1E
100
AcDbEntity
  8
0
100
AcDbLine
 10
86.63400000000001
 20
2107.0
 30
0.0
 11
88.366
 21
2107.0
 31
0.0
  0
LINE
  5
1D9
330
1E
100
AcDbEntity
  8
0
100
AcDbLine
 10
86.63400000000001
 20
2107.0
 30
0.0
 11
86.63400000000001
 21
2105.0
 31
0.0
  0
LINE
  5
1DA
330
1E
100
AcDbEntity
  8
0
100
AcDbLine
 10
88.366
 20
2107.0
 30
0.0
 11
89.366
 21
2107.0
 31
0.0
  0
LINE
  5
1DB
330
1E
100
AcDbEntity
  8
0
100
AcDbLine
 10
88.366
 20
2107.0
 30
0.0
 11
88.366
 21
2105.0
 31
0.0
  0
LINE
  5
1DC
330
1E
100
AcDbEntity
  8
0
100
AcDbLine
 10
81.866
 20
2107.0
 30
0.0
 11
81.866
 21
2105.0
 31
0.0
  0
LINE
  5
1DD
330
1E
100
AcDbEntity
  8
0
100
AcDbLine
 10
81.866
 20
2107.0
 30
0.0
 11
83.9376
 21
2107.0
 31
0.0
  0
LINE
  5
1DE
330
1E
100
AcDbEntity
  8
0
100
AcDbLine
 10
80.866
 20
2107.0
 30
0.0
 11
81.866
 21
2107.0
 31
0.0
  0
LINE
  5
1DF
330
1E
100
AcDbEntity
  8
0
100
AcDbLine
 10
80.866
 20
2107.0
 30
0.0
 11
80.866
 21
2105.0
 31
0.0
  0
LINE
  5
1E0
330
1E
100
AcDbEntity
  8
0
100
AcDbLine
 10
78.93080000000001
 20
2107.0
 30
0.0
 11
78.93080000000001
 21
2105.0
 31
0.0
  0
LINE
  5
1E1
330
1E
100
AcDbEntity
  8
0
100
AcDbLine
 10
78.93080000000001
 20
2107.0
 30
0.0
 11
79.134
 21
2107.0
 31
0.0
  0
LINE
  5
1E2
330
1E
100
AcDbEntity
  8
0
100
AcDbLine
 10
77.1987
 20
2107.0
 30
0.0
 11
78.93080000000001
 21
2107.0
 31
0.0
  0
LINE
  5
1E3
330
1E
100
AcDbEntity
  8
0
100
AcDbLine
 10
77.1987
 20
2107.0
 30
0.0
 11
77.1987
 21
2105.0
 31
0.0
  0
LINE
  5
1E4
330
1E
100
AcDbEntity
  8
0
100
AcDbLine
 10
71.44490000000001
 20
2107.0
 30
0.0
 11
71.634
 21
2107.0
 31
0.0
  0
LINE
  5
1E5
330
1E
100
AcDbEntity
  8
0
100
AcDbLine
 10
71.44490000000001
 20
2107.0
 30
0.0
 11
71.44490000000001
 21
2105.0
 31
0.0
  0
LINE
  5
1E6
330
1E
100
AcDbEntity
  8
0
100
AcDbLine
 10
60.8
 20
2107.0
 30
0.0
 11
74.5
 21
2107.0
 31
0.0
  0
LINE
  5
1E7
330
1E
100
AcDbEntity
  8
0
100
AcDbLine
 10
60.8
 20
2107.0
 30
0.0
 11
62.72429999999999
 21
2107.0
 31
0.0
  0
LINE
  5
1E8
330
1E
100
AcDbEntity
  8
0
100
AcDbLine
 10
74.5
 20
2107.0
 30
0.0
 11
89.29999999999999
 21
2107.0
 31
0.0
  0
LINE
  5
1E9
330
1E
100
AcDbEntity
  8
0
100
AcDbLine
 10
90.564
 20
2107.0
 30
0.0
 11
92.49579999999999
 21
2107.0
 31
0.0
  0
LINE
  5
1EA
330
1E
100
AcDbEntity
  8
0
100
AcDbLine
 10
90.564
 20
2107.0
 30
0.0
 11
90.564
 21
2105.0
 31
0.0
  0
LINE
  5
1EB
330
1E
100
AcDbEntity
  8
0
100
AcDbLine
 10
94.13400000000001
 20
2107.0
 30
0.0
 11
94.4463
 21
2107.0
 31
0.0
  0
LINE
  5
1EC
330
1E
100
AcDbEntity
  8
0
100
AcDbLine
 10
94.13400000000001
 20
2107.0
 30
0.0
 11
94.13400000000001
 21
2105.0
 31
0.0
  0
LINE
  5
1ED
330
1E
100
AcDbEntity
  8
0
100
AcDbLine
 10
94.4463
 20
2107.0
 30
0.0
 11
96.37810000000001
 21
2107.0
 31
0.0
  0
LINE
  5
1EE
330
1E
100
AcDbEntity
  8
0
100
AcDbLine
 10
94.4463
 20
2107.0
 30
0.0
 11
94.4463
 21
2105.0
 31
0.0
  0
LINE
  5
1EF
330
1E
100
AcDbEntity
  8
0
100
AcDbLine
 10
97.3726
 20
2107.0
 30
0.0
 11
97.3726
 21
2105.0
 31
0.0
  0
LINE
  5
1F0
330
1E
100
AcDbEntity
  8
0
100
AcDbLine
 10
97.3726
 20
2107.0
 30
0.0
 11
98.3286
 21
2107.0
 31
0.0
  0
LINE
  5
1F1
330
1E
100
AcDbEntity
  8
0
100
AcDbLine
 10
98.3286
 20
2107.0
 30
0.0
 11
100.26
 21
2107.0
 31
0.0
  0
LINE
  5
1F2
330
1E
100
AcDbEntity
  8
0
100
AcDbLine
 10
98.3286
 20
2107.0
 30
0.0
 11
98.3286
 21
2105.0
 31
0.0
  0
LINE
  5
1F3
330
1E
100
AcDbEntity
  8
0
100
AcDbLine
 10
100.26
 20
2107.0
 30
0.0
 11
100.7779999999999
 21
2107.0
 31
0.0
  0
LINE
  5
1F4
330
1E
100
AcDbEntity
  8
0
100
AcDbLine
 10
100.26
 20
2107.0
 30
0.0
 11
100.26
 21
2105.0
 31
0.0
  0
LINE
  5
1F5
330
1E
100
AcDbEntity
  8
0
100
AcDbLine
 10
96.37810000000001
 20
2107.0
 30
0.0
 11
96.89579999999999
 21
2107.0
 31
0.0
  0
LINE
  5
1F6
330
1E
100
AcDbEntity
  8
0
100
AcDbLine
 10
96.37810000000001
 20
2107.0
 30
0.0
 11
96.37810000000001
 21
2105.0
 31
0.0
  0
LINE
  5
1F7
330
1E
100
AcDbEntity
  8
0
100
AcDbLine
 10
96.89579999999999
 20
2107.0
 30
0.0
 11
96.89579999999999
 21
2105.0
 31
0.0
  0
LINE
  5
1F8
330
1E
100
AcDbEntity
  8
0
100
AcDbLine
 10
96.89579999999999
 20
2107.0
 30
0.0
 11
97.3726
 21
2107.0
 31
0.0
  0
LINE
  5
1F9
330
1E
100
AcDbEntity
  8
0
100
AcDbLine
 10
92.49579999999999
 20
2107.0
 30
0.0
 11
93.01349999999999
 21
2107.0
 31
0.0
  0
LINE
  5
1FA
330
1E
100
AcDbEntity
  8
0
100
AcDbLine
 10
92.49579999999999
 20
2107.0
 30
0.0
 11
92.49579999999999
 21
2105.0
 31
0.0
  0
LINE
  5
1FB
330
1E
100
AcDbEntity
  8
0
100
AcDbLine
 10
93.01349999999999
 20
2107.0
 30
0.0
 11
93.01349999999999
 21
2105.0
 31
0.0
  0
LINE
  5
1FC
330
1E
100
AcDbEntity
  8
0
100
AcDbLine
 10
93.01349999999999
 20
2107.0
 30
0.0
 11
94.13400000000001
 21
2107.0
 31
0.0
  0
LINE
  5
1FD
330
1E
100
AcDbEntity
  8
0
100
AcDbLine
 10
89.366
 20
2107.0
 30
0.0
 11
90.18909999999999
 21
2107.0
 31
0.0
  0
LINE
  5
1FE
330
1E
100
AcDbEntity
  8
0
100
AcDbLine
 10
89.366
 20
2107.0
 30
0.0
 11
89.366
 21
2105.0
 31
0.0
  0
LINE
  5
1FF
330
1E
100
AcDbEntity
  8
0
100
AcDbLine
 10
90.18909999999999
 20
2107.0
 30
0.0
 11
90.564
 21
2107.0
 31
0.0
  0
LINE
  5
200
330
1E
100
AcDbEntity
  8
0
100
AcDbLine
 10
90.18909999999999
 20
2107.0
 30
0.0
 11
90.18909999999999
 21
2105.0
 31
0.0
  0
LINE
  5
201
330
1E
100
AcDbEntity
  8
0
100
AcDbLine
 10
100.7779999999999
 20
2107.0
 30
0.0
 11
100.94
 21
2107.0
 31
0.0
  0
LINE
  5
202
330
1E
100
AcDbEntity
  8
0
100
AcDbLine
 10
100.7779999999999
 20
2107.0
 30
0.0
 11
100.7779999999999
 21
2105.0
 31
0.0
  0
LINE
  5
203
330
1E
100
AcDbEntity
  8
0
100
AcDbLine
 10
100.94
 20
2107.0
 30
0.0
 11
101.634
 21
2107.0
 31
0.0
  0
LINE
  5
204
330
1E
100
AcDbEntity
  8
0
100
AcDbLine
 10
100.94
 20
2107.0
 30
0.0
 11
100.94
 21
2105.0
 31
0.0
  0
LINE
  5
205
330
1E
100
AcDbEntity
  8
0
100
AcDbLine
 10
89.29999999999999
 20
2107.0
 30
0.0
 11
104.4
 21
2107.0
 31
0.0
  0
LINE
  5
206
330
1E
100
AcDbEntity
  8
0
100
AcDbLine
 10
70.0
 20
2107.0
 30
0.0
 11
71.44490000000001
 21
2107.0
 31
0.0
  0
LINE
  5
207
330
1E
100
AcDbEntity
  8
0
100
AcDbLine
 10
70.0
 20
2107.0
 30
0.0
 11
70.0
 21
2105.0
 31
0.0
  0
LINE
  5
208
330
1E
100
AcDbEntity
  8
0
100
AcDbLine
 10
55.0
 20
2107.0
 30
0.0
 11
56.956
 21
2107.0
 31
0.0
  0
LINE
  5
209
330
1E
100
AcDbEntity
  8
0
100
AcDbLine
 10
55.0
 20
2107.0
 30
0.0
 11
55.0
 21
2105.0
 31
0.0
  0
LINE
  5
20A
330
1E
100
AcDbEntity
  8
0
100
AcDbLine
 10
40.0
 20
2105.0
 30
0.0
 11
40.0
 21
2107.0
 31
0.0
  0
LINE
  5
20B
330
1E
100
AcDbEntity
  8
0
100
AcDbLine
 10
40.0
 20
2105.0
 30
0.0
 11
42.0
 21
2105.0
 31
0.0
  0
LINE
  5
20C
330
1E
100
AcDbEntity
  8
0
100
AcDbLine
 10
0.0
 20
2117.0
 30
0.0
 11
0.0
 21
2108.0
 31
0.0
  0
LINE
  5
20D
330
1E
100
AcDbEntity
  8
0
100
AcDbLine
 10
0.0
 20
2117.0
 30
0.0
 11
1.199999999999999
 21
2117.0
 31
0.0
  0
LINE
  5
20E
330
1E
100
AcDbEntity
  8
0
100
AcDbLine
 10
0.0
 20
2117.0
 30
0.0
 11
1.0
 21
2118.0
 31
0.0
  0
LINE
  5
20F
330
1E
100
AcDbEntity
  8
0
100
AcDbLine
 10
35.29999999999999
 20
2108.0
 30
0.0
 11
47.09999999999999
 21
2108.0
 31
0.0
  0
LINE
  5
210
330
1E
100
AcDbEntity
  8
0
100
AcDbLine
 10
47.09999999999999
 20
2108.0
 30
0.0
 11
60.3
 21
2108.0
 31
0.0
  0
LINE
  5
211
330
1E
100
AcDbEntity
  8
0
100
AcDbLine
 10
60.3
 20
2108.0
 30
0.0
 11
74.2
 21
2108.0
 31
0.0
  0
LINE
  5
212
330
1E
100
AcDbEntity
  8
0
100
AcDbLine
 10
74.2
 20
2108.0
 30
0.0
 11
89.0
 21
2108.0
 31
0.0
  0
LINE
  5
213
330
1E
100
AcDbEntity
  8
0
100
AcDbLine
 10
89.0
 20
2108.0
 30
0.0
 11
104.4
 21
2108.0
 31
0.0
  0
LINE
  5
214
330
1E
100
AcDbEntity
  8
0
100
AcDbLine
 10
25.0
 20
2108.0
 30
0.0
 11
35.29999999999999
 21
2108.0
 31
0.0
  0
LINE
  5
215
330
1E
100
AcDbEntity
  8
0
100
AcDbLine
 10
16.1
 20
2108.0
 30
0.0
 11
25.0
 21
2108.0
 31
0.0
  0
LINE
  5
216
330
1E
100
AcDbEntity
  8
0
100
AcDbLine
 10
9.4
 20
2108.0
 30
0.0
 11
16.1
 21
2108.0
 31
0.0
  0
LINE
  5
217
330
1E
100
AcDbEntity
  8
0
100
AcDbLine
 10
4.299999999999999
 20
2108.0
 30
0.0
 11
9.4
 21
2108.0
 31
0.0
  0
LINE
  5
218
330
1E
100
AcDbEntity
  8
0
100
AcDbLine
 10
1.0
 20
2118.0
 30
0.0
 11
2.2
 21
2118.0
 31
0.0
  0
LINE
  5
219
330
1E
100
AcDbEntity
  8
0
100
AcDbLine
 10
35.29999999999999
 20
2117.0
 30
0.0
 11
47.09999999999999
 21
2117.0
 31
0.0
  0
LINE
  5
21A
330
1E
100
AcDbEntity
  8
0
100
AcDbLine
 10
47.09999999999999
 20
2117.0
 30
0.0
 11
60.3
 21
2117.0
 31
0.0
  0
LINE
  5
21B
330
1E
100
AcDbEntity
  8
0
100
AcDbLine
 10
60.3
 20
2117.0
 30
0.0
 11
74.2
 21
2117.0
 31
0.0
  0
LINE
  5
21C
330
1E
100
AcDbEntity
  8
0
100
AcDbLine
 10
74.2
 20
2117.0
 30
0.0
 11
89.0
 21
2117.0
 31
0.0
  0
LINE
  5
21D
330
1E
100
AcDbEntity
  8
0
100
AcDbLine
 10
89.0
 20
2117.0
 30
0.0
 11
104.4
 21
2117.0
 31
0.0
  0
LINE
  5
21E
330
1E
100
AcDbEntity
  8
0
100
AcDbLine
 10
25.0
 20
2117.0
 30
0.0
 11
35.29999999999999
 21
2117.0
 31
0.0
  0
LINE
  5
21F
330
1E
100
AcDbEntity
  8
0
100
AcDbLine
 10
16.1
 20
2117.0
 30
0.0
 11
25.0
 21
2117.0
 31
0.0
  0
LINE
  5
220
330
1E
100
AcDbEntity
  8
0
100
AcDbLine
 10
9.4
 20
2117.0
 30
0.0
 11
16.1
 21
2117.0
 31
0.0
  0
LINE
  5
221
330
1E
100
AcDbEntity
  8
0
100
AcDbLine
 10
36.0
 20
2118.0
 30
0.0
 11
47.7
 21
2118.0
 31
0.0
  0
LINE
  5
222
330
1E
100
AcDbEntity
  8
0
100
AcDbLine
 10
70.0
 20
2118.0
 30
0.0
 11
70.0
 21
2122.0
 31
0.0
  0
LINE
  5
223
330
1E
100
AcDbEntity
  8
0
100
AcDbLine
 10
47.7
 20
2118.0
 30
0.0
 11
60.8
 21
2118.0
 31
0.0
  0
LINE
  5
224
330
1E
100
AcDbEntity
  8
0
100
AcDbLine
 10
60.8
 20
2118.0
 30
0.0
 11
74.5
 21
2118.0
 31
0.0
  0
LINE
  5
225
330
1E
100
AcDbEntity
  8
0
100
AcDbLine
 10
74.5
 20
2118.0
 30
0.0
 11
89.29999999999999
 21
2118.0
 31
0.0
  0
LINE
  5
226
330
1E
100
AcDbEntity
  8
0
100
AcDbLine
 10
89.29999999999999
 20
2118.0
 30
0.0
 11
104.4
 21
2118.0
 31
0.0
  0
LINE
  5
227
330
1E
100
AcDbEntity
  8
0
100
AcDbLine
 10
25.8
 20
2118.0
 30
0.0
 11
36.0
 21
2118.0
 31
0.0
  0
LINE
  5
228
330
1E
100
AcDbEntity
  8
0
100
AcDbLine
 10
16.89999999999999
 20
2118.0
 30
0.0
 11
25.8
 21
2118.0
 31
0.0
  0
LINE
  5
229
330
1E
100
AcDbEntity
  8
0
100
AcDbLine
 10
10.3
 20
2118.0
 30
0.0
 11
16.89999999999999
 21
2118.0
 31
0.0
  0
LINE
  5
22A
330
1E
100
AcDbEntity
  8
0
100
AcDbLine
 10
84.7
 20
2122.0
 30
0.0
 11
89.59999999999999
 21
2122.0
 31
0.0
  0
LINE
  5
22B
330
1E
100
AcDbEntity
  8
0
100
AcDbLine
 10
89.59999999999999
 20
2122.0
 30
0.0
 11
95.09999999999999
 21
2122.0
 31
0.0
  0
LINE
  5
22C
330
1E
100
AcDbEntity
  8
0
100
AcDbLine
 10
95.09999999999999
 20
2122.0
 30
0.0
 11
100.9
 21
2122.0
 31
0.0
  0
LINE
  5
22D
330
1E
100
AcDbEntity
  8
0
100
AcDbLine
 10
100.9
 20
2122.0
 30
0.0
 11
107.0999999999999
 21
2122.0
 31
0.0
  0
LINE
  5
22E
330
1E
100
AcDbEntity
  8
0
100
AcDbLine
 10
80.4
 20
2122.0
 30
0.0
 11
84.7
 21
2122.0
 31
0.0
  0
LINE
  5
22F
330
1E
100
AcDbEntity
  8
0
100
AcDbLine
 10
76.7
 20
2122.0
 30
0.0
 11
80.4
 21
2122.0
 31
0.0
  0
LINE
  5
230
330
1E
100
AcDbEntity
  8
0
100
AcDbLine
 10
73.9
 20
2122.0
 30
0.0
 11
76.7
 21
2122.0
 31
0.0
  0
LINE
  5
231
330
1E
100
AcDbEntity
  8
0
100
AcDbLine
 10
71.79999999999999
 20
2122.0
 30
0.0
 11
73.9
 21
2122.0
 31
0.0
  0
LINE
  5
232
330
1E
100
AcDbEntity
  8
0
100
AcDbLine
 10
70.5
 20
2122.0
 30
0.0
 11
71.79999999999999
 21
2122.0
 31
0.0
  0
LINE
  5
233
330
1E
100
AcDbEntity
  8
0
100
AcDbLine
 10
70.0
 20
2122.0
 30
0.0
 11
70.0
 21
2118.0
 31
0.0
  0
LINE
  5
234
330
1E
100
AcDbEntity
  8
0
100
AcDbLine
 10
70.0
 20
2122.0
 30
0.0
 11
70.5
 21
2122.0
 31
0.0
  0
LINE
  5
235
330
1E
100
AcDbEntity
  8
0
100
AcDbLine
 10
5.299999999999999
 20
2118.0
 30
0.0
 11
10.3
 21
2118.0
 31
0.0
  0
LINE
  5
236
330
1E
100
AcDbEntity
  8
0
100
AcDbLine
 10
2.2
 20
2118.0
 30
0.0
 11
5.299999999999999
 21
2118.0
 31
0.0
  0
LINE
  5
237
330
1E
100
AcDbEntity
  8
0
100
AcDbLine
 10
4.299999999999999
 20
2117.0
 30
0.0
 11
9.4
 21
2117.0
 31
0.0
  0
LINE
  5
238
330
1E
100
AcDbEntity
  8
0
100
AcDbLine
 10
1.199999999999999
 20
2117.0
 30
0.0
 11
4.299999999999999
 21
2117.0
 31
0.0
  0
LINE
  5
239
330
1E
100
AcDbEntity
  8
0
100
AcDbLine
 10
1.199999999999999
 20
2108.0
 30
0.0
 11
4.299999999999999
 21
2108.0
 31
0.0
  0
LINE
  5
23A
330
1E
100
AcDbEntity
  8
0
100
AcDbLine
 10
0.0
 20
2108.0
 30
0.0
 11
1.199999999999999
 21
2108.0
 31
0.0
  0
LINE
  5
23B
330
1E
100
AcDbEntity
  8
0
100
AcDbLine
 10
0.0
 20
2108.0
 30
0.0
 11
1.0
 21
2107.0
 31
0.0
  0
LINE
  5
23C
330
1E
100
AcDbEntity
  8
0
100
AcDbLine
 10
0.0
 20
2108.0
 30
0.0
 11
0.0
 21
2117.0
 31
0.0
  0
LINE
  5
23D
330
1E
100
AcDbEntity
  8
0
100
AcDbLine
 10
40.0
 20
2107.0
 30
0.0
 11
41.5111
 21
2107.0
 31
0.0
  0
LINE
  5
23E
330
1E
100
AcDbEntity
  8
0
100
AcDbLine
 10
40.0
 20
2107.0
 30
0.0
 11
40.0
 21
2105.0
 31
0.0
  0
LINE
  5
23F
330
1E
100
AcDbEntity
  8
0
100
AcDbLine
 10
101.0
 20
2105.0
 30
0.0
 11
101.0
 21
2096.909999999999
 31
0.0
  0
LINE
  5
240
330
1E
100
AcDbEntity
  8
0
100
AcDbLine
 10
101.0
 20
2122.0
 30
0.0
 11
101.0
 21
2173.09
 31
0.0
  0
LINE
  5
241
330
1E
100
AcDbEntity
  8
0
100
AcDbLine
 10
101.021107892575
 20
983.1000000000001
 30
0.0
 11
101.128454359662
 21
704.323317323324
 31
0.0
  0
LINE
  5
242
330
1E
100
AcDbEntity
  8
0
100
AcDbLine
 10
101.021107892575
 20
983.1000000000001
 30
0.0
 11
101.128454359662
 21
704.323317323324
 31
0.0
  0
LINE
  5
243
330
1E
100
AcDbEntity
  8
0
100
AcDbLine
 10
101.0111814902189
 20
1016.92826370657
 30
0.0
 11
101.0369999999999
 21
2095.0
 31
0.0
  0
LINE
  5
244
330
1E
100
AcDbEntity
  8
0
100
AcDbLine
 10
101.0111814902189
 20
1016.92826370657
 30
0.0
 11
101.0369999999999
 21
2095.0
 31
0.0
  0
LINE
  5
245
330
1E
100
AcDbEntity
  8
0
100
AcDbLine
 10
101.5449999999999
 20
2095.0
 30
0.0
 11
103.0129999999999
 21
2095.0
 31
0.0
  0
LINE
  5
246
330
1E
100
AcDbEntity
  8
0
100
AcDbLine
 10
101.0369999999999
 20
2095.0
 30
0.0
 11
101.5449999999999
 21
2095.0
 31
0.0
  0
LINE
  5
247
330
1E
100
AcDbEntity
  8
0
100
AcDbLine
 10
102.211
 20
2105.0
 30
0.0
 11
102.211
 21
2107.0
 31
0.0
  0
LINE
  5
248
330
1E
100
AcDbEntity
  8
0
100
AcDbLine
 10
102.211
 20
2105.0
 30
0.0
 11
104.1429999999999
 21
2105.0
 31
0.0
  0
LINE
  5
249
330
1E
100
AcDbEntity
  8
0
100
AcDbLine
 10
102.211
 20
2105.0
 30
0.0
 11
102.7279999999999
 21
2105.0
 31
0.0
  0
LINE
  5
24A
330
1E
100
AcDbEntity
  8
0
100
AcDbLine
 10
101.634
 20
2105.0
 30
0.0
 11
101.634
 21
2107.0
 31
0.0
  0
LINE
  5
24B
330
1E
100
AcDbEntity
  8
0
100
AcDbLine
 10
101.634
 20
2105.0
 30
0.0
 11
103.366
 21
2105.0
 31
0.0
  0
LINE
  5
24C
330
1E
100
AcDbEntity
  8
0
100
AcDbLine
 10
101.634
 20
2105.0
 30
0.0
 11
102.634
 21
2105.0
 31
0.0
  0
LINE
  5
24D
330
1E
100
AcDbEntity
  8
0
100
AcDbLine
 10
102.1789999999999
 20
2105.0
 30
0.0
 11
103.1789999999999
 21
2105.0
 31
0.0
  0
LINE
  5
24E
330
1E
100
AcDbEntity
  8
0
100
AcDbLine
 10
102.1789999999999
 20
2105.0
 30
0.0
 11
103.912
 21
2105.0
 31
0.0
  0
LINE
  5
24F
330
1E
100
AcDbEntity
  8
0
100
AcDbLine
 10
102.3549999999999
 20
2105.0
 30
0.0
 11
102.872
 21
2105.0
 31
0.0
  0
LINE
  5
250
330
1E
100
AcDbEntity
  8
0
100
AcDbLine
 10
102.211
 20
2107.0
 30
0.0
 11
104.1429999999999
 21
2107.0
 31
0.0
  0
LINE
  5
251
330
1E
100
AcDbEntity
  8
0
100
AcDbLine
 10
102.211
 20
2107.0
 30
0.0
 11
102.211
 21
2105.0
 31
0.0
  0
LINE
  5
252
330
1E
100
AcDbEntity
  8
0
100
AcDbLine
 10
101.634
 20
2107.0
 30
0.0
 11
102.211
 21
2107.0
 31
0.0
  0
LINE
  5
253
330
1E
100
AcDbEntity
  8
0
100
AcDbLine
 10
101.634
 20
2107.0
 30
0.0
 11
101.634
 21
2105.0
 31
0.0
  0
LINE
  5
254
330
1E
100
AcDbEntity
  8
0
100
AcDbLine
 10
101.0
 20
2096.909999999999
 30
0.0
 11
101.0
 21
2105.0
 31
0.0
  0
LINE
  5
255
330
1E
100
AcDbEntity
  8
0
100
AcDbLine
 10
101.0
 20
2096.909999999999
 30
0.0
 11
101.76
 21
2095.0
 31
0.0
  0
LINE
  5
256
330
1E
100
AcDbEntity
  8
0
100
AcDbLine
 10
101.0
 20
2173.09
 30
0.0
 11
101.76
 21
2175.0
 31
0.0
  0
LINE
  5
257
330
1E
100
AcDbEntity
  8
0
100
AcDbLine
 10
101.0
 20
2173.09
 30
0.0
 11
101.0
 21
2122.0
 31
0.0
  0
LINE
  5
25D
330
1E
100
AcDbEntity
  8
0
100
AcDbLine
 10
103.0
 20
1054.0
 30
0.0
 11
103.327
 21
1057.309999999999
 31
0.0
  0
LINE
  5
25E
330
1E
100
AcDbEntity
  8
0
100
AcDbLine
 10
103.0
 20
1054.0
 30
0.0
 11
103.327
 21
1050.68
 31
0.0
  0
LINE
  5
263
330
1E
100
AcDbEntity
  8
0
100
AcDbLine
 10
103.327
 20
1057.309999999999
 30
0.0
 11
104.2939999999999
 21
1060.499999999999
 31
0.0
  0
LINE
  5
264
330
1E
100
AcDbEntity
  8
0
100
AcDbLine
 10
103.327
 20
1050.68
 30
0.0
 11
104.2939999999999
 21
1047.49
 31
0.0
  0
LINE
  5
26B
330
1E
100
AcDbEntity
  8
0
100
AcDbLine
 10
103.0129999999999
 20
2095.0
 30
0.0
 11
105.112
 21
2095.0
 31
0.0
  0
LINE
  5
26C
330
1E
100
AcDbEntity
  8
0
100
AcDbLine
 10
102.7279999999999
 20
2105.0
 30
0.0
 11
104.6599999999999
 21
2105.0
 31
0.0
  0
LINE
  5
26D
330
1E
100
AcDbEntity
  8
0
100
AcDbLine
 10
102.634
 20
2105.0
 30
0.0
 11
104.366
 21
2105.0
 31
0.0
  0
LINE
  5
26E
330
1E
100
AcDbEntity
  8
0
100
AcDbLine
 10
103.366
 20
2105.0
 30
0.0
 11
104.366
 21
2105.0
 31
0.0
  0
LINE
  5
271
330
1E
100
AcDbEntity
  8
0
100
AcDbLine
 10
104.2939999999999
 20
1060.499999999999
 30
0.0
 11
105.8649999999999
 21
1063.44
 31
0.0
  0
LINE
  5
272
330
1E
100
AcDbEntity
  8
0
100
AcDbLine
 10
104.2939999999999
 20
1047.49
 30
0.0
 11
105.8649999999999
 21
1044.549999999999
 31
0.0
  0
LINE
  5
274
330
1E
100
AcDbEntity
  8
0
100
AcDbLine
 10
104.6599999999999
 20
2105.0
 30
0.0
 11
104.6599999999999
 21
2107.0
 31
0.0
  0
LINE
  5
275
330
1E
100
AcDbEntity
  8
0
100
AcDbLine
 10
104.1429999999999
 20
2105.0
 30
0.0
 11
104.1429999999999
 21
2107.0
 31
0.0
  0
LINE
  5
276
330
1E
100
AcDbEntity
  8
0
100
AcDbLine
 10
104.1429999999999
 20
2105.0
 30
0.0
 11
104.6599999999999
 21
2105.0
 31
0.0
  0
LINE
  5
277
330
1E
100
AcDbEntity
  8
0
100
AcDbLine
 10
103.912
 20
2105.0
 30
0.0
 11
104.912
 21
2105.0
 31
0.0
  0
LINE
  5
278
330
1E
100
AcDbEntity
  8
0
100
AcDbLine
 10
104.1429999999999
 20
2107.0
 30
0.0
 11
104.6599999999999
 21
2107.0
 31
0.0
  0
LINE
  5
279
330
1E
100
AcDbEntity
  8
0
100
AcDbLine
 10
104.1429999999999
 20
2107.0
 30
0.0
 11
104.1429999999999
 21
2105.0
 31
0.0
  0
LINE
  5
27A
330
1E
100
AcDbEntity
  8
0
100
AcDbLine
 10
103.1789999999999
 20
2105.0
 30
0.0
 11
104.912
 21
2105.0
 31
0.0
  0
LINE
  5
27B
330
1E
100
AcDbEntity
  8
0
100
AcDbLine
 10
105.112
 20
2095.0
 30
0.0
 11
106.566
 21
2095.0
 31
0.0
  0
LINE
  5
27E
330
1E
100
AcDbEntity
  8
0
100
AcDbLine
 10
105.8649999999999
 20
1044.549999999999
 30
0.0
 11
107.979
 21
1041.98
 31
0.0
  0
LINE
  5
281
330
1E
100
AcDbEntity
  8
0
100
AcDbLine
 10
106.0
 20
1054.02
 30
0.0
 11
107.0659999999999
 21
1048.67
 31
0.0
  0
LINE
  5
282
330
1E
100
AcDbEntity
  8
0
100
AcDbLine
 10
106.0
 20
1054.02
 30
0.0
 11
107.0659999999999
 21
1059.38
 31
0.0
  0
LINE
  5
283
330
1E
100
AcDbEntity
  8
0
100
AcDbLine
 10
105.8649999999999
 20
1063.44
 30
0.0
 11
107.979
 21
1066.019999999999
 31
0.0
  0
LINE
  5
28B
330
1E
100
AcDbEntity
  8
0
100
AcDbLine
 10
105.151
 20
2105.0
 30
0.0
 11
105.151
 21
2107.0
 31
0.0
  0
LINE
  5
28C
330
1E
100
AcDbEntity
  8
0
100
AcDbLine
 10
105.151
 20
2105.0
 30
0.0
 11
106.5649999999999
 21
2105.0
 31
0.0
  0
LINE
  5
28D
330
1E
100
AcDbEntity
  8
0
100
AcDbLine
 10
105.151
 20
2107.0
 30
0.0
 11
106.0929999999999
 21
2107.0
 31
0.0
  0
LINE
  5
28E
330
1E
100
AcDbEntity
  8
0
100
AcDbLine
 10
105.151
 20
2107.0
 30
0.0
 11
105.151
 21
2105.0
 31
0.0
  0
LINE
  5
28F
330
1E
100
AcDbEntity
  8
0
100
AcDbLine
 10
107.0659999999999
 20
1059.38
 30
0.0
 11
110.101
 21
1063.92
 31
0.0
  0
LINE
  5
290
330
1E
100
AcDbEntity
  8
0
100
AcDbLine
 10
107.0659999999999
 20
1048.67
 30
0.0
 11
110.101
 21
1044.119999999999
 31
0.0
  0
LINE
  5
291
330
1E
100
AcDbEntity
  8
0
100
AcDbLine
 10
106.566
 20
2095.0
 30
0.0
 11
108.947
 21
2095.0
 31
0.0
  0
LINE
  5
292
330
1E
100
AcDbEntity
  8
0
100
AcDbLine
 10
106.5649999999999
 20
2105.0
 30
0.0
 11
107.979
 21
2105.0
 31
0.0
  0
LINE
  5
293
330
1E
100
AcDbEntity
  8
0
100
AcDbLine
 10
106.611
 20
2105.0
 30
0.0
 11
108.5429999999999
 21
2105.0
 31
0.0
  0
LINE
  5
294
330
1E
100
AcDbEntity
  8
0
100
AcDbLine
 10
106.0929999999999
 20
2105.0
 30
0.0
 11
106.0929999999999
 21
2107.0
 31
0.0
  0
LINE
  5
295
330
1E
100
AcDbEntity
  8
0
100
AcDbLine
 10
106.0929999999999
 20
2105.0
 30
0.0
 11
108.025
 21
2105.0
 31
0.0
  0
LINE
  5
296
330
1E
100
AcDbEntity
  8
0
100
AcDbLine
 10
106.0929999999999
 20
2105.0
 30
0.0
 11
106.611
 21
2105.0
 31
0.0
  0
LINE
  5
297
330
1E
100
AcDbEntity
  8
0
100
AcDbLine
 10
106.0929999999999
 20
2107.0
 30
0.0
 11
108.025
 21
2107.0
 31
0.0
  0
LINE
  5
298
330
1E
100
AcDbEntity
  8
0
100
AcDbLine
 10
106.0929999999999
 20
2107.0
 30
0.0
 11
106.0929999999999
 21
2105.0
 31
0.0
  0
LINE
  5
299
330
1E
100
AcDbEntity
  8
0
100
AcDbLine
 10
104.912
 20
2105.0
 30
0.0
 11
104.912
 21
2107.0
 31
0.0
  0
LINE
  5
29A
330
1E
100
AcDbEntity
  8
0
100
AcDbLine
 10
104.912
 20
2107.0
 30
0.0
 11
104.912
 21
2105.0
 31
0.0
  0
LINE
  5
29B
330
1E
100
AcDbEntity
  8
0
100
AcDbLine
 10
104.912
 20
2107.0
 30
0.0
 11
105.151
 21
2107.0
 31
0.0
  0
LINE
  5
29C
330
1E
100
AcDbEntity
  8
0
100
AcDbLine
 10
104.6599999999999
 20
2107.0
 30
0.0
 11
104.912
 21
2107.0
 31
0.0
  0
LINE
  5
29D
330
1E
100
AcDbEntity
  8
0
100
AcDbLine
 10
104.6599999999999
 20
2107.0
 30
0.0
 11
104.6599999999999
 21
2105.0
 31
0.0
  0
LINE
  5
29E
330
1E
100
AcDbEntity
  8
0
100
AcDbLine
 10
104.0
 20
2136.0
 30
0.0
 11
104.0
 21
2164.0
 31
0.0
  0
LINE
  5
29F
330
1E
100
AcDbEntity
  8
0
100
AcDbLine
 10
104.0
 20
2136.0
 30
0.0
 11
104.6399999999999
 21
2135.0
 31
0.0
  0
LINE
  5
2A0
330
1E
100
AcDbEntity
  8
0
100
AcDbLine
 10
104.0
 20
2164.0
 30
0.0
 11
104.6399999999999
 21
2165.0
 31
0.0
  0
LINE
  5
2A1
330
1E
100
AcDbEntity
  8
0
100
AcDbLine
 10
104.0
 20
2164.0
 30
0.0
 11
104.0
 21
2136.0
 31
0.0
  0
LINE
  5
2A2
330
1E
100
AcDbEntity
  8
0
100
AcDbLine
 10
104.4
 20
2118.0
 30
0.0
 11
120.0
 21
2118.0
 31
0.0
  0
LINE
  5
2A3
330
1E
100
AcDbEntity
  8
0
100
AcDbLine
 10
104.4
 20
2117.0
 30
0.0
 11
120.0
 21
2117.0
 31
0.0
  0
LINE
  5
2A4
330
1E
100
AcDbEntity
  8
0
100
AcDbLine
 10
104.6399999999999
 20
2135.0
 30
0.0
 11
105.216
 21
2135.0
 31
0.0
  0
LINE
  5
2A5
330
1E
100
AcDbEntity
  8
0
100
AcDbLine
 10
106.6879999999999
 20
2135.0
 30
0.0
 11
109.1839999999999
 21
2135.0
 31
0.0
  0
LINE
  5
2A6
330
1E
100
AcDbEntity
  8
0
100
AcDbLine
 10
106.6879999999999
 20
2135.0
 30
0.0
 11
108.0
 21
2135.0
 31
0.0
  0
LINE
  5
2A7
330
1E
100
AcDbEntity
  8
0
100
AcDbLine
 10
105.216
 20
2135.0
 30
0.0
 11
106.6879999999999
 21
2135.0
 31
0.0
  0
LINE
  5
2A8
330
1E
100
AcDbEntity
  8
0
100
AcDbLine
 10
106.6879999999999
 20
2165.0
 30
0.0
 11
109.1839999999999
 21
2165.0
 31
0.0
  0
LINE
  5
2A9
330
1E
100
AcDbEntity
  8
0
100
AcDbLine
 10
105.216
 20
2165.0
 30
0.0
 11
106.6879999999999
 21
2165.0
 31
0.0
  0
LINE
  5
2AA
330
1E
100
AcDbEntity
  8
0
100
AcDbLine
 10
104.6399999999999
 20
2165.0
 30
0.0
 11
105.216
 21
2165.0
 31
0.0
  0
LINE
  5
2AB
330
1E
100
AcDbEntity
  8
0
100
AcDbLine
 10
107.0999999999999
 20
2122.0
 30
0.0
 11
113.5
 21
2122.0
 31
0.0
  0
LINE
  5
2AC
330
1E
100
AcDbEntity
  8
0
100
AcDbLine
 10
104.4
 20
2108.0
 30
0.0
 11
120.0
 21
2108.0
 31
0.0
  0
LINE
  5
2AD
330
1E
100
AcDbEntity
  8
0
100
AcDbLine
 10
104.4
 20
2107.0
 30
0.0
 11
120.0
 21
2107.0
 31
0.0
  0
LINE
  5
2B2
330
1E
100
AcDbEntity
  8
0
100
AcDbLine
 10
107.979
 20
1041.98
 30
0.0
 11
110.555
 21
1039.86
 31
0.0
  0
LINE
  5
2B7
330
1E
100
AcDbEntity
  8
0
100
AcDbLine
 10
107.979
 20
1066.019999999999
 30
0.0
 11
110.555
 21
1068.13
 31
0.0
  0
LINE
  5
2B8
330
1E
100
AcDbEntity
  8
0
100
AcDbLine
 10
108.0
 20
2122.0
 30
0.0
 11
108.0
 21
2135.0
 31
0.0
  0
LINE
  5
2B9
330
1E
100
AcDbEntity
  8
0
100
AcDbLine
 10
108.0
 20
2135.0
 30
0.0
 11
108.0
 21
2122.0
 31
0.0
  0
LINE
  5
2BA
330
1E
100
AcDbEntity
  8
0
100
AcDbLine
 10
108.0
 20
2135.0
 30
0.0
 11
108.4
 21
2135.0
 31
0.0
  0
LINE
  5
2BB
330
1E
100
AcDbEntity
  8
0
100
AcDbLine
 10
107.156
 20
2175.0
 30
0.0
 11
110.956
 21
2175.0
 31
0.0
  0
LINE
  5
2BC
330
1E
100
AcDbEntity
  8
0
100
AcDbLine
 10
104.192
 20
2175.0
 30
0.0
 11
107.156
 21
2175.0
 31
0.0
  0
LINE
  5
2BD
330
1E
100
AcDbEntity
  8
0
100
AcDbLine
 10
102.444
 20
2175.0
 30
0.0
 11
104.192
 21
2175.0
 31
0.0
  0
LINE
  5
2BE
330
1E
100
AcDbEntity
  8
0
100
AcDbLine
 10
101.76
 20
2175.0
 30
0.0
 11
102.444
 21
2175.0
 31
0.0
  0
LINE
  5
2BF
330
1E
100
AcDbEntity
  8
0
100
AcDbLine
 10
108.0
 20
944.5
 30
0.0
 11
108.0
 21
925.5
 31
0.0
  0
LINE
  5
2C0
330
1E
100
AcDbEntity
  8
0
100
AcDbLine
 10
108.0
 20
944.5
 30
0.0
 11
108.4
 21
944.5
 31
0.0
  0
LINE
  5
2C1
330
1E
100
AcDbEntity
  8
0
100
AcDbLine
 10
108.0
 20
944.5
 30
0.0
 11
108.4999999999999
 21
945.0
 31
0.0
  0
LINE
  5
2C2
330
1E
100
AcDbEntity
  8
0
100
AcDbLine
 10
108.0
 20
925.5
 30
0.0
 11
108.4
 21
925.5
 31
0.0
  0
LINE
  5
2C3
330
1E
100
AcDbEntity
  8
0
100
AcDbLine
 10
108.0
 20
925.5
 30
0.0
 11
109.0
 21
925.0
 31
0.0
  0
LINE
  5
2C4
330
1E
100
AcDbEntity
  8
0
100
AcDbLine
 10
108.0
 20
925.5
 30
0.0
 11
108.0
 21
944.5
 31
0.0
  0
LINE
  5
2C5
330
1E
100
AcDbEntity
  8
0
100
AcDbLine
 10
108.4
 20
2135.0
 30
0.0
 11
109.5999999999999
 21
2135.0
 31
0.0
  0
LINE
  5
2C6
330
1E
100
AcDbEntity
  8
0
100
AcDbLine
 10
108.025
 20
2107.0
 30
0.0
 11
108.5429999999999
 21
2107.0
 31
0.0
  0
LINE
  5
2C7
330
1E
100
AcDbEntity
  8
0
100
AcDbLine
 10
108.025
 20
2107.0
 30
0.0
 11
108.025
 21
2105.0
 31
0.0
  0
LINE
  5
2C8
330
1E
100
AcDbEntity
  8
0
100
AcDbLine
 10
108.025
 20
2105.0
 30
0.0
 11
108.025
 21
2107.0
 31
0.0
  0
LINE
  5
2C9
330
1E
100
AcDbEntity
  8
0
100
AcDbLine
 10
108.025
 20
2105.0
 30
0.0
 11
108.5429999999999
 21
2105.0
 31
0.0
  0
LINE
  5
2CA
330
1E
100
AcDbEntity
  8
0
100
AcDbLine
 10
108.9
 20
945.0
 30
0.0
 11
110.0
 21
945.0
 31
0.0
  0
LINE
  5
2CB
330
1E
100
AcDbEntity
  8
0
100
AcDbLine
 10
108.5429999999999
 20
2105.0
 30
0.0
 11
108.5429999999999
 21
2107.0
 31
0.0
  0
LINE
  5
2CF
330
1E
100
AcDbEntity
  8
0
100
AcDbLine
 10
108.947
 20
2095.0
 30
0.0
 11
111.084
 21
2095.0
 31
0.0
  0
LINE
  5
2D0
330
1E
100
AcDbEntity
  8
0
100
AcDbLine
 10
108.5429999999999
 20
2107.0
 30
0.0
 11
108.5429999999999
 21
2105.0
 31
0.0
  0
LINE
  5
2D1
330
1E
100
AcDbEntity
  8
0
100
AcDbLine
 10
108.5429999999999
 20
2107.0
 30
0.0
 11
109.1339999999999
 21
2107.0
 31
0.0
  0
LINE
  5
2D2
330
1E
100
AcDbEntity
  8
0
100
AcDbLine
 10
108.4999999999999
 20
945.0
 30
0.0
 11
108.9
 21
945.0
 31
0.0
  0
LINE
  5
2D3
330
1E
100
AcDbEntity
  8
0
100
AcDbLine
 10
108.4
 20
944.5
 30
0.0
 11
109.5999999999999
 21
944.5
 31
0.0
  0
LINE
  5
2D4
330
1E
100
AcDbEntity
  8
0
100
AcDbLine
 10
108.4
 20
925.5
 30
0.0
 11
109.5999999999999
 21
925.5
 31
0.0
  0
LINE
  5
2D5
330
1E
100
AcDbEntity
  8
0
100
AcDbLine
 10
109.0
 20
925.0
 30
0.0
 11
109.4
 21
925.0
 31
0.0
  0
LINE
  5
2D6
330
1E
100
AcDbEntity
  8
0
100
AcDbLine
 10
108.4
 20
924.5
 30
0.0
 11
109.5999999999999
 21
924.5
 31
0.0
  0
LINE
  5
2D7
330
1E
100
AcDbEntity
  8
0
100
AcDbLine
 10
108.0
 20
924.5
 30
0.0
 11
108.0
 21
771.0
 31
0.0
  0
LINE
  5
2D8
330
1E
100
AcDbEntity
  8
0
100
AcDbLine
 10
108.0
 20
924.5
 30
0.0
 11
108.4
 21
924.5
 31
0.0
  0
LINE
  5
2D9
330
1E
100
AcDbEntity
  8
0
100
AcDbLine
 10
108.0
 20
924.5
 30
0.0
 11
109.0
 21
925.0
 31
0.0
  0
LINE
  5
2DA
330
1E
100
AcDbEntity
  8
0
100
AcDbLine
 10
108.0
 20
771.0
 30
0.0
 11
108.4
 21
771.0
 31
0.0
  0
LINE
  5
2DB
330
1E
100
AcDbEntity
  8
0
100
AcDbLine
 10
108.0
 20
771.0
 30
0.0
 11
109.0
 21
770.0
 31
0.0
  0
LINE
  5
2DC
330
1E
100
AcDbEntity
  8
0
100
AcDbLine
 10
108.0
 20
771.0
 30
0.0
 11
108.0
 21
924.5
 31
0.0
  0
LINE
  5
2DD
330
1E
100
AcDbEntity
  8
0
100
AcDbLine
 10
109.1339999999999
 20
2105.0
 30
0.0
 11
109.1339999999999
 21
2107.0
 31
0.0
  0
LINE
  5
2DE
330
1E
100
AcDbEntity
  8
0
100
AcDbLine
 10
109.1339999999999
 20
2105.0
 30
0.0
 11
110.8659999999999
 21
2105.0
 31
0.0
  0
LINE
  5
2DF
330
1E
100
AcDbEntity
  8
0
100
AcDbLine
 10
109.1339999999999
 20
2105.0
 30
0.0
 11
110.1339999999999
 21
2105.0
 31
0.0
  0
LINE
  5
2E0
330
1E
100
AcDbEntity
  8
0
100
AcDbLine
 10
109.1839999999999
 20
2135.0
 30
0.0
 11
112.3839999999999
 21
2135.0
 31
0.0
  0
LINE
  5
2E1
330
1E
100
AcDbEntity
  8
0
100
AcDbLine
 10
109.1839999999999
 20
2165.0
 30
0.0
 11
112.3839999999999
 21
2165.0
 31
0.0
  0
LINE
  5
2E2
330
1E
100
AcDbEntity
  8
0
100
AcDbLine
 10
109.1339999999999
 20
2107.0
 30
0.0
 11
109.975
 21
2107.0
 31
0.0
  0
LINE
  5
2E3
330
1E
100
AcDbEntity
  8
0
100
AcDbLine
 10
109.1339999999999
 20
2107.0
 30
0.0
 11
109.1339999999999
 21
2105.0
 31
0.0
  0
LINE
  5
2E4
330
1E
100
AcDbEntity
  8
0
100
AcDbLine
 10
109.4
 20
925.0
 30
0.0
 11
110.4999999999999
 21
925.0
 31
0.0
  0
LINE
  5
2E5
330
1E
100
AcDbEntity
  8
0
100
AcDbLine
 10
109.4
 20
770.0
 30
0.0
 11
110.4999999999999
 21
770.0
 31
0.0
  0
LINE
  5
2E6
330
1E
100
AcDbEntity
  8
0
100
AcDbLine
 10
109.4
 20
770.0
 30
0.0
 11
110.0
 21
770.0
 31
0.0
  0
LINE
  5
2E7
330
1E
100
AcDbEntity
  8
0
100
AcDbLine
 10
109.0
 20
770.0
 30
0.0
 11
109.4
 21
770.0
 31
0.0
  0
LINE
  5
2E8
330
1E
100
AcDbEntity
  8
0
100
AcDbLine
 10
108.4999999999999
 20
768.998
 30
0.0
 11
109.4999999999999
 21
738.998
 31
0.0
  0
LINE
  5
2E9
330
1E
100
AcDbEntity
  8
0
100
AcDbLine
 10
108.4999999999999
 20
768.998
 30
0.0
 11
108.9
 21
768.998
 31
0.0
  0
LINE
  5
2EA
330
1E
100
AcDbEntity
  8
0
100
AcDbLine
 10
112.346
 20
90.0013
 30
0.0
 11
116.098
 21
90.0004
 31
0.0
  0
LINE
  5
2EB
330
1E
100
AcDbEntity
  8
0
100
AcDbLine
 10
112.729
 20
90.0021
 30
0.0
 11
116.293
 21
90.0012
 31
0.0
  0
LINE
  5
2EC
330
1E
100
AcDbEntity
  8
0
100
AcDbLine
 10
112.346
 20
0.0009969999999692
 30
0.0
 11
116.098
 21
-0.0000000000000307
 31
0.0
  0
LINE
  5
2ED
330
1E
100
AcDbEntity
  8
0
100
AcDbLine
 10
112.346
 20
0.0009969999999692
 30
0.0
 11
116.098
 21
-0.0000000000000307
 31
0.0
  0
LINE
  5
2EF
330
1E
100
AcDbEntity
  8
0
100
AcDbLine
 10
112.2335250149979
 20
738.998
 30
0.0
 11
120.9699999999999
 21
639.4109999999999
 31
0.0
  0
LINE
  5
2F3
330
1E
100
AcDbEntity
  8
0
100
AcDbLine
 10
116.293
 20
90.0012
 30
0.0
 11
120.0
 21
90.0009
 31
0.0
  0
LINE
  5
2F4
330
1E
100
AcDbEntity
  8
0
100
AcDbLine
 10
120.0
 20
90.0009
 30
0.0
 11
123.707
 21
90.0012
 31
0.0
  0
LINE
  5
2F5
330
1E
100
AcDbEntity
  8
0
100
AcDbLine
 10
120.0
 20
90.00010000000001
 30
0.0
 11
123.902
 21
90.0004
 31
0.0
  0
LINE
  5
2F6
330
1E
100
AcDbEntity
  8
0
100
AcDbLine
 10
116.098
 20
90.0004
 30
0.0
 11
120.0
 21
90.00010000000001
 31
0.0
  0
LINE
  5
2F7
330
1E
100
AcDbEntity
  8
0
100
AcDbLine
 10
116.098
 20
-0.0000000000000307
 30
0.0
 11
120.0
 21
-0.0000000000000307
 31
0.0
  0
LINE
  5
2F8
330
1E
100
AcDbEntity
  8
0
100
AcDbLine
 10
120.0
 20
-0.0000000000000307
 30
0.0
 11
123.902
 21
-0.0000000000000307
 31
0.0
  0
LINE
  5
2FA
330
1E
100
AcDbEntity
  8
0
100
AcDbLine
 10
123.902
 20
-0.0000000000000307
 30
0.0
 11
127.654
 21
0.0009969999999692
 31
0.0
  0
LINE
  5
2FB
330
1E
100
AcDbEntity
  8
0
100
AcDbLine
 10
123.707
 20
90.0012
 30
0.0
 11
127.271
 21
90.0021
 31
0.0
  0
LINE
  5
2FC
330
1E
100
AcDbEntity
  8
0
100
AcDbLine
 10
123.902
 20
90.0004
 30
0.0
 11
127.654
 21
90.0013
 31
0.0
  0
LINE
  5
2FD
330
1E
100
AcDbEntity
  8
0
100
AcDbLine
 10
123.902
 20
-0.0000000000000307
 30
0.0
 11
127.654
 21
0.0009969999999692
 31
0.0
  0
LINE
  5
2FE
330
1E
100
AcDbEntity
  8
0
100
AcDbLine
 10
120.9699999999999
 20
639.4109999999999
 30
0.0
 11
123.855
 21
606.515
 31
0.0
  0
LINE
  5
2FF
330
1E
100
AcDbEntity
  8
0
100
AcDbLine
 10
123.855
 20
606.515
 30
0.0
 11
125.867
 21
583.5869999999999
 31
0.0
  0
LINE
  5
302
330
1E
100
AcDbEntity
  8
0
100
AcDbLine
 10
120.0
 20
738.998
 30
0.0
 11
122.7
 21
738.998
 31
0.0
  0
LINE
  5
303
330
1E
100
AcDbEntity
  8
0
100
AcDbLine
 10
122.7
 20
738.998
 30
0.0
 11
125.2
 21
738.998
 31
0.0
  0
LINE
  5
304
330
1E
100
AcDbEntity
  8
0
100
AcDbLine
 10
125.867
 20
583.5869999999999
 30
0.0
 11
128.035
 21
558.864
 31
0.0
  0
LINE
  5
305
330
1E
100
AcDbEntity
  8
0
100
AcDbLine
 10
127.271
 20
90.0021
 30
0.0
 11
130.556
 21
90.0035
 31
0.0
  0
LINE
  5
306
330
1E
100
AcDbEntity
  8
0
100
AcDbLine
 10
127.654
 20
90.0013
 30
0.0
 11
131.1109999999999
 21
90.0028
 31
0.0
  0
LINE
  5
307
330
1E
100
AcDbEntity
  8
0
100
AcDbLine
 10
127.654
 20
0.0009969999999692
 30
0.0
 11
131.1109999999999
 21
0.0029919999999691
 31
0.0
  0
LINE
  5
308
330
1E
100
AcDbEntity
  8
0
100
AcDbLine
 10
127.654
 20
0.0009969999999692
 30
0.0
 11
131.1109999999999
 21
0.0029919999999691
 31
0.0
  0
LINE
  5
309
330
1E
100
AcDbEntity
  8
0
100
AcDbLine
 10
128.035
 20
558.864
 30
0.0
 11
130.23
 21
533.844
 31
0.0
  0
LINE
  5
30C
330
1E
100
AcDbEntity
  8
0
100
AcDbLine
 10
128.347904267351
 20
738.998
 30
0.0
 11
129.0999999999999
 21
738.998
 31
0.0
  0
LINE
  5
30D
330
1E
100
AcDbEntity
  8
0
100
AcDbLine
 10
128.347904267351
 20
738.998
 30
0.0
 11
136.962
 21
640.806
 31
0.0
  0
LINE
  5
30E
330
1E
100
AcDbEntity
  8
0
100
AcDbLine
 10
125.2
 20
738.998
 30
0.0
 11
127.4
 21
738.998
 31
0.0
  0
LINE
  5
30F
330
1E
100
AcDbEntity
  8
0
100
AcDbLine
 10
127.4
 20
738.998
 30
0.0
 11
129.0999999999999
 21
738.998
 31
0.0
  0
LINE
  5
310
330
1E
100
AcDbEntity
  8
0
100
AcDbLine
 10
130.23
 20
533.844
 30
0.0
 11
132.25
 21
510.8159999999999
 31
0.0
  0
LINE
  5
311
330
1E
100
AcDbEntity
  8
0
100
AcDbLine
 10
129.1372723767939
 20
730.0
 30
0.0
 11
132.4999999999999
 21
730.0
 31
0.0
  0
LINE
  5
312
330
1E
100
AcDbEntity
  8
0
100
AcDbLine
 10
129.0999999999999
 20
738.998
 30
0.0
 11
130.0999999999999
 21
738.998
 31
0.0
  0
LINE
  5
313
330
1E
100
AcDbEntity
  8
0
100
AcDbLine
 10
130.0999999999999
 20
738.998
 30
0.0
 11
130.4999999999999
 21
738.998
 31
0.0
  0
LINE
  5
314
330
1E
100
AcDbEntity
  8
0
100
AcDbLine
 10
130.556
 20
90.0035
 30
0.0
 11
133.435
 21
90.0052999999999
 31
0.0
  0
LINE
  5
315
330
1E
100
AcDbEntity
  8
0
100
AcDbLine
 10
131.1109999999999
 20
90.0028
 30
0.0
 11
134.142
 21
90.00480000000001
 31
0.0
  0
LINE
  5
316
330
1E
100
AcDbEntity
  8
0
100
AcDbLine
 10
131.1109999999999
 20
0.0029919999999691
 30
0.0
 11
134.142
 21
0.0049849999999689
 31
0.0
  0
LINE
  5
317
330
1E
100
AcDbEntity
  8
0
100
AcDbLine
 10
132.25
 20
510.8159999999999
 30
0.0
 11
133.999
 21
490.879
 31
0.0
  0
LINE
  5
319
330
1E
100
AcDbEntity
  8
0
100
AcDbLine
 10
133.435
 20
90.0052999999999
 30
0.0
 11
135.7979999999999
 21
90.00759999999999
 31
0.0
  0
LINE
  5
31A
330
1E
100
AcDbEntity
  8
0
100
AcDbLine
 10
135.7979999999999
 20
90.00759999999999
 30
0.0
 11
137.5539999999999
 21
90.0102
 31
0.0
  0
LINE
  5
31C
330
1E
100
AcDbEntity
  8
0
100
AcDbLine
 10
136.629
 20
90.00719999999999
 30
0.0
 11
138.4779999999999
 21
90.00989999999999
 31
0.0
  0
LINE
  5
31D
330
1E
100
AcDbEntity
  8
0
100
AcDbLine
 10
134.142
 20
90.00480000000001
 30
0.0
 11
136.629
 21
90.00719999999999
 31
0.0
  0
LINE
  5
31E
330
1E
100
AcDbEntity
  8
0
100
AcDbLine
 10
137.5539999999999
 20
90.0102
 30
0.0
 11
138.6349999999999
 21
90.0131
 31
0.0
  0
LINE
  5
320
330
1E
100
AcDbEntity
  8
0
100
AcDbLine
 10
138.6349999999999
 20
90.0131
 30
0.0
 11
139.0
 21
90.0159
 31
0.0
  0
LINE
  5
322
330
1E
100
AcDbEntity
  8
0
100
AcDbLine
 10
138.4779999999999
 20
90.00989999999999
 30
0.0
 11
139.616
 21
90.0129
 31
0.0
  0
LINE
  5
323
330
1E
100
AcDbEntity
  8
0
100
AcDbLine
 10
138.4779999999999
 20
0.0099679999999685
 30
0.0
 11
139.616
 21
0.0129579999999683
 31
0.0
  0
LINE
  5
324
330
1E
100
AcDbEntity
  8
0
100
AcDbLine
 10
136.629
 20
0.0069769999999688
 30
0.0
 11
138.4779999999999
 21
0.0099679999999685
 31
0.0
  0
LINE
  5
325
330
1E
100
AcDbEntity
  8
0
100
AcDbLine
 10
134.142
 20
0.0049849999999689
 30
0.0
 11
136.629
 21
0.0069769999999688
 31
0.0
  0
LINE
  5
326
330
1E
100
AcDbEntity
  8
0
100
AcDbLine
 10
138.99999978838
 20
90.02062390213948
 30
0.0
 11
139.616
 21
90.01899999999999
 31
0.0
  0
LINE
  5
327
330
1E
100
AcDbEntity
  8
0
100
AcDbLine
 10
140.0
 20
90.0159
 30
0.0
 11
140.0
 21
0.0159479999999683
 31
0.0
  0
LINE
  5
328
330
1E
100
AcDbEntity
  8
0
100
AcDbLine
 10
139.616
 20
90.01899999999999
 30
0.0
 11
140.0
 21
90.0159
 31
0.0
  0
LINE
  5
329
330
1E
100
AcDbEntity
  8
0
100
AcDbLine
 10
139.616
 20
90.0129
 30
0.0
 11
140.0
 21
90.0159
 31
0.0
  0
LINE
  5
32A
330
1E
100
AcDbEntity
  8
0
100
AcDbLine
 10
140.0
 20
0.0159479999999681
 30
0.0
 11
140.0
 21
90.0159
 31
0.0
  0
LINE
  5
32B
330
1E
100
AcDbEntity
  8
0
100
AcDbLine
 10
139.616
 20
0.0129579999999683
 30
0.0
 11
140.0
 21
0.0159479999999681
 31
0.0
  0
LINE
  5
32C
330
1E
100
AcDbEntity
  8
0
100
AcDbLine
 10
138.997842923169
 20
138.167331741103
 30
0.0
 11
149.6979999999999
 21
145.317
 31
0.0
  0
LINE
  5
32D
330
1E
100
AcDbEntity
  8
0
100
AcDbLine
 10
138.9978425647969
 20
138.1753315016449
 30
0.0
 11
149.6979999999999
 21
145.3249999999999
 31
0.0
  0
LINE
  5
32E
330
1E
100
AcDbEntity
  8
0
100
AcDbLine
 10
149.6979999999999
 20
145.317
 30
0.0
 11
158.803
 21
158.9429999999999
 31
0.0
  0
LINE
  5
32F
330
1E
100
AcDbEntity
  8
0
100
AcDbLine
 10
149.6979999999999
 20
145.3249999999999
 30
0.0
 11
158.803
 21
158.9509999999999
 31
0.0
  0
LINE
  5
330
330
1E
100
AcDbEntity
  8
0
100
AcDbLine
 10
158.803
 20
158.9429999999999
 30
0.0
 11
162.0
 21
175.0159999999999
 31
0.0
  0
LINE
  5
331
330
1E
100
AcDbEntity
  8
0
100
AcDbLine
 10
158.803
 20
158.9509999999999
 30
0.0
 11
162.0
 21
175.0239999999999
 31
0.0
  0
LINE
  5
332
330
1E
100
AcDbEntity
  8
0
100
AcDbLine
 10
158.803
 20
191.0959999999999
 30
0.0
 11
162.0
 21
175.0239999999999
 31
0.0
  0
LINE
  5
333
330
1E
100
AcDbEntity
  8
0
100
AcDbLine
 10
149.6979999999999
 20
204.722
 30
0.0
 11
158.803
 21
191.0959999999999
 31
0.0
  0
LINE
  5
334
330
1E
100
AcDbEntity
  8
0
100
AcDbLine
 10
159.0079999999999
 20
204.777
 30
0.0
 11
159.8789999999999
 21
201.739
 31
0.0
  0
LINE
  5
335
330
1E
100
AcDbEntity
  8
0
100
AcDbLine
 10
138.994540999122
 20
211.87466012499
 30
0.0
 11
149.6979999999999
 21
204.722
 31
0.0
  0
LINE
  5
336
330
1E
100
AcDbEntity
  8
0
100
AcDbLine
 10
150.9109999999999
 20
297.086
 30
0.0
 11
152.8779999999999
 21
274.6569999999999
 31
0.0
  0
LINE
  5
337
330
1E
100
AcDbEntity
  8
0
100
AcDbLine
 10
152.8779999999999
 20
274.6569999999999
 30
0.0
 11
154.6269999999999
 21
254.72
 31
0.0
  0
LINE
  5
338
330
1E
100
AcDbEntity
  8
0
100
AcDbLine
 10
150.9109999999999
 20
297.086
 30
0.0
 11
152.8779999999999
 21
274.6569999999999
 31
0.0
  0
LINE
  5
339
330
1E
100
AcDbEntity
  8
0
100
AcDbLine
 10
152.8779999999999
 20
274.6569999999999
 30
0.0
 11
154.6269999999999
 21
254.72
 31
0.0
  0
LINE
  5
33A
330
1E
100
AcDbEntity
  8
0
100
AcDbLine
 10
154.6269999999999
 20
254.72
 30
0.0
 11
156.026
 21
238.77
 31
0.0
  0
LINE
  5
33B
330
1E
100
AcDbEntity
  8
0
100
AcDbLine
 10
156.026
 20
238.77
 30
0.0
 11
157.46
 21
222.4209999999999
 31
0.0
  0
LINE
  5
33C
330
1E
100
AcDbEntity
  8
0
100
AcDbLine
 10
157.46
 20
222.4209999999999
 30
0.0
 11
158.291
 21
212.9509999999999
 31
0.0
  0
LINE
  5
33D
330
1E
100
AcDbEntity
  8
0
100
AcDbLine
 10
158.291
 20
212.9509999999999
 30
0.0
 11
158.86
 21
206.472
 31
0.0
  0
LINE
  5
33E
330
1E
100
AcDbEntity
  8
0
100
AcDbLine
 10
158.86
 20
206.472
 30
0.0
 11
159.0079999999999
 21
204.777
 31
0.0
  0
LINE
  5
33F
330
1E
100
AcDbEntity
  8
0
100
AcDbLine
 10
159.8789999999999
 20
201.739
 30
0.0
 11
161.897
 21
199.404
 31
0.0
  0
LINE
  5
340
330
1E
100
AcDbEntity
  8
0
100
AcDbLine
 10
161.897
 20
199.404
 30
0.0
 11
164.552
 21
197.8279999999999
 31
0.0
  0
LINE
  5
341
330
1E
100
AcDbEntity
  8
0
100
AcDbLine
 10
164.552
 20
197.8279999999999
 30
0.0
 11
167.704
 21
197.5
 31
0.0
  0
LINE
  5
342
330
1E
100
AcDbEntity
  8
0
100
AcDbLine
 10
146.9929999999999
 20
341.745
 30
0.0
 11
148.9519999999999
 21
319.416
 31
0.0
  0
LINE
  5
343
330
1E
100
AcDbEntity
  8
0
100
AcDbLine
 10
148.9519999999999
 20
319.416
 30
0.0
 11
150.9109999999999
 21
297.086
 31
0.0
  0
LINE
  5
344
330
1E
100
AcDbEntity
  8
0
100
AcDbLine
 10
146.9929999999999
 20
341.745
 30
0.0
 11
148.9519999999999
 21
319.416
 31
0.0
  0
LINE
  5
345
330
1E
100
AcDbEntity
  8
0
100
AcDbLine
 10
148.9519999999999
 20
319.416
 30
0.0
 11
150.9109999999999
 21
297.086
 31
0.0
  0
LINE
  5
34A
330
1E
100
AcDbEntity
  8
0
100
AcDbLine
 10
137.68
 20
447.91
 30
0.0
 11
139.6479999999999
 21
425.4819999999999
 31
0.0
  0
LINE
  5
34B
330
1E
100
AcDbEntity
  8
0
100
AcDbLine
 10
135.932
 20
467.848
 30
0.0
 11
137.68
 21
447.91
 31
0.0
  0
LINE
  5
350
330
1E
100
AcDbEntity
  8
0
100
AcDbLine
 10
139.6479999999999
 20
425.4819999999999
 30
0.0
 11
141.6069999999999
 21
403.1519999999999
 31
0.0
  0
LINE
  5
351
330
1E
100
AcDbEntity
  8
0
100
AcDbLine
 10
138.984633197226
 20
433.041954599904
 30
0.0
 11
139.0
 21
90.0159
 31
0.0
  0
LINE
  5
352
330
1E
100
AcDbEntity
  8
0
100
AcDbLine
 10
138.984633197226
 20
433.041954599905
 30
0.0
 11
139.0
 21
90.0159
 31
0.0
  0
LINE
  5
355
330
1E
100
AcDbEntity
  8
0
100
AcDbLine
 10
138.984633197226
 20
433.041954599904
 30
0.0
 11
139.6479999999999
 21
425.4819999999999
 31
0.0
  0
LINE
  5
356
330
1E
100
AcDbEntity
  8
0
100
AcDbLine
 10
143.565
 20
380.8219999999999
 30
0.0
 11
145.279
 21
361.2839999999999
 31
0.0
  0
LINE
  5
357
330
1E
100
AcDbEntity
  8
0
100
AcDbLine
 10
141.6069999999999
 20
403.1519999999999
 30
0.0
 11
143.565
 21
380.8219999999999
 31
0.0
  0
LINE
  5
358
330
1E
100
AcDbEntity
  8
0
100
AcDbLine
 10
145.279
 20
361.2839999999999
 30
0.0
 11
146.9929999999999
 21
341.745
 31
0.0
  0
LINE
  5
359
330
1E
100
AcDbEntity
  8
0
100
AcDbLine
 10
145.279
 20
361.2839999999999
 30
0.0
 11
146.9929999999999
 21
341.745
 31
0.0
  0
LINE
  5
35A
330
1E
100
AcDbEntity
  8
0
100
AcDbLine
 10
143.565
 20
380.8219999999999
 30
0.0
 11
145.279
 21
361.2839999999999
 31
0.0
  0
LINE
  5
35B
330
1E
100
AcDbEntity
  8
0
100
AcDbLine
 10
141.6069999999999
 20
403.1519999999999
 30
0.0
 11
143.565
 21
380.8219999999999
 31
0.0
  0
LINE
  5
35C
330
1E
100
AcDbEntity
  8
0
100
AcDbLine
 10
139.6479999999999
 20
425.4819999999999
 30
0.0
 11
141.6069999999999
 21
403.1519999999999
 31
0.0
  0
LINE
  5
364
330
1E
100
AcDbEntity
  8
0
100
AcDbLine
 10
159.557
 20
382.218
 30
0.0
 11
161.272
 21
362.679
 31
0.0
  0
LINE
  5
365
330
1E
100
AcDbEntity
  8
0
100
AcDbLine
 10
157.599
 20
404.548
 30
0.0
 11
159.557
 21
382.218
 31
0.0
  0
LINE
  5
366
330
1E
100
AcDbEntity
  8
0
100
AcDbLine
 10
155.64
 20
426.8759999999999
 30
0.0
 11
157.599
 21
404.548
 31
0.0
  0
LINE
  5
367
330
1E
100
AcDbEntity
  8
0
100
AcDbLine
 10
153.673
 20
449.3059999999999
 30
0.0
 11
155.64
 21
426.8759999999999
 31
0.0
  0
LINE
  5
368
330
1E
100
AcDbEntity
  8
0
100
AcDbLine
 10
151.923
 20
470.244
 30
0.0
 11
153.673
 21
449.3059999999999
 31
0.0
  0
LINE
  5
36D
330
1E
100
AcDbEntity
  8
0
100
AcDbLine
 10
133.999
 20
490.879
 30
0.0
 11
135.932
 21
468.848
 31
0.0
  0
LINE
  5
374
330
1E
100
AcDbEntity
  8
0
100
AcDbLine
 10
136.962
 20
640.806
 30
0.0
 11
139.847
 21
607.9099999999999
 31
0.0
  0
LINE
  5
375
330
1E
100
AcDbEntity
  8
0
100
AcDbLine
 10
139.847
 20
607.9099999999999
 30
0.0
 11
141.859
 21
584.983
 31
0.0
  0
LINE
  5
376
330
1E
100
AcDbEntity
  8
0
100
AcDbLine
 10
141.859
 20
584.983
 30
0.0
 11
144.027
 21
560.2599999999999
 31
0.0
  0
LINE
  5
377
330
1E
100
AcDbEntity
  8
0
100
AcDbLine
 10
144.027
 20
560.2599999999999
 30
0.0
 11
146.222
 21
535.2380000000001
 31
0.0
  0
LINE
  5
378
330
1E
100
AcDbEntity
  8
0
100
AcDbLine
 10
146.222
 20
535.2380000000001
 30
0.0
 11
148.242
 21
512.211
 31
0.0
  0
LINE
  5
379
330
1E
100
AcDbEntity
  8
0
100
AcDbLine
 10
148.242
 20
512.211
 30
0.0
 11
149.991
 21
492.274
 31
0.0
  0
LINE
  5
37A
330
1E
100
AcDbEntity
  8
0
100
AcDbLine
 10
149.991
 20
492.274
 30
0.0
 11
151.923
 21
470.244
 31
0.0
  0
LINE
  5
37C
330
1E
100
AcDbEntity
  8
0
100
AcDbLine
 10
161.272
 20
362.679
 30
0.0
 11
162.985
 21
343.1409999999999
 31
0.0
  0
LINE
  5
37D
330
1E
100
AcDbEntity
  8
0
100
AcDbLine
 10
162.985
 20
343.1409999999999
 30
0.0
 11
164.944
 21
320.811
 31
0.0
  0
LINE
  5
37E
330
1E
100
AcDbEntity
  8
0
100
AcDbLine
 10
164.944
 20
320.811
 30
0.0
 11
166.902
 21
298.4809999999999
 31
0.0
  0
LINE
  5
37F
330
1E
100
AcDbEntity
  8
0
100
AcDbLine
 10
166.902
 20
298.4809999999999
 30
0.0
 11
168.87
 21
276.052
 31
0.0
  0
LINE
  5
380
330
1E
100
AcDbEntity
  8
0
100
AcDbLine
 10
168.87
 20
276.052
 30
0.0
 11
170.62
 21
256.115
 31
0.0
  0
LINE
  5
381
330
1E
100
AcDbEntity
  8
0
100
AcDbLine
 10
170.62
 20
256.115
 30
0.0
 11
172.018
 21
240.165
 31
0.0
  0
LINE
  5
382
330
1E
100
AcDbEntity
  8
0
100
AcDbLine
 10
172.018
 20
240.165
 30
0.0
 11
173.452
 21
223.817
 31
0.0
  0
LINE
  5
383
330
1E
100
AcDbEntity
  8
0
100
AcDbLine
 10
173.452
 20
223.817
 30
0.0
 11
174.2829999999999
 21
214.347
 31
0.0
  0
LINE
  5
384
330
1E
100
AcDbEntity
  8
0
100
AcDbLine
 10
174.2829999999999
 20
214.347
 30
0.0
 11
174.852
 21
207.867
 31
0.0
  0
LINE
  5
385
330
1E
100
AcDbEntity
  8
0
100
AcDbLine
 10
174.852
 20
207.867
 30
0.0
 11
175.0
 21
206.1729999999999
 31
0.0
  0
LINE
  5
386
330
1E
100
AcDbEntity
  8
0
100
AcDbLine
 10
174.672
 20
203.0299999999999
 30
0.0
 11
175.0
 21
206.1729999999999
 31
0.0
  0
LINE
  5
387
330
1E
100
AcDbEntity
  8
0
100
AcDbLine
 10
173.0909999999999
 20
200.3809999999999
 30
0.0
 11
174.672
 21
203.0299999999999
 31
0.0
  0
LINE
  5
388
330
1E
100
AcDbEntity
  8
0
100
AcDbLine
 10
170.75
 20
198.3679999999999
 30
0.0
 11
173.0909999999999
 21
200.3809999999999
 31
0.0
  0
LINE
  5
389
330
1E
100
AcDbEntity
  8
0
100
AcDbLine
 10
167.704
 20
197.5
 30
0.0
 11
170.75
 21
198.3679999999999
 31
0.0
  0
LINE
  5
38A
330
1E
100
AcDbEntity
  8
0
100
AcDbLine
 10
137.5
 20
730.0
 30
0.0
 11
137.5
 21
770.0
 31
0.0
  0
LINE
  5
38B
330
1E
100
AcDbEntity
  8
0
100
AcDbLine
 10
132.4999999999999
 20
730.0
 30
0.0
 11
137.5
 21
730.0
 31
0.0
  0
LINE
  5
38C
330
1E
100
AcDbEntity
  8
0
100
AcDbLine
 10
132.4999999999999
 20
730.0
 30
0.0
 11
132.4999999999999
 21
770.0
 31
0.0
  0
LINE
  5
38D
330
1E
100
AcDbEntity
  8
0
100
AcDbLine
 10
135.8997866993119
 20
730.0
 30
0.0
 11
135.9843173463419
 21
730.0
 31
0.0
  0
LINE
  5
38E
330
1E
100
AcDbEntity
  8
0
100
AcDbLine
 10
130.4999999999999
 20
738.998
 30
0.0
 11
131.4999999999999
 21
768.998
 31
0.0
  0
LINE
  5
38F
330
1E
100
AcDbEntity
  8
0
100
AcDbLine
 10
117.3
 20
738.998
 30
0.0
 11
120.0
 21
738.998
 31
0.0
  0
LINE
  5
390
330
1E
100
AcDbEntity
  8
0
100
AcDbLine
 10
114.7999999999999
 20
738.998
 30
0.0
 11
117.3
 21
738.998
 31
0.0
  0
LINE
  5
391
330
1E
100
AcDbEntity
  8
0
100
AcDbLine
 10
112.5999999999999
 20
738.998
 30
0.0
 11
114.7999999999999
 21
738.998
 31
0.0
  0
LINE
  5
392
330
1E
100
AcDbEntity
  8
0
100
AcDbLine
 10
110.8999999999999
 20
738.998
 30
0.0
 11
112.5999999999999
 21
738.998
 31
0.0
  0
LINE
  5
393
330
1E
100
AcDbEntity
  8
0
100
AcDbLine
 10
110.8999999999999
 20
738.998
 30
0.0
 11
112.2335250149979
 21
738.998
 31
0.0
  0
LINE
  5
394
330
1E
100
AcDbEntity
  8
0
100
AcDbLine
 10
109.5999999999999
 20
2135.0
 30
0.0
 11
111.4999999999999
 21
2135.0
 31
0.0
  0
LINE
  5
395
330
1E
100
AcDbEntity
  8
0
100
AcDbLine
 10
109.5999999999999
 20
944.5
 30
0.0
 11
111.4999999999999
 21
944.5
 31
0.0
  0
LINE
  5
396
330
1E
100
AcDbEntity
  8
0
100
AcDbLine
 10
109.5999999999999
 20
925.5
 30
0.0
 11
111.4999999999999
 21
925.5
 31
0.0
  0
LINE
  5
397
330
1E
100
AcDbEntity
  8
0
100
AcDbLine
 10
109.5999999999999
 20
924.5
 30
0.0
 11
111.4999999999999
 21
924.5
 31
0.0
  0
LINE
  5
39C
330
1E
100
AcDbEntity
  8
0
100
AcDbLine
 10
109.975
 20
2105.0
 30
0.0
 11
109.975
 21
2107.0
 31
0.0
  0
LINE
  5
39D
330
1E
100
AcDbEntity
  8
0
100
AcDbLine
 10
109.975
 20
2105.0
 30
0.0
 11
111.907
 21
2105.0
 31
0.0
  0
LINE
  5
39E
330
1E
100
AcDbEntity
  8
0
100
AcDbLine
 10
109.975
 20
2105.0
 30
0.0
 11
110.4929999999999
 21
2105.0
 31
0.0
  0
LINE
  5
39F
330
1E
100
AcDbEntity
  8
0
100
AcDbLine
 10
109.975
 20
2107.0
 30
0.0
 11
111.907
 21
2107.0
 31
0.0
  0
LINE
  5
3A0
330
1E
100
AcDbEntity
  8
0
100
AcDbLine
 10
109.975
 20
2107.0
 30
0.0
 11
109.975
 21
2105.0
 31
0.0
  0
LINE
  5
3A1
330
1E
100
AcDbEntity
  8
0
100
AcDbLine
 10
110.0
 20
945.0
 30
0.0
 11
111.8999999999999
 21
945.0
 31
0.0
  0
LINE
  5
3A2
330
1E
100
AcDbEntity
  8
0
100
AcDbLine
 10
109.5999999999999
 20
771.0
 30
0.0
 11
111.4999999999999
 21
771.0
 31
0.0
  0
LINE
  5
3A3
330
1E
100
AcDbEntity
  8
0
100
AcDbLine
 10
110.0
 20
770.0
 30
0.0
 11
110.0
 21
768.998
 31
0.0
  0
LINE
  5
3A4
330
1E
100
AcDbEntity
  8
0
100
AcDbLine
 10
110.0
 20
770.0
 30
0.0
 11
110.4
 21
770.0
 31
0.0
  0
LINE
  5
3A5
330
1E
100
AcDbEntity
  8
0
100
AcDbLine
 10
120.0
 20
768.998
 30
0.0
 11
123.0
 21
768.998
 31
0.0
  0
LINE
  5
3A6
330
1E
100
AcDbEntity
  8
0
100
AcDbLine
 10
123.0
 20
768.998
 30
0.0
 11
125.7
 21
768.998
 31
0.0
  0
LINE
  5
3A7
330
1E
100
AcDbEntity
  8
0
100
AcDbLine
 10
125.7
 20
768.998
 30
0.0
 11
128.0999999999999
 21
768.998
 31
0.0
  0
LINE
  5
3A8
330
1E
100
AcDbEntity
  8
0
100
AcDbLine
 10
128.0999999999999
 20
768.998
 30
0.0
 11
130.0
 21
768.998
 31
0.0
  0
LINE
  5
3A9
330
1E
100
AcDbEntity
  8
0
100
AcDbLine
 10
130.0
 20
768.998
 30
0.0
 11
131.0999999999999
 21
768.998
 31
0.0
  0
LINE
  5
3AA
330
1E
100
AcDbEntity
  8
0
100
AcDbLine
 10
130.0
 20
768.998
 30
0.0
 11
130.0
 21
770.0
 31
0.0
  0
LINE
  5
3AB
330
1E
100
AcDbEntity
  8
0
100
AcDbLine
 10
131.0999999999999
 20
768.998
 30
0.0
 11
131.4999999999999
 21
768.998
 31
0.0
  0
LINE
  5
3AC
330
1E
100
AcDbEntity
  8
0
100
AcDbLine
 10
117.0
 20
768.998
 30
0.0
 11
120.0
 21
768.998
 31
0.0
  0
LINE
  5
3AD
330
1E
100
AcDbEntity
  8
0
100
AcDbLine
 10
114.3
 20
768.998
 30
0.0
 11
117.0
 21
768.998
 31
0.0
  0
LINE
  5
3AE
330
1E
100
AcDbEntity
  8
0
100
AcDbLine
 10
110.101
 20
1063.92
 30
0.0
 11
114.6429999999999
 21
1066.96
 31
0.0
  0
LINE
  5
3AF
330
1E
100
AcDbEntity
  8
0
100
AcDbLine
 10
110.101
 20
1044.119999999999
 30
0.0
 11
114.6429999999999
 21
1041.09
 31
0.0
  0
LINE
  5
3B6
330
1E
100
AcDbEntity
  8
0
100
AcDbLine
 10
110.1339999999999
 20
2105.0
 30
0.0
 11
111.8659999999999
 21
2105.0
 31
0.0
  0
LINE
  5
3B7
330
1E
100
AcDbEntity
  8
0
100
AcDbLine
 10
112.2
 20
770.0
 30
0.0
 11
114.5
 21
770.0
 31
0.0
  0
LINE
  5
3B8
330
1E
100
AcDbEntity
  8
0
100
AcDbLine
 10
114.5
 20
770.0
 30
0.0
 11
117.2
 21
770.0
 31
0.0
  0
LINE
  5
3B9
330
1E
100
AcDbEntity
  8
0
100
AcDbLine
 10
112.9
 20
770.0
 30
0.0
 11
115.0
 21
770.0
 31
0.0
  0
LINE
  5
3BA
330
1E
100
AcDbEntity
  8
0
100
AcDbLine
 10
122.7999999999999
 20
770.0
 30
0.0
 11
125.5
 21
770.0
 31
0.0
  0
LINE
  5
3BB
330
1E
100
AcDbEntity
  8
0
100
AcDbLine
 10
127.8
 20
770.0
 30
0.0
 11
129.4999999999999
 21
770.0
 31
0.0
  0
LINE
  5
3BC
330
1E
100
AcDbEntity
  8
0
100
AcDbLine
 10
129.4999999999999
 20
770.0
 30
0.0
 11
130.6
 21
770.0
 31
0.0
  0
LINE
  5
3BD
330
1E
100
AcDbEntity
  8
0
100
AcDbLine
 10
127.0999999999999
 20
770.0
 30
0.0
 11
128.6999999999999
 21
770.0
 31
0.0
  0
LINE
  5
3BE
330
1E
100
AcDbEntity
  8
0
100
AcDbLine
 10
128.6999999999999
 20
770.0
 30
0.0
 11
129.6
 21
770.0
 31
0.0
  0
LINE
  5
3BF
330
1E
100
AcDbEntity
  8
0
100
AcDbLine
 10
130.0
 20
770.0
 30
0.0
 11
130.0
 21
768.998
 31
0.0
  0
LINE
  5
3C0
330
1E
100
AcDbEntity
  8
0
100
AcDbLine
 10
130.0
 20
770.0
 30
0.0
 11
130.6
 21
770.0
 31
0.0
  0
LINE
  5
3C1
330
1E
100
AcDbEntity
  8
0
100
AcDbLine
 10
130.0
 20
770.0
 30
0.0
 11
132.4999999999999
 21
770.0
 31
0.0
  0
LINE
  5
3C4
330
1E
100
AcDbEntity
  8
0
100
AcDbLine
 10
137.5
 20
770.0
 30
0.0
 11
137.5
 21
730.0
 31
0.0
  0
LINE
  5
3C5
330
1E
100
AcDbEntity
  8
0
100
AcDbLine
 10
132.4999999999999
 20
770.0
 30
0.0
 11
132.4999999999999
 21
730.0
 31
0.0
  0
LINE
  5
3C6
330
1E
100
AcDbEntity
  8
0
100
AcDbLine
 10
132.4999999999999
 20
770.0
 30
0.0
 11
137.5
 21
770.0
 31
0.0
  0
LINE
  5
3C7
330
1E
100
AcDbEntity
  8
0
100
AcDbLine
 10
131.0
 20
770.0
 30
0.0
 11
132.0
 21
771.0
 31
0.0
  0
LINE
  5
3C8
330
1E
100
AcDbEntity
  8
0
100
AcDbLine
 10
130.6
 20
770.0
 30
0.0
 11
131.0
 21
770.0
 31
0.0
  0
LINE
  5
3C9
330
1E
100
AcDbEntity
  8
0
100
AcDbLine
 10
129.6
 20
770.0
 30
0.0
 11
130.0
 21
770.0
 31
0.0
  0
LINE
  5
3CA
330
1E
100
AcDbEntity
  8
0
100
AcDbLine
 10
125.5
 20
770.0
 30
0.0
 11
127.8
 21
770.0
 31
0.0
  0
LINE
  5
3CB
330
1E
100
AcDbEntity
  8
0
100
AcDbLine
 10
125.0
 20
770.0
 30
0.0
 11
127.0999999999999
 21
770.0
 31
0.0
  0
LINE
  5
3CC
330
1E
100
AcDbEntity
  8
0
100
AcDbLine
 10
122.5999999999999
 20
770.0
 30
0.0
 11
125.0
 21
770.0
 31
0.0
  0
LINE
  5
3CD
330
1E
100
AcDbEntity
  8
0
100
AcDbLine
 10
120.0
 20
770.0
 30
0.0
 11
122.5999999999999
 21
770.0
 31
0.0
  0
LINE
  5
3CE
330
1E
100
AcDbEntity
  8
0
100
AcDbLine
 10
120.0
 20
770.0
 30
0.0
 11
122.7999999999999
 21
770.0
 31
0.0
  0
LINE
  5
3CF
330
1E
100
AcDbEntity
  8
0
100
AcDbLine
 10
117.2
 20
770.0
 30
0.0
 11
120.0
 21
770.0
 31
0.0
  0
LINE
  5
3D0
330
1E
100
AcDbEntity
  8
0
100
AcDbLine
 10
115.0
 20
770.0
 30
0.0
 11
117.4
 21
770.0
 31
0.0
  0
LINE
  5
3D1
330
1E
100
AcDbEntity
  8
0
100
AcDbLine
 10
117.4
 20
770.0
 30
0.0
 11
120.0
 21
770.0
 31
0.0
  0
LINE
  5
3D2
330
1E
100
AcDbEntity
  8
0
100
AcDbLine
 10
110.4999999999999
 20
770.0
 30
0.0
 11
112.2
 21
770.0
 31
0.0
  0
LINE
  5
3D3
330
1E
100
AcDbEntity
  8
0
100
AcDbLine
 10
110.4929999999999
 20
2105.0
 30
0.0
 11
112.4249999999999
 21
2105.0
 31
0.0
  0
LINE
  5
3D4
330
1E
100
AcDbEntity
  8
0
100
AcDbLine
 10
111.4999999999999
 20
771.0
 30
0.0
 11
114.0
 21
771.0
 31
0.0
  0
LINE
  5
3D5
330
1E
100
AcDbEntity
  8
0
100
AcDbLine
 10
128.4999999999999
 20
771.0
 30
0.0
 11
130.4
 21
771.0
 31
0.0
  0
LINE
  5
3D6
330
1E
100
AcDbEntity
  8
0
100
AcDbLine
 10
130.4
 20
771.0
 30
0.0
 11
131.6
 21
771.0
 31
0.0
  0
LINE
  5
3D7
330
1E
100
AcDbEntity
  8
0
100
AcDbLine
 10
132.0
 20
771.0
 30
0.0
 11
132.0
 21
924.5
 31
0.0
  0
LINE
  5
3D8
330
1E
100
AcDbEntity
  8
0
100
AcDbLine
 10
131.6
 20
771.0
 30
0.0
 11
132.0
 21
771.0
 31
0.0
  0
LINE
  5
3D9
330
1E
100
AcDbEntity
  8
0
100
AcDbLine
 10
126.0
 20
771.0
 30
0.0
 11
128.4999999999999
 21
771.0
 31
0.0
  0
LINE
  5
3DA
330
1E
100
AcDbEntity
  8
0
100
AcDbLine
 10
123.0999999999999
 20
771.0
 30
0.0
 11
126.0
 21
771.0
 31
0.0
  0
LINE
  5
3DB
330
1E
100
AcDbEntity
  8
0
100
AcDbLine
 10
120.0
 20
771.0
 30
0.0
 11
123.0999999999999
 21
771.0
 31
0.0
  0
LINE
  5
3DC
330
1E
100
AcDbEntity
  8
0
100
AcDbLine
 10
114.0
 20
771.0
 30
0.0
 11
116.9
 21
771.0
 31
0.0
  0
LINE
  5
3DD
330
1E
100
AcDbEntity
  8
0
100
AcDbLine
 10
110.812
 20
908.9
 30
0.0
 11
111.1229999999999
 21
909.3999999999999
 31
0.0
  0
LINE
  5
3DE
330
1E
100
AcDbEntity
  8
0
100
AcDbLine
 10
110.812
 20
908.9
 30
0.0
 11
110.812
 21
907.9
 31
0.0
  0
LINE
  5
3DF
330
1E
100
AcDbEntity
  8
0
100
AcDbLine
 10
110.812
 20
914.7
 30
0.0
 11
110.812
 21
915.7
 31
0.0
  0
LINE
  5
3E0
330
1E
100
AcDbEntity
  8
0
100
AcDbLine
 10
110.812
 20
914.7
 30
0.0
 11
111.1229999999999
 21
914.2000000000001
 31
0.0
  0
LINE
  5
3E1
330
1E
100
AcDbEntity
  8
0
100
AcDbLine
 10
110.812
 20
921.4999999999999
 30
0.0
 11
110.812
 21
922.4999999999999
 31
0.0
  0
LINE
  5
3E2
330
1E
100
AcDbEntity
  8
0
100
AcDbLine
 10
110.812
 20
921.4999999999999
 30
0.0
 11
111.1229999999999
 21
921.0
 31
0.0
  0
LINE
  5
3E3
330
1E
100
AcDbEntity
  8
0
100
AcDbLine
 10
110.812
 20
922.4999999999999
 30
0.0
 11
110.812
 21
921.4999999999999
 31
0.0
  0
LINE
  5
3E4
330
1E
100
AcDbEntity
  8
0
100
AcDbLine
 10
110.812
 20
922.4999999999999
 30
0.0
 11
111.1229999999999
 21
923.0
 31
0.0
  0
LINE
  5
3E5
330
1E
100
AcDbEntity
  8
0
100
AcDbLine
 10
110.812
 20
915.7
 30
0.0
 11
110.812
 21
914.7
 31
0.0
  0
LINE
  5
3E6
330
1E
100
AcDbEntity
  8
0
100
AcDbLine
 10
110.812
 20
915.7
 30
0.0
 11
111.1229999999999
 21
916.2
 31
0.0
  0
LINE
  5
3E7
330
1E
100
AcDbEntity
  8
0
100
AcDbLine
 10
110.812
 20
907.9
 30
0.0
 11
111.1229999999999
 21
907.3999999999999
 31
0.0
  0
LINE
  5
3E8
330
1E
100
AcDbEntity
  8
0
100
AcDbLine
 10
110.812
 20
907.9
 30
0.0
 11
110.812
 21
908.9
 31
0.0
  0
LINE
  5
3E9
330
1E
100
AcDbEntity
  8
0
100
AcDbLine
 10
110.812
 20
901.1000000000001
 30
0.0
 11
110.812
 21
902.1
 31
0.0
  0
LINE
  5
3EA
330
1E
100
AcDbEntity
  8
0
100
AcDbLine
 10
110.812
 20
901.1000000000001
 30
0.0
 11
111.1229999999999
 21
900.6
 31
0.0
  0
LINE
  5
3EB
330
1E
100
AcDbEntity
  8
0
100
AcDbLine
 10
110.812
 20
902.1
 30
0.0
 11
111.1229999999999
 21
902.5999999999999
 31
0.0
  0
LINE
  5
3EC
330
1E
100
AcDbEntity
  8
0
100
AcDbLine
 10
110.812
 20
902.1
 30
0.0
 11
110.812
 21
901.1000000000001
 31
0.0
  0
LINE
  5
3ED
330
1E
100
AcDbEntity
  8
0
100
AcDbLine
 10
110.812
 20
895.2999999999999
 30
0.0
 11
110.812
 21
894.2999999999999
 31
0.0
  0
LINE
  5
3EE
330
1E
100
AcDbEntity
  8
0
100
AcDbLine
 10
110.812
 20
895.2999999999999
 30
0.0
 11
111.1229999999999
 21
895.8
 31
0.0
  0
LINE
  5
3EF
330
1E
100
AcDbEntity
  8
0
100
AcDbLine
 10
110.812
 20
894.2999999999999
 30
0.0
 11
111.1229999999999
 21
893.8
 31
0.0
  0
LINE
  5
3F0
330
1E
100
AcDbEntity
  8
0
100
AcDbLine
 10
110.812
 20
894.2999999999999
 30
0.0
 11
110.812
 21
895.2999999999999
 31
0.0
  0
LINE
  5
3F1
330
1E
100
AcDbEntity
  8
0
100
AcDbLine
 10
110.812
 20
888.4999999999999
 30
0.0
 11
110.812
 21
887.5
 31
0.0
  0
LINE
  5
3F2
330
1E
100
AcDbEntity
  8
0
100
AcDbLine
 10
110.812
 20
888.4999999999999
 30
0.0
 11
111.1229999999999
 21
889.0
 31
0.0
  0
LINE
  5
3F3
330
1E
100
AcDbEntity
  8
0
100
AcDbLine
 10
110.812
 20
887.5
 30
0.0
 11
111.1229999999999
 21
887.0
 31
0.0
  0
LINE
  5
3F4
330
1E
100
AcDbEntity
  8
0
100
AcDbLine
 10
110.812
 20
887.5
 30
0.0
 11
110.812
 21
888.4999999999999
 31
0.0
  0
LINE
  5
3F5
330
1E
100
AcDbEntity
  8
0
100
AcDbLine
 10
110.812
 20
880.7
 30
0.0
 11
110.812
 21
881.7
 31
0.0
  0
LINE
  5
3F6
330
1E
100
AcDbEntity
  8
0
100
AcDbLine
 10
110.812
 20
880.7
 30
0.0
 11
111.1229999999999
 21
880.2000000000001
 31
0.0
  0
LINE
  5
3F7
330
1E
100
AcDbEntity
  8
0
100
AcDbLine
 10
110.812
 20
881.7
 30
0.0
 11
111.1229999999999
 21
882.2
 31
0.0
  0
LINE
  5
3F8
330
1E
100
AcDbEntity
  8
0
100
AcDbLine
 10
110.812
 20
881.7
 30
0.0
 11
110.812
 21
880.7
 31
0.0
  0
LINE
  5
3F9
330
1E
100
AcDbEntity
  8
0
100
AcDbLine
 10
110.812
 20
874.9
 30
0.0
 11
110.812
 21
873.9
 31
0.0
  0
LINE
  5
3FA
330
1E
100
AcDbEntity
  8
0
100
AcDbLine
 10
110.812
 20
874.9
 30
0.0
 11
111.1229999999999
 21
875.3999999999999
 31
0.0
  0
LINE
  5
3FB
330
1E
100
AcDbEntity
  8
0
100
AcDbLine
 10
110.812
 20
873.9
 30
0.0
 11
111.1229999999999
 21
873.3999999999999
 31
0.0
  0
LINE
  5
3FC
330
1E
100
AcDbEntity
  8
0
100
AcDbLine
 10
110.812
 20
873.9
 30
0.0
 11
110.812
 21
874.9
 31
0.0
  0
LINE
  5
3FD
330
1E
100
AcDbEntity
  8
0
100
AcDbLine
 10
110.812
 20
867.1000000000001
 30
0.0
 11
110.812
 21
868.1
 31
0.0
  0
LINE
  5
3FE
330
1E
100
AcDbEntity
  8
0
100
AcDbLine
 10
110.812
 20
867.1000000000001
 30
0.0
 11
111.1229999999999
 21
866.6
 31
0.0
  0
LINE
  5
3FF
330
1E
100
AcDbEntity
  8
0
100
AcDbLine
 10
110.812
 20
868.1
 30
0.0
 11
111.1229999999999
 21
868.5999999999999
 31
0.0
  0
LINE
  5
400
330
1E
100
AcDbEntity
  8
0
100
AcDbLine
 10
110.812
 20
868.1
 30
0.0
 11
110.812
 21
867.1000000000001
 31
0.0
  0
LINE
  5
401
330
1E
100
AcDbEntity
  8
0
100
AcDbLine
 10
110.812
 20
860.2999999999999
 30
0.0
 11
110.812
 21
861.2999999999999
 31
0.0
  0
LINE
  5
402
330
1E
100
AcDbEntity
  8
0
100
AcDbLine
 10
110.812
 20
860.2999999999999
 30
0.0
 11
111.1229999999999
 21
859.7999999999998
 31
0.0
  0
LINE
  5
403
330
1E
100
AcDbEntity
  8
0
100
AcDbLine
 10
110.812
 20
861.2999999999999
 30
0.0
 11
111.1229999999999
 21
861.8
 31
0.0
  0
LINE
  5
404
330
1E
100
AcDbEntity
  8
0
100
AcDbLine
 10
110.812
 20
861.2999999999999
 30
0.0
 11
110.812
 21
860.2999999999999
 31
0.0
  0
LINE
  5
405
330
1E
100
AcDbEntity
  8
0
100
AcDbLine
 10
110.812
 20
854.4999999999999
 30
0.0
 11
110.812
 21
853.5
 31
0.0
  0
LINE
  5
406
330
1E
100
AcDbEntity
  8
0
100
AcDbLine
 10
110.812
 20
854.4999999999999
 30
0.0
 11
111.1229999999999
 21
855.0
 31
0.0
  0
LINE
  5
407
330
1E
100
AcDbEntity
  8
0
100
AcDbLine
 10
111.1229999999999
 20
909.3999999999999
 30
0.0
 11
111.745
 21
909.3999999999999
 31
0.0
  0
LINE
  5
408
330
1E
100
AcDbEntity
  8
0
100
AcDbLine
 10
111.1229999999999
 20
921.0
 30
0.0
 11
111.745
 21
921.0
 31
0.0
  0
LINE
  5
409
330
1E
100
AcDbEntity
  8
0
100
AcDbLine
 10
111.1229999999999
 20
921.0
 30
0.0
 11
111.4999999999999
 21
921.0
 31
0.0
  0
LINE
  5
40A
330
1E
100
AcDbEntity
  8
0
100
AcDbLine
 10
111.1229999999999
 20
923.0
 30
0.0
 11
111.745
 21
923.0
 31
0.0
  0
LINE
  5
40B
330
1E
100
AcDbEntity
  8
0
100
AcDbLine
 10
111.1229999999999
 20
916.2
 30
0.0
 11
111.745
 21
916.2
 31
0.0
  0
LINE
  5
40C
330
1E
100
AcDbEntity
  8
0
100
AcDbLine
 10
111.1229999999999
 20
914.2000000000001
 30
0.0
 11
111.745
 21
914.2000000000001
 31
0.0
  0
LINE
  5
40D
330
1E
100
AcDbEntity
  8
0
100
AcDbLine
 10
111.1229999999999
 20
914.2000000000001
 30
0.0
 11
111.4999999999999
 21
914.2000000000001
 31
0.0
  0
LINE
  5
40E
330
1E
100
AcDbEntity
  8
0
100
AcDbLine
 10
111.1229999999999
 20
907.3999999999999
 30
0.0
 11
111.4999999999999
 21
907.3999999999999
 31
0.0
  0
LINE
  5
40F
330
1E
100
AcDbEntity
  8
0
100
AcDbLine
 10
111.1229999999999
 20
907.3999999999999
 30
0.0
 11
111.745
 21
907.3999999999999
 31
0.0
  0
LINE
  5
410
330
1E
100
AcDbEntity
  8
0
100
AcDbLine
 10
111.1229999999999
 20
900.6
 30
0.0
 11
111.745
 21
900.6
 31
0.0
  0
LINE
  5
411
330
1E
100
AcDbEntity
  8
0
100
AcDbLine
 10
111.1229999999999
 20
900.6
 30
0.0
 11
111.4999999999999
 21
900.6
 31
0.0
  0
LINE
  5
412
330
1E
100
AcDbEntity
  8
0
100
AcDbLine
 10
111.1229999999999
 20
902.5999999999999
 30
0.0
 11
111.745
 21
902.5999999999999
 31
0.0
  0
LINE
  5
413
330
1E
100
AcDbEntity
  8
0
100
AcDbLine
 10
111.1229999999999
 20
895.8
 30
0.0
 11
111.745
 21
895.8
 31
0.0
  0
LINE
  5
414
330
1E
100
AcDbEntity
  8
0
100
AcDbLine
 10
111.1229999999999
 20
893.8
 30
0.0
 11
111.745
 21
893.8
 31
0.0
  0
LINE
  5
415
330
1E
100
AcDbEntity
  8
0
100
AcDbLine
 10
111.1229999999999
 20
893.8
 30
0.0
 11
111.4999999999999
 21
893.8
 31
0.0
  0
LINE
  5
416
330
1E
100
AcDbEntity
  8
0
100
AcDbLine
 10
111.1229999999999
 20
889.0
 30
0.0
 11
111.745
 21
889.0
 31
0.0
  0
LINE
  5
417
330
1E
100
AcDbEntity
  8
0
100
AcDbLine
 10
111.1229999999999
 20
887.0
 30
0.0
 11
111.745
 21
887.0
 31
0.0
  0
LINE
  5
418
330
1E
100
AcDbEntity
  8
0
100
AcDbLine
 10
111.1229999999999
 20
887.0
 30
0.0
 11
111.4999999999999
 21
887.0
 31
0.0
  0
LINE
  5
419
330
1E
100
AcDbEntity
  8
0
100
AcDbLine
 10
111.1229999999999
 20
880.2000000000001
 30
0.0
 11
111.745
 21
880.2000000000001
 31
0.0
  0
LINE
  5
41A
330
1E
100
AcDbEntity
  8
0
100
AcDbLine
 10
111.1229999999999
 20
880.2000000000001
 30
0.0
 11
111.4999999999999
 21
880.2000000000001
 31
0.0
  0
LINE
  5
41B
330
1E
100
AcDbEntity
  8
0
100
AcDbLine
 10
111.1229999999999
 20
882.2
 30
0.0
 11
111.745
 21
882.2
 31
0.0
  0
LINE
  5
41C
330
1E
100
AcDbEntity
  8
0
100
AcDbLine
 10
111.1229999999999
 20
875.3999999999999
 30
0.0
 11
111.745
 21
875.3999999999999
 31
0.0
  0
LINE
  5
41D
330
1E
100
AcDbEntity
  8
0
100
AcDbLine
 10
111.1229999999999
 20
873.3999999999999
 30
0.0
 11
111.745
 21
873.3999999999999
 31
0.0
  0
LINE
  5
41E
330
1E
100
AcDbEntity
  8
0
100
AcDbLine
 10
111.1229999999999
 20
873.3999999999999
 30
0.0
 11
111.4999999999999
 21
873.3999999999999
 31
0.0
  0
LINE
  5
41F
330
1E
100
AcDbEntity
  8
0
100
AcDbLine
 10
111.1229999999999
 20
866.6
 30
0.0
 11
111.745
 21
866.6
 31
0.0
  0
LINE
  5
420
330
1E
100
AcDbEntity
  8
0
100
AcDbLine
 10
111.1229999999999
 20
866.6
 30
0.0
 11
111.4999999999999
 21
866.6
 31
0.0
  0
LINE
  5
421
330
1E
100
AcDbEntity
  8
0
100
AcDbLine
 10
111.1229999999999
 20
868.5999999999999
 30
0.0
 11
111.745
 21
868.5999999999999
 31
0.0
  0
LINE
  5
422
330
1E
100
AcDbEntity
  8
0
100
AcDbLine
 10
111.1229999999999
 20
859.7999999999998
 30
0.0
 11
111.745
 21
859.7999999999998
 31
0.0
  0
LINE
  5
423
330
1E
100
AcDbEntity
  8
0
100
AcDbLine
 10
111.1229999999999
 20
859.7999999999998
 30
0.0
 11
111.4999999999999
 21
859.7999999999998
 31
0.0
  0
LINE
  5
424
330
1E
100
AcDbEntity
  8
0
100
AcDbLine
 10
111.1229999999999
 20
861.8
 30
0.0
 11
111.745
 21
861.8
 31
0.0
  0
LINE
  5
425
330
1E
100
AcDbEntity
  8
0
100
AcDbLine
 10
111.1229999999999
 20
855.0
 30
0.0
 11
111.745
 21
855.0
 31
0.0
  0
LINE
  5
426
330
1E
100
AcDbEntity
  8
0
100
AcDbLine
 10
110.812
 20
853.5
 30
0.0
 11
111.1229999999999
 21
853.0
 31
0.0
  0
LINE
  5
427
330
1E
100
AcDbEntity
  8
0
100
AcDbLine
 10
110.812
 20
853.5
 30
0.0
 11
110.812
 21
854.4999999999999
 31
0.0
  0
LINE
  5
428
330
1E
100
AcDbEntity
  8
0
100
AcDbLine
 10
111.1229999999999
 20
853.0
 30
0.0
 11
111.745
 21
853.0
 31
0.0
  0
LINE
  5
429
330
1E
100
AcDbEntity
  8
0
100
AcDbLine
 10
111.1229999999999
 20
853.0
 30
0.0
 11
111.4999999999999
 21
853.0
 31
0.0
  0
LINE
  5
42A
330
1E
100
AcDbEntity
  8
0
100
AcDbLine
 10
111.745
 20
853.0
 30
0.0
 11
112.056
 21
853.5
 31
0.0
  0
LINE
  5
42B
330
1E
100
AcDbEntity
  8
0
100
AcDbLine
 10
111.745
 20
853.0
 30
0.0
 11
112.335
 21
853.0
 31
0.0
  0
LINE
  5
42C
330
1E
100
AcDbEntity
  8
0
100
AcDbLine
 10
114.712
 20
853.0
 30
0.0
 11
115.511
 21
853.0
 31
0.0
  0
LINE
  5
42D
330
1E
100
AcDbEntity
  8
0
100
AcDbLine
 10
114.712
 20
853.0
 30
0.0
 11
115.023
 21
853.0
 31
0.0
  0
LINE
  5
42E
330
1E
100
AcDbEntity
  8
0
100
AcDbLine
 10
112.056
 20
854.4999999999999
 30
0.0
 11
112.64006514658
 21
854.4999999999999
 31
0.0
  0
LINE
  5
42F
330
1E
100
AcDbEntity
  8
0
100
AcDbLine
 10
112.056
 20
854.4999999999999
 30
0.0
 11
112.056
 21
853.5
 31
0.0
  0
LINE
  5
430
330
1E
100
AcDbEntity
  8
0
100
AcDbLine
 10
112.056
 20
853.5
 30
0.0
 11
112.056
 21
854.4999999999999
 31
0.0
  0
LINE
  5
431
330
1E
100
AcDbEntity
  8
0
100
AcDbLine
 10
112.056
 20
853.5
 30
0.0
 11
112.646
 21
853.5
 31
0.0
  0
LINE
  5
432
330
1E
100
AcDbEntity
  8
0
100
AcDbLine
 10
111.745
 20
859.7999999999998
 30
0.0
 11
112.335
 21
859.7999999999998
 31
0.0
  0
LINE
  5
433
330
1E
100
AcDbEntity
  8
0
100
AcDbLine
 10
111.745
 20
859.7999999999998
 30
0.0
 11
112.056
 21
860.2999999999999
 31
0.0
  0
LINE
  5
434
330
1E
100
AcDbEntity
  8
0
100
AcDbLine
 10
111.745
 20
909.3999999999999
 30
0.0
 11
112.335
 21
909.3999999999999
 31
0.0
  0
LINE
  5
435
330
1E
100
AcDbEntity
  8
0
100
AcDbLine
 10
111.745
 20
909.3999999999999
 30
0.0
 11
112.056
 21
908.9
 31
0.0
  0
LINE
  5
436
330
1E
100
AcDbEntity
  8
0
100
AcDbLine
 10
111.745
 20
921.0
 30
0.0
 11
112.056
 21
921.4999999999999
 31
0.0
  0
LINE
  5
437
330
1E
100
AcDbEntity
  8
0
100
AcDbLine
 10
111.745
 20
921.0
 30
0.0
 11
112.335
 21
921.0
 31
0.0
  0
LINE
  5
438
330
1E
100
AcDbEntity
  8
0
100
AcDbLine
 10
111.745
 20
923.0
 30
0.0
 11
112.056
 21
922.4999999999999
 31
0.0
  0
LINE
  5
439
330
1E
100
AcDbEntity
  8
0
100
AcDbLine
 10
111.745
 20
923.0
 30
0.0
 11
112.335
 21
923.0
 31
0.0
  0
LINE
  5
43A
330
1E
100
AcDbEntity
  8
0
100
AcDbLine
 10
111.745
 20
916.2
 30
0.0
 11
112.056
 21
915.7
 31
0.0
  0
LINE
  5
43B
330
1E
100
AcDbEntity
  8
0
100
AcDbLine
 10
111.745
 20
916.2
 30
0.0
 11
112.335
 21
916.2
 31
0.0
  0
LINE
  5
43C
330
1E
100
AcDbEntity
  8
0
100
AcDbLine
 10
111.745
 20
914.2000000000001
 30
0.0
 11
112.056
 21
914.7
 31
0.0
  0
LINE
  5
43D
330
1E
100
AcDbEntity
  8
0
100
AcDbLine
 10
111.745
 20
914.2000000000001
 30
0.0
 11
112.335
 21
914.2000000000001
 31
0.0
  0
LINE
  5
43E
330
1E
100
AcDbEntity
  8
0
100
AcDbLine
 10
111.745
 20
907.3999999999999
 30
0.0
 11
112.056
 21
907.9
 31
0.0
  0
LINE
  5
43F
330
1E
100
AcDbEntity
  8
0
100
AcDbLine
 10
111.745
 20
907.3999999999999
 30
0.0
 11
112.335
 21
907.3999999999999
 31
0.0
  0
LINE
  5
440
330
1E
100
AcDbEntity
  8
0
100
AcDbLine
 10
111.745
 20
900.6
 30
0.0
 11
112.335
 21
900.6
 31
0.0
  0
LINE
  5
441
330
1E
100
AcDbEntity
  8
0
100
AcDbLine
 10
111.745
 20
900.6
 30
0.0
 11
112.056
 21
901.1000000000001
 31
0.0
  0
LINE
  5
442
330
1E
100
AcDbEntity
  8
0
100
AcDbLine
 10
111.745
 20
902.5999999999999
 30
0.0
 11
112.056
 21
902.1
 31
0.0
  0
LINE
  5
443
330
1E
100
AcDbEntity
  8
0
100
AcDbLine
 10
111.745
 20
902.5999999999999
 30
0.0
 11
112.335
 21
902.5999999999999
 31
0.0
  0
LINE
  5
444
330
1E
100
AcDbEntity
  8
0
100
AcDbLine
 10
111.745
 20
895.8
 30
0.0
 11
112.335
 21
895.8
 31
0.0
  0
LINE
  5
445
330
1E
100
AcDbEntity
  8
0
100
AcDbLine
 10
111.745
 20
895.8
 30
0.0
 11
112.056
 21
895.2999999999999
 31
0.0
  0
LINE
  5
446
330
1E
100
AcDbEntity
  8
0
100
AcDbLine
 10
111.745
 20
893.8
 30
0.0
 11
112.056
 21
894.2999999999999
 31
0.0
  0
LINE
  5
447
330
1E
100
AcDbEntity
  8
0
100
AcDbLine
 10
111.745
 20
893.8
 30
0.0
 11
112.0
 21
893.8
 31
0.0
  0
LINE
  5
448
330
1E
100
AcDbEntity
  8
0
100
AcDbLine
 10
111.745
 20
889.0
 30
0.0
 11
112.078175895766
 21
889.0
 31
0.0
  0
LINE
  5
449
330
1E
100
AcDbEntity
  8
0
100
AcDbLine
 10
111.745
 20
889.0
 30
0.0
 11
112.056
 21
888.4999999999999
 31
0.0
  0
LINE
  5
44A
330
1E
100
AcDbEntity
  8
0
100
AcDbLine
 10
111.745
 20
887.0
 30
0.0
 11
112.056
 21
887.5
 31
0.0
  0
LINE
  5
44B
330
1E
100
AcDbEntity
  8
0
100
AcDbLine
 10
111.745
 20
887.0
 30
0.0
 11
112.1107491856679
 21
887.0
 31
0.0
  0
LINE
  5
44C
330
1E
100
AcDbEntity
  8
0
100
AcDbLine
 10
111.745
 20
880.2000000000001
 30
0.0
 11
112.2214983713359
 21
880.2000000000001
 31
0.0
  0
LINE
  5
44D
330
1E
100
AcDbEntity
  8
0
100
AcDbLine
 10
111.745
 20
880.2000000000001
 30
0.0
 11
112.056
 21
880.7
 31
0.0
  0
LINE
  5
44E
330
1E
100
AcDbEntity
  8
0
100
AcDbLine
 10
111.745
 20
882.2
 30
0.0
 11
112.056
 21
881.7
 31
0.0
  0
LINE
  5
44F
330
1E
100
AcDbEntity
  8
0
100
AcDbLine
 10
111.745
 20
882.2
 30
0.0
 11
112.1889250814329
 21
882.2
 31
0.0
  0
LINE
  5
450
330
1E
100
AcDbEntity
  8
0
100
AcDbLine
 10
111.745
 20
875.3999999999999
 30
0.0
 11
112.2996742671009
 21
875.3999999999999
 31
0.0
  0
LINE
  5
451
330
1E
100
AcDbEntity
  8
0
100
AcDbLine
 10
111.745
 20
875.3999999999999
 30
0.0
 11
112.056
 21
874.9
 31
0.0
  0
LINE
  5
452
330
1E
100
AcDbEntity
  8
0
100
AcDbLine
 10
111.745
 20
873.3999999999999
 30
0.0
 11
112.056
 21
873.9
 31
0.0
  0
LINE
  5
453
330
1E
100
AcDbEntity
  8
0
100
AcDbLine
 10
111.745
 20
873.3999999999999
 30
0.0
 11
112.3322475570029
 21
873.3999999999999
 31
0.0
  0
LINE
  5
454
330
1E
100
AcDbEntity
  8
0
100
AcDbLine
 10
111.745
 20
866.6
 30
0.0
 11
112.335
 21
866.6
 31
0.0
  0
LINE
  5
455
330
1E
100
AcDbEntity
  8
0
100
AcDbLine
 10
111.745
 20
866.6
 30
0.0
 11
112.056
 21
867.1000000000001
 31
0.0
  0
LINE
  5
456
330
1E
100
AcDbEntity
  8
0
100
AcDbLine
 10
111.745
 20
868.5999999999999
 30
0.0
 11
112.056
 21
868.1
 31
0.0
  0
LINE
  5
457
330
1E
100
AcDbEntity
  8
0
100
AcDbLine
 10
111.745
 20
868.5999999999999
 30
0.0
 11
112.335
 21
868.5999999999999
 31
0.0
  0
LINE
  5
458
330
1E
100
AcDbEntity
  8
0
100
AcDbLine
 10
111.745
 20
861.8
 30
0.0
 11
112.056
 21
861.2999999999999
 31
0.0
  0
LINE
  5
459
330
1E
100
AcDbEntity
  8
0
100
AcDbLine
 10
111.745
 20
861.8
 30
0.0
 11
112.335
 21
861.8
 31
0.0
  0
LINE
  5
45A
330
1E
100
AcDbEntity
  8
0
100
AcDbLine
 10
112.056
 20
908.9
 30
0.0
 11
112.646
 21
908.9
 31
0.0
  0
LINE
  5
45B
330
1E
100
AcDbEntity
  8
0
100
AcDbLine
 10
112.056
 20
908.9
 30
0.0
 11
112.056
 21
907.9
 31
0.0
  0
LINE
  5
45C
330
1E
100
AcDbEntity
  8
0
100
AcDbLine
 10
112.056
 20
921.4999999999999
 30
0.0
 11
112.056
 21
922.4999999999999
 31
0.0
  0
LINE
  5
45D
330
1E
100
AcDbEntity
  8
0
100
AcDbLine
 10
112.056
 20
921.4999999999999
 30
0.0
 11
112.646
 21
921.4999999999999
 31
0.0
  0
LINE
  5
45E
330
1E
100
AcDbEntity
  8
0
100
AcDbLine
 10
112.056
 20
922.4999999999999
 30
0.0
 11
112.056
 21
921.4999999999999
 31
0.0
  0
LINE
  5
45F
330
1E
100
AcDbEntity
  8
0
100
AcDbLine
 10
112.056
 20
922.4999999999999
 30
0.0
 11
112.646
 21
922.4999999999999
 31
0.0
  0
LINE
  5
460
330
1E
100
AcDbEntity
  8
0
100
AcDbLine
 10
112.056
 20
914.7
 30
0.0
 11
112.056
 21
915.7
 31
0.0
  0
LINE
  5
461
330
1E
100
AcDbEntity
  8
0
100
AcDbLine
 10
112.056
 20
914.7
 30
0.0
 11
112.646
 21
914.7
 31
0.0
  0
LINE
  5
462
330
1E
100
AcDbEntity
  8
0
100
AcDbLine
 10
112.056
 20
915.7
 30
0.0
 11
112.646
 21
915.7
 31
0.0
  0
LINE
  5
463
330
1E
100
AcDbEntity
  8
0
100
AcDbLine
 10
112.056
 20
915.7
 30
0.0
 11
112.056
 21
914.7
 31
0.0
  0
LINE
  5
464
330
1E
100
AcDbEntity
  8
0
100
AcDbLine
 10
112.056
 20
907.9
 30
0.0
 11
112.646
 21
907.9
 31
0.0
  0
LINE
  5
465
330
1E
100
AcDbEntity
  8
0
100
AcDbLine
 10
112.056
 20
907.9
 30
0.0
 11
112.056
 21
908.9
 31
0.0
  0
LINE
  5
466
330
1E
100
AcDbEntity
  8
0
100
AcDbLine
 10
112.056
 20
901.1000000000001
 30
0.0
 11
112.646
 21
901.1000000000001
 31
0.0
  0
LINE
  5
467
330
1E
100
AcDbEntity
  8
0
100
AcDbLine
 10
112.056
 20
901.1000000000001
 30
0.0
 11
112.056
 21
902.1
 31
0.0
  0
LINE
  5
468
330
1E
100
AcDbEntity
  8
0
100
AcDbLine
 10
112.056
 20
902.1
 30
0.0
 11
112.646
 21
902.1
 31
0.0
  0
LINE
  5
469
330
1E
100
AcDbEntity
  8
0
100
AcDbLine
 10
112.056
 20
902.1
 30
0.0
 11
112.056
 21
901.1000000000001
 31
0.0
  0
LINE
  5
46A
330
1E
100
AcDbEntity
  8
0
100
AcDbLine
 10
112.056
 20
895.2999999999999
 30
0.0
 11
112.646
 21
895.2999999999999
 31
0.0
  0
LINE
  5
46B
330
1E
100
AcDbEntity
  8
0
100
AcDbLine
 10
112.056
 20
895.2999999999999
 30
0.0
 11
112.056
 21
894.2999999999999
 31
0.0
  0
LINE
  5
46C
330
1E
100
AcDbEntity
  8
0
100
AcDbLine
 10
112.056
 20
894.2999999999999
 30
0.0
 11
112.646
 21
894.2999999999999
 31
0.0
  0
LINE
  5
46D
330
1E
100
AcDbEntity
  8
0
100
AcDbLine
 10
112.056
 20
894.2999999999999
 30
0.0
 11
112.056
 21
895.2999999999999
 31
0.0
  0
LINE
  5
46E
330
1E
100
AcDbEntity
  8
0
100
AcDbLine
 10
112.056
 20
888.4999999999999
 30
0.0
 11
112.646
 21
888.4999999999999
 31
0.0
  0
LINE
  5
46F
330
1E
100
AcDbEntity
  8
0
100
AcDbLine
 10
112.056
 20
888.4999999999999
 30
0.0
 11
112.056
 21
887.5
 31
0.0
  0
LINE
  5
470
330
1E
100
AcDbEntity
  8
0
100
AcDbLine
 10
112.056
 20
887.5
 30
0.0
 11
112.646
 21
887.5
 31
0.0
  0
LINE
  5
471
330
1E
100
AcDbEntity
  8
0
100
AcDbLine
 10
112.056
 20
887.5
 30
0.0
 11
112.056
 21
888.4999999999999
 31
0.0
  0
LINE
  5
472
330
1E
100
AcDbEntity
  8
0
100
AcDbLine
 10
112.056
 20
880.7
 30
0.0
 11
112.646
 21
880.7
 31
0.0
  0
LINE
  5
473
330
1E
100
AcDbEntity
  8
0
100
AcDbLine
 10
112.056
 20
880.7
 30
0.0
 11
112.056
 21
881.7
 31
0.0
  0
LINE
  5
474
330
1E
100
AcDbEntity
  8
0
100
AcDbLine
 10
112.056
 20
881.7
 30
0.0
 11
112.646
 21
881.7
 31
0.0
  0
LINE
  5
475
330
1E
100
AcDbEntity
  8
0
100
AcDbLine
 10
112.056
 20
881.7
 30
0.0
 11
112.056
 21
880.7
 31
0.0
  0
LINE
  5
476
330
1E
100
AcDbEntity
  8
0
100
AcDbLine
 10
112.056
 20
874.9
 30
0.0
 11
112.646
 21
874.9
 31
0.0
  0
LINE
  5
477
330
1E
100
AcDbEntity
  8
0
100
AcDbLine
 10
112.056
 20
874.9
 30
0.0
 11
112.056
 21
873.9
 31
0.0
  0
LINE
  5
478
330
1E
100
AcDbEntity
  8
0
100
AcDbLine
 10
112.056
 20
873.9
 30
0.0
 11
112.646
 21
873.9
 31
0.0
  0
LINE
  5
479
330
1E
100
AcDbEntity
  8
0
100
AcDbLine
 10
112.056
 20
873.9
 30
0.0
 11
112.056
 21
874.9
 31
0.0
  0
LINE
  5
47A
330
1E
100
AcDbEntity
  8
0
100
AcDbLine
 10
112.056
 20
867.1000000000001
 30
0.0
 11
112.434853420195
 21
867.1000000000001
 31
0.0
  0
LINE
  5
47B
330
1E
100
AcDbEntity
  8
0
100
AcDbLine
 10
112.056
 20
867.1000000000001
 30
0.0
 11
112.056
 21
868.1
 31
0.0
  0
LINE
  5
47C
330
1E
100
AcDbEntity
  8
0
100
AcDbLine
 10
112.056
 20
868.1
 30
0.0
 11
112.4185667752439
 21
868.1
 31
0.0
  0
LINE
  5
47D
330
1E
100
AcDbEntity
  8
0
100
AcDbLine
 10
112.056
 20
868.1
 30
0.0
 11
112.056
 21
867.1000000000001
 31
0.0
  0
LINE
  5
47E
330
1E
100
AcDbEntity
  8
0
100
AcDbLine
 10
112.056
 20
860.2999999999999
 30
0.0
 11
112.5456026058629
 21
860.2999999999999
 31
0.0
  0
LINE
  5
47F
330
1E
100
AcDbEntity
  8
0
100
AcDbLine
 10
112.056
 20
860.2999999999999
 30
0.0
 11
112.056
 21
861.2999999999999
 31
0.0
  0
LINE
  5
480
330
1E
100
AcDbEntity
  8
0
100
AcDbLine
 10
114.3129999999999
 20
860.2999999999999
 30
0.0
 11
114.712
 21
859.7999999999998
 31
0.0
  0
LINE
  5
481
330
1E
100
AcDbEntity
  8
0
100
AcDbLine
 10
114.3129999999999
 20
860.2999999999999
 30
0.0
 11
114.3129999999999
 21
861.2999999999999
 31
0.0
  0
LINE
  5
482
330
1E
100
AcDbEntity
  8
0
100
AcDbLine
 10
114.3129999999999
 20
861.2999999999999
 30
0.0
 11
114.712
 21
861.8
 31
0.0
  0
LINE
  5
483
330
1E
100
AcDbEntity
  8
0
100
AcDbLine
 10
114.3129999999999
 20
861.2999999999999
 30
0.0
 11
114.3129999999999
 21
860.2999999999999
 31
0.0
  0
LINE
  5
484
330
1E
100
AcDbEntity
  8
0
100
AcDbLine
 10
114.3129999999999
 20
908.9
 30
0.0
 11
114.3129999999999
 21
907.9
 31
0.0
  0
LINE
  5
485
330
1E
100
AcDbEntity
  8
0
100
AcDbLine
 10
114.3129999999999
 20
908.9
 30
0.0
 11
114.712
 21
909.3999999999999
 31
0.0
  0
LINE
  5
486
330
1E
100
AcDbEntity
  8
0
100
AcDbLine
 10
114.3129999999999
 20
922.4999999999999
 30
0.0
 11
114.712
 21
923.0
 31
0.0
  0
LINE
  5
487
330
1E
100
AcDbEntity
  8
0
100
AcDbLine
 10
114.3129999999999
 20
922.4999999999999
 30
0.0
 11
114.3129999999999
 21
921.4999999999999
 31
0.0
  0
LINE
  5
488
330
1E
100
AcDbEntity
  8
0
100
AcDbLine
 10
114.3129999999999
 20
921.4999999999999
 30
0.0
 11
114.3129999999999
 21
922.4999999999999
 31
0.0
  0
LINE
  5
489
330
1E
100
AcDbEntity
  8
0
100
AcDbLine
 10
114.3129999999999
 20
921.4999999999999
 30
0.0
 11
114.712
 21
921.0
 31
0.0
  0
LINE
  5
48A
330
1E
100
AcDbEntity
  8
0
100
AcDbLine
 10
114.3129999999999
 20
915.7
 30
0.0
 11
114.3129999999999
 21
914.7
 31
0.0
  0
LINE
  5
48B
330
1E
100
AcDbEntity
  8
0
100
AcDbLine
 10
114.3129999999999
 20
915.7
 30
0.0
 11
114.712
 21
916.2
 31
0.0
  0
LINE
  5
48C
330
1E
100
AcDbEntity
  8
0
100
AcDbLine
 10
114.3129999999999
 20
914.7
 30
0.0
 11
114.712
 21
914.2000000000001
 31
0.0
  0
LINE
  5
48D
330
1E
100
AcDbEntity
  8
0
100
AcDbLine
 10
114.3129999999999
 20
914.7
 30
0.0
 11
114.3129999999999
 21
915.7
 31
0.0
  0
LINE
  5
48E
330
1E
100
AcDbEntity
  8
0
100
AcDbLine
 10
114.3129999999999
 20
907.9
 30
0.0
 11
114.712
 21
907.3999999999999
 31
0.0
  0
LINE
  5
48F
330
1E
100
AcDbEntity
  8
0
100
AcDbLine
 10
114.3129999999999
 20
907.9
 30
0.0
 11
114.3129999999999
 21
908.9
 31
0.0
  0
LINE
  5
490
330
1E
100
AcDbEntity
  8
0
100
AcDbLine
 10
114.3129999999999
 20
901.1000000000001
 30
0.0
 11
114.712
 21
900.6
 31
0.0
  0
LINE
  5
491
330
1E
100
AcDbEntity
  8
0
100
AcDbLine
 10
114.3129999999999
 20
901.1000000000001
 30
0.0
 11
114.3129999999999
 21
902.1
 31
0.0
  0
LINE
  5
492
330
1E
100
AcDbEntity
  8
0
100
AcDbLine
 10
114.3129999999999
 20
902.1
 30
0.0
 11
114.712
 21
902.5999999999999
 31
0.0
  0
LINE
  5
493
330
1E
100
AcDbEntity
  8
0
100
AcDbLine
 10
114.3129999999999
 20
902.1
 30
0.0
 11
114.3129999999999
 21
901.1000000000001
 31
0.0
  0
LINE
  5
494
330
1E
100
AcDbEntity
  8
0
100
AcDbLine
 10
114.3129999999999
 20
895.2999999999999
 30
0.0
 11
114.712
 21
895.8
 31
0.0
  0
LINE
  5
495
330
1E
100
AcDbEntity
  8
0
100
AcDbLine
 10
114.3129999999999
 20
895.2999999999999
 30
0.0
 11
114.3129999999999
 21
894.2999999999999
 31
0.0
  0
LINE
  5
496
330
1E
100
AcDbEntity
  8
0
100
AcDbLine
 10
114.3129999999999
 20
894.2999999999999
 30
0.0
 11
114.3129999999999
 21
895.2999999999999
 31
0.0
  0
LINE
  5
497
330
1E
100
AcDbEntity
  8
0
100
AcDbLine
 10
114.3129999999999
 20
894.2999999999999
 30
0.0
 11
114.712
 21
893.8
 31
0.0
  0
LINE
  5
498
330
1E
100
AcDbEntity
  8
0
100
AcDbLine
 10
114.3129999999999
 20
888.4999999999999
 30
0.0
 11
114.712
 21
889.0
 31
0.0
  0
LINE
  5
499
330
1E
100
AcDbEntity
  8
0
100
AcDbLine
 10
114.3129999999999
 20
888.4999999999999
 30
0.0
 11
114.3129999999999
 21
887.5
 31
0.0
  0
LINE
  5
49A
330
1E
100
AcDbEntity
  8
0
100
AcDbLine
 10
114.3129999999999
 20
887.5
 30
0.0
 11
114.3129999999999
 21
888.4999999999999
 31
0.0
  0
LINE
  5
49B
330
1E
100
AcDbEntity
  8
0
100
AcDbLine
 10
114.3129999999999
 20
887.5
 30
0.0
 11
114.712
 21
887.0
 31
0.0
  0
LINE
  5
49C
330
1E
100
AcDbEntity
  8
0
100
AcDbLine
 10
114.3129999999999
 20
880.7
 30
0.0
 11
114.712
 21
880.2000000000001
 31
0.0
  0
LINE
  5
49D
330
1E
100
AcDbEntity
  8
0
100
AcDbLine
 10
114.3129999999999
 20
880.7
 30
0.0
 11
114.3129999999999
 21
881.7
 31
0.0
  0
LINE
  5
49E
330
1E
100
AcDbEntity
  8
0
100
AcDbLine
 10
114.3129999999999
 20
881.7
 30
0.0
 11
114.712
 21
882.2
 31
0.0
  0
LINE
  5
49F
330
1E
100
AcDbEntity
  8
0
100
AcDbLine
 10
114.3129999999999
 20
881.7
 30
0.0
 11
114.3129999999999
 21
880.7
 31
0.0
  0
LINE
  5
4A0
330
1E
100
AcDbEntity
  8
0
100
AcDbLine
 10
114.3129999999999
 20
874.9
 30
0.0
 11
114.712
 21
875.3999999999999
 31
0.0
  0
LINE
  5
4A1
330
1E
100
AcDbEntity
  8
0
100
AcDbLine
 10
114.3129999999999
 20
874.9
 30
0.0
 11
114.3129999999999
 21
873.9
 31
0.0
  0
LINE
  5
4A2
330
1E
100
AcDbEntity
  8
0
100
AcDbLine
 10
114.3129999999999
 20
873.9
 30
0.0
 11
114.3129999999999
 21
874.9
 31
0.0
  0
LINE
  5
4A3
330
1E
100
AcDbEntity
  8
0
100
AcDbLine
 10
114.3129999999999
 20
873.9
 30
0.0
 11
114.712
 21
873.3999999999999
 31
0.0
  0
LINE
  5
4A4
330
1E
100
AcDbEntity
  8
0
100
AcDbLine
 10
114.3129999999999
 20
867.1000000000001
 30
0.0
 11
114.712
 21
866.6
 31
0.0
  0
LINE
  5
4A5
330
1E
100
AcDbEntity
  8
0
100
AcDbLine
 10
114.3129999999999
 20
867.1000000000001
 30
0.0
 11
114.3129999999999
 21
868.1
 31
0.0
  0
LINE
  5
4A6
330
1E
100
AcDbEntity
  8
0
100
AcDbLine
 10
114.3129999999999
 20
868.1
 30
0.0
 11
114.712
 21
868.5999999999999
 31
0.0
  0
LINE
  5
4A7
330
1E
100
AcDbEntity
  8
0
100
AcDbLine
 10
114.3129999999999
 20
868.1
 30
0.0
 11
114.3129999999999
 21
867.1000000000001
 31
0.0
  0
LINE
  5
4A8
330
1E
100
AcDbEntity
  8
0
100
AcDbLine
 10
112.056
 20
861.2999999999999
 30
0.0
 11
112.529315960912
 21
861.2999999999999
 31
0.0
  0
LINE
  5
4A9
330
1E
100
AcDbEntity
  8
0
100
AcDbLine
 10
112.056
 20
861.2999999999999
 30
0.0
 11
112.056
 21
860.2999999999999
 31
0.0
  0
LINE
  5
4AA
330
1E
100
AcDbEntity
  8
0
100
AcDbLine
 10
111.745
 20
855.0
 30
0.0
 11
112.056
 21
854.4999999999999
 31
0.0
  0
LINE
  5
4AB
330
1E
100
AcDbEntity
  8
0
100
AcDbLine
 10
111.745
 20
855.0
 30
0.0
 11
112.335
 21
855.0
 31
0.0
  0
LINE
  5
4AC
330
1E
100
AcDbEntity
  8
0
100
AcDbLine
 10
114.3129999999999
 20
854.4999999999999
 30
0.0
 11
114.3129999999999
 21
853.5
 31
0.0
  0
LINE
  5
4AD
330
1E
100
AcDbEntity
  8
0
100
AcDbLine
 10
114.3129999999999
 20
854.4999999999999
 30
0.0
 11
114.712
 21
855.0
 31
0.0
  0
LINE
  5
4AE
330
1E
100
AcDbEntity
  8
0
100
AcDbLine
 10
115.911
 20
854.4999999999999
 30
0.0
 11
116.2209999999999
 21
854.4999999999999
 31
0.0
  0
LINE
  5
4AF
330
1E
100
AcDbEntity
  8
0
100
AcDbLine
 10
115.911
 20
854.4999999999999
 30
0.0
 11
115.911
 21
853.5
 31
0.0
  0
LINE
  5
4B0
330
1E
100
AcDbEntity
  8
0
100
AcDbLine
 10
115.911
 20
853.5
 30
0.0
 11
115.911
 21
854.4999999999999
 31
0.0
  0
LINE
  5
4B1
330
1E
100
AcDbEntity
  8
0
100
AcDbLine
 10
115.911
 20
853.5
 30
0.0
 11
116.2209999999999
 21
853.5
 31
0.0
  0
LINE
  5
4B2
330
1E
100
AcDbEntity
  8
0
100
AcDbLine
 10
115.511
 20
855.0
 30
0.0
 11
115.911
 21
854.4999999999999
 31
0.0
  0
LINE
  5
4B3
330
1E
100
AcDbEntity
  8
0
100
AcDbLine
 10
115.511
 20
855.0
 30
0.0
 11
115.822
 21
855.0
 31
0.0
  0
LINE
  5
4B4
330
1E
100
AcDbEntity
  8
0
100
AcDbLine
 10
115.511
 20
859.7999999999998
 30
0.0
 11
115.822
 21
859.7999999999998
 31
0.0
  0
LINE
  5
4B5
330
1E
100
AcDbEntity
  8
0
100
AcDbLine
 10
115.511
 20
859.7999999999998
 30
0.0
 11
115.911
 21
860.2999999999999
 31
0.0
  0
LINE
  5
4B6
330
1E
100
AcDbEntity
  8
0
100
AcDbLine
 10
114.712
 20
859.7999999999998
 30
0.0
 11
115.023
 21
859.7999999999998
 31
0.0
  0
LINE
  5
4B7
330
1E
100
AcDbEntity
  8
0
100
AcDbLine
 10
114.712
 20
859.7999999999998
 30
0.0
 11
115.511
 21
859.7999999999998
 31
0.0
  0
LINE
  5
4B8
330
1E
100
AcDbEntity
  8
0
100
AcDbLine
 10
115.511
 20
866.6
 30
0.0
 11
115.822
 21
866.6
 31
0.0
  0
LINE
  5
4B9
330
1E
100
AcDbEntity
  8
0
100
AcDbLine
 10
115.511
 20
866.6
 30
0.0
 11
115.911
 21
867.1000000000001
 31
0.0
  0
LINE
  5
4BA
330
1E
100
AcDbEntity
  8
0
100
AcDbLine
 10
114.712
 20
866.6
 30
0.0
 11
115.023
 21
866.6
 31
0.0
  0
LINE
  5
4BB
330
1E
100
AcDbEntity
  8
0
100
AcDbLine
 10
114.712
 20
866.6
 30
0.0
 11
115.511
 21
866.6
 31
0.0
  0
LINE
  5
4BC
330
1E
100
AcDbEntity
  8
0
100
AcDbLine
 10
114.712
 20
909.3999999999999
 30
0.0
 11
115.511
 21
909.3999999999999
 31
0.0
  0
LINE
  5
4BD
330
1E
100
AcDbEntity
  8
0
100
AcDbLine
 10
114.712
 20
921.0
 30
0.0
 11
115.511
 21
921.0
 31
0.0
  0
LINE
  5
4BE
330
1E
100
AcDbEntity
  8
0
100
AcDbLine
 10
114.712
 20
921.0
 30
0.0
 11
115.023
 21
921.0
 31
0.0
  0
LINE
  5
4BF
330
1E
100
AcDbEntity
  8
0
100
AcDbLine
 10
114.712
 20
923.0
 30
0.0
 11
115.511
 21
923.0
 31
0.0
  0
LINE
  5
4C0
330
1E
100
AcDbEntity
  8
0
100
AcDbLine
 10
114.712
 20
916.2
 30
0.0
 11
115.511
 21
916.2
 31
0.0
  0
LINE
  5
4C1
330
1E
100
AcDbEntity
  8
0
100
AcDbLine
 10
114.712
 20
914.2000000000001
 30
0.0
 11
115.511
 21
914.2000000000001
 31
0.0
  0
LINE
  5
4C2
330
1E
100
AcDbEntity
  8
0
100
AcDbLine
 10
114.712
 20
914.2000000000001
 30
0.0
 11
115.023
 21
914.2000000000001
 31
0.0
  0
LINE
  5
4C3
330
1E
100
AcDbEntity
  8
0
100
AcDbLine
 10
114.712
 20
907.3999999999999
 30
0.0
 11
115.511
 21
907.3999999999999
 31
0.0
  0
LINE
  5
4C4
330
1E
100
AcDbEntity
  8
0
100
AcDbLine
 10
114.712
 20
907.3999999999999
 30
0.0
 11
115.023
 21
907.3999999999999
 31
0.0
  0
LINE
  5
4C5
330
1E
100
AcDbEntity
  8
0
100
AcDbLine
 10
114.712
 20
900.6
 30
0.0
 11
115.023
 21
900.6
 31
0.0
  0
LINE
  5
4C6
330
1E
100
AcDbEntity
  8
0
100
AcDbLine
 10
114.712
 20
900.6
 30
0.0
 11
115.511
 21
900.6
 31
0.0
  0
LINE
  5
4C7
330
1E
100
AcDbEntity
  8
0
100
AcDbLine
 10
114.712
 20
902.5999999999999
 30
0.0
 11
115.511
 21
902.5999999999999
 31
0.0
  0
LINE
  5
4C8
330
1E
100
AcDbEntity
  8
0
100
AcDbLine
 10
114.712
 20
893.8
 30
0.0
 11
115.511
 21
893.8
 31
0.0
  0
LINE
  5
4C9
330
1E
100
AcDbEntity
  8
0
100
AcDbLine
 10
114.712
 20
893.8
 30
0.0
 11
115.023
 21
893.8
 31
0.0
  0
LINE
  5
4CA
330
1E
100
AcDbEntity
  8
0
100
AcDbLine
 10
114.712
 20
895.8
 30
0.0
 11
115.511
 21
895.8
 31
0.0
  0
LINE
  5
4CB
330
1E
100
AcDbEntity
  8
0
100
AcDbLine
 10
114.712
 20
887.0
 30
0.0
 11
115.511
 21
887.0
 31
0.0
  0
LINE
  5
4CC
330
1E
100
AcDbEntity
  8
0
100
AcDbLine
 10
114.712
 20
887.0
 30
0.0
 11
115.023
 21
887.0
 31
0.0
  0
LINE
  5
4CD
330
1E
100
AcDbEntity
  8
0
100
AcDbLine
 10
114.712
 20
889.0
 30
0.0
 11
115.511
 21
889.0
 31
0.0
  0
LINE
  5
4CE
330
1E
100
AcDbEntity
  8
0
100
AcDbLine
 10
114.712
 20
880.2000000000001
 30
0.0
 11
115.023
 21
880.2000000000001
 31
0.0
  0
LINE
  5
4CF
330
1E
100
AcDbEntity
  8
0
100
AcDbLine
 10
114.712
 20
880.2000000000001
 30
0.0
 11
115.511
 21
880.2000000000001
 31
0.0
  0
LINE
  5
4D0
330
1E
100
AcDbEntity
  8
0
100
AcDbLine
 10
114.712
 20
882.2
 30
0.0
 11
115.511
 21
882.2
 31
0.0
  0
LINE
  5
4D1
330
1E
100
AcDbEntity
  8
0
100
AcDbLine
 10
114.712
 20
873.3999999999999
 30
0.0
 11
115.511
 21
873.3999999999999
 31
0.0
  0
LINE
  5
4D2
330
1E
100
AcDbEntity
  8
0
100
AcDbLine
 10
114.712
 20
873.3999999999999
 30
0.0
 11
114.965407166124
 21
873.3999999999999
 31
0.0
  0
LINE
  5
4D3
330
1E
100
AcDbEntity
  8
0
100
AcDbLine
 10
115.511
 20
873.3999999999999
 30
0.0
 11
115.911
 21
873.9
 31
0.0
  0
LINE
  5
4D4
330
1E
100
AcDbEntity
  8
0
100
AcDbLine
 10
115.511
 20
873.3999999999999
 30
0.0
 11
115.822
 21
873.3999999999999
 31
0.0
  0
LINE
  5
4D5
330
1E
100
AcDbEntity
  8
0
100
AcDbLine
 10
115.511
 20
909.3999999999999
 30
0.0
 11
115.911
 21
908.9
 31
0.0
  0
LINE
  5
4D6
330
1E
100
AcDbEntity
  8
0
100
AcDbLine
 10
115.511
 20
909.3999999999999
 30
0.0
 11
115.822
 21
909.3999999999999
 31
0.0
  0
LINE
  5
4D7
330
1E
100
AcDbEntity
  8
0
100
AcDbLine
 10
115.511
 20
921.0
 30
0.0
 11
115.911
 21
921.4999999999999
 31
0.0
  0
LINE
  5
4D8
330
1E
100
AcDbEntity
  8
0
100
AcDbLine
 10
115.511
 20
921.0
 30
0.0
 11
115.822
 21
921.0
 31
0.0
  0
LINE
  5
4D9
330
1E
100
AcDbEntity
  8
0
100
AcDbLine
 10
115.511
 20
923.0
 30
0.0
 11
115.911
 21
922.4999999999999
 31
0.0
  0
LINE
  5
4DA
330
1E
100
AcDbEntity
  8
0
100
AcDbLine
 10
115.511
 20
923.0
 30
0.0
 11
115.822
 21
923.0
 31
0.0
  0
LINE
  5
4DB
330
1E
100
AcDbEntity
  8
0
100
AcDbLine
 10
115.511
 20
916.2
 30
0.0
 11
115.911
 21
915.7
 31
0.0
  0
LINE
  5
4DC
330
1E
100
AcDbEntity
  8
0
100
AcDbLine
 10
115.511
 20
916.2
 30
0.0
 11
115.822
 21
916.2
 31
0.0
  0
LINE
  5
4DD
330
1E
100
AcDbEntity
  8
0
100
AcDbLine
 10
115.511
 20
914.2000000000001
 30
0.0
 11
115.911
 21
914.7
 31
0.0
  0
LINE
  5
4DE
330
1E
100
AcDbEntity
  8
0
100
AcDbLine
 10
115.511
 20
914.2000000000001
 30
0.0
 11
115.822
 21
914.2000000000001
 31
0.0
  0
LINE
  5
4DF
330
1E
100
AcDbEntity
  8
0
100
AcDbLine
 10
115.511
 20
907.3999999999999
 30
0.0
 11
115.911
 21
907.9
 31
0.0
  0
LINE
  5
4E0
330
1E
100
AcDbEntity
  8
0
100
AcDbLine
 10
115.511
 20
907.3999999999999
 30
0.0
 11
115.822
 21
907.3999999999999
 31
0.0
  0
LINE
  5
4E1
330
1E
100
AcDbEntity
  8
0
100
AcDbLine
 10
115.511
 20
900.6
 30
0.0
 11
115.822
 21
900.6
 31
0.0
  0
LINE
  5
4E2
330
1E
100
AcDbEntity
  8
0
100
AcDbLine
 10
115.511
 20
900.6
 30
0.0
 11
115.911
 21
901.1000000000001
 31
0.0
  0
LINE
  5
4E3
330
1E
100
AcDbEntity
  8
0
100
AcDbLine
 10
115.511
 20
902.5999999999999
 30
0.0
 11
115.911
 21
902.1
 31
0.0
  0
LINE
  5
4E4
330
1E
100
AcDbEntity
  8
0
100
AcDbLine
 10
115.511
 20
902.5999999999999
 30
0.0
 11
115.822
 21
902.5999999999999
 31
0.0
  0
LINE
  5
4E5
330
1E
100
AcDbEntity
  8
0
100
AcDbLine
 10
115.511
 20
893.8
 30
0.0
 11
115.911
 21
894.2999999999999
 31
0.0
  0
LINE
  5
4E6
330
1E
100
AcDbEntity
  8
0
100
AcDbLine
 10
115.511
 20
893.8
 30
0.0
 11
115.822
 21
893.8
 31
0.0
  0
LINE
  5
4E7
330
1E
100
AcDbEntity
  8
0
100
AcDbLine
 10
115.511
 20
895.8
 30
0.0
 11
115.911
 21
895.2999999999999
 31
0.0
  0
LINE
  5
4E8
330
1E
100
AcDbEntity
  8
0
100
AcDbLine
 10
115.511
 20
895.8
 30
0.0
 11
115.822
 21
895.8
 31
0.0
  0
LINE
  5
4E9
330
1E
100
AcDbEntity
  8
0
100
AcDbLine
 10
115.511
 20
887.0
 30
0.0
 11
115.911
 21
887.5
 31
0.0
  0
LINE
  5
4EA
330
1E
100
AcDbEntity
  8
0
100
AcDbLine
 10
115.511
 20
887.0
 30
0.0
 11
115.822
 21
887.0
 31
0.0
  0
LINE
  5
4EB
330
1E
100
AcDbEntity
  8
0
100
AcDbLine
 10
115.511
 20
889.0
 30
0.0
 11
115.911
 21
888.4999999999999
 31
0.0
  0
LINE
  5
4EC
330
1E
100
AcDbEntity
  8
0
100
AcDbLine
 10
115.511
 20
889.0
 30
0.0
 11
115.822
 21
889.0
 31
0.0
  0
LINE
  5
4ED
330
1E
100
AcDbEntity
  8
0
100
AcDbLine
 10
115.511
 20
880.2000000000001
 30
0.0
 11
115.822
 21
880.2000000000001
 31
0.0
  0
LINE
  5
4EE
330
1E
100
AcDbEntity
  8
0
100
AcDbLine
 10
115.511
 20
880.2000000000001
 30
0.0
 11
115.911
 21
880.7
 31
0.0
  0
LINE
  5
4EF
330
1E
100
AcDbEntity
  8
0
100
AcDbLine
 10
115.511
 20
882.2
 30
0.0
 11
115.911
 21
881.7
 31
0.0
  0
LINE
  5
4F0
330
1E
100
AcDbEntity
  8
0
100
AcDbLine
 10
115.511
 20
882.2
 30
0.0
 11
115.822
 21
882.2
 31
0.0
  0
LINE
  5
4F1
330
1E
100
AcDbEntity
  8
0
100
AcDbLine
 10
115.511
 20
875.3999999999999
 30
0.0
 11
115.911
 21
874.9
 31
0.0
  0
LINE
  5
4F2
330
1E
100
AcDbEntity
  8
0
100
AcDbLine
 10
115.511
 20
875.3999999999999
 30
0.0
 11
115.822
 21
875.3999999999999
 31
0.0
  0
LINE
  5
4F3
330
1E
100
AcDbEntity
  8
0
100
AcDbLine
 10
114.712
 20
875.3999999999999
 30
0.0
 11
115.511
 21
875.3999999999999
 31
0.0
  0
LINE
  5
4F4
330
1E
100
AcDbEntity
  8
0
100
AcDbLine
 10
114.712
 20
868.5999999999999
 30
0.0
 11
115.511
 21
868.5999999999999
 31
0.0
  0
LINE
  5
4F5
330
1E
100
AcDbEntity
  8
0
100
AcDbLine
 10
115.511
 20
868.5999999999999
 30
0.0
 11
115.911
 21
868.1
 31
0.0
  0
LINE
  5
4F6
330
1E
100
AcDbEntity
  8
0
100
AcDbLine
 10
115.511
 20
868.5999999999999
 30
0.0
 11
115.822
 21
868.5999999999999
 31
0.0
  0
LINE
  5
4F7
330
1E
100
AcDbEntity
  8
0
100
AcDbLine
 10
114.712
 20
861.8
 30
0.0
 11
115.511
 21
861.8
 31
0.0
  0
LINE
  5
4F8
330
1E
100
AcDbEntity
  8
0
100
AcDbLine
 10
115.911
 20
860.2999999999999
 30
0.0
 11
116.2209999999999
 21
860.2999999999999
 31
0.0
  0
LINE
  5
4F9
330
1E
100
AcDbEntity
  8
0
100
AcDbLine
 10
115.911
 20
860.2999999999999
 30
0.0
 11
115.911
 21
861.2999999999999
 31
0.0
  0
LINE
  5
4FA
330
1E
100
AcDbEntity
  8
0
100
AcDbLine
 10
115.911
 20
908.9
 30
0.0
 11
115.911
 21
907.9
 31
0.0
  0
LINE
  5
4FB
330
1E
100
AcDbEntity
  8
0
100
AcDbLine
 10
115.911
 20
908.9
 30
0.0
 11
116.2209999999999
 21
908.9
 31
0.0
  0
LINE
  5
4FC
330
1E
100
AcDbEntity
  8
0
100
AcDbLine
 10
115.911
 20
914.7
 30
0.0
 11
115.911
 21
915.7
 31
0.0
  0
LINE
  5
4FD
330
1E
100
AcDbEntity
  8
0
100
AcDbLine
 10
115.911
 20
914.7
 30
0.0
 11
116.2209999999999
 21
914.7
 31
0.0
  0
LINE
  5
4FE
330
1E
100
AcDbEntity
  8
0
100
AcDbLine
 10
115.911
 20
921.4999999999999
 30
0.0
 11
115.911
 21
922.4999999999999
 31
0.0
  0
LINE
  5
4FF
330
1E
100
AcDbEntity
  8
0
100
AcDbLine
 10
115.911
 20
921.4999999999999
 30
0.0
 11
116.2209999999999
 21
921.4999999999999
 31
0.0
  0
LINE
  5
500
330
1E
100
AcDbEntity
  8
0
100
AcDbLine
 10
115.911
 20
922.4999999999999
 30
0.0
 11
115.911
 21
921.4999999999999
 31
0.0
  0
LINE
  5
501
330
1E
100
AcDbEntity
  8
0
100
AcDbLine
 10
115.911
 20
922.4999999999999
 30
0.0
 11
116.2209999999999
 21
922.4999999999999
 31
0.0
  0
LINE
  5
502
330
1E
100
AcDbEntity
  8
0
100
AcDbLine
 10
115.911
 20
915.7
 30
0.0
 11
116.2209999999999
 21
915.7
 31
0.0
  0
LINE
  5
503
330
1E
100
AcDbEntity
  8
0
100
AcDbLine
 10
115.911
 20
915.7
 30
0.0
 11
115.911
 21
914.7
 31
0.0
  0
LINE
  5
504
330
1E
100
AcDbEntity
  8
0
100
AcDbLine
 10
115.911
 20
907.9
 30
0.0
 11
116.2209999999999
 21
907.9
 31
0.0
  0
LINE
  5
505
330
1E
100
AcDbEntity
  8
0
100
AcDbLine
 10
115.911
 20
907.9
 30
0.0
 11
115.911
 21
908.9
 31
0.0
  0
LINE
  5
506
330
1E
100
AcDbEntity
  8
0
100
AcDbLine
 10
115.911
 20
901.1000000000001
 30
0.0
 11
116.2209999999999
 21
901.1000000000001
 31
0.0
  0
LINE
  5
507
330
1E
100
AcDbEntity
  8
0
100
AcDbLine
 10
115.911
 20
901.1000000000001
 30
0.0
 11
115.911
 21
902.1
 31
0.0
  0
LINE
  5
508
330
1E
100
AcDbEntity
  8
0
100
AcDbLine
 10
115.911
 20
902.1
 30
0.0
 11
116.2209999999999
 21
902.1
 31
0.0
  0
LINE
  5
509
330
1E
100
AcDbEntity
  8
0
100
AcDbLine
 10
115.911
 20
902.1
 30
0.0
 11
115.911
 21
901.1000000000001
 31
0.0
  0
LINE
  5
50A
330
1E
100
AcDbEntity
  8
0
100
AcDbLine
 10
115.911
 20
894.2999999999999
 30
0.0
 11
115.911
 21
895.2999999999999
 31
0.0
  0
LINE
  5
50B
330
1E
100
AcDbEntity
  8
0
100
AcDbLine
 10
115.911
 20
894.2999999999999
 30
0.0
 11
116.2209999999999
 21
894.2999999999999
 31
0.0
  0
LINE
  5
50C
330
1E
100
AcDbEntity
  8
0
100
AcDbLine
 10
115.911
 20
895.2999999999999
 30
0.0
 11
115.911
 21
894.2999999999999
 31
0.0
  0
LINE
  5
50D
330
1E
100
AcDbEntity
  8
0
100
AcDbLine
 10
115.911
 20
895.2999999999999
 30
0.0
 11
116.2209999999999
 21
895.2999999999999
 31
0.0
  0
LINE
  5
50E
330
1E
100
AcDbEntity
  8
0
100
AcDbLine
 10
115.911
 20
887.5
 30
0.0
 11
115.911
 21
888.4999999999999
 31
0.0
  0
LINE
  5
50F
330
1E
100
AcDbEntity
  8
0
100
AcDbLine
 10
115.911
 20
887.5
 30
0.0
 11
116.2209999999999
 21
887.5
 31
0.0
  0
LINE
  5
510
330
1E
100
AcDbEntity
  8
0
100
AcDbLine
 10
115.911
 20
888.4999999999999
 30
0.0
 11
115.911
 21
887.5
 31
0.0
  0
LINE
  5
511
330
1E
100
AcDbEntity
  8
0
100
AcDbLine
 10
115.911
 20
888.4999999999999
 30
0.0
 11
116.2209999999999
 21
888.4999999999999
 31
0.0
  0
LINE
  5
512
330
1E
100
AcDbEntity
  8
0
100
AcDbLine
 10
115.911
 20
880.7
 30
0.0
 11
116.2209999999999
 21
880.7
 31
0.0
  0
LINE
  5
513
330
1E
100
AcDbEntity
  8
0
100
AcDbLine
 10
115.911
 20
880.7
 30
0.0
 11
115.911
 21
881.7
 31
0.0
  0
LINE
  5
514
330
1E
100
AcDbEntity
  8
0
100
AcDbLine
 10
115.911
 20
881.7
 30
0.0
 11
116.2209999999999
 21
881.7
 31
0.0
  0
LINE
  5
515
330
1E
100
AcDbEntity
  8
0
100
AcDbLine
 10
115.911
 20
881.7
 30
0.0
 11
115.911
 21
880.7
 31
0.0
  0
LINE
  5
516
330
1E
100
AcDbEntity
  8
0
100
AcDbLine
 10
115.911
 20
873.9
 30
0.0
 11
115.911
 21
874.9
 31
0.0
  0
LINE
  5
517
330
1E
100
AcDbEntity
  8
0
100
AcDbLine
 10
115.911
 20
873.9
 30
0.0
 11
116.2209999999999
 21
873.9
 31
0.0
  0
LINE
  5
518
330
1E
100
AcDbEntity
  8
0
100
AcDbLine
 10
115.911
 20
874.9
 30
0.0
 11
115.911
 21
873.9
 31
0.0
  0
LINE
  5
519
330
1E
100
AcDbEntity
  8
0
100
AcDbLine
 10
115.911
 20
874.9
 30
0.0
 11
116.2209999999999
 21
874.9
 31
0.0
  0
LINE
  5
51A
330
1E
100
AcDbEntity
  8
0
100
AcDbLine
 10
115.911
 20
867.1000000000001
 30
0.0
 11
116.2209999999999
 21
867.1000000000001
 31
0.0
  0
LINE
  5
51B
330
1E
100
AcDbEntity
  8
0
100
AcDbLine
 10
115.911
 20
867.1000000000001
 30
0.0
 11
115.911
 21
868.1
 31
0.0
  0
LINE
  5
51C
330
1E
100
AcDbEntity
  8
0
100
AcDbLine
 10
115.911
 20
868.1
 30
0.0
 11
116.2209999999999
 21
868.1
 31
0.0
  0
LINE
  5
51D
330
1E
100
AcDbEntity
  8
0
100
AcDbLine
 10
115.911
 20
868.1
 30
0.0
 11
115.911
 21
867.1000000000001
 31
0.0
  0
LINE
  5
51E
330
1E
100
AcDbEntity
  8
0
100
AcDbLine
 10
115.911
 20
861.2999999999999
 30
0.0
 11
116.2209999999999
 21
861.2999999999999
 31
0.0
  0
LINE
  5
51F
330
1E
100
AcDbEntity
  8
0
100
AcDbLine
 10
115.911
 20
861.2999999999999
 30
0.0
 11
115.911
 21
860.2999999999999
 31
0.0
  0
LINE
  5
520
330
1E
100
AcDbEntity
  8
0
100
AcDbLine
 10
115.511
 20
861.8
 30
0.0
 11
115.911
 21
861.2999999999999
 31
0.0
  0
LINE
  5
521
330
1E
100
AcDbEntity
  8
0
100
AcDbLine
 10
115.511
 20
861.8
 30
0.0
 11
115.822
 21
861.8
 31
0.0
  0
LINE
  5
522
330
1E
100
AcDbEntity
  8
0
100
AcDbLine
 10
114.712
 20
855.0
 30
0.0
 11
115.511
 21
855.0
 31
0.0
  0
LINE
  5
523
330
1E
100
AcDbEntity
  8
0
100
AcDbLine
 10
114.3129999999999
 20
853.5
 30
0.0
 11
114.712
 21
853.0
 31
0.0
  0
LINE
  5
524
330
1E
100
AcDbEntity
  8
0
100
AcDbLine
 10
114.3129999999999
 20
853.5
 30
0.0
 11
114.3129999999999
 21
854.4999999999999
 31
0.0
  0
LINE
  5
525
330
1E
100
AcDbEntity
  8
0
100
AcDbLine
 10
115.511
 20
853.0
 30
0.0
 11
115.911
 21
853.5
 31
0.0
  0
LINE
  5
526
330
1E
100
AcDbEntity
  8
0
100
AcDbLine
 10
115.511
 20
853.0
 30
0.0
 11
115.822
 21
853.0
 31
0.0
  0
LINE
  5
527
330
1E
100
AcDbEntity
  8
0
100
AcDbLine
 10
111.4999999999999
 20
924.5
 30
0.0
 11
114.0
 21
924.5
 31
0.0
  0
LINE
  5
528
330
1E
100
AcDbEntity
  8
0
100
AcDbLine
 10
110.555
 20
1068.13
 30
0.0
 11
113.494
 21
1069.7
 31
0.0
  0
LINE
  5
529
330
1E
100
AcDbEntity
  8
0
100
AcDbLine
 10
110.555
 20
1039.86
 30
0.0
 11
113.494
 21
1038.289999999999
 31
0.0
  0
LINE
  5
52C
330
1E
100
AcDbEntity
  8
0
100
AcDbLine
 10
111.084
 20
2095.0
 30
0.0
 11
113.83
 21
2095.0
 31
0.0
  0
LINE
  5
52D
330
1E
100
AcDbEntity
  8
0
100
AcDbLine
 10
111.4999999999999
 20
2135.0
 30
0.0
 11
114.0
 21
2135.0
 31
0.0
  0
LINE
  5
52E
330
1E
100
AcDbEntity
  8
0
100
AcDbLine
 10
110.8659999999999
 20
2105.0
 30
0.0
 11
111.8659999999999
 21
2105.0
 31
0.0
  0
LINE
  5
52F
330
1E
100
AcDbEntity
  8
0
100
AcDbLine
 10
110.956
 20
2175.0
 30
0.0
 11
115.2879999999999
 21
2175.0
 31
0.0
  0
LINE
  5
532
330
1E
100
AcDbEntity
  8
0
100
AcDbLine
 10
113.494
 20
1038.289999999999
 30
0.0
 11
116.684
 21
1037.32
 31
0.0
  0
LINE
  5
535
330
1E
100
AcDbEntity
  8
0
100
AcDbLine
 10
113.494
 20
1069.7
 30
0.0
 11
116.684
 21
1070.67
 31
0.0
  0
LINE
  5
53A
330
1E
100
AcDbEntity
  8
0
100
AcDbLine
 10
113.83
 20
2095.0
 30
0.0
 11
116.2629999999999
 21
2095.0
 31
0.0
  0
LINE
  5
53B
330
1E
100
AcDbEntity
  8
0
100
AcDbLine
 10
112.4249999999999
 20
2105.0
 30
0.0
 11
112.4249999999999
 21
2107.0
 31
0.0
  0
LINE
  5
53C
330
1E
100
AcDbEntity
  8
0
100
AcDbLine
 10
111.907
 20
2105.0
 30
0.0
 11
111.907
 21
2107.0
 31
0.0
  0
LINE
  5
53D
330
1E
100
AcDbEntity
  8
0
100
AcDbLine
 10
111.907
 20
2105.0
 30
0.0
 11
112.4249999999999
 21
2105.0
 31
0.0
  0
LINE
  5
53E
330
1E
100
AcDbEntity
  8
0
100
AcDbLine
 10
111.907
 20
2107.0
 30
0.0
 11
112.4249999999999
 21
2107.0
 31
0.0
  0
LINE
  5
53F
330
1E
100
AcDbEntity
  8
0
100
AcDbLine
 10
111.907
 20
2107.0
 30
0.0
 11
111.907
 21
2105.0
 31
0.0
  0
LINE
  5
540
330
1E
100
AcDbEntity
  8
0
100
AcDbLine
 10
112.4249999999999
 20
2107.0
 30
0.0
 11
112.4249999999999
 21
2105.0
 31
0.0
  0
LINE
  5
541
330
1E
100
AcDbEntity
  8
0
100
AcDbLine
 10
112.4249999999999
 20
2107.0
 30
0.0
 11
113.8579999999999
 21
2107.0
 31
0.0
  0
LINE
  5
542
330
1E
100
AcDbEntity
  8
0
100
AcDbLine
 10
113.8579999999999
 20
2105.0
 30
0.0
 11
113.8579999999999
 21
2107.0
 31
0.0
  0
LINE
  5
543
330
1E
100
AcDbEntity
  8
0
100
AcDbLine
 10
113.8579999999999
 20
2105.0
 30
0.0
 11
115.79
 21
2105.0
 31
0.0
  0
LINE
  5
544
330
1E
100
AcDbEntity
  8
0
100
AcDbLine
 10
113.8579999999999
 20
2105.0
 30
0.0
 11
114.375
 21
2105.0
 31
0.0
  0
LINE
  5
545
330
1E
100
AcDbEntity
  8
0
100
AcDbLine
 10
113.8579999999999
 20
2107.0
 30
0.0
 11
115.79
 21
2107.0
 31
0.0
  0
LINE
  5
546
330
1E
100
AcDbEntity
  8
0
100
AcDbLine
 10
113.8579999999999
 20
2107.0
 30
0.0
 11
113.8579999999999
 21
2105.0
 31
0.0
  0
LINE
  5
547
330
1E
100
AcDbEntity
  8
0
100
AcDbLine
 10
112.3839999999999
 20
2135.0
 30
0.0
 11
116.032
 21
2135.0
 31
0.0
  0
LINE
  5
548
330
1E
100
AcDbEntity
  8
0
100
AcDbLine
 10
112.3839999999999
 20
2165.0
 30
0.0
 11
116.032
 21
2165.0
 31
0.0
  0
LINE
  5
549
330
1E
100
AcDbEntity
  8
0
100
AcDbLine
 10
114.0
 20
2135.0
 30
0.0
 11
116.9
 21
2135.0
 31
0.0
  0
LINE
  5
54A
330
1E
100
AcDbEntity
  8
0
100
AcDbLine
 10
113.5
 20
2122.0
 30
0.0
 11
120.0
 21
2122.0
 31
0.0
  0
LINE
  5
54B
330
1E
100
AcDbEntity
  8
0
100
AcDbLine
 10
111.8999999999999
 20
945.0
 30
0.0
 11
114.3
 21
945.0
 31
0.0
  0
LINE
  5
54C
330
1E
100
AcDbEntity
  8
0
100
AcDbLine
 10
111.4999999999999
 20
944.5
 30
0.0
 11
114.0
 21
944.5
 31
0.0
  0
LINE
  5
54D
330
1E
100
AcDbEntity
  8
0
100
AcDbLine
 10
114.0
 20
944.5
 30
0.0
 11
116.9
 21
944.5
 31
0.0
  0
LINE
  5
54E
330
1E
100
AcDbEntity
  8
0
100
AcDbLine
 10
111.4999999999999
 20
925.5
 30
0.0
 11
114.0
 21
925.5
 31
0.0
  0
LINE
  5
54F
330
1E
100
AcDbEntity
  8
0
100
AcDbLine
 10
114.375
 20
2105.0
 30
0.0
 11
116.307
 21
2105.0
 31
0.0
  0
LINE
  5
550
330
1E
100
AcDbEntity
  8
0
100
AcDbLine
 10
114.3
 20
945.0
 30
0.0
 11
117.0
 21
945.0
 31
0.0
  0
LINE
  5
551
330
1E
100
AcDbEntity
  8
0
100
AcDbLine
 10
114.0
 20
925.5
 30
0.0
 11
116.9
 21
925.5
 31
0.0
  0
LINE
  5
552
330
1E
100
AcDbEntity
  8
0
100
AcDbLine
 10
112.2
 20
925.0
 30
0.0
 11
114.5
 21
925.0
 31
0.0
  0
LINE
  5
553
330
1E
100
AcDbEntity
  8
0
100
AcDbLine
 10
114.6429999999999
 20
1066.96
 30
0.0
 11
120.0
 21
1068.019999999999
 31
0.0
  0
LINE
  5
554
330
1E
100
AcDbEntity
  8
0
100
AcDbLine
 10
114.6429999999999
 20
1041.09
 30
0.0
 11
120.0
 21
1040.019999999999
 31
0.0
  0
LINE
  5
557
330
1E
100
AcDbEntity
  8
0
100
AcDbLine
 10
115.79
 20
2107.0
 30
0.0
 11
116.307
 21
2107.0
 31
0.0
  0
LINE
  5
558
330
1E
100
AcDbEntity
  8
0
100
AcDbLine
 10
115.79
 20
2107.0
 30
0.0
 11
115.79
 21
2105.0
 31
0.0
  0
LINE
  5
55D
330
1E
100
AcDbEntity
  8
0
100
AcDbLine
 10
116.2629999999999
 20
2095.0
 30
0.0
 11
119.479
 21
2095.0
 31
0.0
  0
LINE
  5
560
330
1E
100
AcDbEntity
  8
0
100
AcDbLine
 10
116.684
 20
1070.67
 30
0.0
 11
120.0
 21
1071.0
 31
0.0
  0
LINE
  5
561
330
1E
100
AcDbEntity
  8
0
100
AcDbLine
 10
116.684
 20
1037.32
 30
0.0
 11
117.0
 21
1037.28950542823
 31
0.0
  0
LINE
  5
564
330
1E
100
AcDbEntity
  8
0
100
AcDbLine
 10
116.307
 20
2105.0
 30
0.0
 11
116.307
 21
2107.0
 31
0.0
  0
LINE
  5
565
330
1E
100
AcDbEntity
  8
0
100
AcDbLine
 10
116.032
 20
2135.0
 30
0.0
 11
120.0
 21
2135.0
 31
0.0
  0
LINE
  5
566
330
1E
100
AcDbEntity
  8
0
100
AcDbLine
 10
116.032
 20
2165.0
 30
0.0
 11
120.0
 21
2165.0
 31
0.0
  0
LINE
  5
567
330
1E
100
AcDbEntity
  8
0
100
AcDbLine
 10
116.9
 20
2135.0
 30
0.0
 11
120.0
 21
2135.0
 31
0.0
  0
LINE
  5
568
330
1E
100
AcDbEntity
  8
0
100
AcDbLine
 10
116.307
 20
2107.0
 30
0.0
 11
116.307
 21
2105.0
 31
0.0
  0
LINE
  5
569
330
1E
100
AcDbEntity
  8
0
100
AcDbLine
 10
116.307
 20
2107.0
 30
0.0
 11
119.0
 21
2107.0
 31
0.0
  0
LINE
  5
56A
330
1E
100
AcDbEntity
  8
0
100
AcDbLine
 10
115.79
 20
2105.0
 30
0.0
 11
115.79
 21
2107.0
 31
0.0
  0
LINE
  5
56B
330
1E
100
AcDbEntity
  8
0
100
AcDbLine
 10
115.79
 20
2105.0
 30
0.0
 11
116.307
 21
2105.0
 31
0.0
  0
LINE
  5
56C
330
1E
100
AcDbEntity
  8
0
100
AcDbLine
 10
115.2879999999999
 20
2175.0
 30
0.0
 11
120.0
 21
2175.0
 31
0.0
  0
LINE
  5
56D
330
1E
100
AcDbEntity
  8
0
100
AcDbLine
 10
116.9
 20
944.5
 30
0.0
 11
120.0
 21
944.5
 31
0.0
  0
LINE
  5
56E
330
1E
100
AcDbEntity
  8
0
100
AcDbLine
 10
116.9
 20
925.5
 30
0.0
 11
120.0
 21
925.5
 31
0.0
  0
LINE
  5
56F
330
1E
100
AcDbEntity
  8
0
100
AcDbLine
 10
114.5
 20
925.0
 30
0.0
 11
117.2
 21
925.0
 31
0.0
  0
LINE
  5
570
330
1E
100
AcDbEntity
  8
0
100
AcDbLine
 10
114.0
 20
924.5
 30
0.0
 11
116.9
 21
924.5
 31
0.0
  0
LINE
  5
571
330
1E
100
AcDbEntity
  8
0
100
AcDbLine
 10
119.1429999999999
 20
908.9
 30
0.0
 11
119.571
 21
909.3999999999999
 31
0.0
  0
LINE
  5
572
330
1E
100
AcDbEntity
  8
0
100
AcDbLine
 10
119.1429999999999
 20
908.9
 30
0.0
 11
119.1429999999999
 21
907.9
 31
0.0
  0
LINE
  5
573
330
1E
100
AcDbEntity
  8
0
100
AcDbLine
 10
119.1429999999999
 20
921.4999999999999
 30
0.0
 11
119.1429999999999
 21
922.4999999999999
 31
0.0
  0
LINE
  5
574
330
1E
100
AcDbEntity
  8
0
100
AcDbLine
 10
119.1429999999999
 20
921.4999999999999
 30
0.0
 11
119.571
 21
921.0
 31
0.0
  0
LINE
  5
575
330
1E
100
AcDbEntity
  8
0
100
AcDbLine
 10
119.1429999999999
 20
922.4999999999999
 30
0.0
 11
119.571
 21
923.0
 31
0.0
  0
LINE
  5
576
330
1E
100
AcDbEntity
  8
0
100
AcDbLine
 10
119.1429999999999
 20
922.4999999999999
 30
0.0
 11
119.1429999999999
 21
921.4999999999999
 31
0.0
  0
LINE
  5
577
330
1E
100
AcDbEntity
  8
0
100
AcDbLine
 10
119.1429999999999
 20
915.7
 30
0.0
 11
119.1429999999999
 21
914.7
 31
0.0
  0
LINE
  5
578
330
1E
100
AcDbEntity
  8
0
100
AcDbLine
 10
119.1429999999999
 20
915.7
 30
0.0
 11
119.571
 21
916.2
 31
0.0
  0
LINE
  5
579
330
1E
100
AcDbEntity
  8
0
100
AcDbLine
 10
119.1429999999999
 20
914.7
 30
0.0
 11
119.571
 21
914.2000000000001
 31
0.0
  0
LINE
  5
57A
330
1E
100
AcDbEntity
  8
0
100
AcDbLine
 10
119.1429999999999
 20
914.7
 30
0.0
 11
119.1429999999999
 21
915.7
 31
0.0
  0
LINE
  5
57B
330
1E
100
AcDbEntity
  8
0
100
AcDbLine
 10
119.1429999999999
 20
907.9
 30
0.0
 11
119.571
 21
907.3999999999999
 31
0.0
  0
LINE
  5
57C
330
1E
100
AcDbEntity
  8
0
100
AcDbLine
 10
119.1429999999999
 20
907.9
 30
0.0
 11
119.1429999999999
 21
908.9
 31
0.0
  0
LINE
  5
57D
330
1E
100
AcDbEntity
  8
0
100
AcDbLine
 10
119.1429999999999
 20
901.1000000000001
 30
0.0
 11
119.571
 21
900.6
 31
0.0
  0
LINE
  5
57E
330
1E
100
AcDbEntity
  8
0
100
AcDbLine
 10
119.1429999999999
 20
901.1000000000001
 30
0.0
 11
119.1429999999999
 21
902.1
 31
0.0
  0
LINE
  5
57F
330
1E
100
AcDbEntity
  8
0
100
AcDbLine
 10
119.1429999999999
 20
902.1
 30
0.0
 11
119.571
 21
902.5999999999999
 31
0.0
  0
LINE
  5
580
330
1E
100
AcDbEntity
  8
0
100
AcDbLine
 10
119.1429999999999
 20
902.1
 30
0.0
 11
119.1429999999999
 21
901.1000000000001
 31
0.0
  0
LINE
  5
581
330
1E
100
AcDbEntity
  8
0
100
AcDbLine
 10
119.1429999999999
 20
894.2999999999999
 30
0.0
 11
119.1429999999999
 21
895.2999999999999
 31
0.0
  0
LINE
  5
582
330
1E
100
AcDbEntity
  8
0
100
AcDbLine
 10
119.1429999999999
 20
894.2999999999999
 30
0.0
 11
119.571
 21
893.8
 31
0.0
  0
LINE
  5
583
330
1E
100
AcDbEntity
  8
0
100
AcDbLine
 10
119.1429999999999
 20
895.2999999999999
 30
0.0
 11
119.571
 21
895.8
 31
0.0
  0
LINE
  5
584
330
1E
100
AcDbEntity
  8
0
100
AcDbLine
 10
119.1429999999999
 20
895.2999999999999
 30
0.0
 11
119.1429999999999
 21
894.2999999999999
 31
0.0
  0
LINE
  5
585
330
1E
100
AcDbEntity
  8
0
100
AcDbLine
 10
119.1429999999999
 20
887.5
 30
0.0
 11
119.1429999999999
 21
888.4999999999999
 31
0.0
  0
LINE
  5
586
330
1E
100
AcDbEntity
  8
0
100
AcDbLine
 10
119.1429999999999
 20
887.5
 30
0.0
 11
119.571
 21
887.0
 31
0.0
  0
LINE
  5
587
330
1E
100
AcDbEntity
  8
0
100
AcDbLine
 10
119.1429999999999
 20
888.4999999999999
 30
0.0
 11
119.571
 21
889.0
 31
0.0
  0
LINE
  5
588
330
1E
100
AcDbEntity
  8
0
100
AcDbLine
 10
119.1429999999999
 20
888.4999999999999
 30
0.0
 11
119.1429999999999
 21
887.5
 31
0.0
  0
LINE
  5
589
330
1E
100
AcDbEntity
  8
0
100
AcDbLine
 10
119.1429999999999
 20
880.7
 30
0.0
 11
119.571
 21
880.2000000000001
 31
0.0
  0
LINE
  5
58A
330
1E
100
AcDbEntity
  8
0
100
AcDbLine
 10
119.1429999999999
 20
880.7
 30
0.0
 11
119.1429999999999
 21
881.7
 31
0.0
  0
LINE
  5
58B
330
1E
100
AcDbEntity
  8
0
100
AcDbLine
 10
119.1429999999999
 20
881.7
 30
0.0
 11
119.571
 21
882.2
 31
0.0
  0
LINE
  5
58C
330
1E
100
AcDbEntity
  8
0
100
AcDbLine
 10
119.1429999999999
 20
881.7
 30
0.0
 11
119.1429999999999
 21
880.7
 31
0.0
  0
LINE
  5
58D
330
1E
100
AcDbEntity
  8
0
100
AcDbLine
 10
119.1429999999999
 20
873.9
 30
0.0
 11
119.1429999999999
 21
874.9
 31
0.0
  0
LINE
  5
58E
330
1E
100
AcDbEntity
  8
0
100
AcDbLine
 10
119.1429999999999
 20
873.9
 30
0.0
 11
119.571
 21
873.3999999999999
 31
0.0
  0
LINE
  5
58F
330
1E
100
AcDbEntity
  8
0
100
AcDbLine
 10
119.1429999999999
 20
874.9
 30
0.0
 11
119.571
 21
875.3999999999999
 31
0.0
  0
LINE
  5
590
330
1E
100
AcDbEntity
  8
0
100
AcDbLine
 10
119.1429999999999
 20
874.9
 30
0.0
 11
119.1429999999999
 21
873.9
 31
0.0
  0
LINE
  5
591
330
1E
100
AcDbEntity
  8
0
100
AcDbLine
 10
119.1429999999999
 20
867.1000000000001
 30
0.0
 11
119.571
 21
866.6
 31
0.0
  0
LINE
  5
592
330
1E
100
AcDbEntity
  8
0
100
AcDbLine
 10
119.1429999999999
 20
867.1000000000001
 30
0.0
 11
119.1429999999999
 21
868.1
 31
0.0
  0
LINE
  5
593
330
1E
100
AcDbEntity
  8
0
100
AcDbLine
 10
119.1429999999999
 20
868.1
 30
0.0
 11
119.571
 21
868.5999999999999
 31
0.0
  0
LINE
  5
594
330
1E
100
AcDbEntity
  8
0
100
AcDbLine
 10
119.1429999999999
 20
868.1
 30
0.0
 11
119.1429999999999
 21
867.1000000000001
 31
0.0
  0
LINE
  5
595
330
1E
100
AcDbEntity
  8
0
100
AcDbLine
 10
119.1429999999999
 20
860.2999999999999
 30
0.0
 11
119.571
 21
859.7999999999998
 31
0.0
  0
LINE
  5
596
330
1E
100
AcDbEntity
  8
0
100
AcDbLine
 10
119.1429999999999
 20
860.2999999999999
 30
0.0
 11
119.1429999999999
 21
861.2999999999999
 31
0.0
  0
LINE
  5
597
330
1E
100
AcDbEntity
  8
0
100
AcDbLine
 10
119.1429999999999
 20
861.2999999999999
 30
0.0
 11
119.571
 21
861.8
 31
0.0
  0
LINE
  5
598
330
1E
100
AcDbEntity
  8
0
100
AcDbLine
 10
119.1429999999999
 20
861.2999999999999
 30
0.0
 11
119.1429999999999
 21
860.2999999999999
 31
0.0
  0
LINE
  5
599
330
1E
100
AcDbEntity
  8
0
100
AcDbLine
 10
119.1429999999999
 20
854.4999999999999
 30
0.0
 11
119.571
 21
855.0
 31
0.0
  0
LINE
  5
59A
330
1E
100
AcDbEntity
  8
0
100
AcDbLine
 10
119.1429999999999
 20
854.4999999999999
 30
0.0
 11
119.1429999999999
 21
853.5
 31
0.0
  0
LINE
  5
59B
330
1E
100
AcDbEntity
  8
0
100
AcDbLine
 10
119.571
 20
859.7999999999998
 30
0.0
 11
120.429
 21
859.7999999999998
 31
0.0
  0
LINE
  5
59C
330
1E
100
AcDbEntity
  8
0
100
AcDbLine
 10
119.571
 20
909.3999999999999
 30
0.0
 11
120.429
 21
909.3999999999999
 31
0.0
  0
LINE
  5
59D
330
1E
100
AcDbEntity
  8
0
100
AcDbLine
 10
119.571
 20
921.0
 30
0.0
 11
120.429
 21
921.0
 31
0.0
  0
LINE
  5
59E
330
1E
100
AcDbEntity
  8
0
100
AcDbLine
 10
119.571
 20
923.0
 30
0.0
 11
120.429
 21
923.0
 31
0.0
  0
LINE
  5
59F
330
1E
100
AcDbEntity
  8
0
100
AcDbLine
 10
119.571
 20
916.2
 30
0.0
 11
120.429
 21
916.2
 31
0.0
  0
LINE
  5
5A0
330
1E
100
AcDbEntity
  8
0
100
AcDbLine
 10
119.571
 20
914.2000000000001
 30
0.0
 11
120.429
 21
914.2000000000001
 31
0.0
  0
LINE
  5
5A1
330
1E
100
AcDbEntity
  8
0
100
AcDbLine
 10
119.571
 20
907.3999999999999
 30
0.0
 11
120.429
 21
907.3999999999999
 31
0.0
  0
LINE
  5
5A2
330
1E
100
AcDbEntity
  8
0
100
AcDbLine
 10
119.571
 20
900.6
 30
0.0
 11
120.429
 21
900.6
 31
0.0
  0
LINE
  5
5A3
330
1E
100
AcDbEntity
  8
0
100
AcDbLine
 10
119.571
 20
902.5999999999999
 30
0.0
 11
120.429
 21
902.5999999999999
 31
0.0
  0
LINE
  5
5A4
330
1E
100
AcDbEntity
  8
0
100
AcDbLine
 10
119.571
 20
893.8
 30
0.0
 11
120.429
 21
893.8
 31
0.0
  0
LINE
  5
5A5
330
1E
100
AcDbEntity
  8
0
100
AcDbLine
 10
119.571
 20
895.8
 30
0.0
 11
120.429
 21
895.8
 31
0.0
  0
LINE
  5
5A6
330
1E
100
AcDbEntity
  8
0
100
AcDbLine
 10
119.571
 20
887.0
 30
0.0
 11
120.429
 21
887.0
 31
0.0
  0
LINE
  5
5A7
330
1E
100
AcDbEntity
  8
0
100
AcDbLine
 10
119.571
 20
889.0
 30
0.0
 11
120.429
 21
889.0
 31
0.0
  0
LINE
  5
5A8
330
1E
100
AcDbEntity
  8
0
100
AcDbLine
 10
119.571
 20
880.2000000000001
 30
0.0
 11
120.429
 21
880.2000000000001
 31
0.0
  0
LINE
  5
5A9
330
1E
100
AcDbEntity
  8
0
100
AcDbLine
 10
119.571
 20
882.2
 30
0.0
 11
120.429
 21
882.2
 31
0.0
  0
LINE
  5
5AA
330
1E
100
AcDbEntity
  8
0
100
AcDbLine
 10
119.571
 20
873.3999999999999
 30
0.0
 11
120.429
 21
873.3999999999999
 31
0.0
  0
LINE
  5
5AB
330
1E
100
AcDbEntity
  8
0
100
AcDbLine
 10
119.571
 20
875.3999999999999
 30
0.0
 11
120.429
 21
875.3999999999999
 31
0.0
  0
LINE
  5
5AC
330
1E
100
AcDbEntity
  8
0
100
AcDbLine
 10
119.571
 20
866.6
 30
0.0
 11
120.429
 21
866.6
 31
0.0
  0
LINE
  5
5AD
330
1E
100
AcDbEntity
  8
0
100
AcDbLine
 10
119.571
 20
868.5999999999999
 30
0.0
 11
120.429
 21
868.5999999999999
 31
0.0
  0
LINE
  5
5AE
330
1E
100
AcDbEntity
  8
0
100
AcDbLine
 10
119.571
 20
861.8
 30
0.0
 11
120.429
 21
861.8
 31
0.0
  0
LINE
  5
5AF
330
1E
100
AcDbEntity
  8
0
100
AcDbLine
 10
119.571
 20
855.0
 30
0.0
 11
120.429
 21
855.0
 31
0.0
  0
LINE
  5
5B0
330
1E
100
AcDbEntity
  8
0
100
AcDbLine
 10
119.571
 20
853.0
 30
0.0
 11
120.429
 21
853.0
 31
0.0
  0
LINE
  5
5B1
330
1E
100
AcDbEntity
  8
0
100
AcDbLine
 10
119.1429999999999
 20
853.5
 30
0.0
 11
119.571
 21
853.0
 31
0.0
  0
LINE
  5
5B2
330
1E
100
AcDbEntity
  8
0
100
AcDbLine
 10
119.1429999999999
 20
853.5
 30
0.0
 11
119.1429999999999
 21
854.4999999999999
 31
0.0
  0
LINE
  5
5B3
330
1E
100
AcDbEntity
  8
0
100
AcDbLine
 10
120.0
 20
925.0
 30
0.0
 11
122.7999999999999
 21
925.0
 31
0.0
  0
LINE
  5
5B4
330
1E
100
AcDbEntity
  8
0
100
AcDbLine
 10
124.178
 20
853.0
 30
0.0
 11
124.4889999999999
 21
853.0
 31
0.0
  0
LINE
  5
5B5
330
1E
100
AcDbEntity
  8
0
100
AcDbLine
 10
124.977
 20
853.0
 30
0.0
 11
125.2879999999999
 21
853.0
 31
0.0
  0
LINE
  5
5B6
330
1E
100
AcDbEntity
  8
0
100
AcDbLine
 10
125.2879999999999
 20
853.0
 30
0.0
 11
125.687
 21
853.5
 31
0.0
  0
LINE
  5
5B7
330
1E
100
AcDbEntity
  8
0
100
AcDbLine
 10
124.4889999999999
 20
853.0
 30
0.0
 11
125.2879999999999
 21
853.0
 31
0.0
  0
LINE
  5
5B8
330
1E
100
AcDbEntity
  8
0
100
AcDbLine
 10
120.857
 20
853.5
 30
0.0
 11
120.857
 21
854.4999999999999
 31
0.0
  0
LINE
  5
5B9
330
1E
100
AcDbEntity
  8
0
100
AcDbLine
 10
120.429
 20
909.3999999999999
 30
0.0
 11
120.857
 21
908.9
 31
0.0
  0
LINE
  5
5BA
330
1E
100
AcDbEntity
  8
0
100
AcDbLine
 10
120.429
 20
921.0
 30
0.0
 11
120.857
 21
921.4999999999999
 31
0.0
  0
LINE
  5
5BB
330
1E
100
AcDbEntity
  8
0
100
AcDbLine
 10
120.429
 20
923.0
 30
0.0
 11
120.857
 21
922.4999999999999
 31
0.0
  0
LINE
  5
5BC
330
1E
100
AcDbEntity
  8
0
100
AcDbLine
 10
120.429
 20
916.2
 30
0.0
 11
120.857
 21
915.7
 31
0.0
  0
LINE
  5
5BD
330
1E
100
AcDbEntity
  8
0
100
AcDbLine
 10
120.429
 20
914.2000000000001
 30
0.0
 11
120.857
 21
914.7
 31
0.0
  0
LINE
  5
5BE
330
1E
100
AcDbEntity
  8
0
100
AcDbLine
 10
120.429
 20
907.3999999999999
 30
0.0
 11
120.857
 21
907.9
 31
0.0
  0
LINE
  5
5BF
330
1E
100
AcDbEntity
  8
0
100
AcDbLine
 10
120.429
 20
900.6
 30
0.0
 11
120.857
 21
901.1000000000001
 31
0.0
  0
LINE
  5
5C0
330
1E
100
AcDbEntity
  8
0
100
AcDbLine
 10
120.429
 20
902.5999999999999
 30
0.0
 11
120.857
 21
902.1
 31
0.0
  0
LINE
  5
5C1
330
1E
100
AcDbEntity
  8
0
100
AcDbLine
 10
120.429
 20
893.8
 30
0.0
 11
120.857
 21
894.2999999999999
 31
0.0
  0
LINE
  5
5C2
330
1E
100
AcDbEntity
  8
0
100
AcDbLine
 10
120.429
 20
895.8
 30
0.0
 11
120.857
 21
895.2999999999999
 31
0.0
  0
LINE
  5
5C3
330
1E
100
AcDbEntity
  8
0
100
AcDbLine
 10
120.429
 20
887.0
 30
0.0
 11
120.857
 21
887.5
 31
0.0
  0
LINE
  5
5C4
330
1E
100
AcDbEntity
  8
0
100
AcDbLine
 10
120.429
 20
889.0
 30
0.0
 11
120.857
 21
888.4999999999999
 31
0.0
  0
LINE
  5
5C5
330
1E
100
AcDbEntity
  8
0
100
AcDbLine
 10
120.429
 20
880.2000000000001
 30
0.0
 11
120.857
 21
880.7
 31
0.0
  0
LINE
  5
5C6
330
1E
100
AcDbEntity
  8
0
100
AcDbLine
 10
120.429
 20
882.2
 30
0.0
 11
120.857
 21
881.7
 31
0.0
  0
LINE
  5
5C7
330
1E
100
AcDbEntity
  8
0
100
AcDbLine
 10
120.429
 20
873.3999999999999
 30
0.0
 11
120.857
 21
873.9
 31
0.0
  0
LINE
  5
5C8
330
1E
100
AcDbEntity
  8
0
100
AcDbLine
 10
120.429
 20
875.3999999999999
 30
0.0
 11
120.857
 21
874.9
 31
0.0
  0
LINE
  5
5C9
330
1E
100
AcDbEntity
  8
0
100
AcDbLine
 10
120.429
 20
866.6
 30
0.0
 11
120.857
 21
867.1000000000001
 31
0.0
  0
LINE
  5
5CA
330
1E
100
AcDbEntity
  8
0
100
AcDbLine
 10
120.429
 20
868.5999999999999
 30
0.0
 11
120.857
 21
868.1
 31
0.0
  0
LINE
  5
5CB
330
1E
100
AcDbEntity
  8
0
100
AcDbLine
 10
120.429
 20
859.7999999999998
 30
0.0
 11
120.857
 21
860.2999999999999
 31
0.0
  0
LINE
  5
5CC
330
1E
100
AcDbEntity
  8
0
100
AcDbLine
 10
120.857
 20
860.2999999999999
 30
0.0
 11
120.857
 21
861.2999999999999
 31
0.0
  0
LINE
  5
5CD
330
1E
100
AcDbEntity
  8
0
100
AcDbLine
 10
120.857
 20
907.9
 30
0.0
 11
120.857
 21
908.9
 31
0.0
  0
LINE
  5
5CE
330
1E
100
AcDbEntity
  8
0
100
AcDbLine
 10
120.857
 20
908.9
 30
0.0
 11
120.857
 21
907.9
 31
0.0
  0
LINE
  5
5CF
330
1E
100
AcDbEntity
  8
0
100
AcDbLine
 10
120.857
 20
922.4999999999999
 30
0.0
 11
120.857
 21
921.4999999999999
 31
0.0
  0
LINE
  5
5D0
330
1E
100
AcDbEntity
  8
0
100
AcDbLine
 10
120.857
 20
921.4999999999999
 30
0.0
 11
120.857
 21
922.4999999999999
 31
0.0
  0
LINE
  5
5D1
330
1E
100
AcDbEntity
  8
0
100
AcDbLine
 10
120.857
 20
914.7
 30
0.0
 11
120.857
 21
915.7
 31
0.0
  0
LINE
  5
5D2
330
1E
100
AcDbEntity
  8
0
100
AcDbLine
 10
120.857
 20
915.7
 30
0.0
 11
120.857
 21
914.7
 31
0.0
  0
LINE
  5
5D3
330
1E
100
AcDbEntity
  8
0
100
AcDbLine
 10
120.857
 20
901.1000000000001
 30
0.0
 11
120.857
 21
902.1
 31
0.0
  0
LINE
  5
5D4
330
1E
100
AcDbEntity
  8
0
100
AcDbLine
 10
120.857
 20
902.1
 30
0.0
 11
120.857
 21
901.1000000000001
 31
0.0
  0
LINE
  5
5D5
330
1E
100
AcDbEntity
  8
0
100
AcDbLine
 10
120.857
 20
895.2999999999999
 30
0.0
 11
120.857
 21
894.2999999999999
 31
0.0
  0
LINE
  5
5D6
330
1E
100
AcDbEntity
  8
0
100
AcDbLine
 10
120.857
 20
894.2999999999999
 30
0.0
 11
120.857
 21
895.2999999999999
 31
0.0
  0
LINE
  5
5D7
330
1E
100
AcDbEntity
  8
0
100
AcDbLine
 10
120.857
 20
888.4999999999999
 30
0.0
 11
120.857
 21
887.5
 31
0.0
  0
LINE
  5
5D8
330
1E
100
AcDbEntity
  8
0
100
AcDbLine
 10
120.857
 20
887.5
 30
0.0
 11
120.857
 21
888.4999999999999
 31
0.0
  0
LINE
  5
5D9
330
1E
100
AcDbEntity
  8
0
100
AcDbLine
 10
120.857
 20
880.7
 30
0.0
 11
120.857
 21
881.7
 31
0.0
  0
LINE
  5
5DA
330
1E
100
AcDbEntity
  8
0
100
AcDbLine
 10
120.857
 20
881.7
 30
0.0
 11
120.857
 21
880.7
 31
0.0
  0
LINE
  5
5DB
330
1E
100
AcDbEntity
  8
0
100
AcDbLine
 10
120.857
 20
874.9
 30
0.0
 11
120.857
 21
873.9
 31
0.0
  0
LINE
  5
5DC
330
1E
100
AcDbEntity
  8
0
100
AcDbLine
 10
120.857
 20
873.9
 30
0.0
 11
120.857
 21
874.9
 31
0.0
  0
LINE
  5
5DD
330
1E
100
AcDbEntity
  8
0
100
AcDbLine
 10
120.857
 20
867.1000000000001
 30
0.0
 11
120.857
 21
868.1
 31
0.0
  0
LINE
  5
5DE
330
1E
100
AcDbEntity
  8
0
100
AcDbLine
 10
120.857
 20
868.1
 30
0.0
 11
120.857
 21
867.1000000000001
 31
0.0
  0
LINE
  5
5DF
330
1E
100
AcDbEntity
  8
0
100
AcDbLine
 10
120.857
 20
861.2999999999999
 30
0.0
 11
120.857
 21
860.2999999999999
 31
0.0
  0
LINE
  5
5E0
330
1E
100
AcDbEntity
  8
0
100
AcDbLine
 10
120.429
 20
861.8
 30
0.0
 11
120.857
 21
861.2999999999999
 31
0.0
  0
LINE
  5
5E1
330
1E
100
AcDbEntity
  8
0
100
AcDbLine
 10
120.429
 20
855.0
 30
0.0
 11
120.857
 21
854.4999999999999
 31
0.0
  0
LINE
  5
5E2
330
1E
100
AcDbEntity
  8
0
100
AcDbLine
 10
125.687
 20
853.5
 30
0.0
 11
125.687
 21
854.4999999999999
 31
0.0
  0
LINE
  5
5E3
330
1E
100
AcDbEntity
  8
0
100
AcDbLine
 10
123.7789999999999
 20
853.5
 30
0.0
 11
124.089
 21
853.5
 31
0.0
  0
LINE
  5
5E4
330
1E
100
AcDbEntity
  8
0
100
AcDbLine
 10
123.7789999999999
 20
854.4999999999999
 30
0.0
 11
124.089
 21
854.4999999999999
 31
0.0
  0
LINE
  5
5E5
330
1E
100
AcDbEntity
  8
0
100
AcDbLine
 10
124.178
 20
855.0
 30
0.0
 11
124.4889999999999
 21
855.0
 31
0.0
  0
LINE
  5
5E6
330
1E
100
AcDbEntity
  8
0
100
AcDbLine
 10
124.089
 20
854.4999999999999
 30
0.0
 11
124.4889999999999
 21
855.0
 31
0.0
  0
LINE
  5
5E7
330
1E
100
AcDbEntity
  8
0
100
AcDbLine
 10
124.089
 20
854.4999999999999
 30
0.0
 11
124.089
 21
853.5
 31
0.0
  0
LINE
  5
5E8
330
1E
100
AcDbEntity
  8
0
100
AcDbLine
 10
124.4889999999999
 20
855.0
 30
0.0
 11
125.2879999999999
 21
855.0
 31
0.0
  0
LINE
  5
5E9
330
1E
100
AcDbEntity
  8
0
100
AcDbLine
 10
123.7789999999999
 20
860.2999999999999
 30
0.0
 11
124.089
 21
860.2999999999999
 31
0.0
  0
LINE
  5
5EA
330
1E
100
AcDbEntity
  8
0
100
AcDbLine
 10
124.089
 20
860.2999999999999
 30
0.0
 11
124.4889999999999
 21
859.7999999999998
 31
0.0
  0
LINE
  5
5EB
330
1E
100
AcDbEntity
  8
0
100
AcDbLine
 10
124.089
 20
860.2999999999999
 30
0.0
 11
124.089
 21
861.2999999999999
 31
0.0
  0
LINE
  5
5EC
330
1E
100
AcDbEntity
  8
0
100
AcDbLine
 10
123.7789999999999
 20
861.2999999999999
 30
0.0
 11
124.089
 21
861.2999999999999
 31
0.0
  0
LINE
  5
5ED
330
1E
100
AcDbEntity
  8
0
100
AcDbLine
 10
124.089
 20
861.2999999999999
 30
0.0
 11
124.4889999999999
 21
861.8
 31
0.0
  0
LINE
  5
5EE
330
1E
100
AcDbEntity
  8
0
100
AcDbLine
 10
124.089
 20
861.2999999999999
 30
0.0
 11
124.089
 21
860.2999999999999
 31
0.0
  0
LINE
  5
5EF
330
1E
100
AcDbEntity
  8
0
100
AcDbLine
 10
124.4889999999999
 20
859.7999999999998
 30
0.0
 11
125.2879999999999
 21
859.7999999999998
 31
0.0
  0
LINE
  5
5F0
330
1E
100
AcDbEntity
  8
0
100
AcDbLine
 10
124.178
 20
859.7999999999998
 30
0.0
 11
124.4889999999999
 21
859.7999999999998
 31
0.0
  0
LINE
  5
5F1
330
1E
100
AcDbEntity
  8
0
100
AcDbLine
 10
123.7789999999999
 20
867.1000000000001
 30
0.0
 11
124.089
 21
867.1000000000001
 31
0.0
  0
LINE
  5
5F2
330
1E
100
AcDbEntity
  8
0
100
AcDbLine
 10
124.089
 20
867.1000000000001
 30
0.0
 11
124.4889999999999
 21
866.6
 31
0.0
  0
LINE
  5
5F3
330
1E
100
AcDbEntity
  8
0
100
AcDbLine
 10
124.089
 20
867.1000000000001
 30
0.0
 11
124.089
 21
868.1
 31
0.0
  0
LINE
  5
5F4
330
1E
100
AcDbEntity
  8
0
100
AcDbLine
 10
123.7789999999999
 20
868.1
 30
0.0
 11
124.089
 21
868.1
 31
0.0
  0
LINE
  5
5F5
330
1E
100
AcDbEntity
  8
0
100
AcDbLine
 10
124.089
 20
868.1
 30
0.0
 11
124.4889999999999
 21
868.5999999999999
 31
0.0
  0
LINE
  5
5F6
330
1E
100
AcDbEntity
  8
0
100
AcDbLine
 10
124.089
 20
868.1
 30
0.0
 11
124.089
 21
867.1000000000001
 31
0.0
  0
LINE
  5
5F7
330
1E
100
AcDbEntity
  8
0
100
AcDbLine
 10
124.4889999999999
 20
866.6
 30
0.0
 11
125.2879999999999
 21
866.6
 31
0.0
  0
LINE
  5
5F8
330
1E
100
AcDbEntity
  8
0
100
AcDbLine
 10
124.193876221498
 20
866.6
 30
0.0
 11
124.4889999999999
 21
866.6
 31
0.0
  0
LINE
  5
5F9
330
1E
100
AcDbEntity
  8
0
100
AcDbLine
 10
124.178
 20
873.3999999999999
 30
0.0
 11
124.4889999999999
 21
873.3999999999999
 31
0.0
  0
LINE
  5
5FA
330
1E
100
AcDbEntity
  8
0
100
AcDbLine
 10
123.7789999999999
 20
874.9
 30
0.0
 11
124.089
 21
874.9
 31
0.0
  0
LINE
  5
5FB
330
1E
100
AcDbEntity
  8
0
100
AcDbLine
 10
124.089
 20
873.9
 30
0.0
 11
124.089
 21
874.9
 31
0.0
  0
LINE
  5
5FC
330
1E
100
AcDbEntity
  8
0
100
AcDbLine
 10
124.089
 20
873.9
 30
0.0
 11
124.4889999999999
 21
873.3999999999999
 31
0.0
  0
LINE
  5
5FD
330
1E
100
AcDbEntity
  8
0
100
AcDbLine
 10
123.7789999999999
 20
873.9
 30
0.0
 11
124.089
 21
873.9
 31
0.0
  0
LINE
  5
5FE
330
1E
100
AcDbEntity
  8
0
100
AcDbLine
 10
124.089
 20
880.7
 30
0.0
 11
124.4889999999999
 21
880.2000000000001
 31
0.0
  0
LINE
  5
5FF
330
1E
100
AcDbEntity
  8
0
100
AcDbLine
 10
124.089
 20
880.7
 30
0.0
 11
124.089
 21
881.7
 31
0.0
  0
LINE
  5
600
330
1E
100
AcDbEntity
  8
0
100
AcDbLine
 10
123.7789999999999
 20
880.7
 30
0.0
 11
124.089
 21
880.7
 31
0.0
  0
LINE
  5
601
330
1E
100
AcDbEntity
  8
0
100
AcDbLine
 10
124.089
 20
887.5
 30
0.0
 11
124.089
 21
888.4999999999999
 31
0.0
  0
LINE
  5
602
330
1E
100
AcDbEntity
  8
0
100
AcDbLine
 10
124.089
 20
887.5
 30
0.0
 11
124.4889999999999
 21
887.0
 31
0.0
  0
LINE
  5
603
330
1E
100
AcDbEntity
  8
0
100
AcDbLine
 10
123.7789999999999
 20
901.1000000000001
 30
0.0
 11
124.089
 21
901.1000000000001
 31
0.0
  0
LINE
  5
604
330
1E
100
AcDbEntity
  8
0
100
AcDbLine
 10
123.7789999999999
 20
908.9
 30
0.0
 11
124.089
 21
908.9
 31
0.0
  0
LINE
  5
605
330
1E
100
AcDbEntity
  8
0
100
AcDbLine
 10
123.7789999999999
 20
922.4999999999999
 30
0.0
 11
124.089
 21
922.4999999999999
 31
0.0
  0
LINE
  5
606
330
1E
100
AcDbEntity
  8
0
100
AcDbLine
 10
123.7789999999999
 20
921.4999999999999
 30
0.0
 11
124.089
 21
921.4999999999999
 31
0.0
  0
LINE
  5
607
330
1E
100
AcDbEntity
  8
0
100
AcDbLine
 10
123.7789999999999
 20
915.7
 30
0.0
 11
124.089
 21
915.7
 31
0.0
  0
LINE
  5
608
330
1E
100
AcDbEntity
  8
0
100
AcDbLine
 10
123.7789999999999
 20
914.7
 30
0.0
 11
124.089
 21
914.7
 31
0.0
  0
LINE
  5
609
330
1E
100
AcDbEntity
  8
0
100
AcDbLine
 10
123.7789999999999
 20
907.9
 30
0.0
 11
124.089
 21
907.9
 31
0.0
  0
LINE
  5
60A
330
1E
100
AcDbEntity
  8
0
100
AcDbLine
 10
123.7789999999999
 20
902.1
 30
0.0
 11
124.089
 21
902.1
 31
0.0
  0
LINE
  5
60B
330
1E
100
AcDbEntity
  8
0
100
AcDbLine
 10
123.7789999999999
 20
895.2999999999999
 30
0.0
 11
124.089
 21
895.2999999999999
 31
0.0
  0
LINE
  5
60C
330
1E
100
AcDbEntity
  8
0
100
AcDbLine
 10
123.7789999999999
 20
894.2999999999999
 30
0.0
 11
124.089
 21
894.2999999999999
 31
0.0
  0
LINE
  5
60D
330
1E
100
AcDbEntity
  8
0
100
AcDbLine
 10
124.089
 20
894.2999999999999
 30
0.0
 11
124.089
 21
895.2999999999999
 31
0.0
  0
LINE
  5
60E
330
1E
100
AcDbEntity
  8
0
100
AcDbLine
 10
124.089
 20
894.2999999999999
 30
0.0
 11
124.4889999999999
 21
893.8
 31
0.0
  0
LINE
  5
60F
330
1E
100
AcDbEntity
  8
0
100
AcDbLine
 10
124.089
 20
908.9
 30
0.0
 11
124.4889999999999
 21
909.3999999999999
 31
0.0
  0
LINE
  5
610
330
1E
100
AcDbEntity
  8
0
100
AcDbLine
 10
124.089
 20
908.9
 30
0.0
 11
124.089
 21
907.9
 31
0.0
  0
LINE
  5
611
330
1E
100
AcDbEntity
  8
0
100
AcDbLine
 10
124.089
 20
921.4999999999999
 30
0.0
 11
124.089
 21
922.4999999999999
 31
0.0
  0
LINE
  5
612
330
1E
100
AcDbEntity
  8
0
100
AcDbLine
 10
124.089
 20
921.4999999999999
 30
0.0
 11
124.4889999999999
 21
921.0
 31
0.0
  0
LINE
  5
613
330
1E
100
AcDbEntity
  8
0
100
AcDbLine
 10
124.089
 20
922.4999999999999
 30
0.0
 11
124.4889999999999
 21
923.0
 31
0.0
  0
LINE
  5
614
330
1E
100
AcDbEntity
  8
0
100
AcDbLine
 10
124.089
 20
922.4999999999999
 30
0.0
 11
124.089
 21
921.4999999999999
 31
0.0
  0
LINE
  5
615
330
1E
100
AcDbEntity
  8
0
100
AcDbLine
 10
124.089
 20
915.7
 30
0.0
 11
124.089
 21
914.7
 31
0.0
  0
LINE
  5
616
330
1E
100
AcDbEntity
  8
0
100
AcDbLine
 10
124.089
 20
915.7
 30
0.0
 11
124.4889999999999
 21
916.2
 31
0.0
  0
LINE
  5
617
330
1E
100
AcDbEntity
  8
0
100
AcDbLine
 10
124.089
 20
914.7
 30
0.0
 11
124.4889999999999
 21
914.2000000000001
 31
0.0
  0
LINE
  5
618
330
1E
100
AcDbEntity
  8
0
100
AcDbLine
 10
124.089
 20
914.7
 30
0.0
 11
124.089
 21
915.7
 31
0.0
  0
LINE
  5
619
330
1E
100
AcDbEntity
  8
0
100
AcDbLine
 10
124.089
 20
907.9
 30
0.0
 11
124.4889999999999
 21
907.3999999999999
 31
0.0
  0
LINE
  5
61A
330
1E
100
AcDbEntity
  8
0
100
AcDbLine
 10
124.089
 20
907.9
 30
0.0
 11
124.089
 21
908.9
 31
0.0
  0
LINE
  5
61B
330
1E
100
AcDbEntity
  8
0
100
AcDbLine
 10
124.089
 20
901.1000000000001
 30
0.0
 11
124.4889999999999
 21
900.6
 31
0.0
  0
LINE
  5
61C
330
1E
100
AcDbEntity
  8
0
100
AcDbLine
 10
124.089
 20
901.1000000000001
 30
0.0
 11
124.089
 21
902.1
 31
0.0
  0
LINE
  5
61D
330
1E
100
AcDbEntity
  8
0
100
AcDbLine
 10
124.089
 20
902.1
 30
0.0
 11
124.4889999999999
 21
902.5999999999999
 31
0.0
  0
LINE
  5
61E
330
1E
100
AcDbEntity
  8
0
100
AcDbLine
 10
124.089
 20
902.1
 30
0.0
 11
124.089
 21
901.1000000000001
 31
0.0
  0
LINE
  5
61F
330
1E
100
AcDbEntity
  8
0
100
AcDbLine
 10
124.089
 20
895.2999999999999
 30
0.0
 11
124.4889999999999
 21
895.8
 31
0.0
  0
LINE
  5
620
330
1E
100
AcDbEntity
  8
0
100
AcDbLine
 10
124.089
 20
895.2999999999999
 30
0.0
 11
124.089
 21
894.2999999999999
 31
0.0
  0
LINE
  5
621
330
1E
100
AcDbEntity
  8
0
100
AcDbLine
 10
123.78013029316
 20
888.4999999999999
 30
0.0
 11
124.089
 21
888.4999999999999
 31
0.0
  0
LINE
  5
622
330
1E
100
AcDbEntity
  8
0
100
AcDbLine
 10
123.799022801303
 20
887.5
 30
0.0
 11
124.089
 21
887.5
 31
0.0
  0
LINE
  5
623
330
1E
100
AcDbEntity
  8
0
100
AcDbLine
 10
124.089
 20
888.4999999999999
 30
0.0
 11
124.4889999999999
 21
889.0
 31
0.0
  0
LINE
  5
624
330
1E
100
AcDbEntity
  8
0
100
AcDbLine
 10
124.089
 20
888.4999999999999
 30
0.0
 11
124.089
 21
887.5
 31
0.0
  0
LINE
  5
625
330
1E
100
AcDbEntity
  8
0
100
AcDbLine
 10
123.9085993485339
 20
881.7
 30
0.0
 11
124.089
 21
881.7
 31
0.0
  0
LINE
  5
626
330
1E
100
AcDbEntity
  8
0
100
AcDbLine
 10
124.178
 20
900.6
 30
0.0
 11
124.4889999999999
 21
900.6
 31
0.0
  0
LINE
  5
627
330
1E
100
AcDbEntity
  8
0
100
AcDbLine
 10
124.178
 20
923.0
 30
0.0
 11
124.4889999999999
 21
923.0
 31
0.0
  0
LINE
  5
628
330
1E
100
AcDbEntity
  8
0
100
AcDbLine
 10
124.178
 20
921.0
 30
0.0
 11
124.4889999999999
 21
921.0
 31
0.0
  0
LINE
  5
629
330
1E
100
AcDbEntity
  8
0
100
AcDbLine
 10
124.178
 20
916.2
 30
0.0
 11
124.4889999999999
 21
916.2
 31
0.0
  0
LINE
  5
62A
330
1E
100
AcDbEntity
  8
0
100
AcDbLine
 10
124.178
 20
914.2000000000001
 30
0.0
 11
124.4889999999999
 21
914.2000000000001
 31
0.0
  0
LINE
  5
62B
330
1E
100
AcDbEntity
  8
0
100
AcDbLine
 10
124.178
 20
909.3999999999999
 30
0.0
 11
124.4889999999999
 21
909.3999999999999
 31
0.0
  0
LINE
  5
62C
330
1E
100
AcDbEntity
  8
0
100
AcDbLine
 10
124.178
 20
907.3999999999999
 30
0.0
 11
124.4889999999999
 21
907.3999999999999
 31
0.0
  0
LINE
  5
62D
330
1E
100
AcDbEntity
  8
0
100
AcDbLine
 10
124.178
 20
902.5999999999999
 30
0.0
 11
124.4889999999999
 21
902.5999999999999
 31
0.0
  0
LINE
  5
62E
330
1E
100
AcDbEntity
  8
0
100
AcDbLine
 10
124.178
 20
895.8
 30
0.0
 11
124.4889999999999
 21
895.8
 31
0.0
  0
LINE
  5
62F
330
1E
100
AcDbEntity
  8
0
100
AcDbLine
 10
124.178
 20
893.8
 30
0.0
 11
124.4889999999999
 21
893.8
 31
0.0
  0
LINE
  5
630
330
1E
100
AcDbEntity
  8
0
100
AcDbLine
 10
124.178
 20
889.0
 30
0.0
 11
124.4889999999999
 21
889.0
 31
0.0
  0
LINE
  5
631
330
1E
100
AcDbEntity
  8
0
100
AcDbLine
 10
124.178
 20
887.0
 30
0.0
 11
124.4889999999999
 21
887.0
 31
0.0
  0
LINE
  5
632
330
1E
100
AcDbEntity
  8
0
100
AcDbLine
 10
124.089
 20
881.7
 30
0.0
 11
124.4889999999999
 21
882.2
 31
0.0
  0
LINE
  5
633
330
1E
100
AcDbEntity
  8
0
100
AcDbLine
 10
124.089
 20
881.7
 30
0.0
 11
124.089
 21
880.7
 31
0.0
  0
LINE
  5
634
330
1E
100
AcDbEntity
  8
0
100
AcDbLine
 10
124.178
 20
880.2000000000001
 30
0.0
 11
124.4889999999999
 21
880.2000000000001
 31
0.0
  0
LINE
  5
635
330
1E
100
AcDbEntity
  8
0
100
AcDbLine
 10
124.178
 20
882.2
 30
0.0
 11
124.4889999999999
 21
882.2
 31
0.0
  0
LINE
  5
636
330
1E
100
AcDbEntity
  8
0
100
AcDbLine
 10
124.089
 20
874.9
 30
0.0
 11
124.4889999999999
 21
875.3999999999999
 31
0.0
  0
LINE
  5
637
330
1E
100
AcDbEntity
  8
0
100
AcDbLine
 10
124.089
 20
874.9
 30
0.0
 11
124.089
 21
873.9
 31
0.0
  0
LINE
  5
638
330
1E
100
AcDbEntity
  8
0
100
AcDbLine
 10
124.4889999999999
 20
880.2000000000001
 30
0.0
 11
125.2879999999999
 21
880.2000000000001
 31
0.0
  0
LINE
  5
639
330
1E
100
AcDbEntity
  8
0
100
AcDbLine
 10
124.4889999999999
 20
909.3999999999999
 30
0.0
 11
125.2879999999999
 21
909.3999999999999
 31
0.0
  0
LINE
  5
63A
330
1E
100
AcDbEntity
  8
0
100
AcDbLine
 10
124.4889999999999
 20
921.0
 30
0.0
 11
125.2879999999999
 21
921.0
 31
0.0
  0
LINE
  5
63B
330
1E
100
AcDbEntity
  8
0
100
AcDbLine
 10
124.4889999999999
 20
923.0
 30
0.0
 11
125.2879999999999
 21
923.0
 31
0.0
  0
LINE
  5
63C
330
1E
100
AcDbEntity
  8
0
100
AcDbLine
 10
124.4889999999999
 20
916.2
 30
0.0
 11
125.2879999999999
 21
916.2
 31
0.0
  0
LINE
  5
63D
330
1E
100
AcDbEntity
  8
0
100
AcDbLine
 10
124.4889999999999
 20
914.2000000000001
 30
0.0
 11
125.2879999999999
 21
914.2000000000001
 31
0.0
  0
LINE
  5
63E
330
1E
100
AcDbEntity
  8
0
100
AcDbLine
 10
124.4889999999999
 20
907.3999999999999
 30
0.0
 11
125.2879999999999
 21
907.3999999999999
 31
0.0
  0
LINE
  5
63F
330
1E
100
AcDbEntity
  8
0
100
AcDbLine
 10
124.4889999999999
 20
900.6
 30
0.0
 11
125.2879999999999
 21
900.6
 31
0.0
  0
LINE
  5
640
330
1E
100
AcDbEntity
  8
0
100
AcDbLine
 10
124.4889999999999
 20
902.5999999999999
 30
0.0
 11
125.2879999999999
 21
902.5999999999999
 31
0.0
  0
LINE
  5
641
330
1E
100
AcDbEntity
  8
0
100
AcDbLine
 10
124.4889999999999
 20
893.8
 30
0.0
 11
125.2879999999999
 21
893.8
 31
0.0
  0
LINE
  5
642
330
1E
100
AcDbEntity
  8
0
100
AcDbLine
 10
124.4889999999999
 20
895.8
 30
0.0
 11
125.2879999999999
 21
895.8
 31
0.0
  0
LINE
  5
643
330
1E
100
AcDbEntity
  8
0
100
AcDbLine
 10
124.4889999999999
 20
887.0
 30
0.0
 11
125.2879999999999
 21
887.0
 31
0.0
  0
LINE
  5
644
330
1E
100
AcDbEntity
  8
0
100
AcDbLine
 10
124.4889999999999
 20
889.0
 30
0.0
 11
125.2879999999999
 21
889.0
 31
0.0
  0
LINE
  5
645
330
1E
100
AcDbEntity
  8
0
100
AcDbLine
 10
124.4889999999999
 20
882.2
 30
0.0
 11
125.2879999999999
 21
882.2
 31
0.0
  0
LINE
  5
646
330
1E
100
AcDbEntity
  8
0
100
AcDbLine
 10
124.178
 20
875.3999999999999
 30
0.0
 11
124.4889999999999
 21
875.3999999999999
 31
0.0
  0
LINE
  5
647
330
1E
100
AcDbEntity
  8
0
100
AcDbLine
 10
124.4889999999999
 20
873.3999999999999
 30
0.0
 11
125.2879999999999
 21
873.3999999999999
 31
0.0
  0
LINE
  5
648
330
1E
100
AcDbEntity
  8
0
100
AcDbLine
 10
124.4889999999999
 20
875.3999999999999
 30
0.0
 11
125.2879999999999
 21
875.3999999999999
 31
0.0
  0
LINE
  5
649
330
1E
100
AcDbEntity
  8
0
100
AcDbLine
 10
124.178
 20
868.5999999999999
 30
0.0
 11
124.4889999999999
 21
868.5999999999999
 31
0.0
  0
LINE
  5
64A
330
1E
100
AcDbEntity
  8
0
100
AcDbLine
 10
124.4889999999999
 20
868.5999999999999
 30
0.0
 11
125.2879999999999
 21
868.5999999999999
 31
0.0
  0
LINE
  5
64B
330
1E
100
AcDbEntity
  8
0
100
AcDbLine
 10
124.2845602605859
 20
861.8
 30
0.0
 11
124.4889999999999
 21
861.8
 31
0.0
  0
LINE
  5
64C
330
1E
100
AcDbEntity
  8
0
100
AcDbLine
 10
125.687
 20
861.2999999999999
 30
0.0
 11
125.687
 21
860.2999999999999
 31
0.0
  0
LINE
  5
64D
330
1E
100
AcDbEntity
  8
0
100
AcDbLine
 10
125.687
 20
860.2999999999999
 30
0.0
 11
125.687
 21
861.2999999999999
 31
0.0
  0
LINE
  5
64E
330
1E
100
AcDbEntity
  8
0
100
AcDbLine
 10
125.2879999999999
 20
859.7999999999998
 30
0.0
 11
125.687
 21
860.2999999999999
 31
0.0
  0
LINE
  5
64F
330
1E
100
AcDbEntity
  8
0
100
AcDbLine
 10
124.977
 20
859.7999999999998
 30
0.0
 11
125.2879999999999
 21
859.7999999999998
 31
0.0
  0
LINE
  5
650
330
1E
100
AcDbEntity
  8
0
100
AcDbLine
 10
125.2879999999999
 20
866.6
 30
0.0
 11
125.687
 21
867.1000000000001
 31
0.0
  0
LINE
  5
651
330
1E
100
AcDbEntity
  8
0
100
AcDbLine
 10
124.977
 20
873.3999999999999
 30
0.0
 11
125.2879999999999
 21
873.3999999999999
 31
0.0
  0
LINE
  5
652
330
1E
100
AcDbEntity
  8
0
100
AcDbLine
 10
125.2879999999999
 20
880.2000000000001
 30
0.0
 11
125.687
 21
880.7
 31
0.0
  0
LINE
  5
653
330
1E
100
AcDbEntity
  8
0
100
AcDbLine
 10
124.977
 20
887.0
 30
0.0
 11
125.2879999999999
 21
887.0
 31
0.0
  0
LINE
  5
654
330
1E
100
AcDbEntity
  8
0
100
AcDbLine
 10
124.977
 20
893.8
 30
0.0
 11
125.2879999999999
 21
893.8
 31
0.0
  0
LINE
  5
655
330
1E
100
AcDbEntity
  8
0
100
AcDbLine
 10
125.2879999999999
 20
900.6
 30
0.0
 11
125.687
 21
901.1000000000001
 31
0.0
  0
LINE
  5
656
330
1E
100
AcDbEntity
  8
0
100
AcDbLine
 10
124.977
 20
921.0
 30
0.0
 11
125.2879999999999
 21
921.0
 31
0.0
  0
LINE
  5
657
330
1E
100
AcDbEntity
  8
0
100
AcDbLine
 10
125.2879999999999
 20
921.0
 30
0.0
 11
125.687
 21
921.4999999999999
 31
0.0
  0
LINE
  5
658
330
1E
100
AcDbEntity
  8
0
100
AcDbLine
 10
125.2879999999999
 20
923.0
 30
0.0
 11
125.687
 21
922.4999999999999
 31
0.0
  0
LINE
  5
659
330
1E
100
AcDbEntity
  8
0
100
AcDbLine
 10
125.2879999999999
 20
916.2
 30
0.0
 11
125.687
 21
915.7
 31
0.0
  0
LINE
  5
65A
330
1E
100
AcDbEntity
  8
0
100
AcDbLine
 10
124.977
 20
914.2000000000001
 30
0.0
 11
125.2879999999999
 21
914.2000000000001
 31
0.0
  0
LINE
  5
65B
330
1E
100
AcDbEntity
  8
0
100
AcDbLine
 10
125.2879999999999
 20
909.3999999999999
 30
0.0
 11
125.687
 21
908.9
 31
0.0
  0
LINE
  5
65C
330
1E
100
AcDbEntity
  8
0
100
AcDbLine
 10
125.2879999999999
 20
914.2000000000001
 30
0.0
 11
125.687
 21
914.7
 31
0.0
  0
LINE
  5
65D
330
1E
100
AcDbEntity
  8
0
100
AcDbLine
 10
124.977
 20
907.3999999999999
 30
0.0
 11
125.2879999999999
 21
907.3999999999999
 31
0.0
  0
LINE
  5
65E
330
1E
100
AcDbEntity
  8
0
100
AcDbLine
 10
125.2879999999999
 20
907.3999999999999
 30
0.0
 11
125.687
 21
907.9
 31
0.0
  0
LINE
  5
65F
330
1E
100
AcDbEntity
  8
0
100
AcDbLine
 10
124.977
 20
900.6
 30
0.0
 11
125.2879999999999
 21
900.6
 31
0.0
  0
LINE
  5
660
330
1E
100
AcDbEntity
  8
0
100
AcDbLine
 10
125.2879999999999
 20
902.5999999999999
 30
0.0
 11
125.687
 21
902.1
 31
0.0
  0
LINE
  5
661
330
1E
100
AcDbEntity
  8
0
100
AcDbLine
 10
125.2879999999999
 20
893.8
 30
0.0
 11
125.687
 21
894.2999999999999
 31
0.0
  0
LINE
  5
662
330
1E
100
AcDbEntity
  8
0
100
AcDbLine
 10
125.2879999999999
 20
895.8
 30
0.0
 11
125.687
 21
895.2999999999999
 31
0.0
  0
LINE
  5
663
330
1E
100
AcDbEntity
  8
0
100
AcDbLine
 10
125.2879999999999
 20
887.0
 30
0.0
 11
125.687
 21
887.5
 31
0.0
  0
LINE
  5
664
330
1E
100
AcDbEntity
  8
0
100
AcDbLine
 10
125.2879999999999
 20
889.0
 30
0.0
 11
125.687
 21
888.4999999999999
 31
0.0
  0
LINE
  5
665
330
1E
100
AcDbEntity
  8
0
100
AcDbLine
 10
124.977
 20
880.2000000000001
 30
0.0
 11
125.2879999999999
 21
880.2000000000001
 31
0.0
  0
LINE
  5
666
330
1E
100
AcDbEntity
  8
0
100
AcDbLine
 10
125.2879999999999
 20
882.2
 30
0.0
 11
125.687
 21
881.7
 31
0.0
  0
LINE
  5
667
330
1E
100
AcDbEntity
  8
0
100
AcDbLine
 10
125.2879999999999
 20
873.3999999999999
 30
0.0
 11
125.687
 21
873.9
 31
0.0
  0
LINE
  5
668
330
1E
100
AcDbEntity
  8
0
100
AcDbLine
 10
125.2879999999999
 20
875.3999999999999
 30
0.0
 11
125.687
 21
874.9
 31
0.0
  0
LINE
  5
669
330
1E
100
AcDbEntity
  8
0
100
AcDbLine
 10
124.977
 20
866.6
 30
0.0
 11
125.2879999999999
 21
866.6
 31
0.0
  0
LINE
  5
66A
330
1E
100
AcDbEntity
  8
0
100
AcDbLine
 10
125.687
 20
907.9
 30
0.0
 11
125.687
 21
908.9
 31
0.0
  0
LINE
  5
66B
330
1E
100
AcDbEntity
  8
0
100
AcDbLine
 10
125.687
 20
908.9
 30
0.0
 11
125.687
 21
907.9
 31
0.0
  0
LINE
  5
66C
330
1E
100
AcDbEntity
  8
0
100
AcDbLine
 10
125.687
 20
914.7
 30
0.0
 11
125.687
 21
915.7
 31
0.0
  0
LINE
  5
66D
330
1E
100
AcDbEntity
  8
0
100
AcDbLine
 10
125.687
 20
921.4999999999999
 30
0.0
 11
125.687
 21
922.4999999999999
 31
0.0
  0
LINE
  5
66E
330
1E
100
AcDbEntity
  8
0
100
AcDbLine
 10
125.687
 20
922.4999999999999
 30
0.0
 11
125.687
 21
921.4999999999999
 31
0.0
  0
LINE
  5
66F
330
1E
100
AcDbEntity
  8
0
100
AcDbLine
 10
125.687
 20
915.7
 30
0.0
 11
125.687
 21
914.7
 31
0.0
  0
LINE
  5
670
330
1E
100
AcDbEntity
  8
0
100
AcDbLine
 10
125.687
 20
902.1
 30
0.0
 11
125.687
 21
901.1000000000001
 31
0.0
  0
LINE
  5
671
330
1E
100
AcDbEntity
  8
0
100
AcDbLine
 10
125.687
 20
901.1000000000001
 30
0.0
 11
125.687
 21
902.1
 31
0.0
  0
LINE
  5
672
330
1E
100
AcDbEntity
  8
0
100
AcDbLine
 10
125.687
 20
895.2999999999999
 30
0.0
 11
125.687
 21
894.2999999999999
 31
0.0
  0
LINE
  5
673
330
1E
100
AcDbEntity
  8
0
100
AcDbLine
 10
125.687
 20
894.2999999999999
 30
0.0
 11
125.687
 21
895.2999999999999
 31
0.0
  0
LINE
  5
674
330
1E
100
AcDbEntity
  8
0
100
AcDbLine
 10
125.687
 20
888.4999999999999
 30
0.0
 11
125.687
 21
887.5
 31
0.0
  0
LINE
  5
675
330
1E
100
AcDbEntity
  8
0
100
AcDbLine
 10
125.687
 20
887.5
 30
0.0
 11
125.687
 21
888.4999999999999
 31
0.0
  0
LINE
  5
676
330
1E
100
AcDbEntity
  8
0
100
AcDbLine
 10
125.687
 20
881.7
 30
0.0
 11
125.687
 21
880.7
 31
0.0
  0
LINE
  5
677
330
1E
100
AcDbEntity
  8
0
100
AcDbLine
 10
125.687
 20
880.7
 30
0.0
 11
125.687
 21
881.7
 31
0.0
  0
LINE
  5
678
330
1E
100
AcDbEntity
  8
0
100
AcDbLine
 10
125.687
 20
874.9
 30
0.0
 11
125.687
 21
873.9
 31
0.0
  0
LINE
  5
679
330
1E
100
AcDbEntity
  8
0
100
AcDbLine
 10
125.687
 20
873.9
 30
0.0
 11
125.687
 21
874.9
 31
0.0
  0
LINE
  5
67A
330
1E
100
AcDbEntity
  8
0
100
AcDbLine
 10
125.687
 20
868.1
 30
0.0
 11
125.687
 21
867.1000000000001
 31
0.0
  0
LINE
  5
67B
330
1E
100
AcDbEntity
  8
0
100
AcDbLine
 10
125.687
 20
867.1000000000001
 30
0.0
 11
125.687
 21
868.1
 31
0.0
  0
LINE
  5
67C
330
1E
100
AcDbEntity
  8
0
100
AcDbLine
 10
125.2879999999999
 20
868.5999999999999
 30
0.0
 11
125.687
 21
868.1
 31
0.0
  0
LINE
  5
67D
330
1E
100
AcDbEntity
  8
0
100
AcDbLine
 10
125.2879999999999
 20
861.8
 30
0.0
 11
125.687
 21
861.2999999999999
 31
0.0
  0
LINE
  5
67E
330
1E
100
AcDbEntity
  8
0
100
AcDbLine
 10
124.4889999999999
 20
861.8
 30
0.0
 11
125.2879999999999
 21
861.8
 31
0.0
  0
LINE
  5
67F
330
1E
100
AcDbEntity
  8
0
100
AcDbLine
 10
125.2879999999999
 20
855.0
 30
0.0
 11
125.687
 21
854.4999999999999
 31
0.0
  0
LINE
  5
680
330
1E
100
AcDbEntity
  8
0
100
AcDbLine
 10
125.687
 20
854.4999999999999
 30
0.0
 11
125.687
 21
853.5
 31
0.0
  0
LINE
  5
681
330
1E
100
AcDbEntity
  8
0
100
AcDbLine
 10
124.089
 20
853.5
 30
0.0
 11
124.4889999999999
 21
853.0
 31
0.0
  0
LINE
  5
682
330
1E
100
AcDbEntity
  8
0
100
AcDbLine
 10
124.089
 20
853.5
 30
0.0
 11
124.089
 21
854.4999999999999
 31
0.0
  0
LINE
  5
683
330
1E
100
AcDbEntity
  8
0
100
AcDbLine
 10
120.857
 20
854.4999999999999
 30
0.0
 11
120.857
 21
853.5
 31
0.0
  0
LINE
  5
684
330
1E
100
AcDbEntity
  8
0
100
AcDbLine
 10
120.429
 20
853.0
 30
0.0
 11
120.857
 21
853.5
 31
0.0
  0
LINE
  5
685
330
1E
100
AcDbEntity
  8
0
100
AcDbLine
 10
127.354
 20
854.4999999999999
 30
0.0
 11
127.944
 21
854.4999999999999
 31
0.0
  0
LINE
  5
686
330
1E
100
AcDbEntity
  8
0
100
AcDbLine
 10
127.665
 20
853.0
 30
0.0
 11
128.255
 21
853.0
 31
0.0
  0
LINE
  5
687
330
1E
100
AcDbEntity
  8
0
100
AcDbLine
 10
127.354
 20
853.5
 30
0.0
 11
127.944
 21
853.5
 31
0.0
  0
LINE
  5
688
330
1E
100
AcDbEntity
  8
0
100
AcDbLine
 10
127.354
 20
860.2999999999999
 30
0.0
 11
127.944
 21
860.2999999999999
 31
0.0
  0
LINE
  5
689
330
1E
100
AcDbEntity
  8
0
100
AcDbLine
 10
127.665
 20
859.7999999999998
 30
0.0
 11
128.255
 21
859.7999999999998
 31
0.0
  0
LINE
  5
68A
330
1E
100
AcDbEntity
  8
0
100
AcDbLine
 10
127.354
 20
867.1000000000001
 30
0.0
 11
127.944
 21
867.1000000000001
 31
0.0
  0
LINE
  5
68B
330
1E
100
AcDbEntity
  8
0
100
AcDbLine
 10
127.665
 20
866.6
 30
0.0
 11
128.255
 21
866.6
 31
0.0
  0
LINE
  5
68C
330
1E
100
AcDbEntity
  8
0
100
AcDbLine
 10
127.665
 20
873.3999999999999
 30
0.0
 11
128.255
 21
873.3999999999999
 31
0.0
  0
LINE
  5
68D
330
1E
100
AcDbEntity
  8
0
100
AcDbLine
 10
127.354
 20
908.9
 30
0.0
 11
127.944
 21
908.9
 31
0.0
  0
LINE
  5
68E
330
1E
100
AcDbEntity
  8
0
100
AcDbLine
 10
127.354
 20
922.4999999999999
 30
0.0
 11
127.944
 21
922.4999999999999
 31
0.0
  0
LINE
  5
68F
330
1E
100
AcDbEntity
  8
0
100
AcDbLine
 10
127.354
 20
921.4999999999999
 30
0.0
 11
127.944
 21
921.4999999999999
 31
0.0
  0
LINE
  5
690
330
1E
100
AcDbEntity
  8
0
100
AcDbLine
 10
127.354
 20
915.7
 30
0.0
 11
127.944
 21
915.7
 31
0.0
  0
LINE
  5
691
330
1E
100
AcDbEntity
  8
0
100
AcDbLine
 10
127.354
 20
914.7
 30
0.0
 11
127.944
 21
914.7
 31
0.0
  0
LINE
  5
692
330
1E
100
AcDbEntity
  8
0
100
AcDbLine
 10
127.354
 20
907.9
 30
0.0
 11
127.944
 21
907.9
 31
0.0
  0
LINE
  5
693
330
1E
100
AcDbEntity
  8
0
100
AcDbLine
 10
127.354
 20
901.1000000000001
 30
0.0
 11
127.944
 21
901.1000000000001
 31
0.0
  0
LINE
  5
694
330
1E
100
AcDbEntity
  8
0
100
AcDbLine
 10
127.354
 20
902.1
 30
0.0
 11
127.944
 21
902.1
 31
0.0
  0
LINE
  5
695
330
1E
100
AcDbEntity
  8
0
100
AcDbLine
 10
127.354
 20
895.2999999999999
 30
0.0
 11
127.944
 21
895.2999999999999
 31
0.0
  0
LINE
  5
696
330
1E
100
AcDbEntity
  8
0
100
AcDbLine
 10
127.354
 20
894.2999999999999
 30
0.0
 11
127.944
 21
894.2999999999999
 31
0.0
  0
LINE
  5
697
330
1E
100
AcDbEntity
  8
0
100
AcDbLine
 10
127.354
 20
888.4999999999999
 30
0.0
 11
127.944
 21
888.4999999999999
 31
0.0
  0
LINE
  5
698
330
1E
100
AcDbEntity
  8
0
100
AcDbLine
 10
127.354
 20
887.5
 30
0.0
 11
127.944
 21
887.5
 31
0.0
  0
LINE
  5
699
330
1E
100
AcDbEntity
  8
0
100
AcDbLine
 10
127.354
 20
880.7
 30
0.0
 11
127.944
 21
880.7
 31
0.0
  0
LINE
  5
69A
330
1E
100
AcDbEntity
  8
0
100
AcDbLine
 10
127.665
 20
880.2000000000001
 30
0.0
 11
128.255
 21
880.2000000000001
 31
0.0
  0
LINE
  5
69B
330
1E
100
AcDbEntity
  8
0
100
AcDbLine
 10
127.665
 20
909.3999999999999
 30
0.0
 11
128.255
 21
909.3999999999999
 31
0.0
  0
LINE
  5
69C
330
1E
100
AcDbEntity
  8
0
100
AcDbLine
 10
127.665
 20
923.0
 30
0.0
 11
128.255
 21
923.0
 31
0.0
  0
LINE
  5
69D
330
1E
100
AcDbEntity
  8
0
100
AcDbLine
 10
127.665
 20
921.0
 30
0.0
 11
128.255
 21
921.0
 31
0.0
  0
LINE
  5
69E
330
1E
100
AcDbEntity
  8
0
100
AcDbLine
 10
127.665
 20
916.2
 30
0.0
 11
128.255
 21
916.2
 31
0.0
  0
LINE
  5
69F
330
1E
100
AcDbEntity
  8
0
100
AcDbLine
 10
127.665
 20
914.2000000000001
 30
0.0
 11
128.255
 21
914.2000000000001
 31
0.0
  0
LINE
  5
6A0
330
1E
100
AcDbEntity
  8
0
100
AcDbLine
 10
127.665
 20
907.3999999999999
 30
0.0
 11
128.255
 21
907.3999999999999
 31
0.0
  0
LINE
  5
6A1
330
1E
100
AcDbEntity
  8
0
100
AcDbLine
 10
127.665
 20
900.6
 30
0.0
 11
128.255
 21
900.6
 31
0.0
  0
LINE
  5
6A2
330
1E
100
AcDbEntity
  8
0
100
AcDbLine
 10
127.665
 20
902.5999999999999
 30
0.0
 11
128.255
 21
902.5999999999999
 31
0.0
  0
LINE
  5
6A3
330
1E
100
AcDbEntity
  8
0
100
AcDbLine
 10
127.665
 20
895.8
 30
0.0
 11
128.255
 21
895.8
 31
0.0
  0
LINE
  5
6A4
330
1E
100
AcDbEntity
  8
0
100
AcDbLine
 10
127.665
 20
893.8
 30
0.0
 11
128.255
 21
893.8
 31
0.0
  0
LINE
  5
6A5
330
1E
100
AcDbEntity
  8
0
100
AcDbLine
 10
127.665
 20
889.0
 30
0.0
 11
128.255
 21
889.0
 31
0.0
  0
LINE
  5
6A6
330
1E
100
AcDbEntity
  8
0
100
AcDbLine
 10
127.665
 20
887.0
 30
0.0
 11
128.255
 21
887.0
 31
0.0
  0
LINE
  5
6A7
330
1E
100
AcDbEntity
  8
0
100
AcDbLine
 10
127.665
 20
882.2
 30
0.0
 11
128.255
 21
882.2
 31
0.0
  0
LINE
  5
6A8
330
1E
100
AcDbEntity
  8
0
100
AcDbLine
 10
127.354
 20
881.7
 30
0.0
 11
127.944
 21
881.7
 31
0.0
  0
LINE
  5
6A9
330
1E
100
AcDbEntity
  8
0
100
AcDbLine
 10
127.354
 20
874.9
 30
0.0
 11
127.944
 21
874.9
 31
0.0
  0
LINE
  5
6AA
330
1E
100
AcDbEntity
  8
0
100
AcDbLine
 10
127.665
 20
875.3999999999999
 30
0.0
 11
128.255
 21
875.3999999999999
 31
0.0
  0
LINE
  5
6AB
330
1E
100
AcDbEntity
  8
0
100
AcDbLine
 10
127.354
 20
873.9
 30
0.0
 11
127.944
 21
873.9
 31
0.0
  0
LINE
  5
6AC
330
1E
100
AcDbEntity
  8
0
100
AcDbLine
 10
127.665
 20
868.5999999999999
 30
0.0
 11
128.255
 21
868.5999999999999
 31
0.0
  0
LINE
  5
6AD
330
1E
100
AcDbEntity
  8
0
100
AcDbLine
 10
127.354
 20
868.1
 30
0.0
 11
127.944
 21
868.1
 31
0.0
  0
LINE
  5
6AE
330
1E
100
AcDbEntity
  8
0
100
AcDbLine
 10
127.665
 20
861.8
 30
0.0
 11
128.255
 21
861.8
 31
0.0
  0
LINE
  5
6AF
330
1E
100
AcDbEntity
  8
0
100
AcDbLine
 10
127.354
 20
861.2999999999999
 30
0.0
 11
127.944
 21
861.2999999999999
 31
0.0
  0
LINE
  5
6B0
330
1E
100
AcDbEntity
  8
0
100
AcDbLine
 10
127.944
 20
860.2999999999999
 30
0.0
 11
128.255
 21
859.7999999999998
 31
0.0
  0
LINE
  5
6B1
330
1E
100
AcDbEntity
  8
0
100
AcDbLine
 10
127.944
 20
860.2999999999999
 30
0.0
 11
127.944
 21
861.2999999999999
 31
0.0
  0
LINE
  5
6B2
330
1E
100
AcDbEntity
  8
0
100
AcDbLine
 10
127.944
 20
908.9
 30
0.0
 11
128.255
 21
909.3999999999999
 31
0.0
  0
LINE
  5
6B3
330
1E
100
AcDbEntity
  8
0
100
AcDbLine
 10
127.944
 20
908.9
 30
0.0
 11
127.944
 21
907.9
 31
0.0
  0
LINE
  5
6B4
330
1E
100
AcDbEntity
  8
0
100
AcDbLine
 10
127.944
 20
921.4999999999999
 30
0.0
 11
127.944
 21
922.4999999999999
 31
0.0
  0
LINE
  5
6B5
330
1E
100
AcDbEntity
  8
0
100
AcDbLine
 10
127.944
 20
921.4999999999999
 30
0.0
 11
128.255
 21
921.0
 31
0.0
  0
LINE
  5
6B6
330
1E
100
AcDbEntity
  8
0
100
AcDbLine
 10
127.944
 20
922.4999999999999
 30
0.0
 11
128.255
 21
923.0
 31
0.0
  0
LINE
  5
6B7
330
1E
100
AcDbEntity
  8
0
100
AcDbLine
 10
127.944
 20
922.4999999999999
 30
0.0
 11
127.944
 21
921.4999999999999
 31
0.0
  0
LINE
  5
6B8
330
1E
100
AcDbEntity
  8
0
100
AcDbLine
 10
127.944
 20
915.7
 30
0.0
 11
127.944
 21
914.7
 31
0.0
  0
LINE
  5
6B9
330
1E
100
AcDbEntity
  8
0
100
AcDbLine
 10
127.944
 20
915.7
 30
0.0
 11
128.255
 21
916.2
 31
0.0
  0
LINE
  5
6BA
330
1E
100
AcDbEntity
  8
0
100
AcDbLine
 10
127.944
 20
914.7
 30
0.0
 11
128.255
 21
914.2000000000001
 31
0.0
  0
LINE
  5
6BB
330
1E
100
AcDbEntity
  8
0
100
AcDbLine
 10
127.944
 20
914.7
 30
0.0
 11
127.944
 21
915.7
 31
0.0
  0
LINE
  5
6BC
330
1E
100
AcDbEntity
  8
0
100
AcDbLine
 10
127.944
 20
907.9
 30
0.0
 11
128.255
 21
907.3999999999999
 31
0.0
  0
LINE
  5
6BD
330
1E
100
AcDbEntity
  8
0
100
AcDbLine
 10
127.944
 20
907.9
 30
0.0
 11
127.944
 21
908.9
 31
0.0
  0
LINE
  5
6BE
330
1E
100
AcDbEntity
  8
0
100
AcDbLine
 10
127.944
 20
901.1000000000001
 30
0.0
 11
128.255
 21
900.6
 31
0.0
  0
LINE
  5
6BF
330
1E
100
AcDbEntity
  8
0
100
AcDbLine
 10
127.944
 20
901.1000000000001
 30
0.0
 11
127.944
 21
902.1
 31
0.0
  0
LINE
  5
6C0
330
1E
100
AcDbEntity
  8
0
100
AcDbLine
 10
127.944
 20
902.1
 30
0.0
 11
128.255
 21
902.5999999999999
 31
0.0
  0
LINE
  5
6C1
330
1E
100
AcDbEntity
  8
0
100
AcDbLine
 10
127.944
 20
902.1
 30
0.0
 11
127.944
 21
901.1000000000001
 31
0.0
  0
LINE
  5
6C2
330
1E
100
AcDbEntity
  8
0
100
AcDbLine
 10
127.944
 20
895.2999999999999
 30
0.0
 11
128.255
 21
895.8
 31
0.0
  0
LINE
  5
6C3
330
1E
100
AcDbEntity
  8
0
100
AcDbLine
 10
127.944
 20
895.2999999999999
 30
0.0
 11
127.944
 21
894.2999999999999
 31
0.0
  0
LINE
  5
6C4
330
1E
100
AcDbEntity
  8
0
100
AcDbLine
 10
127.944
 20
894.2999999999999
 30
0.0
 11
128.255
 21
893.8
 31
0.0
  0
LINE
  5
6C5
330
1E
100
AcDbEntity
  8
0
100
AcDbLine
 10
127.944
 20
894.2999999999999
 30
0.0
 11
127.944
 21
895.2999999999999
 31
0.0
  0
LINE
  5
6C6
330
1E
100
AcDbEntity
  8
0
100
AcDbLine
 10
127.944
 20
888.4999999999999
 30
0.0
 11
128.255
 21
889.0
 31
0.0
  0
LINE
  5
6C7
330
1E
100
AcDbEntity
  8
0
100
AcDbLine
 10
127.944
 20
888.4999999999999
 30
0.0
 11
127.944
 21
887.5
 31
0.0
  0
LINE
  5
6C8
330
1E
100
AcDbEntity
  8
0
100
AcDbLine
 10
127.944
 20
887.5
 30
0.0
 11
128.255
 21
887.0
 31
0.0
  0
LINE
  5
6C9
330
1E
100
AcDbEntity
  8
0
100
AcDbLine
 10
127.944
 20
887.5
 30
0.0
 11
127.944
 21
888.4999999999999
 31
0.0
  0
LINE
  5
6CA
330
1E
100
AcDbEntity
  8
0
100
AcDbLine
 10
127.944
 20
880.7
 30
0.0
 11
128.255
 21
880.2000000000001
 31
0.0
  0
LINE
  5
6CB
330
1E
100
AcDbEntity
  8
0
100
AcDbLine
 10
127.944
 20
880.7
 30
0.0
 11
127.944
 21
881.7
 31
0.0
  0
LINE
  5
6CC
330
1E
100
AcDbEntity
  8
0
100
AcDbLine
 10
127.944
 20
881.7
 30
0.0
 11
128.255
 21
882.2
 31
0.0
  0
LINE
  5
6CD
330
1E
100
AcDbEntity
  8
0
100
AcDbLine
 10
127.944
 20
881.7
 30
0.0
 11
127.944
 21
880.7
 31
0.0
  0
LINE
  5
6CE
330
1E
100
AcDbEntity
  8
0
100
AcDbLine
 10
127.944
 20
874.9
 30
0.0
 11
128.255
 21
875.3999999999999
 31
0.0
  0
LINE
  5
6CF
330
1E
100
AcDbEntity
  8
0
100
AcDbLine
 10
127.944
 20
874.9
 30
0.0
 11
127.944
 21
873.9
 31
0.0
  0
LINE
  5
6D0
330
1E
100
AcDbEntity
  8
0
100
AcDbLine
 10
127.944
 20
873.9
 30
0.0
 11
128.255
 21
873.3999999999999
 31
0.0
  0
LINE
  5
6D1
330
1E
100
AcDbEntity
  8
0
100
AcDbLine
 10
127.944
 20
873.9
 30
0.0
 11
127.944
 21
874.9
 31
0.0
  0
LINE
  5
6D2
330
1E
100
AcDbEntity
  8
0
100
AcDbLine
 10
127.944
 20
867.1000000000001
 30
0.0
 11
128.255
 21
866.6
 31
0.0
  0
LINE
  5
6D3
330
1E
100
AcDbEntity
  8
0
100
AcDbLine
 10
127.944
 20
867.1000000000001
 30
0.0
 11
127.944
 21
868.1
 31
0.0
  0
LINE
  5
6D4
330
1E
100
AcDbEntity
  8
0
100
AcDbLine
 10
127.944
 20
868.1
 30
0.0
 11
128.255
 21
868.5999999999999
 31
0.0
  0
LINE
  5
6D5
330
1E
100
AcDbEntity
  8
0
100
AcDbLine
 10
127.944
 20
868.1
 30
0.0
 11
127.944
 21
867.1000000000001
 31
0.0
  0
LINE
  5
6D6
330
1E
100
AcDbEntity
  8
0
100
AcDbLine
 10
127.944
 20
861.2999999999999
 30
0.0
 11
128.255
 21
861.8
 31
0.0
  0
LINE
  5
6D7
330
1E
100
AcDbEntity
  8
0
100
AcDbLine
 10
127.944
 20
861.2999999999999
 30
0.0
 11
127.944
 21
860.2999999999999
 31
0.0
  0
LINE
  5
6D8
330
1E
100
AcDbEntity
  8
0
100
AcDbLine
 10
127.665
 20
855.0
 30
0.0
 11
128.255
 21
855.0
 31
0.0
  0
LINE
  5
6D9
330
1E
100
AcDbEntity
  8
0
100
AcDbLine
 10
127.944
 20
854.4999999999999
 30
0.0
 11
128.255
 21
855.0
 31
0.0
  0
LINE
  5
6DA
330
1E
100
AcDbEntity
  8
0
100
AcDbLine
 10
127.944
 20
854.4999999999999
 30
0.0
 11
127.944
 21
853.5
 31
0.0
  0
LINE
  5
6DB
330
1E
100
AcDbEntity
  8
0
100
AcDbLine
 10
128.4999999999999
 20
853.0
 30
0.0
 11
128.877
 21
853.0
 31
0.0
  0
LINE
  5
6DC
330
1E
100
AcDbEntity
  8
0
100
AcDbLine
 10
128.877
 20
853.0
 30
0.0
 11
129.1879999999999
 21
853.5
 31
0.0
  0
LINE
  5
6DD
330
1E
100
AcDbEntity
  8
0
100
AcDbLine
 10
129.1879999999999
 20
853.5
 30
0.0
 11
129.1879999999999
 21
854.4999999999999
 31
0.0
  0
LINE
  5
6DE
330
1E
100
AcDbEntity
  8
0
100
AcDbLine
 10
128.255
 20
855.0
 30
0.0
 11
128.877
 21
855.0
 31
0.0
  0
LINE
  5
6DF
330
1E
100
AcDbEntity
  8
0
100
AcDbLine
 10
128.255
 20
909.3999999999999
 30
0.0
 11
128.877
 21
909.3999999999999
 31
0.0
  0
LINE
  5
6E0
330
1E
100
AcDbEntity
  8
0
100
AcDbLine
 10
128.255
 20
921.0
 30
0.0
 11
128.877
 21
921.0
 31
0.0
  0
LINE
  5
6E1
330
1E
100
AcDbEntity
  8
0
100
AcDbLine
 10
128.255
 20
923.0
 30
0.0
 11
128.877
 21
923.0
 31
0.0
  0
LINE
  5
6E2
330
1E
100
AcDbEntity
  8
0
100
AcDbLine
 10
128.255
 20
916.2
 30
0.0
 11
128.877
 21
916.2
 31
0.0
  0
LINE
  5
6E3
330
1E
100
AcDbEntity
  8
0
100
AcDbLine
 10
128.255
 20
914.2000000000001
 30
0.0
 11
128.877
 21
914.2000000000001
 31
0.0
  0
LINE
  5
6E4
330
1E
100
AcDbEntity
  8
0
100
AcDbLine
 10
128.255
 20
907.3999999999999
 30
0.0
 11
128.877
 21
907.3999999999999
 31
0.0
  0
LINE
  5
6E5
330
1E
100
AcDbEntity
  8
0
100
AcDbLine
 10
128.255
 20
900.6
 30
0.0
 11
128.877
 21
900.6
 31
0.0
  0
LINE
  5
6E6
330
1E
100
AcDbEntity
  8
0
100
AcDbLine
 10
128.255
 20
902.5999999999999
 30
0.0
 11
128.877
 21
902.5999999999999
 31
0.0
  0
LINE
  5
6E7
330
1E
100
AcDbEntity
  8
0
100
AcDbLine
 10
128.255
 20
895.8
 30
0.0
 11
128.877
 21
895.8
 31
0.0
  0
LINE
  5
6E8
330
1E
100
AcDbEntity
  8
0
100
AcDbLine
 10
128.255
 20
893.8
 30
0.0
 11
128.877
 21
893.8
 31
0.0
  0
LINE
  5
6E9
330
1E
100
AcDbEntity
  8
0
100
AcDbLine
 10
128.255
 20
889.0
 30
0.0
 11
128.877
 21
889.0
 31
0.0
  0
LINE
  5
6EA
330
1E
100
AcDbEntity
  8
0
100
AcDbLine
 10
128.255
 20
887.0
 30
0.0
 11
128.877
 21
887.0
 31
0.0
  0
LINE
  5
6EB
330
1E
100
AcDbEntity
  8
0
100
AcDbLine
 10
128.255
 20
880.2000000000001
 30
0.0
 11
128.877
 21
880.2000000000001
 31
0.0
  0
LINE
  5
6EC
330
1E
100
AcDbEntity
  8
0
100
AcDbLine
 10
128.255
 20
882.2
 30
0.0
 11
128.877
 21
882.2
 31
0.0
  0
LINE
  5
6ED
330
1E
100
AcDbEntity
  8
0
100
AcDbLine
 10
128.255
 20
875.3999999999999
 30
0.0
 11
128.877
 21
875.3999999999999
 31
0.0
  0
LINE
  5
6EE
330
1E
100
AcDbEntity
  8
0
100
AcDbLine
 10
128.255
 20
873.3999999999999
 30
0.0
 11
128.877
 21
873.3999999999999
 31
0.0
  0
LINE
  5
6EF
330
1E
100
AcDbEntity
  8
0
100
AcDbLine
 10
128.255
 20
866.6
 30
0.0
 11
128.877
 21
866.6
 31
0.0
  0
LINE
  5
6F0
330
1E
100
AcDbEntity
  8
0
100
AcDbLine
 10
128.255
 20
868.5999999999999
 30
0.0
 11
128.877
 21
868.5999999999999
 31
0.0
  0
LINE
  5
6F1
330
1E
100
AcDbEntity
  8
0
100
AcDbLine
 10
128.255
 20
859.7999999999998
 30
0.0
 11
128.877
 21
859.7999999999998
 31
0.0
  0
LINE
  5
6F2
330
1E
100
AcDbEntity
  8
0
100
AcDbLine
 10
128.877
 20
859.7999999999998
 30
0.0
 11
129.1879999999999
 21
860.2999999999999
 31
0.0
  0
LINE
  5
6F3
330
1E
100
AcDbEntity
  8
0
100
AcDbLine
 10
128.877
 20
866.6
 30
0.0
 11
129.1879999999999
 21
867.1000000000001
 31
0.0
  0
LINE
  5
6F4
330
1E
100
AcDbEntity
  8
0
100
AcDbLine
 10
128.4999999999999
 20
873.3999999999999
 30
0.0
 11
128.877
 21
873.3999999999999
 31
0.0
  0
LINE
  5
6F5
330
1E
100
AcDbEntity
  8
0
100
AcDbLine
 10
128.877
 20
880.2000000000001
 30
0.0
 11
129.1879999999999
 21
880.7
 31
0.0
  0
LINE
  5
6F6
330
1E
100
AcDbEntity
  8
0
100
AcDbLine
 10
128.4999999999999
 20
887.0
 30
0.0
 11
128.877
 21
887.0
 31
0.0
  0
LINE
  5
6F7
330
1E
100
AcDbEntity
  8
0
100
AcDbLine
 10
128.4999999999999
 20
893.8
 30
0.0
 11
128.877
 21
893.8
 31
0.0
  0
LINE
  5
6F8
330
1E
100
AcDbEntity
  8
0
100
AcDbLine
 10
128.877
 20
900.6
 30
0.0
 11
129.1879999999999
 21
901.1000000000001
 31
0.0
  0
LINE
  5
6F9
330
1E
100
AcDbEntity
  8
0
100
AcDbLine
 10
128.877
 20
907.3999999999999
 30
0.0
 11
129.1879999999999
 21
907.9
 31
0.0
  0
LINE
  5
6FA
330
1E
100
AcDbEntity
  8
0
100
AcDbLine
 10
128.877
 20
909.3999999999999
 30
0.0
 11
129.1879999999999
 21
908.9
 31
0.0
  0
LINE
  5
6FB
330
1E
100
AcDbEntity
  8
0
100
AcDbLine
 10
128.4999999999999
 20
921.0
 30
0.0
 11
128.877
 21
921.0
 31
0.0
  0
LINE
  5
6FC
330
1E
100
AcDbEntity
  8
0
100
AcDbLine
 10
128.877
 20
921.0
 30
0.0
 11
129.1879999999999
 21
921.4999999999999
 31
0.0
  0
LINE
  5
6FD
330
1E
100
AcDbEntity
  8
0
100
AcDbLine
 10
128.877
 20
923.0
 30
0.0
 11
129.1879999999999
 21
922.4999999999999
 31
0.0
  0
LINE
  5
6FE
330
1E
100
AcDbEntity
  8
0
100
AcDbLine
 10
128.877
 20
916.2
 30
0.0
 11
129.1879999999999
 21
915.7
 31
0.0
  0
LINE
  5
6FF
330
1E
100
AcDbEntity
  8
0
100
AcDbLine
 10
128.4999999999999
 20
914.2000000000001
 30
0.0
 11
128.877
 21
914.2000000000001
 31
0.0
  0
LINE
  5
700
330
1E
100
AcDbEntity
  8
0
100
AcDbLine
 10
128.877
 20
914.2000000000001
 30
0.0
 11
129.1879999999999
 21
914.7
 31
0.0
  0
LINE
  5
701
330
1E
100
AcDbEntity
  8
0
100
AcDbLine
 10
128.4999999999999
 20
907.3999999999999
 30
0.0
 11
128.877
 21
907.3999999999999
 31
0.0
  0
LINE
  5
702
330
1E
100
AcDbEntity
  8
0
100
AcDbLine
 10
128.877
 20
902.5999999999999
 30
0.0
 11
129.1879999999999
 21
902.1
 31
0.0
  0
LINE
  5
703
330
1E
100
AcDbEntity
  8
0
100
AcDbLine
 10
128.4999999999999
 20
900.6
 30
0.0
 11
128.877
 21
900.6
 31
0.0
  0
LINE
  5
704
330
1E
100
AcDbEntity
  8
0
100
AcDbLine
 10
128.877
 20
895.8
 30
0.0
 11
129.1879999999999
 21
895.2999999999999
 31
0.0
  0
LINE
  5
705
330
1E
100
AcDbEntity
  8
0
100
AcDbLine
 10
128.877
 20
893.8
 30
0.0
 11
129.1879999999999
 21
894.2999999999999
 31
0.0
  0
LINE
  5
706
330
1E
100
AcDbEntity
  8
0
100
AcDbLine
 10
128.877
 20
889.0
 30
0.0
 11
129.1879999999999
 21
888.4999999999999
 31
0.0
  0
LINE
  5
707
330
1E
100
AcDbEntity
  8
0
100
AcDbLine
 10
128.877
 20
887.0
 30
0.0
 11
129.1879999999999
 21
887.5
 31
0.0
  0
LINE
  5
708
330
1E
100
AcDbEntity
  8
0
100
AcDbLine
 10
128.877
 20
882.2
 30
0.0
 11
129.1879999999999
 21
881.7
 31
0.0
  0
LINE
  5
709
330
1E
100
AcDbEntity
  8
0
100
AcDbLine
 10
128.4999999999999
 20
880.2000000000001
 30
0.0
 11
128.877
 21
880.2000000000001
 31
0.0
  0
LINE
  5
70A
330
1E
100
AcDbEntity
  8
0
100
AcDbLine
 10
128.877
 20
875.3999999999999
 30
0.0
 11
129.1879999999999
 21
874.9
 31
0.0
  0
LINE
  5
70B
330
1E
100
AcDbEntity
  8
0
100
AcDbLine
 10
128.877
 20
873.3999999999999
 30
0.0
 11
129.1879999999999
 21
873.9
 31
0.0
  0
LINE
  5
70C
330
1E
100
AcDbEntity
  8
0
100
AcDbLine
 10
128.877
 20
868.5999999999999
 30
0.0
 11
129.1879999999999
 21
868.1
 31
0.0
  0
LINE
  5
70D
330
1E
100
AcDbEntity
  8
0
100
AcDbLine
 10
128.4999999999999
 20
866.6
 30
0.0
 11
128.877
 21
866.6
 31
0.0
  0
LINE
  5
70E
330
1E
100
AcDbEntity
  8
0
100
AcDbLine
 10
129.1879999999999
 20
873.9
 30
0.0
 11
129.1879999999999
 21
874.9
 31
0.0
  0
LINE
  5
70F
330
1E
100
AcDbEntity
  8
0
100
AcDbLine
 10
129.1879999999999
 20
908.9
 30
0.0
 11
129.1879999999999
 21
907.9
 31
0.0
  0
LINE
  5
710
330
1E
100
AcDbEntity
  8
0
100
AcDbLine
 10
129.1879999999999
 20
907.9
 30
0.0
 11
129.1879999999999
 21
908.9
 31
0.0
  0
LINE
  5
711
330
1E
100
AcDbEntity
  8
0
100
AcDbLine
 10
129.1879999999999
 20
921.4999999999999
 30
0.0
 11
129.1879999999999
 21
922.4999999999999
 31
0.0
  0
LINE
  5
712
330
1E
100
AcDbEntity
  8
0
100
AcDbLine
 10
129.1879999999999
 20
922.4999999999999
 30
0.0
 11
129.1879999999999
 21
921.4999999999999
 31
0.0
  0
LINE
  5
713
330
1E
100
AcDbEntity
  8
0
100
AcDbLine
 10
129.1879999999999
 20
914.7
 30
0.0
 11
129.1879999999999
 21
915.7
 31
0.0
  0
LINE
  5
714
330
1E
100
AcDbEntity
  8
0
100
AcDbLine
 10
129.1879999999999
 20
915.7
 30
0.0
 11
129.1879999999999
 21
914.7
 31
0.0
  0
LINE
  5
715
330
1E
100
AcDbEntity
  8
0
100
AcDbLine
 10
129.1879999999999
 20
902.1
 30
0.0
 11
129.1879999999999
 21
901.1000000000001
 31
0.0
  0
LINE
  5
716
330
1E
100
AcDbEntity
  8
0
100
AcDbLine
 10
129.1879999999999
 20
901.1000000000001
 30
0.0
 11
129.1879999999999
 21
902.1
 31
0.0
  0
LINE
  5
717
330
1E
100
AcDbEntity
  8
0
100
AcDbLine
 10
129.1879999999999
 20
894.2999999999999
 30
0.0
 11
129.1879999999999
 21
895.2999999999999
 31
0.0
  0
LINE
  5
718
330
1E
100
AcDbEntity
  8
0
100
AcDbLine
 10
129.1879999999999
 20
895.2999999999999
 30
0.0
 11
129.1879999999999
 21
894.2999999999999
 31
0.0
  0
LINE
  5
719
330
1E
100
AcDbEntity
  8
0
100
AcDbLine
 10
129.1879999999999
 20
887.5
 30
0.0
 11
129.1879999999999
 21
888.4999999999999
 31
0.0
  0
LINE
  5
71A
330
1E
100
AcDbEntity
  8
0
100
AcDbLine
 10
129.1879999999999
 20
888.4999999999999
 30
0.0
 11
129.1879999999999
 21
887.5
 31
0.0
  0
LINE
  5
71B
330
1E
100
AcDbEntity
  8
0
100
AcDbLine
 10
129.1879999999999
 20
881.7
 30
0.0
 11
129.1879999999999
 21
880.7
 31
0.0
  0
LINE
  5
71C
330
1E
100
AcDbEntity
  8
0
100
AcDbLine
 10
129.1879999999999
 20
880.7
 30
0.0
 11
129.1879999999999
 21
881.7
 31
0.0
  0
LINE
  5
71D
330
1E
100
AcDbEntity
  8
0
100
AcDbLine
 10
129.1879999999999
 20
874.9
 30
0.0
 11
129.1879999999999
 21
873.9
 31
0.0
  0
LINE
  5
71E
330
1E
100
AcDbEntity
  8
0
100
AcDbLine
 10
129.1879999999999
 20
868.1
 30
0.0
 11
129.1879999999999
 21
867.1000000000001
 31
0.0
  0
LINE
  5
71F
330
1E
100
AcDbEntity
  8
0
100
AcDbLine
 10
129.1879999999999
 20
867.1000000000001
 30
0.0
 11
129.1879999999999
 21
868.1
 31
0.0
  0
LINE
  5
720
330
1E
100
AcDbEntity
  8
0
100
AcDbLine
 10
129.1879999999999
 20
861.2999999999999
 30
0.0
 11
129.1879999999999
 21
860.2999999999999
 31
0.0
  0
LINE
  5
721
330
1E
100
AcDbEntity
  8
0
100
AcDbLine
 10
129.1879999999999
 20
860.2999999999999
 30
0.0
 11
129.1879999999999
 21
861.2999999999999
 31
0.0
  0
LINE
  5
722
330
1E
100
AcDbEntity
  8
0
100
AcDbLine
 10
128.877
 20
861.8
 30
0.0
 11
129.1879999999999
 21
861.2999999999999
 31
0.0
  0
LINE
  5
723
330
1E
100
AcDbEntity
  8
0
100
AcDbLine
 10
128.4999999999999
 20
859.7999999999998
 30
0.0
 11
128.877
 21
859.7999999999998
 31
0.0
  0
LINE
  5
724
330
1E
100
AcDbEntity
  8
0
100
AcDbLine
 10
128.255
 20
861.8
 30
0.0
 11
128.877
 21
861.8
 31
0.0
  0
LINE
  5
725
330
1E
100
AcDbEntity
  8
0
100
AcDbLine
 10
128.877
 20
855.0
 30
0.0
 11
129.1879999999999
 21
854.4999999999999
 31
0.0
  0
LINE
  5
726
330
1E
100
AcDbEntity
  8
0
100
AcDbLine
 10
129.1879999999999
 20
854.4999999999999
 30
0.0
 11
129.1879999999999
 21
853.5
 31
0.0
  0
LINE
  5
727
330
1E
100
AcDbEntity
  8
0
100
AcDbLine
 10
128.255
 20
853.0
 30
0.0
 11
128.877
 21
853.0
 31
0.0
  0
LINE
  5
728
330
1E
100
AcDbEntity
  8
0
100
AcDbLine
 10
127.944
 20
853.5
 30
0.0
 11
128.255
 21
853.0
 31
0.0
  0
LINE
  5
729
330
1E
100
AcDbEntity
  8
0
100
AcDbLine
 10
127.944
 20
853.5
 30
0.0
 11
127.944
 21
854.4999999999999
 31
0.0
  0
LINE
  5
72A
330
1E
100
AcDbEntity
  8
0
100
AcDbLine
 10
128.4999999999999
 20
924.5
 30
0.0
 11
130.4
 21
924.5
 31
0.0
  0
LINE
  5
72B
330
1E
100
AcDbEntity
  8
0
100
AcDbLine
 10
132.0
 20
924.5
 30
0.0
 11
132.0
 21
771.0
 31
0.0
  0
LINE
  5
72C
330
1E
100
AcDbEntity
  8
0
100
AcDbLine
 10
130.4
 20
924.5
 30
0.0
 11
131.6
 21
924.5
 31
0.0
  0
LINE
  5
72D
330
1E
100
AcDbEntity
  8
0
100
AcDbLine
 10
131.6
 20
924.5
 30
0.0
 11
132.0
 21
924.5
 31
0.0
  0
LINE
  5
72E
330
1E
100
AcDbEntity
  8
0
100
AcDbLine
 10
126.0
 20
924.5
 30
0.0
 11
128.4999999999999
 21
924.5
 31
0.0
  0
LINE
  5
72F
330
1E
100
AcDbEntity
  8
0
100
AcDbLine
 10
127.8
 20
925.0
 30
0.0
 11
129.4999999999999
 21
925.0
 31
0.0
  0
LINE
  5
730
330
1E
100
AcDbEntity
  8
0
100
AcDbLine
 10
129.4999999999999
 20
925.0
 30
0.0
 11
130.6
 21
925.0
 31
0.0
  0
LINE
  5
731
330
1E
100
AcDbEntity
  8
0
100
AcDbLine
 10
131.0
 20
925.0
 30
0.0
 11
132.0
 21
924.5
 31
0.0
  0
LINE
  5
732
330
1E
100
AcDbEntity
  8
0
100
AcDbLine
 10
131.0
 20
925.0
 30
0.0
 11
132.0
 21
925.5
 31
0.0
  0
LINE
  5
733
330
1E
100
AcDbEntity
  8
0
100
AcDbLine
 10
130.6
 20
925.0
 30
0.0
 11
131.0
 21
925.0
 31
0.0
  0
LINE
  5
734
330
1E
100
AcDbEntity
  8
0
100
AcDbLine
 10
125.5
 20
925.0
 30
0.0
 11
127.8
 21
925.0
 31
0.0
  0
LINE
  5
735
330
1E
100
AcDbEntity
  8
0
100
AcDbLine
 10
122.7999999999999
 20
925.0
 30
0.0
 11
125.5
 21
925.0
 31
0.0
  0
LINE
  5
736
330
1E
100
AcDbEntity
  8
0
100
AcDbLine
 10
123.0999999999999
 20
924.5
 30
0.0
 11
126.0
 21
924.5
 31
0.0
  0
LINE
  5
737
330
1E
100
AcDbEntity
  8
0
100
AcDbLine
 10
120.0
 20
924.5
 30
0.0
 11
123.0999999999999
 21
924.5
 31
0.0
  0
LINE
  5
738
330
1E
100
AcDbEntity
  8
0
100
AcDbLine
 10
117.0
 20
1040.619215979089
 30
0.0
 11
117.0
 21
1035.02
 31
0.0
  0
LINE
  5
739
330
1E
100
AcDbEntity
  8
0
100
AcDbLine
 10
117.0
 20
1035.02
 30
0.0
 11
117.2279999999999
 21
1035.02
 31
0.0
  0
LINE
  5
73A
330
1E
100
AcDbEntity
  8
0
100
AcDbLine
 10
117.0
 20
1035.02
 30
0.0
 11
117.0
 21
1040.619215979089
 31
0.0
  0
LINE
  5
73B
330
1E
100
AcDbEntity
  8
0
100
AcDbLine
 10
128.4999999999999
 20
925.5
 30
0.0
 11
130.4
 21
925.5
 31
0.0
  0
LINE
  5
73C
330
1E
100
AcDbEntity
  8
0
100
AcDbLine
 10
130.4
 20
925.5
 30
0.0
 11
131.6
 21
925.5
 31
0.0
  0
LINE
  5
73D
330
1E
100
AcDbEntity
  8
0
100
AcDbLine
 10
132.0
 20
925.5
 30
0.0
 11
132.0
 21
944.5
 31
0.0
  0
LINE
  5
73E
330
1E
100
AcDbEntity
  8
0
100
AcDbLine
 10
131.6
 20
925.5
 30
0.0
 11
132.0
 21
925.5
 31
0.0
  0
LINE
  5
73F
330
1E
100
AcDbEntity
  8
0
100
AcDbLine
 10
126.0
 20
925.5
 30
0.0
 11
128.4999999999999
 21
925.5
 31
0.0
  0
LINE
  5
740
330
1E
100
AcDbEntity
  8
0
100
AcDbLine
 10
123.0999999999999
 20
925.5
 30
0.0
 11
126.0
 21
925.5
 31
0.0
  0
LINE
  5
741
330
1E
100
AcDbEntity
  8
0
100
AcDbLine
 10
117.2279999999999
 20
1035.02
 30
0.0
 11
117.879
 21
1035.02
 31
0.0
  0
LINE
  5
742
330
1E
100
AcDbEntity
  8
0
100
AcDbLine
 10
117.879
 20
1035.02
 30
0.0
 11
118.852
 21
1035.02
 31
0.0
  0
LINE
  5
743
330
1E
100
AcDbEntity
  8
0
100
AcDbLine
 10
118.852
 20
1035.02
 30
0.0
 11
120.0
 21
1035.02
 31
0.0
  0
LINE
  5
744
330
1E
100
AcDbEntity
  8
0
100
AcDbLine
 10
119.0
 20
2107.0
 30
0.0
 11
119.0
 21
2105.0
 31
0.0
  0
LINE
  5
745
330
1E
100
AcDbEntity
  8
0
100
AcDbLine
 10
119.0
 20
2107.0
 30
0.0
 11
121.0
 21
2107.0
 31
0.0
  0
LINE
  5
746
330
1E
100
AcDbEntity
  8
0
100
AcDbLine
 10
120.0
 20
1040.019999999999
 30
0.0
 11
125.3579999999999
 21
1041.09
 31
0.0
  0
LINE
  5
747
330
1E
100
AcDbEntity
  8
0
100
AcDbLine
 10
120.0
 20
1068.019999999999
 30
0.0
 11
125.3579999999999
 21
1066.96
 31
0.0
  0
LINE
  5
748
330
1E
100
AcDbEntity
  8
0
100
AcDbLine
 10
120.0
 20
1035.02
 30
0.0
 11
121.1479999999999
 21
1035.02
 31
0.0
  0
LINE
  5
749
330
1E
100
AcDbEntity
  8
0
100
AcDbLine
 10
120.0
 20
1071.0
 30
0.0
 11
123.317
 21
1070.67
 31
0.0
  0
LINE
  5
74C
330
1E
100
AcDbEntity
  8
0
100
AcDbLine
 10
119.479
 20
2095.0
 30
0.0
 11
123.326
 21
2095.0
 31
0.0
  0
LINE
  5
74D
330
1E
100
AcDbEntity
  8
0
100
AcDbLine
 10
119.0
 20
2105.0
 30
0.0
 11
119.0
 21
2107.0
 31
0.0
  0
LINE
  5
74E
330
1E
100
AcDbEntity
  8
0
100
AcDbLine
 10
119.0
 20
2105.0
 30
0.0
 11
121.0
 21
2105.0
 31
0.0
  0
LINE
  5
74F
330
1E
100
AcDbEntity
  8
0
100
AcDbLine
 10
120.0
 20
2165.0
 30
0.0
 11
123.9679999999999
 21
2165.0
 31
0.0
  0
LINE
  5
750
330
1E
100
AcDbEntity
  8
0
100
AcDbLine
 10
120.0
 20
2135.0
 30
0.0
 11
123.0999999999999
 21
2135.0
 31
0.0
  0
LINE
  5
751
330
1E
100
AcDbEntity
  8
0
100
AcDbLine
 10
120.0
 20
2135.0
 30
0.0
 11
123.9679999999999
 21
2135.0
 31
0.0
  0
LINE
  5
752
330
1E
100
AcDbEntity
  8
0
100
AcDbLine
 10
120.0
 20
2122.0
 30
0.0
 11
126.5
 21
2122.0
 31
0.0
  0
LINE
  5
753
330
1E
100
AcDbEntity
  8
0
100
AcDbLine
 10
120.0
 20
2118.0
 30
0.0
 11
135.5999999999999
 21
2118.0
 31
0.0
  0
LINE
  5
754
330
1E
100
AcDbEntity
  8
0
100
AcDbLine
 10
120.0
 20
2117.0
 30
0.0
 11
135.5999999999999
 21
2117.0
 31
0.0
  0
LINE
  5
755
330
1E
100
AcDbEntity
  8
0
100
AcDbLine
 10
120.0
 20
2108.0
 30
0.0
 11
135.5999999999999
 21
2108.0
 31
0.0
  0
LINE
  5
756
330
1E
100
AcDbEntity
  8
0
100
AcDbLine
 10
120.0
 20
2107.0
 30
0.0
 11
135.5999999999999
 21
2107.0
 31
0.0
  0
LINE
  5
757
330
1E
100
AcDbEntity
  8
0
100
AcDbLine
 10
120.0
 20
2175.0
 30
0.0
 11
124.712
 21
2175.0
 31
0.0
  0
LINE
  5
758
330
1E
100
AcDbEntity
  8
0
100
AcDbLine
 10
120.0
 20
945.0
 30
0.0
 11
123.0
 21
945.0
 31
0.0
  0
LINE
  5
759
330
1E
100
AcDbEntity
  8
0
100
AcDbLine
 10
128.4999999999999
 20
944.5
 30
0.0
 11
130.4
 21
944.5
 31
0.0
  0
LINE
  5
75A
330
1E
100
AcDbEntity
  8
0
100
AcDbLine
 10
132.0
 20
944.5
 30
0.0
 11
132.0
 21
925.5
 31
0.0
  0
LINE
  5
75B
330
1E
100
AcDbEntity
  8
0
100
AcDbLine
 10
130.4
 20
944.5
 30
0.0
 11
131.6
 21
944.5
 31
0.0
  0
LINE
  5
75C
330
1E
100
AcDbEntity
  8
0
100
AcDbLine
 10
131.6
 20
944.5
 30
0.0
 11
132.0
 21
944.5
 31
0.0
  0
LINE
  5
75D
330
1E
100
AcDbEntity
  8
0
100
AcDbLine
 10
126.0
 20
944.5
 30
0.0
 11
128.4999999999999
 21
944.5
 31
0.0
  0
LINE
  5
75E
330
1E
100
AcDbEntity
  8
0
100
AcDbLine
 10
123.0
 20
1035.02
 30
0.0
 11
123.0
 21
1040.61910414334
 31
0.0
  0
LINE
  5
75F
330
1E
100
AcDbEntity
  8
0
100
AcDbLine
 10
122.772
 20
1035.02
 30
0.0
 11
123.0
 21
1035.02
 31
0.0
  0
LINE
  5
760
330
1E
100
AcDbEntity
  8
0
100
AcDbLine
 10
122.121
 20
1035.02
 30
0.0
 11
122.772
 21
1035.02
 31
0.0
  0
LINE
  5
761
330
1E
100
AcDbEntity
  8
0
100
AcDbLine
 10
121.1479999999999
 20
1035.02
 30
0.0
 11
122.121
 21
1035.02
 31
0.0
  0
LINE
  5
763
330
1E
100
AcDbEntity
  8
0
100
AcDbLine
 10
123.0
 20
1040.61910414334
 30
0.0
 11
123.0
 21
1035.02
 31
0.0
  0
LINE
  5
764
330
1E
100
AcDbEntity
  8
0
100
AcDbLine
 10
123.0
 20
1037.28941814893
 30
0.0
 11
123.317
 21
1037.32
 31
0.0
  0
LINE
  5
766
330
1E
100
AcDbEntity
  8
0
100
AcDbLine
 10
121.0
 20
2107.0
 30
0.0
 11
121.0
 21
2105.0
 31
0.0
  0
LINE
  5
767
330
1E
100
AcDbEntity
  8
0
100
AcDbLine
 10
121.0
 20
2107.0
 30
0.0
 11
123.693
 21
2107.0
 31
0.0
  0
LINE
  5
768
330
1E
100
AcDbEntity
  8
0
100
AcDbLine
 10
121.0
 20
2105.0
 30
0.0
 11
121.0
 21
2107.0
 31
0.0
  0
LINE
  5
769
330
1E
100
AcDbEntity
  8
0
100
AcDbLine
 10
128.0999999999999
 20
945.0
 30
0.0
 11
130.0
 21
945.0
 31
0.0
  0
LINE
  5
76A
330
1E
100
AcDbEntity
  8
0
100
AcDbLine
 10
130.0
 20
945.0
 30
0.0
 11
131.0999999999999
 21
945.0
 31
0.0
  0
LINE
  5
76B
330
1E
100
AcDbEntity
  8
0
100
AcDbLine
 10
131.4999999999999
 20
945.0
 30
0.0
 11
132.0
 21
944.5
 31
0.0
  0
LINE
  5
76C
330
1E
100
AcDbEntity
  8
0
100
AcDbLine
 10
131.0999999999999
 20
945.0
 30
0.0
 11
131.4999999999999
 21
945.0
 31
0.0
  0
LINE
  5
76D
330
1E
100
AcDbEntity
  8
0
100
AcDbLine
 10
123.317
 20
1070.67
 30
0.0
 11
126.506
 21
1069.7
 31
0.0
  0
LINE
  5
771
330
1E
100
AcDbEntity
  8
0
100
AcDbLine
 10
123.317
 20
1037.32
 30
0.0
 11
126.506
 21
1038.289999999999
 31
0.0
  0
LINE
  5
776
330
1E
100
AcDbEntity
  8
0
100
AcDbLine
 10
123.326
 20
2095.0
 30
0.0
 11
126.414
 21
2095.0
 31
0.0
  0
LINE
  5
77B
330
1E
100
AcDbEntity
  8
0
100
AcDbLine
 10
123.693
 20
2105.0
 30
0.0
 11
123.693
 21
2107.0
 31
0.0
  0
LINE
  5
77C
330
1E
100
AcDbEntity
  8
0
100
AcDbLine
 10
123.693
 20
2105.0
 30
0.0
 11
124.2099999999999
 21
2105.0
 31
0.0
  0
LINE
  5
77D
330
1E
100
AcDbEntity
  8
0
100
AcDbLine
 10
123.693
 20
2105.0
 30
0.0
 11
125.625
 21
2105.0
 31
0.0
  0
LINE
  5
77E
330
1E
100
AcDbEntity
  8
0
100
AcDbLine
 10
123.0999999999999
 20
2135.0
 30
0.0
 11
126.0
 21
2135.0
 31
0.0
  0
LINE
  5
77F
330
1E
100
AcDbEntity
  8
0
100
AcDbLine
 10
123.9679999999999
 20
2135.0
 30
0.0
 11
127.6159999999999
 21
2135.0
 31
0.0
  0
LINE
  5
780
330
1E
100
AcDbEntity
  8
0
100
AcDbLine
 10
123.9679999999999
 20
2165.0
 30
0.0
 11
127.6159999999999
 21
2165.0
 31
0.0
  0
LINE
  5
781
330
1E
100
AcDbEntity
  8
0
100
AcDbLine
 10
124.2099999999999
 20
2107.0
 30
0.0
 11
126.142
 21
2107.0
 31
0.0
  0
LINE
  5
782
330
1E
100
AcDbEntity
  8
0
100
AcDbLine
 10
124.2099999999999
 20
2107.0
 30
0.0
 11
124.2099999999999
 21
2105.0
 31
0.0
  0
LINE
  5
783
330
1E
100
AcDbEntity
  8
0
100
AcDbLine
 10
123.693
 20
2107.0
 30
0.0
 11
123.693
 21
2105.0
 31
0.0
  0
LINE
  5
784
330
1E
100
AcDbEntity
  8
0
100
AcDbLine
 10
123.693
 20
2107.0
 30
0.0
 11
124.2099999999999
 21
2107.0
 31
0.0
  0
LINE
  5
785
330
1E
100
AcDbEntity
  8
0
100
AcDbLine
 10
124.2099999999999
 20
2105.0
 30
0.0
 11
126.142
 21
2105.0
 31
0.0
  0
LINE
  5
786
330
1E
100
AcDbEntity
  8
0
100
AcDbLine
 10
124.2099999999999
 20
2105.0
 30
0.0
 11
124.2099999999999
 21
2107.0
 31
0.0
  0
LINE
  5
787
330
1E
100
AcDbEntity
  8
0
100
AcDbLine
 10
125.3579999999999
 20
1041.09
 30
0.0
 11
129.9
 21
1044.119999999999
 31
0.0
  0
LINE
  5
788
330
1E
100
AcDbEntity
  8
0
100
AcDbLine
 10
125.3579999999999
 20
1066.96
 30
0.0
 11
129.9
 21
1063.92
 31
0.0
  0
LINE
  5
78E
330
1E
100
AcDbEntity
  8
0
100
AcDbLine
 10
126.506
 20
1038.289999999999
 30
0.0
 11
129.4449999999999
 21
1039.86
 31
0.0
  0
LINE
  5
791
330
1E
100
AcDbEntity
  8
0
100
AcDbLine
 10
126.506
 20
1069.7
 30
0.0
 11
129.4449999999999
 21
1068.13
 31
0.0
  0
LINE
  5
799
330
1E
100
AcDbEntity
  8
0
100
AcDbLine
 10
126.414
 20
2095.0
 30
0.0
 11
129.192
 21
2095.0
 31
0.0
  0
LINE
  5
79A
330
1E
100
AcDbEntity
  8
0
100
AcDbLine
 10
126.142
 20
2105.0
 30
0.0
 11
126.142
 21
2107.0
 31
0.0
  0
LINE
  5
79B
330
1E
100
AcDbEntity
  8
0
100
AcDbLine
 10
127.575
 20
2105.0
 30
0.0
 11
127.575
 21
2107.0
 31
0.0
  0
LINE
  5
79C
330
1E
100
AcDbEntity
  8
0
100
AcDbLine
 10
127.575
 20
2105.0
 30
0.0
 11
128.0929999999999
 21
2105.0
 31
0.0
  0
LINE
  5
79D
330
1E
100
AcDbEntity
  8
0
100
AcDbLine
 10
127.575
 20
2105.0
 30
0.0
 11
129.507
 21
2105.0
 31
0.0
  0
LINE
  5
79E
330
1E
100
AcDbEntity
  8
0
100
AcDbLine
 10
128.0929999999999
 20
2105.0
 30
0.0
 11
130.025
 21
2105.0
 31
0.0
  0
LINE
  5
79F
330
1E
100
AcDbEntity
  8
0
100
AcDbLine
 10
128.0929999999999
 20
2105.0
 30
0.0
 11
128.0929999999999
 21
2107.0
 31
0.0
  0
LINE
  5
7A0
330
1E
100
AcDbEntity
  8
0
100
AcDbLine
 10
125.625
 20
2105.0
 30
0.0
 11
126.142
 21
2105.0
 31
0.0
  0
LINE
  5
7A5
330
1E
100
AcDbEntity
  8
0
100
AcDbLine
 10
129.4449999999999
 20
1039.86
 30
0.0
 11
132.021
 21
1041.98
 31
0.0
  0
LINE
  5
7A8
330
1E
100
AcDbEntity
  8
0
100
AcDbLine
 10
129.4449999999999
 20
1068.13
 30
0.0
 11
132.021
 21
1066.019999999999
 31
0.0
  0
LINE
  5
7A9
330
1E
100
AcDbEntity
  8
0
100
AcDbLine
 10
129.192
 20
2095.0
 30
0.0
 11
131.298
 21
2095.0
 31
0.0
  0
LINE
  5
7AA
330
1E
100
AcDbEntity
  8
0
100
AcDbLine
 10
129.507
 20
2105.0
 30
0.0
 11
130.025
 21
2105.0
 31
0.0
  0
LINE
  5
7AB
330
1E
100
AcDbEntity
  8
0
100
AcDbLine
 10
128.1339999999999
 20
2105.0
 30
0.0
 11
129.1339999999999
 21
2105.0
 31
0.0
  0
LINE
  5
7AC
330
1E
100
AcDbEntity
  8
0
100
AcDbLine
 10
128.1339999999999
 20
2105.0
 30
0.0
 11
129.866
 21
2105.0
 31
0.0
  0
LINE
  5
7AD
330
1E
100
AcDbEntity
  8
0
100
AcDbLine
 10
126.142
 20
2107.0
 30
0.0
 11
126.142
 21
2105.0
 31
0.0
  0
LINE
  5
7AE
330
1E
100
AcDbEntity
  8
0
100
AcDbLine
 10
126.142
 20
2107.0
 30
0.0
 11
127.575
 21
2107.0
 31
0.0
  0
LINE
  5
7AF
330
1E
100
AcDbEntity
  8
0
100
AcDbLine
 10
128.0929999999999
 20
2107.0
 30
0.0
 11
130.025
 21
2107.0
 31
0.0
  0
LINE
  5
7B0
330
1E
100
AcDbEntity
  8
0
100
AcDbLine
 10
128.0929999999999
 20
2107.0
 30
0.0
 11
128.0929999999999
 21
2105.0
 31
0.0
  0
LINE
  5
7B1
330
1E
100
AcDbEntity
  8
0
100
AcDbLine
 10
127.575
 20
2107.0
 30
0.0
 11
127.575
 21
2105.0
 31
0.0
  0
LINE
  5
7B2
330
1E
100
AcDbEntity
  8
0
100
AcDbLine
 10
127.575
 20
2107.0
 30
0.0
 11
128.0929999999999
 21
2107.0
 31
0.0
  0
LINE
  5
7B3
330
1E
100
AcDbEntity
  8
0
100
AcDbLine
 10
129.1339999999999
 20
2105.0
 30
0.0
 11
130.866
 21
2105.0
 31
0.0
  0
LINE
  5
7B4
330
1E
100
AcDbEntity
  8
0
100
AcDbLine
 10
129.9
 20
1044.119999999999
 30
0.0
 11
132.9339999999999
 21
1048.67
 31
0.0
  0
LINE
  5
7B5
330
1E
100
AcDbEntity
  8
0
100
AcDbLine
 10
129.9
 20
1063.92
 30
0.0
 11
132.9339999999999
 21
1059.38
 31
0.0
  0
LINE
  5
7BC
330
1E
100
AcDbEntity
  8
0
100
AcDbLine
 10
131.298
 20
2095.0
 30
0.0
 11
133.552
 21
2095.0
 31
0.0
  0
LINE
  5
7BD
330
1E
100
AcDbEntity
  8
0
100
AcDbLine
 10
130.866
 20
2105.0
 30
0.0
 11
130.866
 21
2107.0
 31
0.0
  0
LINE
  5
7BE
330
1E
100
AcDbEntity
  8
0
100
AcDbLine
 10
130.025
 20
2105.0
 30
0.0
 11
130.025
 21
2107.0
 31
0.0
  0
LINE
  5
7BF
330
1E
100
AcDbEntity
  8
0
100
AcDbLine
 10
131.457
 20
2105.0
 30
0.0
 11
131.457
 21
2107.0
 31
0.0
  0
LINE
  5
7C0
330
1E
100
AcDbEntity
  8
0
100
AcDbLine
 10
131.457
 20
2105.0
 30
0.0
 11
131.9749999999999
 21
2105.0
 31
0.0
  0
LINE
  5
7C1
330
1E
100
AcDbEntity
  8
0
100
AcDbLine
 10
131.457
 20
2105.0
 30
0.0
 11
133.389
 21
2105.0
 31
0.0
  0
LINE
  5
7C4
330
1E
100
AcDbEntity
  8
0
100
AcDbLine
 10
132.021
 20
1041.98
 30
0.0
 11
134.135
 21
1044.549999999999
 31
0.0
  0
LINE
  5
7C8
330
1E
100
AcDbEntity
  8
0
100
AcDbLine
 10
132.021
 20
1066.019999999999
 30
0.0
 11
134.135
 21
1063.44
 31
0.0
  0
LINE
  5
7CE
330
1E
100
AcDbEntity
  8
0
100
AcDbLine
 10
131.9749999999999
 20
2105.0
 30
0.0
 11
133.907
 21
2105.0
 31
0.0
  0
LINE
  5
7CF
330
1E
100
AcDbEntity
  8
0
100
AcDbLine
 10
131.9749999999999
 20
2105.0
 30
0.0
 11
131.9749999999999
 21
2107.0
 31
0.0
  0
LINE
  5
7D0
330
1E
100
AcDbEntity
  8
0
100
AcDbLine
 10
130.866
 20
2107.0
 30
0.0
 11
130.866
 21
2105.0
 31
0.0
  0
LINE
  5
7D1
330
1E
100
AcDbEntity
  8
0
100
AcDbLine
 10
130.866
 20
2107.0
 30
0.0
 11
131.457
 21
2107.0
 31
0.0
  0
LINE
  5
7D2
330
1E
100
AcDbEntity
  8
0
100
AcDbLine
 10
130.025
 20
2107.0
 30
0.0
 11
130.025
 21
2105.0
 31
0.0
  0
LINE
  5
7D3
330
1E
100
AcDbEntity
  8
0
100
AcDbLine
 10
130.025
 20
2107.0
 30
0.0
 11
130.866
 21
2107.0
 31
0.0
  0
LINE
  5
7D4
330
1E
100
AcDbEntity
  8
0
100
AcDbLine
 10
132.0
 20
2122.0
 30
0.0
 11
132.0
 21
2135.0
 31
0.0
  0
LINE
  5
7D5
330
1E
100
AcDbEntity
  8
0
100
AcDbLine
 10
131.9749999999999
 20
2107.0
 30
0.0
 11
133.907
 21
2107.0
 31
0.0
  0
LINE
  5
7D6
330
1E
100
AcDbEntity
  8
0
100
AcDbLine
 10
131.9749999999999
 20
2107.0
 30
0.0
 11
131.9749999999999
 21
2105.0
 31
0.0
  0
LINE
  5
7D7
330
1E
100
AcDbEntity
  8
0
100
AcDbLine
 10
131.457
 20
2107.0
 30
0.0
 11
131.457
 21
2105.0
 31
0.0
  0
LINE
  5
7D8
330
1E
100
AcDbEntity
  8
0
100
AcDbLine
 10
131.457
 20
2107.0
 30
0.0
 11
131.9749999999999
 21
2107.0
 31
0.0
  0
LINE
  5
7D9
330
1E
100
AcDbEntity
  8
0
100
AcDbLine
 10
132.021
 20
2105.0
 30
0.0
 11
133.435
 21
2105.0
 31
0.0
  0
LINE
  5
7DA
330
1E
100
AcDbEntity
  8
0
100
AcDbLine
 10
129.866
 20
2105.0
 30
0.0
 11
130.866
 21
2105.0
 31
0.0
  0
LINE
  5
7DB
330
1E
100
AcDbEntity
  8
0
100
AcDbLine
 10
127.6159999999999
 20
2135.0
 30
0.0
 11
130.8159999999999
 21
2135.0
 31
0.0
  0
LINE
  5
7DC
330
1E
100
AcDbEntity
  8
0
100
AcDbLine
 10
126.0
 20
2135.0
 30
0.0
 11
128.4999999999999
 21
2135.0
 31
0.0
  0
LINE
  5
7DD
330
1E
100
AcDbEntity
  8
0
100
AcDbLine
 10
130.8159999999999
 20
2135.0
 30
0.0
 11
133.312
 21
2135.0
 31
0.0
  0
LINE
  5
7DE
330
1E
100
AcDbEntity
  8
0
100
AcDbLine
 10
128.4999999999999
 20
2135.0
 30
0.0
 11
130.4
 21
2135.0
 31
0.0
  0
LINE
  5
7DF
330
1E
100
AcDbEntity
  8
0
100
AcDbLine
 10
127.6159999999999
 20
2165.0
 30
0.0
 11
130.8159999999999
 21
2165.0
 31
0.0
  0
LINE
  5
7E0
330
1E
100
AcDbEntity
  8
0
100
AcDbLine
 10
130.8159999999999
 20
2165.0
 30
0.0
 11
133.312
 21
2165.0
 31
0.0
  0
LINE
  5
7E1
330
1E
100
AcDbEntity
  8
0
100
AcDbLine
 10
130.4
 20
2135.0
 30
0.0
 11
131.6
 21
2135.0
 31
0.0
  0
LINE
  5
7E2
330
1E
100
AcDbEntity
  8
0
100
AcDbLine
 10
132.0
 20
2135.0
 30
0.0
 11
132.0
 21
2122.0
 31
0.0
  0
LINE
  5
7E3
330
1E
100
AcDbEntity
  8
0
100
AcDbLine
 10
132.0
 20
2135.0
 30
0.0
 11
133.312
 21
2135.0
 31
0.0
  0
LINE
  5
7E4
330
1E
100
AcDbEntity
  8
0
100
AcDbLine
 10
131.6
 20
2135.0
 30
0.0
 11
132.0
 21
2135.0
 31
0.0
  0
LINE
  5
7E5
330
1E
100
AcDbEntity
  8
0
100
AcDbLine
 10
126.5
 20
2122.0
 30
0.0
 11
132.9
 21
2122.0
 31
0.0
  0
LINE
  5
7E6
330
1E
100
AcDbEntity
  8
0
100
AcDbLine
 10
124.712
 20
2175.0
 30
0.0
 11
129.0439999999999
 21
2175.0
 31
0.0
  0
LINE
  5
7E7
330
1E
100
AcDbEntity
  8
0
100
AcDbLine
 10
129.0439999999999
 20
2175.0
 30
0.0
 11
132.844
 21
2175.0
 31
0.0
  0
LINE
  5
7E8
330
1E
100
AcDbEntity
  8
0
100
AcDbLine
 10
132.9339999999999
 20
1048.67
 30
0.0
 11
134.0
 21
1054.02
 31
0.0
  0
LINE
  5
7E9
330
1E
100
AcDbEntity
  8
0
100
AcDbLine
 10
132.9339999999999
 20
1059.38
 30
0.0
 11
134.0
 21
1054.02
 31
0.0
  0
LINE
  5
7EA
330
1E
100
AcDbEntity
  8
0
100
AcDbLine
 10
133.389
 20
2105.0
 30
0.0
 11
133.907
 21
2105.0
 31
0.0
  0
LINE
  5
7ED
330
1E
100
AcDbEntity
  8
0
100
AcDbLine
 10
134.135
 20
1044.549999999999
 30
0.0
 11
135.706
 21
1047.49
 31
0.0
  0
LINE
  5
7F0
330
1E
100
AcDbEntity
  8
0
100
AcDbLine
 10
134.135
 20
1063.44
 30
0.0
 11
135.706
 21
1060.499999999999
 31
0.0
  0
LINE
  5
7FF
330
1E
100
AcDbEntity
  8
0
100
AcDbLine
 10
133.552
 20
2095.0
 30
0.0
 11
135.2539999999999
 21
2095.0
 31
0.0
  0
LINE
  5
801
330
1E
100
AcDbEntity
  8
0
100
AcDbLine
 10
135.2539999999999
 20
2095.0
 30
0.0
 11
137.0929999999999
 21
2095.0
 31
0.0
  0
LINE
  5
802
330
1E
100
AcDbEntity
  8
0
100
AcDbLine
 10
134.8489999999999
 20
2105.0
 30
0.0
 11
134.8489999999999
 21
2107.0
 31
0.0
  0
LINE
  5
803
330
1E
100
AcDbEntity
  8
0
100
AcDbLine
 10
133.907
 20
2105.0
 30
0.0
 11
133.907
 21
2107.0
 31
0.0
  0
LINE
  5
80B
330
1E
100
AcDbEntity
  8
0
100
AcDbLine
 10
135.706
 20
1047.49
 30
0.0
 11
136.673
 21
1050.68
 31
0.0
  0
LINE
  5
80E
330
1E
100
AcDbEntity
  8
0
100
AcDbLine
 10
135.706
 20
1060.499999999999
 30
0.0
 11
136.673
 21
1057.309999999999
 31
0.0
  0
LINE
  5
810
330
1E
100
AcDbEntity
  8
0
100
AcDbLine
 10
135.34
 20
2105.0
 30
0.0
 11
135.857
 21
2105.0
 31
0.0
  0
LINE
  5
811
330
1E
100
AcDbEntity
  8
0
100
AcDbLine
 10
135.34
 20
2105.0
 30
0.0
 11
137.272
 21
2105.0
 31
0.0
  0
LINE
  5
812
330
1E
100
AcDbEntity
  8
0
100
AcDbLine
 10
135.34
 20
2105.0
 30
0.0
 11
135.34
 21
2107.0
 31
0.0
  0
LINE
  5
813
330
1E
100
AcDbEntity
  8
0
100
AcDbLine
 10
135.857
 20
2105.0
 30
0.0
 11
137.7889999999999
 21
2105.0
 31
0.0
  0
LINE
  5
814
330
1E
100
AcDbEntity
  8
0
100
AcDbLine
 10
135.857
 20
2105.0
 30
0.0
 11
135.857
 21
2107.0
 31
0.0
  0
LINE
  5
815
330
1E
100
AcDbEntity
  8
0
100
AcDbLine
 10
133.435
 20
2105.0
 30
0.0
 11
134.8489999999999
 21
2105.0
 31
0.0
  0
LINE
  5
816
330
1E
100
AcDbEntity
  8
0
100
AcDbLine
 10
135.6339999999999
 20
2105.0
 30
0.0
 11
136.6339999999999
 21
2105.0
 31
0.0
  0
LINE
  5
817
330
1E
100
AcDbEntity
  8
0
100
AcDbLine
 10
135.6339999999999
 20
2105.0
 30
0.0
 11
137.366
 21
2105.0
 31
0.0
  0
LINE
  5
818
330
1E
100
AcDbEntity
  8
0
100
AcDbLine
 10
136.673
 20
1050.68
 30
0.0
 11
137.0
 21
1054.0
 31
0.0
  0
LINE
  5
819
330
1E
100
AcDbEntity
  8
0
100
AcDbLine
 10
136.673
 20
1057.309999999999
 30
0.0
 11
137.0
 21
1054.0
 31
0.0
  0
LINE
  5
81A
330
1E
100
AcDbEntity
  8
0
100
AcDbLine
 10
136.6339999999999
 20
2105.0
 30
0.0
 11
138.366
 21
2105.0
 31
0.0
  0
LINE
  5
81B
330
1E
100
AcDbEntity
  8
0
100
AcDbLine
 10
135.0879999999999
 20
2105.0
 30
0.0
 11
135.0879999999999
 21
2107.0
 31
0.0
  0
LINE
  5
81C
330
1E
100
AcDbEntity
  8
0
100
AcDbLine
 10
135.0879999999999
 20
2105.0
 30
0.0
 11
136.8209999999999
 21
2105.0
 31
0.0
  0
LINE
  5
81D
330
1E
100
AcDbEntity
  8
0
100
AcDbLine
 10
135.0879999999999
 20
2105.0
 30
0.0
 11
136.0879999999999
 21
2105.0
 31
0.0
  0
LINE
  5
81E
330
1E
100
AcDbEntity
  8
0
100
AcDbLine
 10
137.0929999999999
 20
2095.0
 30
0.0
 11
138.455
 21
2095.0
 31
0.0
  0
LINE
  5
81F
330
1E
100
AcDbEntity
  8
0
100
AcDbLine
 10
136.8209999999999
 20
2105.0
 30
0.0
 11
137.8209999999999
 21
2105.0
 31
0.0
  0
LINE
  5
820
330
1E
100
AcDbEntity
  8
0
100
AcDbLine
 10
134.8489999999999
 20
2107.0
 30
0.0
 11
134.8489999999999
 21
2105.0
 31
0.0
  0
LINE
  5
821
330
1E
100
AcDbEntity
  8
0
100
AcDbLine
 10
134.8489999999999
 20
2107.0
 30
0.0
 11
135.0879999999999
 21
2107.0
 31
0.0
  0
LINE
  5
822
330
1E
100
AcDbEntity
  8
0
100
AcDbLine
 10
133.907
 20
2107.0
 30
0.0
 11
133.907
 21
2105.0
 31
0.0
  0
LINE
  5
823
330
1E
100
AcDbEntity
  8
0
100
AcDbLine
 10
133.907
 20
2107.0
 30
0.0
 11
134.8489999999999
 21
2107.0
 31
0.0
  0
LINE
  5
824
330
1E
100
AcDbEntity
  8
0
100
AcDbLine
 10
135.34
 20
2107.0
 30
0.0
 11
135.857
 21
2107.0
 31
0.0
  0
LINE
  5
825
330
1E
100
AcDbEntity
  8
0
100
AcDbLine
 10
135.34
 20
2107.0
 30
0.0
 11
135.34
 21
2105.0
 31
0.0
  0
LINE
  5
826
330
1E
100
AcDbEntity
  8
0
100
AcDbLine
 10
135.857
 20
2107.0
 30
0.0
 11
137.7889999999999
 21
2107.0
 31
0.0
  0
LINE
  5
827
330
1E
100
AcDbEntity
  8
0
100
AcDbLine
 10
135.857
 20
2107.0
 30
0.0
 11
135.857
 21
2105.0
 31
0.0
  0
LINE
  5
828
330
1E
100
AcDbEntity
  8
0
100
AcDbLine
 10
135.0879999999999
 20
2107.0
 30
0.0
 11
135.0879999999999
 21
2105.0
 31
0.0
  0
LINE
  5
829
330
1E
100
AcDbEntity
  8
0
100
AcDbLine
 10
135.0879999999999
 20
2107.0
 30
0.0
 11
135.34
 21
2107.0
 31
0.0
  0
LINE
  5
82A
330
1E
100
AcDbEntity
  8
0
100
AcDbLine
 10
136.0879999999999
 20
2105.0
 30
0.0
 11
137.8209999999999
 21
2105.0
 31
0.0
  0
LINE
  5
82E
330
1E
100
AcDbEntity
  8
0
100
AcDbLine
 10
137.272
 20
2105.0
 30
0.0
 11
137.7889999999999
 21
2105.0
 31
0.0
  0
LINE
  5
82F
330
1E
100
AcDbEntity
  8
0
100
AcDbLine
 10
137.366
 20
2105.0
 30
0.0
 11
138.366
 21
2105.0
 31
0.0
  0
LINE
  5
830
330
1E
100
AcDbEntity
  8
0
100
AcDbLine
 10
137.1279999999999
 20
2105.0
 30
0.0
 11
139.06
 21
2105.0
 31
0.0
  0
LINE
  5
831
330
1E
100
AcDbEntity
  8
0
100
AcDbLine
 10
137.1279999999999
 20
2105.0
 30
0.0
 11
137.645
 21
2105.0
 31
0.0
  0
LINE
  5
832
330
1E
100
AcDbEntity
  8
0
100
AcDbLine
 10
133.312
 20
2135.0
 30
0.0
 11
134.7839999999999
 21
2135.0
 31
0.0
  0
LINE
  5
833
330
1E
100
AcDbEntity
  8
0
100
AcDbLine
 10
134.7839999999999
 20
2135.0
 30
0.0
 11
135.36
 21
2135.0
 31
0.0
  0
LINE
  5
834
330
1E
100
AcDbEntity
  8
0
100
AcDbLine
 10
133.312
 20
2165.0
 30
0.0
 11
134.7839999999999
 21
2165.0
 31
0.0
  0
LINE
  5
835
330
1E
100
AcDbEntity
  8
0
100
AcDbLine
 10
135.36
 20
2135.0
 30
0.0
 11
136.0
 21
2136.0
 31
0.0
  0
LINE
  5
836
330
1E
100
AcDbEntity
  8
0
100
AcDbLine
 10
135.36
 20
2165.0
 30
0.0
 11
136.0
 21
2164.0
 31
0.0
  0
LINE
  5
837
330
1E
100
AcDbEntity
  8
0
100
AcDbLine
 10
134.7839999999999
 20
2165.0
 30
0.0
 11
135.36
 21
2165.0
 31
0.0
  0
LINE
  5
838
330
1E
100
AcDbEntity
  8
0
100
AcDbLine
 10
132.9
 20
2122.0
 30
0.0
 11
139.1
 21
2122.0
 31
0.0
  0
LINE
  5
839
330
1E
100
AcDbEntity
  8
0
100
AcDbLine
 10
135.5999999999999
 20
2118.0
 30
0.0
 11
150.6999999999999
 21
2118.0
 31
0.0
  0
LINE
  5
83A
330
1E
100
AcDbEntity
  8
0
100
AcDbLine
 10
135.5999999999999
 20
2117.0
 30
0.0
 11
151.0
 21
2117.0
 31
0.0
  0
LINE
  5
83B
330
1E
100
AcDbEntity
  8
0
100
AcDbLine
 10
136.0
 20
2136.0
 30
0.0
 11
136.0
 21
2164.0
 31
0.0
  0
LINE
  5
83C
330
1E
100
AcDbEntity
  8
0
100
AcDbLine
 10
136.0
 20
2164.0
 30
0.0
 11
136.0
 21
2136.0
 31
0.0
  0
LINE
  5
83D
330
1E
100
AcDbEntity
  8
0
100
AcDbLine
 10
135.5999999999999
 20
2108.0
 30
0.0
 11
151.0
 21
2108.0
 31
0.0
  0
LINE
  5
83E
330
1E
100
AcDbEntity
  8
0
100
AcDbLine
 10
135.5999999999999
 20
2107.0
 30
0.0
 11
150.6999999999999
 21
2107.0
 31
0.0
  0
LINE
  5
83F
330
1E
100
AcDbEntity
  8
0
100
AcDbLine
 10
132.844
 20
2175.0
 30
0.0
 11
135.8079999999999
 21
2175.0
 31
0.0
  0
LINE
  5
840
330
1E
100
AcDbEntity
  8
0
100
AcDbLine
 10
135.8079999999999
 20
2175.0
 30
0.0
 11
137.556
 21
2175.0
 31
0.0
  0
LINE
  5
841
330
1E
100
AcDbEntity
  8
0
100
AcDbLine
 10
137.7889999999999
 20
2105.0
 30
0.0
 11
137.7889999999999
 21
2107.0
 31
0.0
  0
LINE
  5
842
330
1E
100
AcDbEntity
  8
0
100
AcDbLine
 10
137.645
 20
2105.0
 30
0.0
 11
139.5769999999999
 21
2105.0
 31
0.0
  0
LINE
  5
843
330
1E
100
AcDbEntity
  8
0
100
AcDbLine
 10
138.0
 20
2105.0
 30
0.0
 11
140.0
 21
2105.0
 31
0.0
  0
LINE
  5
844
330
1E
100
AcDbEntity
  8
0
100
AcDbLine
 10
138.9600187013209
 20
982.5000000000001
 30
0.0
 11
138.976354770059
 21
617.8374681054239
 31
0.0
  0
LINE
  5
845
330
1E
100
AcDbEntity
  8
0
100
AcDbLine
 10
138.9600187013209
 20
982.5000000000001
 30
0.0
 11
138.976354770059
 21
617.8374681054239
 31
0.0
  0
LINE
  5
846
330
1E
100
AcDbEntity
  8
0
100
AcDbLine
 10
138.9600187013209
 20
982.5000000000001
 30
0.0
 11
155.014
 21
982.5000000000001
 31
0.0
  0
LINE
  5
848
330
1E
100
AcDbEntity
  8
0
100
AcDbLine
 10
138.959
 20
1017.5
 30
0.0
 11
155.014
 21
1017.5
 31
0.0
  0
LINE
  5
849
330
1E
100
AcDbEntity
  8
0
100
AcDbLine
 10
138.959
 20
1017.47380271623
 30
0.0
 11
138.959
 21
2095.0
 31
0.0
  0
LINE
  5
84B
330
1E
100
AcDbEntity
  8
0
100
AcDbLine
 10
138.959
 20
2095.0
 30
0.0
 11
138.959
 21
1017.47380271623
 31
0.0
  0
LINE
  5
84C
330
1E
100
AcDbEntity
  8
0
100
AcDbLine
 10
138.959
 20
1090.90035155963
 30
0.0
 11
149.6979999999999
 21
1083.72
 31
0.0
  0
LINE
  5
84D
330
1E
100
AcDbEntity
  8
0
100
AcDbLine
 10
138.455
 20
2095.0
 30
0.0
 11
138.959
 21
2095.0
 31
0.0
  0
LINE
  5
84E
330
1E
100
AcDbEntity
  8
0
100
AcDbLine
 10
138.366
 20
2105.0
 30
0.0
 11
138.366
 21
2107.0
 31
0.0
  0
LINE
  5
84F
330
1E
100
AcDbEntity
  8
0
100
AcDbLine
 10
139.0
 20
2096.909999999999
 30
0.0
 11
139.0
 21
2105.0
 31
0.0
  0
LINE
  5
850
330
1E
100
AcDbEntity
  8
0
100
AcDbLine
 10
138.24
 20
2095.0
 30
0.0
 11
139.0
 21
2096.909999999999
 31
0.0
  0
LINE
  5
851
330
1E
100
AcDbEntity
  8
0
100
AcDbLine
 10
138.366
 20
2107.0
 30
0.0
 11
138.366
 21
2105.0
 31
0.0
  0
LINE
  5
852
330
1E
100
AcDbEntity
  8
0
100
AcDbLine
 10
138.366
 20
2107.0
 30
0.0
 11
139.06
 21
2107.0
 31
0.0
  0
LINE
  5
853
330
1E
100
AcDbEntity
  8
0
100
AcDbLine
 10
137.7889999999999
 20
2107.0
 30
0.0
 11
137.7889999999999
 21
2105.0
 31
0.0
  0
LINE
  5
854
330
1E
100
AcDbEntity
  8
0
100
AcDbLine
 10
137.7889999999999
 20
2107.0
 30
0.0
 11
138.366
 21
2107.0
 31
0.0
  0
LINE
  5
855
330
1E
100
AcDbEntity
  8
0
100
AcDbLine
 10
139.0
 20
2122.0
 30
0.0
 11
139.0
 21
2173.09
 31
0.0
  0
LINE
  5
856
330
1E
100
AcDbEntity
  8
0
100
AcDbLine
 10
139.0
 20
2105.0
 30
0.0
 11
139.0
 21
2096.909999999999
 31
0.0
  0
LINE
  5
857
330
1E
100
AcDbEntity
  8
0
100
AcDbLine
 10
139.497945115258
 20
1017.5
 30
0.0
 11
149.6979999999999
 21
1024.32
 31
0.0
  0
LINE
  5
858
330
1E
100
AcDbEntity
  8
0
100
AcDbLine
 10
139.482989023052
 20
1017.5
 30
0.0
 11
149.6979999999999
 21
1024.329999999999
 31
0.0
  0
LINE
  5
859
330
1E
100
AcDbEntity
  8
0
100
AcDbLine
 10
139.222
 20
2105.0
 30
0.0
 11
139.74
 21
2105.0
 31
0.0
  0
LINE
  5
85A
330
1E
100
AcDbEntity
  8
0
100
AcDbLine
 10
139.222
 20
2105.0
 30
0.0
 11
141.154
 21
2105.0
 31
0.0
  0
LINE
  5
85B
330
1E
100
AcDbEntity
  8
0
100
AcDbLine
 10
139.222
 20
2105.0
 30
0.0
 11
139.222
 21
2107.0
 31
0.0
  0
LINE
  5
85C
330
1E
100
AcDbEntity
  8
0
100
AcDbLine
 10
141.6709999999999
 20
2105.0
 30
0.0
 11
141.6709999999999
 21
2107.0
 31
0.0
  0
LINE
  5
85D
330
1E
100
AcDbEntity
  8
0
100
AcDbLine
 10
143.1039999999999
 20
2105.0
 30
0.0
 11
143.622
 21
2105.0
 31
0.0
  0
LINE
  5
85E
330
1E
100
AcDbEntity
  8
0
100
AcDbLine
 10
143.1039999999999
 20
2105.0
 30
0.0
 11
145.036
 21
2105.0
 31
0.0
  0
LINE
  5
85F
330
1E
100
AcDbEntity
  8
0
100
AcDbLine
 10
143.1039999999999
 20
2105.0
 30
0.0
 11
143.1039999999999
 21
2107.0
 31
0.0
  0
LINE
  5
860
330
1E
100
AcDbEntity
  8
0
100
AcDbLine
 10
139.74
 20
2105.0
 30
0.0
 11
141.6709999999999
 21
2105.0
 31
0.0
  0
LINE
  5
861
330
1E
100
AcDbEntity
  8
0
100
AcDbLine
 10
139.74
 20
2105.0
 30
0.0
 11
139.74
 21
2107.0
 31
0.0
  0
LINE
  5
862
330
1E
100
AcDbEntity
  8
0
100
AcDbLine
 10
141.154
 20
2105.0
 30
0.0
 11
141.6709999999999
 21
2105.0
 31
0.0
  0
LINE
  5
863
330
1E
100
AcDbEntity
  8
0
100
AcDbLine
 10
143.622
 20
2105.0
 30
0.0
 11
145.554
 21
2105.0
 31
0.0
  0
LINE
  5
864
330
1E
100
AcDbEntity
  8
0
100
AcDbLine
 10
143.622
 20
2105.0
 30
0.0
 11
143.622
 21
2107.0
 31
0.0
  0
LINE
  5
865
330
1E
100
AcDbEntity
  8
0
100
AcDbLine
 10
143.1339999999999
 20
2105.0
 30
0.0
 11
144.1339999999999
 21
2105.0
 31
0.0
  0
LINE
  5
866
330
1E
100
AcDbEntity
  8
0
100
AcDbLine
 10
143.1339999999999
 20
2105.0
 30
0.0
 11
144.866
 21
2105.0
 31
0.0
  0
LINE
  5
867
330
1E
100
AcDbEntity
  8
0
100
AcDbLine
 10
142.627
 20
2105.0
 30
0.0
 11
142.627
 21
2107.0
 31
0.0
  0
LINE
  5
868
330
1E
100
AcDbEntity
  8
0
100
AcDbLine
 10
142.627
 20
2105.0
 30
0.0
 11
144.042
 21
2105.0
 31
0.0
  0
LINE
  5
869
330
1E
100
AcDbEntity
  8
0
100
AcDbLine
 10
145.866
 20
2105.0
 30
0.0
 11
145.866
 21
2107.0
 31
0.0
  0
LINE
  5
86A
330
1E
100
AcDbEntity
  8
0
100
AcDbLine
 10
145.554
 20
2105.0
 30
0.0
 11
145.554
 21
2107.0
 31
0.0
  0
LINE
  5
86B
330
1E
100
AcDbEntity
  8
0
100
AcDbLine
 10
146.987
 20
2105.0
 30
0.0
 11
146.987
 21
2107.0
 31
0.0
  0
LINE
  5
86C
330
1E
100
AcDbEntity
  8
0
100
AcDbLine
 10
146.987
 20
2105.0
 30
0.0
 11
147.5039999999999
 21
2105.0
 31
0.0
  0
LINE
  5
86D
330
1E
100
AcDbEntity
  8
0
100
AcDbLine
 10
146.987
 20
2105.0
 30
0.0
 11
148.918
 21
2105.0
 31
0.0
  0
LINE
  5
86E
330
1E
100
AcDbEntity
  8
0
100
AcDbLine
 10
147.5039999999999
 20
2105.0
 30
0.0
 11
149.436
 21
2105.0
 31
0.0
  0
LINE
  5
86F
330
1E
100
AcDbEntity
  8
0
100
AcDbLine
 10
147.5039999999999
 20
2105.0
 30
0.0
 11
147.5039999999999
 21
2107.0
 31
0.0
  0
LINE
  5
870
330
1E
100
AcDbEntity
  8
0
100
AcDbLine
 10
148.918
 20
2105.0
 30
0.0
 11
149.436
 21
2105.0
 31
0.0
  0
LINE
  5
871
330
1E
100
AcDbEntity
  8
0
100
AcDbLine
 10
145.036
 20
2105.0
 30
0.0
 11
145.554
 21
2105.0
 31
0.0
  0
LINE
  5
872
330
1E
100
AcDbEntity
  8
0
100
AcDbLine
 10
144.1339999999999
 20
2105.0
 30
0.0
 11
145.866
 21
2105.0
 31
0.0
  0
LINE
  5
873
330
1E
100
AcDbEntity
  8
0
100
AcDbLine
 10
144.866
 20
2105.0
 30
0.0
 11
145.866
 21
2105.0
 31
0.0
  0
LINE
  5
874
330
1E
100
AcDbEntity
  8
0
100
AcDbLine
 10
144.042
 20
2105.0
 30
0.0
 11
145.456
 21
2105.0
 31
0.0
  0
LINE
  5
875
330
1E
100
AcDbEntity
  8
0
100
AcDbLine
 10
148.079
 20
2105.0
 30
0.0
 11
149.811
 21
2105.0
 31
0.0
  0
LINE
  5
876
330
1E
100
AcDbEntity
  8
0
100
AcDbLine
 10
148.079
 20
2105.0
 30
0.0
 11
149.079
 21
2105.0
 31
0.0
  0
LINE
  5
877
330
1E
100
AcDbEntity
  8
0
100
AcDbLine
 10
149.6979999999999
 20
1024.32
 30
0.0
 11
158.803
 21
1037.94
 31
0.0
  0
LINE
  5
878
330
1E
100
AcDbEntity
  8
0
100
AcDbLine
 10
149.6979999999999
 20
1024.329999999999
 30
0.0
 11
158.803
 21
1037.95
 31
0.0
  0
LINE
  5
879
330
1E
100
AcDbEntity
  8
0
100
AcDbLine
 10
149.6979999999999
 20
1083.72
 30
0.0
 11
158.803
 21
1070.099999999999
 31
0.0
  0
LINE
  5
87A
330
1E
100
AcDbEntity
  8
0
100
AcDbLine
 10
149.436
 20
2105.0
 30
0.0
 11
149.436
 21
2107.0
 31
0.0
  0
LINE
  5
87B
330
1E
100
AcDbEntity
  8
0
100
AcDbLine
 10
150.6339999999999
 20
2105.0
 30
0.0
 11
151.6339999999999
 21
2105.0
 31
0.0
  0
LINE
  5
87C
330
1E
100
AcDbEntity
  8
0
100
AcDbLine
 10
150.6339999999999
 20
2105.0
 30
0.0
 11
152.366
 21
2105.0
 31
0.0
  0
LINE
  5
87D
330
1E
100
AcDbEntity
  8
0
100
AcDbLine
 10
150.6339999999999
 20
2105.0
 30
0.0
 11
150.6339999999999
 21
2107.0
 31
0.0
  0
LINE
  5
87E
330
1E
100
AcDbEntity
  8
0
100
AcDbLine
 10
151.6339999999999
 20
2105.0
 30
0.0
 11
153.366
 21
2105.0
 31
0.0
  0
LINE
  5
87F
330
1E
100
AcDbEntity
  8
0
100
AcDbLine
 10
151.6339999999999
 20
2105.0
 30
0.0
 11
151.6339999999999
 21
2107.0
 31
0.0
  0
LINE
  5
880
330
1E
100
AcDbEntity
  8
0
100
AcDbLine
 10
149.811
 20
2105.0
 30
0.0
 11
150.811
 21
2105.0
 31
0.0
  0
LINE
  5
881
330
1E
100
AcDbEntity
  8
0
100
AcDbLine
 10
149.811
 20
2105.0
 30
0.0
 11
149.811
 21
2107.0
 31
0.0
  0
LINE
  5
882
330
1E
100
AcDbEntity
  8
0
100
AcDbLine
 10
149.079
 20
2105.0
 30
0.0
 11
150.811
 21
2105.0
 31
0.0
  0
LINE
  5
883
330
1E
100
AcDbEntity
  8
0
100
AcDbLine
 10
151.617
 20
2105.0
 30
0.0
 11
153.549
 21
2105.0
 31
0.0
  0
LINE
  5
884
330
1E
100
AcDbEntity
  8
0
100
AcDbLine
 10
151.617
 20
2105.0
 30
0.0
 11
152.1339999999999
 21
2105.0
 31
0.0
  0
LINE
  5
885
330
1E
100
AcDbEntity
  8
0
100
AcDbLine
 10
152.366
 20
2105.0
 30
0.0
 11
153.366
 21
2105.0
 31
0.0
  0
LINE
  5
886
330
1E
100
AcDbEntity
  8
0
100
AcDbLine
 10
152.1339999999999
 20
2105.0
 30
0.0
 11
154.066
 21
2105.0
 31
0.0
  0
LINE
  5
887
330
1E
100
AcDbEntity
  8
0
100
AcDbLine
 10
139.06
 20
2105.0
 30
0.0
 11
139.5769999999999
 21
2105.0
 31
0.0
  0
LINE
  5
888
330
1E
100
AcDbEntity
  8
0
100
AcDbLine
 10
139.06
 20
2105.0
 30
0.0
 11
139.06
 21
2107.0
 31
0.0
  0
LINE
  5
889
330
1E
100
AcDbEntity
  8
0
100
AcDbLine
 10
153.366
 20
2105.0
 30
0.0
 11
153.366
 21
2107.0
 31
0.0
  0
LINE
  5
88A
330
1E
100
AcDbEntity
  8
0
100
AcDbLine
 10
153.234
 20
2105.0
 30
0.0
 11
154.648
 21
2105.0
 31
0.0
  0
LINE
  5
88B
330
1E
100
AcDbEntity
  8
0
100
AcDbLine
 10
155.014
 20
982.5000000000001
 30
0.0
 11
155.514
 21
983.5
 31
0.0
  0
LINE
  5
88C
330
1E
100
AcDbEntity
  8
0
100
AcDbLine
 10
155.014
 20
982.5000000000001
 30
0.0
 11
155.014
 21
983.1000000000001
 31
0.0
  0
LINE
  5
88D
330
1E
100
AcDbEntity
  8
0
100
AcDbLine
 10
155.014
 20
983.1000000000001
 30
0.0
 11
155.014
 21
984.7999999999998
 31
0.0
  0
LINE
  5
88E
330
1E
100
AcDbEntity
  8
0
100
AcDbLine
 10
155.014
 20
983.1000000000001
 30
0.0
 11
155.014
 21
982.5000000000001
 31
0.0
  0
LINE
  5
88F
330
1E
100
AcDbEntity
  8
0
100
AcDbLine
 10
155.014
 20
984.7999999999998
 30
0.0
 11
155.014
 21
987.6000000000001
 31
0.0
  0
LINE
  5
890
330
1E
100
AcDbEntity
  8
0
100
AcDbLine
 10
155.014
 20
984.7999999999998
 30
0.0
 11
155.014
 21
983.1000000000001
 31
0.0
  0
LINE
  5
891
330
1E
100
AcDbEntity
  8
0
100
AcDbLine
 10
155.014
 20
987.6000000000001
 30
0.0
 11
155.014
 21
991.3
 31
0.0
  0
LINE
  5
892
330
1E
100
AcDbEntity
  8
0
100
AcDbLine
 10
155.014
 20
987.6000000000001
 30
0.0
 11
155.014
 21
984.7999999999998
 31
0.0
  0
LINE
  5
893
330
1E
100
AcDbEntity
  8
0
100
AcDbLine
 10
155.014
 20
991.3
 30
0.0
 11
155.014
 21
995.5
 31
0.0
  0
LINE
  5
894
330
1E
100
AcDbEntity
  8
0
100
AcDbLine
 10
155.014
 20
991.3
 30
0.0
 11
155.014
 21
987.6000000000001
 31
0.0
  0
LINE
  5
895
330
1E
100
AcDbEntity
  8
0
100
AcDbLine
 10
155.014
 20
995.5
 30
0.0
 11
155.014
 21
1000.0
 31
0.0
  0
LINE
  5
896
330
1E
100
AcDbEntity
  8
0
100
AcDbLine
 10
155.014
 20
995.5
 30
0.0
 11
155.014
 21
991.3
 31
0.0
  0
LINE
  5
897
330
1E
100
AcDbEntity
  8
0
100
AcDbLine
 10
155.514
 20
984.1000000000001
 30
0.0
 11
155.514
 21
985.7000000000001
 31
0.0
  0
LINE
  5
898
330
1E
100
AcDbEntity
  8
0
100
AcDbLine
 10
155.514
 20
984.1000000000001
 30
0.0
 11
155.514
 21
983.5
 31
0.0
  0
LINE
  5
899
330
1E
100
AcDbEntity
  8
0
100
AcDbLine
 10
155.514
 20
985.7000000000001
 30
0.0
 11
155.514
 21
988.4
 31
0.0
  0
LINE
  5
89A
330
1E
100
AcDbEntity
  8
0
100
AcDbLine
 10
155.514
 20
985.7000000000001
 30
0.0
 11
155.514
 21
984.1000000000001
 31
0.0
  0
LINE
  5
89B
330
1E
100
AcDbEntity
  8
0
100
AcDbLine
 10
155.514
 20
988.4
 30
0.0
 11
155.514
 21
991.7999999999999
 31
0.0
  0
LINE
  5
89C
330
1E
100
AcDbEntity
  8
0
100
AcDbLine
 10
155.514
 20
988.4
 30
0.0
 11
155.514
 21
985.7000000000001
 31
0.0
  0
LINE
  5
89D
330
1E
100
AcDbEntity
  8
0
100
AcDbLine
 10
155.514
 20
991.7999999999999
 30
0.0
 11
155.514
 21
995.7
 31
0.0
  0
LINE
  5
89E
330
1E
100
AcDbEntity
  8
0
100
AcDbLine
 10
155.514
 20
991.7999999999999
 30
0.0
 11
155.514
 21
988.4
 31
0.0
  0
LINE
  5
89F
330
1E
100
AcDbEntity
  8
0
100
AcDbLine
 10
155.514
 20
995.7
 30
0.0
 11
155.514
 21
1000.0
 31
0.0
  0
LINE
  5
8A0
330
1E
100
AcDbEntity
  8
0
100
AcDbLine
 10
155.514
 20
995.7
 30
0.0
 11
155.514
 21
991.7999999999999
 31
0.0
  0
LINE
  5
8A1
330
1E
100
AcDbEntity
  8
0
100
AcDbLine
 10
155.014
 20
1000.0
 30
0.0
 11
155.014
 21
1004.499999999999
 31
0.0
  0
LINE
  5
8A2
330
1E
100
AcDbEntity
  8
0
100
AcDbLine
 10
155.014
 20
1000.0
 30
0.0
 11
155.014
 21
995.5
 31
0.0
  0
LINE
  5
8A3
330
1E
100
AcDbEntity
  8
0
100
AcDbLine
 10
155.014
 20
1008.7
 30
0.0
 11
155.014
 21
1012.4
 31
0.0
  0
LINE
  5
8A4
330
1E
100
AcDbEntity
  8
0
100
AcDbLine
 10
155.014
 20
1008.7
 30
0.0
 11
155.014
 21
1004.499999999999
 31
0.0
  0
LINE
  5
8A5
330
1E
100
AcDbEntity
  8
0
100
AcDbLine
 10
155.014
 20
1004.499999999999
 30
0.0
 11
155.014
 21
1008.7
 31
0.0
  0
LINE
  5
8A6
330
1E
100
AcDbEntity
  8
0
100
AcDbLine
 10
155.014
 20
1004.499999999999
 30
0.0
 11
155.014
 21
1000.0
 31
0.0
  0
LINE
  5
8A7
330
1E
100
AcDbEntity
  8
0
100
AcDbLine
 10
155.014
 20
1015.2
 30
0.0
 11
155.014
 21
1016.9
 31
0.0
  0
LINE
  5
8A8
330
1E
100
AcDbEntity
  8
0
100
AcDbLine
 10
155.014
 20
1015.2
 30
0.0
 11
155.014
 21
1012.4
 31
0.0
  0
LINE
  5
8A9
330
1E
100
AcDbEntity
  8
0
100
AcDbLine
 10
155.014
 20
1012.4
 30
0.0
 11
155.014
 21
1015.2
 31
0.0
  0
LINE
  5
8AA
330
1E
100
AcDbEntity
  8
0
100
AcDbLine
 10
155.014
 20
1012.4
 30
0.0
 11
155.014
 21
1008.7
 31
0.0
  0
LINE
  5
8AB
330
1E
100
AcDbEntity
  8
0
100
AcDbLine
 10
155.514
 20
1015.9
 30
0.0
 11
155.514
 21
1016.5
 31
0.0
  0
LINE
  5
8AC
330
1E
100
AcDbEntity
  8
0
100
AcDbLine
 10
155.514
 20
1015.9
 30
0.0
 11
155.514
 21
1014.299999999999
 31
0.0
  0
LINE
  5
8AD
330
1E
100
AcDbEntity
  8
0
100
AcDbLine
 10
155.514
 20
1014.299999999999
 30
0.0
 11
155.514
 21
1015.9
 31
0.0
  0
LINE
  5
8AE
330
1E
100
AcDbEntity
  8
0
100
AcDbLine
 10
155.514
 20
1014.299999999999
 30
0.0
 11
155.514
 21
1011.6
 31
0.0
  0
LINE
  5
8AF
330
1E
100
AcDbEntity
  8
0
100
AcDbLine
 10
155.514
 20
1011.6
 30
0.0
 11
155.514
 21
1014.299999999999
 31
0.0
  0
LINE
  5
8B0
330
1E
100
AcDbEntity
  8
0
100
AcDbLine
 10
155.514
 20
1011.6
 30
0.0
 11
155.514
 21
1008.2
 31
0.0
  0
LINE
  5
8B1
330
1E
100
AcDbEntity
  8
0
100
AcDbLine
 10
155.514
 20
1008.2
 30
0.0
 11
155.514
 21
1011.6
 31
0.0
  0
LINE
  5
8B2
330
1E
100
AcDbEntity
  8
0
100
AcDbLine
 10
155.514
 20
1008.2
 30
0.0
 11
155.514
 21
1004.299999999999
 31
0.0
  0
LINE
  5
8B3
330
1E
100
AcDbEntity
  8
0
100
AcDbLine
 10
155.514
 20
1004.299999999999
 30
0.0
 11
155.514
 21
1008.2
 31
0.0
  0
LINE
  5
8B4
330
1E
100
AcDbEntity
  8
0
100
AcDbLine
 10
155.514
 20
1004.299999999999
 30
0.0
 11
155.514
 21
1000.0
 31
0.0
  0
LINE
  5
8B5
330
1E
100
AcDbEntity
  8
0
100
AcDbLine
 10
155.514
 20
1000.0
 30
0.0
 11
155.514
 21
1004.299999999999
 31
0.0
  0
LINE
  5
8B6
330
1E
100
AcDbEntity
  8
0
100
AcDbLine
 10
155.514
 20
1000.0
 30
0.0
 11
155.514
 21
995.7
 31
0.0
  0
LINE
  5
8B7
330
1E
100
AcDbEntity
  8
0
100
AcDbLine
 10
155.014
 20
1016.9
 30
0.0
 11
155.014
 21
1017.5
 31
0.0
  0
LINE
  5
8B8
330
1E
100
AcDbEntity
  8
0
100
AcDbLine
 10
155.014
 20
1016.9
 30
0.0
 11
155.014
 21
1015.2
 31
0.0
  0
LINE
  5
8B9
330
1E
100
AcDbEntity
  8
0
100
AcDbLine
 10
155.014
 20
1017.5
 30
0.0
 11
155.514
 21
1016.5
 31
0.0
  0
LINE
  5
8BA
330
1E
100
AcDbEntity
  8
0
100
AcDbLine
 10
155.014
 20
1017.5
 30
0.0
 11
155.014
 21
1016.9
 31
0.0
  0
LINE
  5
8BB
330
1E
100
AcDbEntity
  8
0
100
AcDbLine
 10
155.514
 20
1016.5
 30
0.0
 11
156.014
 21
1017.5
 31
0.0
  0
LINE
  5
8BC
330
1E
100
AcDbEntity
  8
0
100
AcDbLine
 10
155.514
 20
1016.5
 30
0.0
 11
155.514
 21
1015.9
 31
0.0
  0
LINE
  5
8BD
330
1E
100
AcDbEntity
  8
0
100
AcDbLine
 10
156.014
 20
983.1000000000001
 30
0.0
 11
156.014
 21
984.7999999999998
 31
0.0
  0
LINE
  5
8BE
330
1E
100
AcDbEntity
  8
0
100
AcDbLine
 10
156.014
 20
983.1000000000001
 30
0.0
 11
156.014
 21
982.5000000000001
 31
0.0
  0
LINE
  5
8BF
330
1E
100
AcDbEntity
  8
0
100
AcDbLine
 10
156.014
 20
984.7999999999998
 30
0.0
 11
156.014
 21
987.6000000000001
 31
0.0
  0
LINE
  5
8C0
330
1E
100
AcDbEntity
  8
0
100
AcDbLine
 10
156.014
 20
984.7999999999998
 30
0.0
 11
156.014
 21
983.1000000000001
 31
0.0
  0
LINE
  5
8C1
330
1E
100
AcDbEntity
  8
0
100
AcDbLine
 10
156.014
 20
987.6000000000001
 30
0.0
 11
156.014
 21
991.3
 31
0.0
  0
LINE
  5
8C2
330
1E
100
AcDbEntity
  8
0
100
AcDbLine
 10
156.014
 20
987.6000000000001
 30
0.0
 11
156.014
 21
984.7999999999998
 31
0.0
  0
LINE
  5
8C3
330
1E
100
AcDbEntity
  8
0
100
AcDbLine
 10
156.014
 20
991.3
 30
0.0
 11
156.014
 21
995.5
 31
0.0
  0
LINE
  5
8C4
330
1E
100
AcDbEntity
  8
0
100
AcDbLine
 10
156.014
 20
991.3
 30
0.0
 11
156.014
 21
987.6000000000001
 31
0.0
  0
LINE
  5
8C5
330
1E
100
AcDbEntity
  8
0
100
AcDbLine
 10
156.014
 20
995.5
 30
0.0
 11
156.014
 21
1000.0
 31
0.0
  0
LINE
  5
8C6
330
1E
100
AcDbEntity
  8
0
100
AcDbLine
 10
156.014
 20
995.5
 30
0.0
 11
156.014
 21
991.3
 31
0.0
  0
LINE
  5
8C7
330
1E
100
AcDbEntity
  8
0
100
AcDbLine
 10
156.014
 20
1016.9
 30
0.0
 11
156.014
 21
1017.5
 31
0.0
  0
LINE
  5
8C8
330
1E
100
AcDbEntity
  8
0
100
AcDbLine
 10
156.014
 20
1016.9
 30
0.0
 11
156.014
 21
1015.2
 31
0.0
  0
LINE
  5
8C9
330
1E
100
AcDbEntity
  8
0
100
AcDbLine
 10
156.014
 20
1015.2
 30
0.0
 11
156.014
 21
1016.9
 31
0.0
  0
LINE
  5
8CA
330
1E
100
AcDbEntity
  8
0
100
AcDbLine
 10
156.014
 20
1015.2
 30
0.0
 11
156.014
 21
1012.4
 31
0.0
  0
LINE
  5
8CB
330
1E
100
AcDbEntity
  8
0
100
AcDbLine
 10
156.014
 20
1012.4
 30
0.0
 11
156.014
 21
1015.2
 31
0.0
  0
LINE
  5
8CC
330
1E
100
AcDbEntity
  8
0
100
AcDbLine
 10
156.014
 20
1012.4
 30
0.0
 11
156.014
 21
1008.7
 31
0.0
  0
LINE
  5
8CD
330
1E
100
AcDbEntity
  8
0
100
AcDbLine
 10
156.014
 20
1008.7
 30
0.0
 11
156.014
 21
1012.4
 31
0.0
  0
LINE
  5
8CE
330
1E
100
AcDbEntity
  8
0
100
AcDbLine
 10
156.014
 20
1008.7
 30
0.0
 11
156.014
 21
1004.499999999999
 31
0.0
  0
LINE
  5
8CF
330
1E
100
AcDbEntity
  8
0
100
AcDbLine
 10
156.014
 20
1004.499999999999
 30
0.0
 11
156.014
 21
1008.7
 31
0.0
  0
LINE
  5
8D0
330
1E
100
AcDbEntity
  8
0
100
AcDbLine
 10
156.014
 20
1004.499999999999
 30
0.0
 11
156.014
 21
1000.0
 31
0.0
  0
LINE
  5
8D1
330
1E
100
AcDbEntity
  8
0
100
AcDbLine
 10
156.014
 20
1000.0
 30
0.0
 11
156.014
 21
1004.499999999999
 31
0.0
  0
LINE
  5
8D2
330
1E
100
AcDbEntity
  8
0
100
AcDbLine
 10
156.014
 20
1000.0
 30
0.0
 11
156.014
 21
995.5
 31
0.0
  0
LINE
  5
8D3
330
1E
100
AcDbEntity
  8
0
100
AcDbLine
 10
156.014
 20
1017.5
 30
0.0
 11
196.014
 21
1017.5
 31
0.0
  0
LINE
  5
8D4
330
1E
100
AcDbEntity
  8
0
100
AcDbLine
 10
156.014
 20
1017.5
 30
0.0
 11
156.014
 21
1016.9
 31
0.0
  0
LINE
  5
8D5
330
1E
100
AcDbEntity
  8
0
100
AcDbLine
 10
155.514
 20
983.5
 30
0.0
 11
156.014
 21
982.5000000000001
 31
0.0
  0
LINE
  5
8D6
330
1E
100
AcDbEntity
  8
0
100
AcDbLine
 10
155.514
 20
983.5
 30
0.0
 11
155.514
 21
984.1000000000001
 31
0.0
  0
LINE
  5
8D7
330
1E
100
AcDbEntity
  8
0
100
AcDbLine
 10
156.014
 20
982.5000000000001
 30
0.0
 11
196.014
 21
982.5000000000001
 31
0.0
  0
LINE
  5
8D8
330
1E
100
AcDbEntity
  8
0
100
AcDbLine
 10
156.014
 20
982.5000000000001
 30
0.0
 11
156.014
 21
983.1000000000001
 31
0.0
  0
LINE
  5
8D9
330
1E
100
AcDbEntity
  8
0
100
AcDbLine
 10
158.803
 20
1037.94
 30
0.0
 11
162.0
 21
1054.02
 31
0.0
  0
LINE
  5
8DA
330
1E
100
AcDbEntity
  8
0
100
AcDbLine
 10
158.803
 20
1037.95
 30
0.0
 11
162.0
 21
1054.02
 31
0.0
  0
LINE
  5
8DB
330
1E
100
AcDbEntity
  8
0
100
AcDbLine
 10
158.803
 20
1070.099999999999
 30
0.0
 11
162.0
 21
1054.02
 31
0.0
  0
LINE
  5
8DC
330
1E
100
AcDbEntity
  8
0
100
AcDbLine
 10
156.062
 20
2105.0
 30
0.0
 11
156.062
 21
2107.0
 31
0.0
  0
LINE
  5
8DD
330
1E
100
AcDbEntity
  8
0
100
AcDbLine
 10
158.1339999999999
 20
2105.0
 30
0.0
 11
158.1339999999999
 21
2107.0
 31
0.0
  0
LINE
  5
8DE
330
1E
100
AcDbEntity
  8
0
100
AcDbLine
 10
158.1339999999999
 20
2105.0
 30
0.0
 11
159.1339999999999
 21
2105.0
 31
0.0
  0
LINE
  5
8DF
330
1E
100
AcDbEntity
  8
0
100
AcDbLine
 10
158.1339999999999
 20
2105.0
 30
0.0
 11
159.866
 21
2105.0
 31
0.0
  0
LINE
  5
8E0
330
1E
100
AcDbEntity
  8
0
100
AcDbLine
 10
160.866
 20
2105.0
 30
0.0
 11
160.866
 21
2107.0
 31
0.0
  0
LINE
  5
8E1
330
1E
100
AcDbEntity
  8
0
100
AcDbLine
 10
159.1339999999999
 20
2105.0
 30
0.0
 11
160.866
 21
2105.0
 31
0.0
  0
LINE
  5
8E2
330
1E
100
AcDbEntity
  8
0
100
AcDbLine
 10
159.1339999999999
 20
2105.0
 30
0.0
 11
159.1339999999999
 21
2107.0
 31
0.0
  0
LINE
  5
8E3
330
1E
100
AcDbEntity
  8
0
100
AcDbLine
 10
159.866
 20
2105.0
 30
0.0
 11
160.866
 21
2105.0
 31
0.0
  0
LINE
  5
8E4
330
1E
100
AcDbEntity
  8
0
100
AcDbLine
 10
154.648
 20
2105.0
 30
0.0
 11
156.062
 21
2105.0
 31
0.0
  0
LINE
  5
8E5
330
1E
100
AcDbEntity
  8
0
100
AcDbLine
 10
154.648
 20
2105.0
 30
0.0
 11
154.648
 21
2107.0
 31
0.0
  0
LINE
  5
8E6
330
1E
100
AcDbEntity
  8
0
100
AcDbLine
 10
161.0689999999999
 20
2105.0
 30
0.0
 11
161.0689999999999
 21
2107.0
 31
0.0
  0
LINE
  5
8E7
330
1E
100
AcDbEntity
  8
0
100
AcDbLine
 10
161.0689999999999
 20
2105.0
 30
0.0
 11
162.801
 21
2105.0
 31
0.0
  0
LINE
  5
8E8
330
1E
100
AcDbEntity
  8
0
100
AcDbLine
 10
161.0689999999999
 20
2105.0
 30
0.0
 11
162.0689999999999
 21
2105.0
 31
0.0
  0
LINE
  5
8E9
330
1E
100
AcDbEntity
  8
0
100
AcDbLine
 10
163.801
 20
2105.0
 30
0.0
 11
163.801
 21
2107.0
 31
0.0
  0
LINE
  5
8EA
330
1E
100
AcDbEntity
  8
0
100
AcDbLine
 10
163.8409999999999
 20
2105.0
 30
0.0
 11
163.8409999999999
 21
2107.0
 31
0.0
  0
LINE
  5
8EB
330
1E
100
AcDbEntity
  8
0
100
AcDbLine
 10
163.8409999999999
 20
2105.0
 30
0.0
 11
165.2549999999999
 21
2105.0
 31
0.0
  0
LINE
  5
8EC
330
1E
100
AcDbEntity
  8
0
100
AcDbLine
 10
165.634
 20
2105.0
 30
0.0
 11
166.634
 21
2105.0
 31
0.0
  0
LINE
  5
8ED
330
1E
100
AcDbEntity
  8
0
100
AcDbLine
 10
165.634
 20
2105.0
 30
0.0
 11
167.3659999999999
 21
2105.0
 31
0.0
  0
LINE
  5
8EE
330
1E
100
AcDbEntity
  8
0
100
AcDbLine
 10
165.634
 20
2105.0
 30
0.0
 11
165.634
 21
2107.0
 31
0.0
  0
LINE
  5
8EF
330
1E
100
AcDbEntity
  8
0
100
AcDbLine
 10
165.2549999999999
 20
2105.0
 30
0.0
 11
166.669
 21
2105.0
 31
0.0
  0
LINE
  5
8F0
330
1E
100
AcDbEntity
  8
0
100
AcDbLine
 10
165.2549999999999
 20
2105.0
 30
0.0
 11
165.2549999999999
 21
2107.0
 31
0.0
  0
LINE
  5
8F1
330
1E
100
AcDbEntity
  8
0
100
AcDbLine
 10
162.801
 20
2105.0
 30
0.0
 11
163.801
 21
2105.0
 31
0.0
  0
LINE
  5
8F2
330
1E
100
AcDbEntity
  8
0
100
AcDbLine
 10
162.801
 20
2105.0
 30
0.0
 11
162.801
 21
2107.0
 31
0.0
  0
LINE
  5
8F3
330
1E
100
AcDbEntity
  8
0
100
AcDbLine
 10
162.0689999999999
 20
2105.0
 30
0.0
 11
163.801
 21
2105.0
 31
0.0
  0
LINE
  5
8F4
330
1E
100
AcDbEntity
  8
0
100
AcDbLine
 10
166.1059999999999
 20
2105.0
 30
0.0
 11
168.037
 21
2105.0
 31
0.0
  0
LINE
  5
8F5
330
1E
100
AcDbEntity
  8
0
100
AcDbLine
 10
166.1059999999999
 20
2105.0
 30
0.0
 11
166.6229999999999
 21
2105.0
 31
0.0
  0
LINE
  5
8F6
330
1E
100
AcDbEntity
  8
0
100
AcDbLine
 10
166.634
 20
2105.0
 30
0.0
 11
168.3659999999999
 21
2105.0
 31
0.0
  0
LINE
  5
8F7
330
1E
100
AcDbEntity
  8
0
100
AcDbLine
 10
166.634
 20
2105.0
 30
0.0
 11
166.634
 21
2107.0
 31
0.0
  0
LINE
  5
8F8
330
1E
100
AcDbEntity
  8
0
100
AcDbLine
 10
167.3659999999999
 20
2105.0
 30
0.0
 11
168.3659999999999
 21
2105.0
 31
0.0
  0
LINE
  5
8F9
330
1E
100
AcDbEntity
  8
0
100
AcDbLine
 10
166.6229999999999
 20
2105.0
 30
0.0
 11
168.555
 21
2105.0
 31
0.0
  0
LINE
  5
8FA
330
1E
100
AcDbEntity
  8
0
100
AcDbLine
 10
153.549
 20
2105.0
 30
0.0
 11
154.066
 21
2105.0
 31
0.0
  0
LINE
  5
8FB
330
1E
100
AcDbEntity
  8
0
100
AcDbLine
 10
168.555
 20
2105.0
 30
0.0
 11
168.555
 21
2107.0
 31
0.0
  0
LINE
  5
8FC
330
1E
100
AcDbEntity
  8
0
100
AcDbLine
 10
168.3659999999999
 20
2105.0
 30
0.0
 11
168.3659999999999
 21
2107.0
 31
0.0
  0
LINE
  5
8FD
330
1E
100
AcDbEntity
  8
0
100
AcDbLine
 10
173.134
 20
2105.0
 30
0.0
 11
173.134
 21
2107.0
 31
0.0
  0
LINE
  5
8FE
330
1E
100
AcDbEntity
  8
0
100
AcDbLine
 10
173.134
 20
2105.0
 30
0.0
 11
174.134
 21
2105.0
 31
0.0
  0
LINE
  5
8FF
330
1E
100
AcDbEntity
  8
0
100
AcDbLine
 10
173.134
 20
2105.0
 30
0.0
 11
174.8659999999999
 21
2105.0
 31
0.0
  0
LINE
  5
900
330
1E
100
AcDbEntity
  8
0
100
AcDbLine
 10
174.134
 20
2105.0
 30
0.0
 11
175.8659999999999
 21
2105.0
 31
0.0
  0
LINE
  5
901
330
1E
100
AcDbEntity
  8
0
100
AcDbLine
 10
174.134
 20
2105.0
 30
0.0
 11
174.134
 21
2107.0
 31
0.0
  0
LINE
  5
902
330
1E
100
AcDbEntity
  8
0
100
AcDbLine
 10
174.8659999999999
 20
2105.0
 30
0.0
 11
175.8659999999999
 21
2105.0
 31
0.0
  0
LINE
  5
903
330
1E
100
AcDbEntity
  8
0
100
AcDbLine
 10
174.4469999999999
 20
2105.0
 30
0.0
 11
175.861
 21
2105.0
 31
0.0
  0
LINE
  5
904
330
1E
100
AcDbEntity
  8
0
100
AcDbLine
 10
174.06
 20
2105.0
 30
0.0
 11
175.792
 21
2105.0
 31
0.0
  0
LINE
  5
905
330
1E
100
AcDbEntity
  8
0
100
AcDbLine
 10
174.06
 20
2105.0
 30
0.0
 11
175.06
 21
2105.0
 31
0.0
  0
LINE
  5
906
330
1E
100
AcDbEntity
  8
0
100
AcDbLine
 10
177.2759999999999
 20
2105.0
 30
0.0
 11
177.2759999999999
 21
2107.0
 31
0.0
  0
LINE
  5
907
330
1E
100
AcDbEntity
  8
0
100
AcDbLine
 10
175.8659999999999
 20
2105.0
 30
0.0
 11
175.8659999999999
 21
2107.0
 31
0.0
  0
LINE
  5
908
330
1E
100
AcDbEntity
  8
0
100
AcDbLine
 10
175.861
 20
2105.0
 30
0.0
 11
177.2759999999999
 21
2105.0
 31
0.0
  0
LINE
  5
909
330
1E
100
AcDbEntity
  8
0
100
AcDbLine
 10
175.792
 20
2105.0
 30
0.0
 11
176.792
 21
2105.0
 31
0.0
  0
LINE
  5
90A
330
1E
100
AcDbEntity
  8
0
100
AcDbLine
 10
175.06
 20
2105.0
 30
0.0
 11
176.792
 21
2105.0
 31
0.0
  0
LINE
  5
90B
330
1E
100
AcDbEntity
  8
0
100
AcDbLine
 10
180.5949999999999
 20
2105.0
 30
0.0
 11
180.5949999999999
 21
2107.0
 31
0.0
  0
LINE
  5
90C
330
1E
100
AcDbEntity
  8
0
100
AcDbLine
 10
180.5949999999999
 20
2105.0
 30
0.0
 11
182.5259999999999
 21
2105.0
 31
0.0
  0
LINE
  5
90D
330
1E
100
AcDbEntity
  8
0
100
AcDbLine
 10
180.5949999999999
 20
2105.0
 30
0.0
 11
181.112
 21
2105.0
 31
0.0
  0
LINE
  5
90E
330
1E
100
AcDbEntity
  8
0
100
AcDbLine
 10
183.044
 20
2105.0
 30
0.0
 11
183.044
 21
2107.0
 31
0.0
  0
LINE
  5
90F
330
1E
100
AcDbEntity
  8
0
100
AcDbLine
 10
182.5259999999999
 20
2105.0
 30
0.0
 11
183.044
 21
2105.0
 31
0.0
  0
LINE
  5
910
330
1E
100
AcDbEntity
  8
0
100
AcDbLine
 10
182.5259999999999
 20
2105.0
 30
0.0
 11
182.5259999999999
 21
2107.0
 31
0.0
  0
LINE
  5
911
330
1E
100
AcDbEntity
  8
0
100
AcDbLine
 10
181.112
 20
2105.0
 30
0.0
 11
183.044
 21
2105.0
 31
0.0
  0
LINE
  5
912
330
1E
100
AcDbEntity
  8
0
100
AcDbLine
 10
168.037
 20
2105.0
 30
0.0
 11
168.555
 21
2105.0
 31
0.0
  0
LINE
  5
913
330
1E
100
AcDbEntity
  8
0
100
AcDbLine
 10
170.0
 20
2105.0
 30
0.0
 11
170.0
 21
2107.0
 31
0.0
  0
LINE
  5
914
330
1E
100
AcDbEntity
  8
0
100
AcDbLine
 10
168.0
 20
2105.0
 30
0.0
 11
170.0
 21
2105.0
 31
0.0
  0
LINE
  5
915
330
1E
100
AcDbEntity
  8
0
100
AcDbLine
 10
153.0
 20
2105.0
 30
0.0
 11
155.0
 21
2105.0
 31
0.0
  0
LINE
  5
916
330
1E
100
AcDbEntity
  8
0
100
AcDbLine
 10
185.054
 20
2105.0
 30
0.0
 11
185.054
 21
2107.0
 31
0.0
  0
LINE
  5
917
330
1E
100
AcDbEntity
  8
0
100
AcDbLine
 10
185.054
 20
2105.0
 30
0.0
 11
186.4679999999999
 21
2105.0
 31
0.0
  0
LINE
  5
918
330
1E
100
AcDbEntity
  8
0
100
AcDbLine
 10
187.882
 20
2105.0
 30
0.0
 11
187.882
 21
2107.0
 31
0.0
  0
LINE
  5
919
330
1E
100
AcDbEntity
  8
0
100
AcDbLine
 10
186.4679999999999
 20
2105.0
 30
0.0
 11
187.882
 21
2105.0
 31
0.0
  0
LINE
  5
91A
330
1E
100
AcDbEntity
  8
0
100
AcDbLine
 10
186.4679999999999
 20
2105.0
 30
0.0
 11
186.4679999999999
 21
2107.0
 31
0.0
  0
LINE
  5
91B
330
1E
100
AcDbEntity
  8
0
100
AcDbLine
 10
187.05
 20
2105.0
 30
0.0
 11
188.7819999999999
 21
2105.0
 31
0.0
  0
LINE
  5
91C
330
1E
100
AcDbEntity
  8
0
100
AcDbLine
 10
187.05
 20
2105.0
 30
0.0
 11
188.0499999999999
 21
2105.0
 31
0.0
  0
LINE
  5
91D
330
1E
100
AcDbEntity
  8
0
100
AcDbLine
 10
189.782
 20
2105.0
 30
0.0
 11
189.782
 21
2107.0
 31
0.0
  0
LINE
  5
91E
330
1E
100
AcDbEntity
  8
0
100
AcDbLine
 10
196.014
 20
983.1000000000001
 30
0.0
 11
196.014
 21
984.7999999999998
 31
0.0
  0
LINE
  5
91F
330
1E
100
AcDbEntity
  8
0
100
AcDbLine
 10
196.014
 20
983.1000000000001
 30
0.0
 11
196.014
 21
982.5000000000001
 31
0.0
  0
LINE
  5
920
330
1E
100
AcDbEntity
  8
0
100
AcDbLine
 10
196.014
 20
984.7999999999998
 30
0.0
 11
196.014
 21
987.6000000000001
 31
0.0
  0
LINE
  5
921
330
1E
100
AcDbEntity
  8
0
100
AcDbLine
 10
196.014
 20
984.7999999999998
 30
0.0
 11
196.014
 21
983.1000000000001
 31
0.0
  0
LINE
  5
922
330
1E
100
AcDbEntity
  8
0
100
AcDbLine
 10
196.014
 20
987.6000000000001
 30
0.0
 11
196.014
 21
991.3
 31
0.0
  0
LINE
  5
923
330
1E
100
AcDbEntity
  8
0
100
AcDbLine
 10
196.014
 20
987.6000000000001
 30
0.0
 11
196.014
 21
984.7999999999998
 31
0.0
  0
LINE
  5
924
330
1E
100
AcDbEntity
  8
0
100
AcDbLine
 10
196.014
 20
991.3
 30
0.0
 11
196.014
 21
995.5
 31
0.0
  0
LINE
  5
925
330
1E
100
AcDbEntity
  8
0
100
AcDbLine
 10
196.014
 20
991.3
 30
0.0
 11
196.014
 21
987.6000000000001
 31
0.0
  0
LINE
  5
926
330
1E
100
AcDbEntity
  8
0
100
AcDbLine
 10
196.014
 20
995.5
 30
0.0
 11
196.014
 21
1000.0
 31
0.0
  0
LINE
  5
927
330
1E
100
AcDbEntity
  8
0
100
AcDbLine
 10
196.014
 20
995.5
 30
0.0
 11
196.014
 21
991.3
 31
0.0
  0
LINE
  5
928
330
1E
100
AcDbEntity
  8
0
100
AcDbLine
 10
196.014
 20
1016.9
 30
0.0
 11
196.014
 21
1017.5
 31
0.0
  0
LINE
  5
929
330
1E
100
AcDbEntity
  8
0
100
AcDbLine
 10
196.014
 20
1016.9
 30
0.0
 11
196.014
 21
1015.2
 31
0.0
  0
LINE
  5
92A
330
1E
100
AcDbEntity
  8
0
100
AcDbLine
 10
196.014
 20
1015.2
 30
0.0
 11
196.014
 21
1016.9
 31
0.0
  0
LINE
  5
92B
330
1E
100
AcDbEntity
  8
0
100
AcDbLine
 10
196.014
 20
1015.2
 30
0.0
 11
196.014
 21
1012.4
 31
0.0
  0
LINE
  5
92C
330
1E
100
AcDbEntity
  8
0
100
AcDbLine
 10
196.014
 20
1012.4
 30
0.0
 11
196.014
 21
1015.2
 31
0.0
  0
LINE
  5
92D
330
1E
100
AcDbEntity
  8
0
100
AcDbLine
 10
196.014
 20
1012.4
 30
0.0
 11
196.014
 21
1008.7
 31
0.0
  0
LINE
  5
92E
330
1E
100
AcDbEntity
  8
0
100
AcDbLine
 10
196.014
 20
1008.7
 30
0.0
 11
196.014
 21
1012.4
 31
0.0
  0
LINE
  5
92F
330
1E
100
AcDbEntity
  8
0
100
AcDbLine
 10
196.014
 20
1008.7
 30
0.0
 11
196.014
 21
1004.499999999999
 31
0.0
  0
LINE
  5
930
330
1E
100
AcDbEntity
  8
0
100
AcDbLine
 10
196.014
 20
1004.499999999999
 30
0.0
 11
196.014
 21
1008.7
 31
0.0
  0
LINE
  5
931
330
1E
100
AcDbEntity
  8
0
100
AcDbLine
 10
196.014
 20
1004.499999999999
 30
0.0
 11
196.014
 21
1000.0
 31
0.0
  0
LINE
  5
932
330
1E
100
AcDbEntity
  8
0
100
AcDbLine
 10
196.014
 20
1000.0
 30
0.0
 11
196.014
 21
1004.499999999999
 31
0.0
  0
LINE
  5
933
330
1E
100
AcDbEntity
  8
0
100
AcDbLine
 10
196.014
 20
1000.0
 30
0.0
 11
196.014
 21
995.5
 31
0.0
  0
LINE
  5
934
330
1E
100
AcDbEntity
  8
0
100
AcDbLine
 10
197.014
 20
983.5
 30
0.0
 11
197.014
 21
984.1000000000001
 31
0.0
  0
LINE
  5
935
330
1E
100
AcDbEntity
  8
0
100
AcDbLine
 10
197.014
 20
984.1000000000001
 30
0.0
 11
197.014
 21
985.7000000000001
 31
0.0
  0
LINE
  5
936
330
1E
100
AcDbEntity
  8
0
100
AcDbLine
 10
197.014
 20
984.1000000000001
 30
0.0
 11
197.014
 21
983.5
 31
0.0
  0
LINE
  5
937
330
1E
100
AcDbEntity
  8
0
100
AcDbLine
 10
197.014
 20
985.7000000000001
 30
0.0
 11
197.014
 21
988.4
 31
0.0
  0
LINE
  5
938
330
1E
100
AcDbEntity
  8
0
100
AcDbLine
 10
197.014
 20
985.7000000000001
 30
0.0
 11
197.014
 21
984.1000000000001
 31
0.0
  0
LINE
  5
939
330
1E
100
AcDbEntity
  8
0
100
AcDbLine
 10
197.014
 20
988.4
 30
0.0
 11
197.014
 21
991.7999999999999
 31
0.0
  0
LINE
  5
93A
330
1E
100
AcDbEntity
  8
0
100
AcDbLine
 10
197.014
 20
988.4
 30
0.0
 11
197.014
 21
985.7000000000001
 31
0.0
  0
LINE
  5
93B
330
1E
100
AcDbEntity
  8
0
100
AcDbLine
 10
197.014
 20
991.7999999999999
 30
0.0
 11
197.014
 21
995.7
 31
0.0
  0
LINE
  5
93C
330
1E
100
AcDbEntity
  8
0
100
AcDbLine
 10
197.014
 20
991.7999999999999
 30
0.0
 11
197.014
 21
988.4
 31
0.0
  0
LINE
  5
93D
330
1E
100
AcDbEntity
  8
0
100
AcDbLine
 10
197.014
 20
995.7
 30
0.0
 11
197.014
 21
1000.0
 31
0.0
  0
LINE
  5
93E
330
1E
100
AcDbEntity
  8
0
100
AcDbLine
 10
197.014
 20
995.7
 30
0.0
 11
197.014
 21
991.7999999999999
 31
0.0
  0
LINE
  5
93F
330
1E
100
AcDbEntity
  8
0
100
AcDbLine
 10
197.014
 20
1016.5
 30
0.0
 11
197.014
 21
1015.9
 31
0.0
  0
LINE
  5
940
330
1E
100
AcDbEntity
  8
0
100
AcDbLine
 10
197.014
 20
1015.9
 30
0.0
 11
197.014
 21
1016.5
 31
0.0
  0
LINE
  5
941
330
1E
100
AcDbEntity
  8
0
100
AcDbLine
 10
197.014
 20
1015.9
 30
0.0
 11
197.014
 21
1014.299999999999
 31
0.0
  0
LINE
  5
942
330
1E
100
AcDbEntity
  8
0
100
AcDbLine
 10
197.014
 20
1014.299999999999
 30
0.0
 11
197.014
 21
1015.9
 31
0.0
  0
LINE
  5
943
330
1E
100
AcDbEntity
  8
0
100
AcDbLine
 10
197.014
 20
1014.299999999999
 30
0.0
 11
197.014
 21
1011.6
 31
0.0
  0
LINE
  5
944
330
1E
100
AcDbEntity
  8
0
100
AcDbLine
 10
197.014
 20
1011.6
 30
0.0
 11
197.014
 21
1014.299999999999
 31
0.0
  0
LINE
  5
945
330
1E
100
AcDbEntity
  8
0
100
AcDbLine
 10
197.014
 20
1011.6
 30
0.0
 11
197.014
 21
1008.2
 31
0.0
  0
LINE
  5
946
330
1E
100
AcDbEntity
  8
0
100
AcDbLine
 10
197.014
 20
1008.2
 30
0.0
 11
197.014
 21
1011.6
 31
0.0
  0
LINE
  5
947
330
1E
100
AcDbEntity
  8
0
100
AcDbLine
 10
197.014
 20
1008.2
 30
0.0
 11
197.014
 21
1004.299999999999
 31
0.0
  0
LINE
  5
948
330
1E
100
AcDbEntity
  8
0
100
AcDbLine
 10
197.014
 20
1004.299999999999
 30
0.0
 11
197.014
 21
1008.2
 31
0.0
  0
LINE
  5
949
330
1E
100
AcDbEntity
  8
0
100
AcDbLine
 10
197.014
 20
1004.299999999999
 30
0.0
 11
197.014
 21
1000.0
 31
0.0
  0
LINE
  5
94A
330
1E
100
AcDbEntity
  8
0
100
AcDbLine
 10
197.014
 20
1000.0
 30
0.0
 11
197.014
 21
1004.299999999999
 31
0.0
  0
LINE
  5
94B
330
1E
100
AcDbEntity
  8
0
100
AcDbLine
 10
197.014
 20
1000.0
 30
0.0
 11
197.014
 21
995.7
 31
0.0
  0
LINE
  5
94C
330
1E
100
AcDbEntity
  8
0
100
AcDbLine
 10
196.014
 20
1017.5
 30
0.0
 11
197.014
 21
1016.5
 31
0.0
  0
LINE
  5
94D
330
1E
100
AcDbEntity
  8
0
100
AcDbLine
 10
196.014
 20
1017.5
 30
0.0
 11
196.014
 21
1016.9
 31
0.0
  0
LINE
  5
94E
330
1E
100
AcDbEntity
  8
0
100
AcDbLine
 10
196.014
 20
982.5000000000001
 30
0.0
 11
197.014
 21
983.5
 31
0.0
  0
LINE
  5
94F
330
1E
100
AcDbEntity
  8
0
100
AcDbLine
 10
196.014
 20
982.5000000000001
 30
0.0
 11
196.014
 21
983.1000000000001
 31
0.0
  0
LINE
  5
950
330
1E
100
AcDbEntity
  8
0
100
AcDbLine
 10
195.66
 20
2105.0
 30
0.0
 11
197.0749999999999
 21
2105.0
 31
0.0
  0
LINE
  5
951
330
1E
100
AcDbEntity
  8
0
100
AcDbLine
 10
195.66
 20
2105.0
 30
0.0
 11
195.66
 21
2107.0
 31
0.0
  0
LINE
  5
952
330
1E
100
AcDbEntity
  8
0
100
AcDbLine
 10
188.7819999999999
 20
2105.0
 30
0.0
 11
189.782
 21
2105.0
 31
0.0
  0
LINE
  5
953
330
1E
100
AcDbEntity
  8
0
100
AcDbLine
 10
188.7819999999999
 20
2105.0
 30
0.0
 11
188.7819999999999
 21
2107.0
 31
0.0
  0
LINE
  5
954
330
1E
100
AcDbEntity
  8
0
100
AcDbLine
 10
188.0499999999999
 20
2105.0
 30
0.0
 11
189.782
 21
2105.0
 31
0.0
  0
LINE
  5
955
330
1E
100
AcDbEntity
  8
0
100
AcDbLine
 10
195.083
 20
2105.0
 30
0.0
 11
195.083
 21
2107.0
 31
0.0
  0
LINE
  5
956
330
1E
100
AcDbEntity
  8
0
100
AcDbLine
 10
195.083
 20
2105.0
 30
0.0
 11
197.0149999999999
 21
2105.0
 31
0.0
  0
LINE
  5
957
330
1E
100
AcDbEntity
  8
0
100
AcDbLine
 10
195.083
 20
2105.0
 30
0.0
 11
195.601
 21
2105.0
 31
0.0
  0
LINE
  5
958
330
1E
100
AcDbEntity
  8
0
100
AcDbLine
 10
198.489
 20
2105.0
 30
0.0
 11
198.489
 21
2107.0
 31
0.0
  0
LINE
  5
959
330
1E
100
AcDbEntity
  8
0
100
AcDbLine
 10
197.0749999999999
 20
2105.0
 30
0.0
 11
198.489
 21
2105.0
 31
0.0
  0
LINE
  5
95A
330
1E
100
AcDbEntity
  8
0
100
AcDbLine
 10
197.0749999999999
 20
2105.0
 30
0.0
 11
197.0749999999999
 21
2107.0
 31
0.0
  0
LINE
  5
95B
330
1E
100
AcDbEntity
  8
0
100
AcDbLine
 10
197.0149999999999
 20
2105.0
 30
0.0
 11
197.5329999999999
 21
2105.0
 31
0.0
  0
LINE
  5
95C
330
1E
100
AcDbEntity
  8
0
100
AcDbLine
 10
195.601
 20
2105.0
 30
0.0
 11
197.5329999999999
 21
2105.0
 31
0.0
  0
LINE
  5
95D
330
1E
100
AcDbEntity
  8
0
100
AcDbLine
 10
200.0399999999999
 20
2105.0
 30
0.0
 11
200.0399999999999
 21
2107.0
 31
0.0
  0
LINE
  5
95E
330
1E
100
AcDbEntity
  8
0
100
AcDbLine
 10
200.0399999999999
 20
2105.0
 30
0.0
 11
201.772
 21
2105.0
 31
0.0
  0
LINE
  5
95F
330
1E
100
AcDbEntity
  8
0
100
AcDbLine
 10
200.0399999999999
 20
2105.0
 30
0.0
 11
201.0399999999999
 21
2105.0
 31
0.0
  0
LINE
  5
960
330
1E
100
AcDbEntity
  8
0
100
AcDbLine
 10
202.772
 20
2105.0
 30
0.0
 11
202.772
 21
2107.0
 31
0.0
  0
LINE
  5
961
330
1E
100
AcDbEntity
  8
0
100
AcDbLine
 10
201.772
 20
2105.0
 30
0.0
 11
202.772
 21
2105.0
 31
0.0
  0
LINE
  5
962
330
1E
100
AcDbEntity
  8
0
100
AcDbLine
 10
201.772
 20
2105.0
 30
0.0
 11
201.772
 21
2107.0
 31
0.0
  0
LINE
  5
963
330
1E
100
AcDbEntity
  8
0
100
AcDbLine
 10
201.0399999999999
 20
2105.0
 30
0.0
 11
202.772
 21
2105.0
 31
0.0
  0
LINE
  5
964
330
1E
100
AcDbEntity
  8
0
100
AcDbLine
 10
209.572
 20
2105.0
 30
0.0
 11
209.572
 21
2107.0
 31
0.0
  0
LINE
  5
965
330
1E
100
AcDbEntity
  8
0
100
AcDbLine
 10
209.572
 20
2105.0
 30
0.0
 11
211.504
 21
2105.0
 31
0.0
  0
LINE
  5
966
330
1E
100
AcDbEntity
  8
0
100
AcDbLine
 10
209.572
 20
2105.0
 30
0.0
 11
210.09
 21
2105.0
 31
0.0
  0
LINE
  5
967
330
1E
100
AcDbEntity
  8
0
100
AcDbLine
 10
212.022
 20
2105.0
 30
0.0
 11
212.022
 21
2107.0
 31
0.0
  0
LINE
  5
968
330
1E
100
AcDbEntity
  8
0
100
AcDbLine
 10
213.0309999999999
 20
2105.0
 30
0.0
 11
214.7629999999999
 21
2105.0
 31
0.0
  0
LINE
  5
969
330
1E
100
AcDbEntity
  8
0
100
AcDbLine
 10
213.0309999999999
 20
2105.0
 30
0.0
 11
214.0309999999999
 21
2105.0
 31
0.0
  0
LINE
  5
96A
330
1E
100
AcDbEntity
  8
0
100
AcDbLine
 10
213.0309999999999
 20
2105.0
 30
0.0
 11
213.0309999999999
 21
2107.0
 31
0.0
  0
LINE
  5
96B
330
1E
100
AcDbEntity
  8
0
100
AcDbLine
 10
214.7629999999999
 20
2105.0
 30
0.0
 11
215.763
 21
2105.0
 31
0.0
  0
LINE
  5
96C
330
1E
100
AcDbEntity
  8
0
100
AcDbLine
 10
214.7629999999999
 20
2105.0
 30
0.0
 11
214.7629999999999
 21
2107.0
 31
0.0
  0
LINE
  5
96D
330
1E
100
AcDbEntity
  8
0
100
AcDbLine
 10
214.0309999999999
 20
2105.0
 30
0.0
 11
215.763
 21
2105.0
 31
0.0
  0
LINE
  5
96E
330
1E
100
AcDbEntity
  8
0
100
AcDbLine
 10
211.504
 20
2105.0
 30
0.0
 11
212.022
 21
2105.0
 31
0.0
  0
LINE
  5
96F
330
1E
100
AcDbEntity
  8
0
100
AcDbLine
 10
211.504
 20
2105.0
 30
0.0
 11
211.504
 21
2107.0
 31
0.0
  0
LINE
  5
970
330
1E
100
AcDbEntity
  8
0
100
AcDbLine
 10
210.09
 20
2105.0
 30
0.0
 11
212.022
 21
2105.0
 31
0.0
  0
LINE
  5
971
330
1E
100
AcDbEntity
  8
0
100
AcDbLine
 10
215.763
 20
2105.0
 30
0.0
 11
215.763
 21
2107.0
 31
0.0
  0
LINE
  5
972
330
1E
100
AcDbEntity
  8
0
100
AcDbLine
 10
224.0609999999999
 20
2105.0
 30
0.0
 11
224.0609999999999
 21
2107.0
 31
0.0
  0
LINE
  5
973
330
1E
100
AcDbEntity
  8
0
100
AcDbLine
 10
224.0609999999999
 20
2105.0
 30
0.0
 11
225.993
 21
2105.0
 31
0.0
  0
LINE
  5
974
330
1E
100
AcDbEntity
  8
0
100
AcDbLine
 10
224.0609999999999
 20
2105.0
 30
0.0
 11
224.5789999999999
 21
2105.0
 31
0.0
  0
LINE
  5
975
330
1E
100
AcDbEntity
  8
0
100
AcDbLine
 10
226.5109999999999
 20
2105.0
 30
0.0
 11
226.5109999999999
 21
2107.0
 31
0.0
  0
LINE
  5
976
330
1E
100
AcDbEntity
  8
0
100
AcDbLine
 10
225.993
 20
2105.0
 30
0.0
 11
226.5109999999999
 21
2105.0
 31
0.0
  0
LINE
  5
977
330
1E
100
AcDbEntity
  8
0
100
AcDbLine
 10
225.993
 20
2105.0
 30
0.0
 11
225.993
 21
2107.0
 31
0.0
  0
LINE
  5
978
330
1E
100
AcDbEntity
  8
0
100
AcDbLine
 10
224.5789999999999
 20
2105.0
 30
0.0
 11
226.5109999999999
 21
2105.0
 31
0.0
  0
LINE
  5
979
330
1E
100
AcDbEntity
  8
0
100
AcDbLine
 10
213.0
 20
2105.0
 30
0.0
 11
215.0
 21
2105.0
 31
0.0
  0
LINE
  5
97A
330
1E
100
AcDbEntity
  8
0
100
AcDbLine
 10
213.0
 20
2105.0
 30
0.0
 11
213.0
 21
2107.0
 31
0.0
  0
LINE
  5
97B
330
1E
100
AcDbEntity
  8
0
100
AcDbLine
 10
230.0
 20
2105.0
 30
0.0
 11
230.0
 21
2107.0
 31
0.0
  0
LINE
  5
97C
330
1E
100
AcDbEntity
  8
0
100
AcDbLine
 10
228.0
 20
2105.0
 30
0.0
 11
230.0
 21
2105.0
 31
0.0
  0
LINE
  5
97D
330
1E
100
AcDbEntity
  8
0
100
AcDbLine
 10
228.0
 20
2105.0
 30
0.0
 11
228.0
 21
2107.0
 31
0.0
  0
LINE
  5
97E
330
1E
100
AcDbEntity
  8
0
100
AcDbLine
 10
200.0
 20
2105.0
 30
0.0
 11
200.0
 21
2107.0
 31
0.0
  0
LINE
  5
97F
330
1E
100
AcDbEntity
  8
0
100
AcDbLine
 10
198.0
 20
2105.0
 30
0.0
 11
200.0
 21
2105.0
 31
0.0
  0
LINE
  5
980
330
1E
100
AcDbEntity
  8
0
100
AcDbLine
 10
185.0
 20
2105.0
 30
0.0
 11
185.0
 21
2107.0
 31
0.0
  0
LINE
  5
981
330
1E
100
AcDbEntity
  8
0
100
AcDbLine
 10
139.06
 20
2107.0
 30
0.0
 11
139.222
 21
2107.0
 31
0.0
  0
LINE
  5
982
330
1E
100
AcDbEntity
  8
0
100
AcDbLine
 10
139.06
 20
2107.0
 30
0.0
 11
139.06
 21
2105.0
 31
0.0
  0
LINE
  5
983
330
1E
100
AcDbEntity
  8
0
100
AcDbLine
 10
139.222
 20
2107.0
 30
0.0
 11
139.74
 21
2107.0
 31
0.0
  0
LINE
  5
984
330
1E
100
AcDbEntity
  8
0
100
AcDbLine
 10
139.222
 20
2107.0
 30
0.0
 11
139.222
 21
2105.0
 31
0.0
  0
LINE
  5
985
330
1E
100
AcDbEntity
  8
0
100
AcDbLine
 10
141.6709999999999
 20
2107.0
 30
0.0
 11
141.6709999999999
 21
2105.0
 31
0.0
  0
LINE
  5
986
330
1E
100
AcDbEntity
  8
0
100
AcDbLine
 10
141.6709999999999
 20
2107.0
 30
0.0
 11
142.627
 21
2107.0
 31
0.0
  0
LINE
  5
987
330
1E
100
AcDbEntity
  8
0
100
AcDbLine
 10
139.74
 20
2107.0
 30
0.0
 11
141.6709999999999
 21
2107.0
 31
0.0
  0
LINE
  5
988
330
1E
100
AcDbEntity
  8
0
100
AcDbLine
 10
139.74
 20
2107.0
 30
0.0
 11
139.74
 21
2105.0
 31
0.0
  0
LINE
  5
989
330
1E
100
AcDbEntity
  8
0
100
AcDbLine
 10
143.1039999999999
 20
2107.0
 30
0.0
 11
143.622
 21
2107.0
 31
0.0
  0
LINE
  5
98A
330
1E
100
AcDbEntity
  8
0
100
AcDbLine
 10
143.1039999999999
 20
2107.0
 30
0.0
 11
143.1039999999999
 21
2105.0
 31
0.0
  0
LINE
  5
98B
330
1E
100
AcDbEntity
  8
0
100
AcDbLine
 10
145.866
 20
2107.0
 30
0.0
 11
145.866
 21
2105.0
 31
0.0
  0
LINE
  5
98C
330
1E
100
AcDbEntity
  8
0
100
AcDbLine
 10
145.866
 20
2107.0
 30
0.0
 11
146.987
 21
2107.0
 31
0.0
  0
LINE
  5
98D
330
1E
100
AcDbEntity
  8
0
100
AcDbLine
 10
145.554
 20
2107.0
 30
0.0
 11
145.554
 21
2105.0
 31
0.0
  0
LINE
  5
98E
330
1E
100
AcDbEntity
  8
0
100
AcDbLine
 10
145.554
 20
2107.0
 30
0.0
 11
145.866
 21
2107.0
 31
0.0
  0
LINE
  5
98F
330
1E
100
AcDbEntity
  8
0
100
AcDbLine
 10
143.622
 20
2107.0
 30
0.0
 11
145.554
 21
2107.0
 31
0.0
  0
LINE
  5
990
330
1E
100
AcDbEntity
  8
0
100
AcDbLine
 10
143.622
 20
2107.0
 30
0.0
 11
143.622
 21
2105.0
 31
0.0
  0
LINE
  5
991
330
1E
100
AcDbEntity
  8
0
100
AcDbLine
 10
149.811
 20
2107.0
 30
0.0
 11
150.6339999999999
 21
2107.0
 31
0.0
  0
LINE
  5
992
330
1E
100
AcDbEntity
  8
0
100
AcDbLine
 10
149.811
 20
2107.0
 30
0.0
 11
149.811
 21
2105.0
 31
0.0
  0
LINE
  5
993
330
1E
100
AcDbEntity
  8
0
100
AcDbLine
 10
150.6339999999999
 20
2107.0
 30
0.0
 11
151.6339999999999
 21
2107.0
 31
0.0
  0
LINE
  5
994
330
1E
100
AcDbEntity
  8
0
100
AcDbLine
 10
150.6339999999999
 20
2107.0
 30
0.0
 11
150.6339999999999
 21
2105.0
 31
0.0
  0
LINE
  5
995
330
1E
100
AcDbEntity
  8
0
100
AcDbLine
 10
156.062
 20
2107.0
 30
0.0
 11
156.062
 21
2105.0
 31
0.0
  0
LINE
  5
996
330
1E
100
AcDbEntity
  8
0
100
AcDbLine
 10
156.062
 20
2107.0
 30
0.0
 11
158.1339999999999
 21
2107.0
 31
0.0
  0
LINE
  5
997
330
1E
100
AcDbEntity
  8
0
100
AcDbLine
 10
154.648
 20
2107.0
 30
0.0
 11
156.062
 21
2107.0
 31
0.0
  0
LINE
  5
998
330
1E
100
AcDbEntity
  8
0
100
AcDbLine
 10
154.648
 20
2107.0
 30
0.0
 11
154.648
 21
2105.0
 31
0.0
  0
LINE
  5
999
330
1E
100
AcDbEntity
  8
0
100
AcDbLine
 10
153.366
 20
2107.0
 30
0.0
 11
153.366
 21
2105.0
 31
0.0
  0
LINE
  5
99A
330
1E
100
AcDbEntity
  8
0
100
AcDbLine
 10
153.366
 20
2107.0
 30
0.0
 11
154.648
 21
2107.0
 31
0.0
  0
LINE
  5
99B
330
1E
100
AcDbEntity
  8
0
100
AcDbLine
 10
151.6339999999999
 20
2107.0
 30
0.0
 11
153.366
 21
2107.0
 31
0.0
  0
LINE
  5
99C
330
1E
100
AcDbEntity
  8
0
100
AcDbLine
 10
151.6339999999999
 20
2107.0
 30
0.0
 11
151.6339999999999
 21
2105.0
 31
0.0
  0
LINE
  5
99D
330
1E
100
AcDbEntity
  8
0
100
AcDbLine
 10
149.436
 20
2107.0
 30
0.0
 11
149.436
 21
2105.0
 31
0.0
  0
LINE
  5
99E
330
1E
100
AcDbEntity
  8
0
100
AcDbLine
 10
149.436
 20
2107.0
 30
0.0
 11
149.811
 21
2107.0
 31
0.0
  0
LINE
  5
99F
330
1E
100
AcDbEntity
  8
0
100
AcDbLine
 10
147.5039999999999
 20
2107.0
 30
0.0
 11
149.436
 21
2107.0
 31
0.0
  0
LINE
  5
9A0
330
1E
100
AcDbEntity
  8
0
100
AcDbLine
 10
147.5039999999999
 20
2107.0
 30
0.0
 11
147.5039999999999
 21
2105.0
 31
0.0
  0
LINE
  5
9A1
330
1E
100
AcDbEntity
  8
0
100
AcDbLine
 10
146.987
 20
2107.0
 30
0.0
 11
146.987
 21
2105.0
 31
0.0
  0
LINE
  5
9A2
330
1E
100
AcDbEntity
  8
0
100
AcDbLine
 10
146.987
 20
2107.0
 30
0.0
 11
147.5039999999999
 21
2107.0
 31
0.0
  0
LINE
  5
9A3
330
1E
100
AcDbEntity
  8
0
100
AcDbLine
 10
163.801
 20
2107.0
 30
0.0
 11
163.801
 21
2105.0
 31
0.0
  0
LINE
  5
9A4
330
1E
100
AcDbEntity
  8
0
100
AcDbLine
 10
162.801
 20
2107.0
 30
0.0
 11
163.801
 21
2107.0
 31
0.0
  0
LINE
  5
9A5
330
1E
100
AcDbEntity
  8
0
100
AcDbLine
 10
162.801
 20
2107.0
 30
0.0
 11
162.801
 21
2105.0
 31
0.0
  0
LINE
  5
9A6
330
1E
100
AcDbEntity
  8
0
100
AcDbLine
 10
165.2549999999999
 20
2107.0
 30
0.0
 11
165.634
 21
2107.0
 31
0.0
  0
LINE
  5
9A7
330
1E
100
AcDbEntity
  8
0
100
AcDbLine
 10
165.2549999999999
 20
2107.0
 30
0.0
 11
165.2549999999999
 21
2105.0
 31
0.0
  0
LINE
  5
9A8
330
1E
100
AcDbEntity
  8
0
100
AcDbLine
 10
160.866
 20
2107.0
 30
0.0
 11
160.866
 21
2105.0
 31
0.0
  0
LINE
  5
9A9
330
1E
100
AcDbEntity
  8
0
100
AcDbLine
 10
160.866
 20
2107.0
 30
0.0
 11
161.0689999999999
 21
2107.0
 31
0.0
  0
LINE
  5
9AA
330
1E
100
AcDbEntity
  8
0
100
AcDbLine
 10
159.1339999999999
 20
2107.0
 30
0.0
 11
160.866
 21
2107.0
 31
0.0
  0
LINE
  5
9AB
330
1E
100
AcDbEntity
  8
0
100
AcDbLine
 10
159.1339999999999
 20
2107.0
 30
0.0
 11
159.1339999999999
 21
2105.0
 31
0.0
  0
LINE
  5
9AC
330
1E
100
AcDbEntity
  8
0
100
AcDbLine
 10
158.1339999999999
 20
2107.0
 30
0.0
 11
158.1339999999999
 21
2105.0
 31
0.0
  0
LINE
  5
9AD
330
1E
100
AcDbEntity
  8
0
100
AcDbLine
 10
158.1339999999999
 20
2107.0
 30
0.0
 11
159.1339999999999
 21
2107.0
 31
0.0
  0
LINE
  5
9AE
330
1E
100
AcDbEntity
  8
0
100
AcDbLine
 10
163.8409999999999
 20
2107.0
 30
0.0
 11
163.8409999999999
 21
2105.0
 31
0.0
  0
LINE
  5
9AF
330
1E
100
AcDbEntity
  8
0
100
AcDbLine
 10
163.8409999999999
 20
2107.0
 30
0.0
 11
165.2549999999999
 21
2107.0
 31
0.0
  0
LINE
  5
9B0
330
1E
100
AcDbEntity
  8
0
100
AcDbLine
 10
142.627
 20
2107.0
 30
0.0
 11
142.627
 21
2105.0
 31
0.0
  0
LINE
  5
9B1
330
1E
100
AcDbEntity
  8
0
100
AcDbLine
 10
142.627
 20
2107.0
 30
0.0
 11
143.1039999999999
 21
2107.0
 31
0.0
  0
LINE
  5
9B2
330
1E
100
AcDbEntity
  8
0
100
AcDbLine
 10
161.0689999999999
 20
2107.0
 30
0.0
 11
161.0689999999999
 21
2105.0
 31
0.0
  0
LINE
  5
9B3
330
1E
100
AcDbEntity
  8
0
100
AcDbLine
 10
161.0689999999999
 20
2107.0
 30
0.0
 11
162.801
 21
2107.0
 31
0.0
  0
LINE
  5
9B4
330
1E
100
AcDbEntity
  8
0
100
AcDbLine
 10
165.634
 20
2107.0
 30
0.0
 11
166.634
 21
2107.0
 31
0.0
  0
LINE
  5
9B5
330
1E
100
AcDbEntity
  8
0
100
AcDbLine
 10
165.634
 20
2107.0
 30
0.0
 11
165.634
 21
2105.0
 31
0.0
  0
LINE
  5
9B6
330
1E
100
AcDbEntity
  8
0
100
AcDbLine
 10
168.3659999999999
 20
2107.0
 30
0.0
 11
168.3659999999999
 21
2105.0
 31
0.0
  0
LINE
  5
9B7
330
1E
100
AcDbEntity
  8
0
100
AcDbLine
 10
168.3659999999999
 20
2107.0
 30
0.0
 11
168.555
 21
2107.0
 31
0.0
  0
LINE
  5
9B8
330
1E
100
AcDbEntity
  8
0
100
AcDbLine
 10
166.634
 20
2107.0
 30
0.0
 11
168.3659999999999
 21
2107.0
 31
0.0
  0
LINE
  5
9B9
330
1E
100
AcDbEntity
  8
0
100
AcDbLine
 10
166.634
 20
2107.0
 30
0.0
 11
166.634
 21
2105.0
 31
0.0
  0
LINE
  5
9BA
330
1E
100
AcDbEntity
  8
0
100
AcDbLine
 10
165.5
 20
2107.0
 30
0.0
 11
179.1999999999999
 21
2107.0
 31
0.0
  0
LINE
  5
9BB
330
1E
100
AcDbEntity
  8
0
100
AcDbLine
 10
150.6999999999999
 20
2107.0
 30
0.0
 11
165.5
 21
2107.0
 31
0.0
  0
LINE
  5
9BC
330
1E
100
AcDbEntity
  8
0
100
AcDbLine
 10
177.2759999999999
 20
2107.0
 30
0.0
 11
177.2759999999999
 21
2105.0
 31
0.0
  0
LINE
  5
9BD
330
1E
100
AcDbEntity
  8
0
100
AcDbLine
 10
177.2759999999999
 20
2107.0
 30
0.0
 11
179.1999999999999
 21
2107.0
 31
0.0
  0
LINE
  5
9BE
330
1E
100
AcDbEntity
  8
0
100
AcDbLine
 10
175.8659999999999
 20
2107.0
 30
0.0
 11
175.8659999999999
 21
2105.0
 31
0.0
  0
LINE
  5
9BF
330
1E
100
AcDbEntity
  8
0
100
AcDbLine
 10
175.8659999999999
 20
2107.0
 30
0.0
 11
177.2759999999999
 21
2107.0
 31
0.0
  0
LINE
  5
9C0
330
1E
100
AcDbEntity
  8
0
100
AcDbLine
 10
174.134
 20
2107.0
 30
0.0
 11
175.8659999999999
 21
2107.0
 31
0.0
  0
LINE
  5
9C1
330
1E
100
AcDbEntity
  8
0
100
AcDbLine
 10
174.134
 20
2107.0
 30
0.0
 11
174.134
 21
2105.0
 31
0.0
  0
LINE
  5
9C2
330
1E
100
AcDbEntity
  8
0
100
AcDbLine
 10
173.134
 20
2107.0
 30
0.0
 11
173.134
 21
2105.0
 31
0.0
  0
LINE
  5
9C3
330
1E
100
AcDbEntity
  8
0
100
AcDbLine
 10
173.134
 20
2107.0
 30
0.0
 11
174.134
 21
2107.0
 31
0.0
  0
LINE
  5
9C4
330
1E
100
AcDbEntity
  8
0
100
AcDbLine
 10
182.5259999999999
 20
2107.0
 30
0.0
 11
183.044
 21
2107.0
 31
0.0
  0
LINE
  5
9C5
330
1E
100
AcDbEntity
  8
0
100
AcDbLine
 10
182.5259999999999
 20
2107.0
 30
0.0
 11
182.5259999999999
 21
2105.0
 31
0.0
  0
LINE
  5
9C6
330
1E
100
AcDbEntity
  8
0
100
AcDbLine
 10
180.5949999999999
 20
2107.0
 30
0.0
 11
180.5949999999999
 21
2105.0
 31
0.0
  0
LINE
  5
9C7
330
1E
100
AcDbEntity
  8
0
100
AcDbLine
 10
180.5949999999999
 20
2107.0
 30
0.0
 11
182.5259999999999
 21
2107.0
 31
0.0
  0
LINE
  5
9C8
330
1E
100
AcDbEntity
  8
0
100
AcDbLine
 10
179.1999999999999
 20
2107.0
 30
0.0
 11
192.3
 21
2107.0
 31
0.0
  0
LINE
  5
9C9
330
1E
100
AcDbEntity
  8
0
100
AcDbLine
 10
179.1999999999999
 20
2107.0
 30
0.0
 11
180.5949999999999
 21
2107.0
 31
0.0
  0
LINE
  5
9CA
330
1E
100
AcDbEntity
  8
0
100
AcDbLine
 10
170.0
 20
2107.0
 30
0.0
 11
170.0
 21
2105.0
 31
0.0
  0
LINE
  5
9CB
330
1E
100
AcDbEntity
  8
0
100
AcDbLine
 10
170.0
 20
2107.0
 30
0.0
 11
173.134
 21
2107.0
 31
0.0
  0
LINE
  5
9CC
330
1E
100
AcDbEntity
  8
0
100
AcDbLine
 10
150.4
 20
2122.0
 30
0.0
 11
155.3
 21
2122.0
 31
0.0
  0
LINE
  5
9CD
330
1E
100
AcDbEntity
  8
0
100
AcDbLine
 10
144.9
 20
2122.0
 30
0.0
 11
150.4
 21
2122.0
 31
0.0
  0
LINE
  5
9CE
330
1E
100
AcDbEntity
  8
0
100
AcDbLine
 10
139.1
 20
2122.0
 30
0.0
 11
144.9
 21
2122.0
 31
0.0
  0
LINE
  5
9CF
330
1E
100
AcDbEntity
  8
0
100
AcDbLine
 10
150.6999999999999
 20
2118.0
 30
0.0
 11
165.5
 21
2118.0
 31
0.0
  0
LINE
  5
9D0
330
1E
100
AcDbEntity
  8
0
100
AcDbLine
 10
151.0
 20
2117.0
 30
0.0
 11
165.8
 21
2117.0
 31
0.0
  0
LINE
  5
9D1
330
1E
100
AcDbEntity
  8
0
100
AcDbLine
 10
179.6999999999999
 20
2108.0
 30
0.0
 11
192.9
 21
2108.0
 31
0.0
  0
LINE
  5
9D2
330
1E
100
AcDbEntity
  8
0
100
AcDbLine
 10
155.3
 20
2122.0
 30
0.0
 11
159.6
 21
2122.0
 31
0.0
  0
LINE
  5
9D3
330
1E
100
AcDbEntity
  8
0
100
AcDbLine
 10
159.6
 20
2122.0
 30
0.0
 11
163.3
 21
2122.0
 31
0.0
  0
LINE
  5
9D4
330
1E
100
AcDbEntity
  8
0
100
AcDbLine
 10
163.3
 20
2122.0
 30
0.0
 11
166.1
 21
2122.0
 31
0.0
  0
LINE
  5
9D5
330
1E
100
AcDbEntity
  8
0
100
AcDbLine
 10
165.5
 20
2118.0
 30
0.0
 11
179.1999999999999
 21
2118.0
 31
0.0
  0
LINE
  5
9D6
330
1E
100
AcDbEntity
  8
0
100
AcDbLine
 10
166.1
 20
2122.0
 30
0.0
 11
168.1999999999999
 21
2122.0
 31
0.0
  0
LINE
  5
9D7
330
1E
100
AcDbEntity
  8
0
100
AcDbLine
 10
168.1999999999999
 20
2122.0
 30
0.0
 11
169.5
 21
2122.0
 31
0.0
  0
LINE
  5
9D8
330
1E
100
AcDbEntity
  8
0
100
AcDbLine
 10
170.0
 20
2122.0
 30
0.0
 11
170.0
 21
2118.0
 31
0.0
  0
LINE
  5
9D9
330
1E
100
AcDbEntity
  8
0
100
AcDbLine
 10
169.5
 20
2122.0
 30
0.0
 11
170.0
 21
2122.0
 31
0.0
  0
LINE
  5
9DA
330
1E
100
AcDbEntity
  8
0
100
AcDbLine
 10
170.0
 20
2118.0
 30
0.0
 11
170.0
 21
2122.0
 31
0.0
  0
LINE
  5
9DB
330
1E
100
AcDbEntity
  8
0
100
AcDbLine
 10
179.1999999999999
 20
2118.0
 30
0.0
 11
192.3
 21
2118.0
 31
0.0
  0
LINE
  5
9DC
330
1E
100
AcDbEntity
  8
0
100
AcDbLine
 10
179.6999999999999
 20
2117.0
 30
0.0
 11
192.9
 21
2117.0
 31
0.0
  0
LINE
  5
9DD
330
1E
100
AcDbEntity
  8
0
100
AcDbLine
 10
165.8
 20
2117.0
 30
0.0
 11
179.6999999999999
 21
2117.0
 31
0.0
  0
LINE
  5
9DE
330
1E
100
AcDbEntity
  8
0
100
AcDbLine
 10
165.8
 20
2108.0
 30
0.0
 11
179.6999999999999
 21
2108.0
 31
0.0
  0
LINE
  5
9DF
330
1E
100
AcDbEntity
  8
0
100
AcDbLine
 10
151.0
 20
2108.0
 30
0.0
 11
165.8
 21
2108.0
 31
0.0
  0
LINE
  5
9E0
330
1E
100
AcDbEntity
  8
0
100
AcDbLine
 10
168.555
 20
2107.0
 30
0.0
 11
170.0
 21
2107.0
 31
0.0
  0
LINE
  5
9E1
330
1E
100
AcDbEntity
  8
0
100
AcDbLine
 10
168.555
 20
2107.0
 30
0.0
 11
168.555
 21
2105.0
 31
0.0
  0
LINE
  5
9E2
330
1E
100
AcDbEntity
  8
0
100
AcDbLine
 10
189.782
 20
2107.0
 30
0.0
 11
189.782
 21
2105.0
 31
0.0
  0
LINE
  5
9E3
330
1E
100
AcDbEntity
  8
0
100
AcDbLine
 10
189.782
 20
2107.0
 30
0.0
 11
192.3
 21
2107.0
 31
0.0
  0
LINE
  5
9E4
330
1E
100
AcDbEntity
  8
0
100
AcDbLine
 10
188.7819999999999
 20
2107.0
 30
0.0
 11
189.782
 21
2107.0
 31
0.0
  0
LINE
  5
9E5
330
1E
100
AcDbEntity
  8
0
100
AcDbLine
 10
188.7819999999999
 20
2107.0
 30
0.0
 11
188.7819999999999
 21
2105.0
 31
0.0
  0
LINE
  5
9E6
330
1E
100
AcDbEntity
  8
0
100
AcDbLine
 10
187.882
 20
2107.0
 30
0.0
 11
187.882
 21
2105.0
 31
0.0
  0
LINE
  5
9E7
330
1E
100
AcDbEntity
  8
0
100
AcDbLine
 10
187.882
 20
2107.0
 30
0.0
 11
188.7819999999999
 21
2107.0
 31
0.0
  0
LINE
  5
9E8
330
1E
100
AcDbEntity
  8
0
100
AcDbLine
 10
186.4679999999999
 20
2107.0
 30
0.0
 11
187.882
 21
2107.0
 31
0.0
  0
LINE
  5
9E9
330
1E
100
AcDbEntity
  8
0
100
AcDbLine
 10
186.4679999999999
 20
2107.0
 30
0.0
 11
186.4679999999999
 21
2105.0
 31
0.0
  0
LINE
  5
9EA
330
1E
100
AcDbEntity
  8
0
100
AcDbLine
 10
185.054
 20
2107.0
 30
0.0
 11
185.054
 21
2105.0
 31
0.0
  0
LINE
  5
9EB
330
1E
100
AcDbEntity
  8
0
100
AcDbLine
 10
185.054
 20
2107.0
 30
0.0
 11
186.4679999999999
 21
2107.0
 31
0.0
  0
LINE
  5
9EC
330
1E
100
AcDbEntity
  8
0
100
AcDbLine
 10
195.66
 20
2107.0
 30
0.0
 11
197.0749999999999
 21
2107.0
 31
0.0
  0
LINE
  5
9ED
330
1E
100
AcDbEntity
  8
0
100
AcDbLine
 10
195.66
 20
2107.0
 30
0.0
 11
195.66
 21
2105.0
 31
0.0
  0
LINE
  5
9EE
330
1E
100
AcDbEntity
  8
0
100
AcDbLine
 10
197.0749999999999
 20
2107.0
 30
0.0
 11
198.489
 21
2107.0
 31
0.0
  0
LINE
  5
9EF
330
1E
100
AcDbEntity
  8
0
100
AcDbLine
 10
197.0749999999999
 20
2107.0
 30
0.0
 11
197.0749999999999
 21
2105.0
 31
0.0
  0
LINE
  5
9F0
330
1E
100
AcDbEntity
  8
0
100
AcDbLine
 10
195.083
 20
2107.0
 30
0.0
 11
195.083
 21
2105.0
 31
0.0
  0
LINE
  5
9F1
330
1E
100
AcDbEntity
  8
0
100
AcDbLine
 10
195.083
 20
2107.0
 30
0.0
 11
195.66
 21
2107.0
 31
0.0
  0
LINE
  5
9F2
330
1E
100
AcDbEntity
  8
0
100
AcDbLine
 10
192.3
 20
2107.0
 30
0.0
 11
204.0
 21
2107.0
 31
0.0
  0
LINE
  5
9F3
330
1E
100
AcDbEntity
  8
0
100
AcDbLine
 10
192.3
 20
2107.0
 30
0.0
 11
195.083
 21
2107.0
 31
0.0
  0
LINE
  5
9F4
330
1E
100
AcDbEntity
  8
0
100
AcDbLine
 10
202.772
 20
2107.0
 30
0.0
 11
202.772
 21
2105.0
 31
0.0
  0
LINE
  5
9F5
330
1E
100
AcDbEntity
  8
0
100
AcDbLine
 10
202.772
 20
2107.0
 30
0.0
 11
204.0
 21
2107.0
 31
0.0
  0
LINE
  5
9F6
330
1E
100
AcDbEntity
  8
0
100
AcDbLine
 10
201.772
 20
2107.0
 30
0.0
 11
202.772
 21
2107.0
 31
0.0
  0
LINE
  5
9F7
330
1E
100
AcDbEntity
  8
0
100
AcDbLine
 10
201.772
 20
2107.0
 30
0.0
 11
201.772
 21
2105.0
 31
0.0
  0
LINE
  5
9F8
330
1E
100
AcDbEntity
  8
0
100
AcDbLine
 10
200.0399999999999
 20
2107.0
 30
0.0
 11
200.0399999999999
 21
2105.0
 31
0.0
  0
LINE
  5
9F9
330
1E
100
AcDbEntity
  8
0
100
AcDbLine
 10
200.0399999999999
 20
2107.0
 30
0.0
 11
201.772
 21
2107.0
 31
0.0
  0
LINE
  5
9FA
330
1E
100
AcDbEntity
  8
0
100
AcDbLine
 10
211.504
 20
2107.0
 30
0.0
 11
212.022
 21
2107.0
 31
0.0
  0
LINE
  5
9FB
330
1E
100
AcDbEntity
  8
0
100
AcDbLine
 10
211.504
 20
2107.0
 30
0.0
 11
211.504
 21
2105.0
 31
0.0
  0
LINE
  5
9FC
330
1E
100
AcDbEntity
  8
0
100
AcDbLine
 10
212.022
 20
2107.0
 30
0.0
 11
212.022
 21
2105.0
 31
0.0
  0
LINE
  5
9FD
330
1E
100
AcDbEntity
  8
0
100
AcDbLine
 10
212.022
 20
2107.0
 30
0.0
 11
213.0
 21
2107.0
 31
0.0
  0
LINE
  5
9FE
330
1E
100
AcDbEntity
  8
0
100
AcDbLine
 10
213.0309999999999
 20
2107.0
 30
0.0
 11
214.7629999999999
 21
2107.0
 31
0.0
  0
LINE
  5
9FF
330
1E
100
AcDbEntity
  8
0
100
AcDbLine
 10
213.0309999999999
 20
2107.0
 30
0.0
 11
213.0309999999999
 21
2105.0
 31
0.0
  0
LINE
  5
A00
330
1E
100
AcDbEntity
  8
0
100
AcDbLine
 10
215.763
 20
2107.0
 30
0.0
 11
215.763
 21
2105.0
 31
0.0
  0
LINE
  5
A01
330
1E
100
AcDbEntity
  8
0
100
AcDbLine
 10
215.763
 20
2107.0
 30
0.0
 11
223.0999999999999
 21
2107.0
 31
0.0
  0
LINE
  5
A02
330
1E
100
AcDbEntity
  8
0
100
AcDbLine
 10
214.7629999999999
 20
2107.0
 30
0.0
 11
215.763
 21
2107.0
 31
0.0
  0
LINE
  5
A03
330
1E
100
AcDbEntity
  8
0
100
AcDbLine
 10
214.7629999999999
 20
2107.0
 30
0.0
 11
214.7629999999999
 21
2105.0
 31
0.0
  0
LINE
  5
A04
330
1E
100
AcDbEntity
  8
0
100
AcDbLine
 10
209.572
 20
2107.0
 30
0.0
 11
209.572
 21
2105.0
 31
0.0
  0
LINE
  5
A05
330
1E
100
AcDbEntity
  8
0
100
AcDbLine
 10
209.572
 20
2107.0
 30
0.0
 11
211.504
 21
2107.0
 31
0.0
  0
LINE
  5
A06
330
1E
100
AcDbEntity
  8
0
100
AcDbLine
 10
204.0
 20
2107.0
 30
0.0
 11
214.1999999999999
 21
2107.0
 31
0.0
  0
LINE
  5
A07
330
1E
100
AcDbEntity
  8
0
100
AcDbLine
 10
204.0
 20
2107.0
 30
0.0
 11
209.572
 21
2107.0
 31
0.0
  0
LINE
  5
A08
330
1E
100
AcDbEntity
  8
0
100
AcDbLine
 10
214.1999999999999
 20
2107.0
 30
0.0
 11
223.0999999999999
 21
2107.0
 31
0.0
  0
LINE
  5
A09
330
1E
100
AcDbEntity
  8
0
100
AcDbLine
 10
225.993
 20
2107.0
 30
0.0
 11
226.5109999999999
 21
2107.0
 31
0.0
  0
LINE
  5
A0A
330
1E
100
AcDbEntity
  8
0
100
AcDbLine
 10
225.993
 20
2107.0
 30
0.0
 11
225.993
 21
2105.0
 31
0.0
  0
LINE
  5
A0B
330
1E
100
AcDbEntity
  8
0
100
AcDbLine
 10
226.5109999999999
 20
2107.0
 30
0.0
 11
226.5109999999999
 21
2105.0
 31
0.0
  0
LINE
  5
A0C
330
1E
100
AcDbEntity
  8
0
100
AcDbLine
 10
226.5109999999999
 20
2107.0
 30
0.0
 11
228.0
 21
2107.0
 31
0.0
  0
LINE
  5
A0D
330
1E
100
AcDbEntity
  8
0
100
AcDbLine
 10
224.0609999999999
 20
2107.0
 30
0.0
 11
224.0609999999999
 21
2105.0
 31
0.0
  0
LINE
  5
A0E
330
1E
100
AcDbEntity
  8
0
100
AcDbLine
 10
224.0609999999999
 20
2107.0
 30
0.0
 11
225.993
 21
2107.0
 31
0.0
  0
LINE
  5
A0F
330
1E
100
AcDbEntity
  8
0
100
AcDbLine
 10
223.0999999999999
 20
2107.0
 30
0.0
 11
229.7
 21
2107.0
 31
0.0
  0
LINE
  5
A10
330
1E
100
AcDbEntity
  8
0
100
AcDbLine
 10
223.0999999999999
 20
2107.0
 30
0.0
 11
224.0609999999999
 21
2107.0
 31
0.0
  0
LINE
  5
A11
330
1E
100
AcDbEntity
  8
0
100
AcDbLine
 10
213.0
 20
2107.0
 30
0.0
 11
213.0
 21
2105.0
 31
0.0
  0
LINE
  5
A12
330
1E
100
AcDbEntity
  8
0
100
AcDbLine
 10
229.7
 20
2107.0
 30
0.0
 11
234.6999999999999
 21
2107.0
 31
0.0
  0
LINE
  5
A13
330
1E
100
AcDbEntity
  8
0
100
AcDbLine
 10
234.6999999999999
 20
2107.0
 30
0.0
 11
237.8
 21
2107.0
 31
0.0
  0
LINE
  5
A14
330
1E
100
AcDbEntity
  8
0
100
AcDbLine
 10
239.0
 20
2107.0
 30
0.0
 11
240.0
 21
2108.0
 31
0.0
  0
LINE
  5
A15
330
1E
100
AcDbEntity
  8
0
100
AcDbLine
 10
237.8
 20
2107.0
 30
0.0
 11
239.0
 21
2107.0
 31
0.0
  0
LINE
  5
A16
330
1E
100
AcDbEntity
  8
0
100
AcDbLine
 10
230.0
 20
2107.0
 30
0.0
 11
230.0
 21
2105.0
 31
0.0
  0
LINE
  5
A17
330
1E
100
AcDbEntity
  8
0
100
AcDbLine
 10
230.0
 20
2107.0
 30
0.0
 11
234.6999999999999
 21
2107.0
 31
0.0
  0
LINE
  5
A18
330
1E
100
AcDbEntity
  8
0
100
AcDbLine
 10
228.0
 20
2107.0
 30
0.0
 11
228.0
 21
2105.0
 31
0.0
  0
LINE
  5
A19
330
1E
100
AcDbEntity
  8
0
100
AcDbLine
 10
228.0
 20
2107.0
 30
0.0
 11
230.0
 21
2107.0
 31
0.0
  0
LINE
  5
A1A
330
1E
100
AcDbEntity
  8
0
100
AcDbLine
 10
200.0
 20
2107.0
 30
0.0
 11
200.0
 21
2105.0
 31
0.0
  0
LINE
  5
A1B
330
1E
100
AcDbEntity
  8
0
100
AcDbLine
 10
198.489
 20
2107.0
 30
0.0
 11
200.0
 21
2107.0
 31
0.0
  0
LINE
  5
A1C
330
1E
100
AcDbEntity
  8
0
100
AcDbLine
 10
198.489
 20
2107.0
 30
0.0
 11
198.489
 21
2105.0
 31
0.0
  0
LINE
  5
A1D
330
1E
100
AcDbEntity
  8
0
100
AcDbLine
 10
192.3
 20
2118.0
 30
0.0
 11
204.0
 21
2118.0
 31
0.0
  0
LINE
  5
A1E
330
1E
100
AcDbEntity
  8
0
100
AcDbLine
 10
192.9
 20
2117.0
 30
0.0
 11
204.6999999999999
 21
2117.0
 31
0.0
  0
LINE
  5
A1F
330
1E
100
AcDbEntity
  8
0
100
AcDbLine
 10
204.6999999999999
 20
2108.0
 30
0.0
 11
215.0
 21
2108.0
 31
0.0
  0
LINE
  5
A20
330
1E
100
AcDbEntity
  8
0
100
AcDbLine
 10
215.0
 20
2108.0
 30
0.0
 11
223.9
 21
2108.0
 31
0.0
  0
LINE
  5
A21
330
1E
100
AcDbEntity
  8
0
100
AcDbLine
 10
223.9
 20
2108.0
 30
0.0
 11
230.6
 21
2108.0
 31
0.0
  0
LINE
  5
A22
330
1E
100
AcDbEntity
  8
0
100
AcDbLine
 10
230.6
 20
2108.0
 30
0.0
 11
235.6999999999999
 21
2108.0
 31
0.0
  0
LINE
  5
A23
330
1E
100
AcDbEntity
  8
0
100
AcDbLine
 10
240.0
 20
2108.0
 30
0.0
 11
240.0
 21
2117.0
 31
0.0
  0
LINE
  5
A24
330
1E
100
AcDbEntity
  8
0
100
AcDbLine
 10
235.6999999999999
 20
2108.0
 30
0.0
 11
238.8
 21
2108.0
 31
0.0
  0
LINE
  5
A25
330
1E
100
AcDbEntity
  8
0
100
AcDbLine
 10
204.6999999999999
 20
2117.0
 30
0.0
 11
215.0
 21
2117.0
 31
0.0
  0
LINE
  5
A26
330
1E
100
AcDbEntity
  8
0
100
AcDbLine
 10
215.0
 20
2117.0
 30
0.0
 11
223.9
 21
2117.0
 31
0.0
  0
LINE
  5
A27
330
1E
100
AcDbEntity
  8
0
100
AcDbLine
 10
223.9
 20
2117.0
 30
0.0
 11
230.6
 21
2117.0
 31
0.0
  0
LINE
  5
A28
330
1E
100
AcDbEntity
  8
0
100
AcDbLine
 10
230.6
 20
2117.0
 30
0.0
 11
235.6999999999999
 21
2117.0
 31
0.0
  0
LINE
  5
A29
330
1E
100
AcDbEntity
  8
0
100
AcDbLine
 10
204.0
 20
2118.0
 30
0.0
 11
214.1999999999999
 21
2118.0
 31
0.0
  0
LINE
  5
A2A
330
1E
100
AcDbEntity
  8
0
100
AcDbLine
 10
214.1999999999999
 20
2118.0
 30
0.0
 11
223.0999999999999
 21
2118.0
 31
0.0
  0
LINE
  5
A2B
330
1E
100
AcDbEntity
  8
0
100
AcDbLine
 10
223.0999999999999
 20
2118.0
 30
0.0
 11
229.7
 21
2118.0
 31
0.0
  0
LINE
  5
A2C
330
1E
100
AcDbEntity
  8
0
100
AcDbLine
 10
229.7
 20
2118.0
 30
0.0
 11
234.6999999999999
 21
2118.0
 31
0.0
  0
LINE
  5
A2D
330
1E
100
AcDbEntity
  8
0
100
AcDbLine
 10
234.6999999999999
 20
2118.0
 30
0.0
 11
237.8
 21
2118.0
 31
0.0
  0
LINE
  5
A2E
330
1E
100
AcDbEntity
  8
0
100
AcDbLine
 10
237.8
 20
2118.0
 30
0.0
 11
239.0
 21
2118.0
 31
0.0
  0
LINE
  5
A2F
330
1E
100
AcDbEntity
  8
0
100
AcDbLine
 10
235.6999999999999
 20
2117.0
 30
0.0
 11
238.8
 21
2117.0
 31
0.0
  0
LINE
  5
A30
330
1E
100
AcDbEntity
  8
0
100
AcDbLine
 10
240.0
 20
2117.0
 30
0.0
 11
240.0
 21
2108.0
 31
0.0
  0
LINE
  5
A31
330
1E
100
AcDbEntity
  8
0
100
AcDbLine
 10
239.0
 20
2118.0
 30
0.0
 11
240.0
 21
2117.0
 31
0.0
  0
LINE
  5
A32
330
1E
100
AcDbEntity
  8
0
100
AcDbLine
 10
238.8
 20
2117.0
 30
0.0
 11
240.0
 21
2117.0
 31
0.0
  0
LINE
  5
A33
330
1E
100
AcDbEntity
  8
0
100
AcDbLine
 10
238.8
 20
2108.0
 30
0.0
 11
240.0
 21
2108.0
 31
0.0
  0
LINE
  5
A34
330
1E
100
AcDbEntity
  8
0
100
AcDbLine
 10
192.9
 20
2108.0
 30
0.0
 11
204.6999999999999
 21
2108.0
 31
0.0
  0
LINE
  5
A35
330
1E
100
AcDbEntity
  8
0
100
AcDbLine
 10
185.0
 20
2107.0
 30
0.0
 11
185.0
 21
2105.0
 31
0.0
  0
LINE
  5
A36
330
1E
100
AcDbEntity
  8
0
100
AcDbLine
 10
185.0
 20
2107.0
 30
0.0
 11
185.054
 21
2107.0
 31
0.0
  0
LINE
  5
A37
330
1E
100
AcDbEntity
  8
0
100
AcDbLine
 10
183.044
 20
2107.0
 30
0.0
 11
185.0
 21
2107.0
 31
0.0
  0
LINE
  5
A38
330
1E
100
AcDbEntity
  8
0
100
AcDbLine
 10
183.044
 20
2107.0
 30
0.0
 11
183.044
 21
2105.0
 31
0.0
  0
LINE
  5
A39
330
1E
100
AcDbEntity
  8
0
100
AcDbLine
 10
183.0
 20
2105.0
 30
0.0
 11
185.0
 21
2105.0
 31
0.0
  0
LINE
  5
A3A
330
1E
100
AcDbEntity
  8
0
100
AcDbLine
 10
139.0
 20
2173.09
 30
0.0
 11
139.0
 21
2122.0
 31
0.0
  0
LINE
  5
A3B
330
1E
100
AcDbEntity
  8
0
100
AcDbLine
 10
138.24
 20
2175.0
 30
0.0
 11
139.0
 21
2173.09
 31
0.0
  0
LINE
  5
A3C
330
1E
100
AcDbEntity
  8
0
100
AcDbLine
 10
137.556
 20
2175.0
 30
0.0
 11
138.24
 21
2175.0
 31
0.0
  0
LINE
  5
A3D
330
1E
100
AcDbEntity
  8
0
100
AcDbLine
 10
125.7
 20
945.0
 30
0.0
 11
128.0999999999999
 21
945.0
 31
0.0
  0
LINE
  5
A3E
330
1E
100
AcDbEntity
  8
0
100
AcDbLine
 10
123.0
 20
945.0
 30
0.0
 11
125.7
 21
945.0
 31
0.0
  0
LINE
  5
A3F
330
1E
100
AcDbEntity
  8
0
100
AcDbLine
 10
123.0999999999999
 20
944.5
 30
0.0
 11
126.0
 21
944.5
 31
0.0
  0
LINE
  5
A40
330
1E
100
AcDbEntity
  8
0
100
AcDbLine
 10
120.0
 20
944.5
 30
0.0
 11
123.0999999999999
 21
944.5
 31
0.0
  0
LINE
  5
A41
330
1E
100
AcDbEntity
  8
0
100
AcDbLine
 10
120.0
 20
925.5
 30
0.0
 11
123.0999999999999
 21
925.5
 31
0.0
  0
LINE
  5
A42
330
1E
100
AcDbEntity
  8
0
100
AcDbLine
 10
117.0
 20
945.0
 30
0.0
 11
120.0
 21
945.0
 31
0.0
  0
LINE
  5
A43
330
1E
100
AcDbEntity
  8
0
100
AcDbLine
 10
117.2
 20
925.0
 30
0.0
 11
120.0
 21
925.0
 31
0.0
  0
LINE
  5
A44
330
1E
100
AcDbEntity
  8
0
100
AcDbLine
 10
116.9
 20
924.5
 30
0.0
 11
120.0
 21
924.5
 31
0.0
  0
LINE
  5
A45
330
1E
100
AcDbEntity
  8
0
100
AcDbLine
 10
116.9
 20
771.0
 30
0.0
 11
120.0
 21
771.0
 31
0.0
  0
LINE
  5
A46
330
1E
100
AcDbEntity
  8
0
100
AcDbLine
 10
110.4999999999999
 20
925.0
 30
0.0
 11
112.2
 21
925.0
 31
0.0
  0
LINE
  5
A47
330
1E
100
AcDbEntity
  8
0
100
AcDbLine
 10
111.2999999999999
 20
770.0
 30
0.0
 11
112.9
 21
770.0
 31
0.0
  0
LINE
  5
A48
330
1E
100
AcDbEntity
  8
0
100
AcDbLine
 10
110.4
 20
770.0
 30
0.0
 11
111.2999999999999
 21
770.0
 31
0.0
  0
LINE
  5
A49
330
1E
100
AcDbEntity
  8
0
100
AcDbLine
 10
111.8999999999999
 20
768.998
 30
0.0
 11
114.3
 21
768.998
 31
0.0
  0
LINE
  5
A4A
330
1E
100
AcDbEntity
  8
0
100
AcDbLine
 10
110.0
 20
768.998
 30
0.0
 11
111.8999999999999
 21
768.998
 31
0.0
  0
LINE
  5
A4B
330
1E
100
AcDbEntity
  8
0
100
AcDbLine
 10
110.0
 20
768.998
 30
0.0
 11
110.0
 21
770.0
 31
0.0
  0
LINE
  5
A4C
330
1E
100
AcDbEntity
  8
0
100
AcDbLine
 10
109.8999999999999
 20
738.998
 30
0.0
 11
110.8999999999999
 21
738.998
 31
0.0
  0
LINE
  5
A4D
330
1E
100
AcDbEntity
  8
0
100
AcDbLine
 10
109.4999999999999
 20
738.998
 30
0.0
 11
109.8999999999999
 21
738.998
 31
0.0
  0
ENDSEC
  0
SECTION
  2
OBJECTS
  0
DICTIONARY
  5
C
330
0
100
AcDbDictionary
281
     1
  3
ACAD_GROUP
350
D
  3
ACAD_LAYOUT
350
19
  3
ACAD_MLINESTYLE
350
16
  3
ACAD_PLOTSETTINGS
350
18
  3
ACAD_PLOTSTYLENAME
350
E
  3
AcDbVariableDictionary
350
A52
  0
DICTIONARY
  5
D
102
{ACAD_REACTORS
330
C
102
}
330
C
100
AcDbDictionary
281
     1
  0
DICTIONARY
  5
19
102
{ACAD_REACTORS
330
C
102
}
330
C
100
AcDbDictionary
281
     1
  3
Layout1
350
1D
  3
Model
350
21
  0
DICTIONARY
  5
16
102
{ACAD_REACTORS
330
C
102
}
330
C
100
AcDbDictionary
281
     1
  3
Standard
350
17
  0
DICTIONARY
  5
18
102
{ACAD_REACTORS
330
C
102
}
330
C
100
AcDbDictionary
281
     1
  0
ACDBDICTIONARYWDFLT
  5
E
102
{ACAD_REACTORS
330
C
102
}
330
C
100
AcDbDictionary
281
     1
  3
Normal
350
F
100
AcDbDictionaryWithDefault
340
F
  0
DICTIONARY
  5
A52
102
{ACAD_REACTORS
330
C
102
}
330
C
100
AcDbDictionary
281
     1
  3
DIMASSOC
350
A53
  0
LAYOUT
  5
1D
102
{ACAD_REACTORS
330
19
102
}
330
19
100
AcDbPlotSettings
  1

  2
hp deskjet 980c series
  4

  6

 40
0.0
 41
0.0
 42
0.0
 43
0.0
 44
0.0
 45
0.0
 46
0.0
 47
0.0
 48
0.0
 49
0.0
140
0.0
141
0.0
142
1.0
143
1.0
 70
   688
 72
     0
 73
     0
 74
     5
  7

 75
    16
147
1.0
148
0.0
149
0.0
100
AcDbLayout
  1
Layout1
 70
     1
 71
     1
 10
0.0
 20
0.0
 11
12.0
 21
9.0
 12
0.0
 22
0.0
 32
0.0
 14
1.000000000000000E+20
 24
1.000000000000000E+20
 34
1.000000000000000E+20
 15
-1.000000000000000E+20
 25
-1.000000000000000E+20
 35
-1.000000000000000E+20
146
0.0
 13
0.0
 23
0.0
 33
0.0
 16
1.0
 26
0.0
 36
0.0
 17
0.0
 27
1.0
 37
0.0
 76
     0
330
1A
  0
LAYOUT
  5
21
102
{ACAD_REACTORS
330
19
102
}
330
19
100
AcDbPlotSettings
  1

  2
hp deskjet 980c series
  4

  6

 40
0.0
 41
0.0
 42
0.0
 43
0.0
 44
0.0
 45
0.0
 46
0.0
 47
0.0
 48
0.0
 49
0.0
140
0.0
141
0.0
142
1.0
143
1.0
 70
  1712
 72
     0
 73
     0
 74
     0
  7

 75
     0
147
1.0
148
0.0
149
0.0
100
AcDbLayout
  1
Model
 70
     1
 71
     0
 10
0.0
 20
0.0
 11
12.0
 21
9.0
 12
0.0
 22
0.0
 32
0.0
 14
0.0
 24
0.0
 34
0.0
 15
0.0
 25
0.0
 35
0.0
146
0.0
 13
0.0
 23
0.0
 33
0.0
 16
1.0
 26
0.0
 36
0.0
 17
0.0
 27
1.0
 37
0.0
 76
     0
330
1E
  0
MLINESTYLE
  5
17
102
{ACAD_REACTORS
330
16
102
}
330
16
100
AcDbMlineStyle
  2
STANDARD
 70
     0
  3

 62
   256
 51
90.0
 52
90.0
 71
     2
 49
0.5
 62
   256
  6
BYLAYER
 49
-0.5
 62
   256
  6
BYLAYER
  0
ACDBPLACEHOLDER
  5
F
102
{ACAD_REACTORS
330
E
102
}
330
E
  0
DICTIONARYVAR
  5
A53
102
{ACAD_REACTORS
330
A52
102
}
330
A52
100
DictionaryVariables
280
     0
  1
1
  0
ENDSEC
  0
EOF
